  0
SECTION
  2
HEADER
  9
$ACADVER
  1
AC1014
  9
$ACADMAINTVER
 70
     9
  9
$DWGCODEPAGE
  3
ANSI_1252
  9
$INSBASE
 10
57.76110687771236
 20
-23.08973841696527
 30
0.0
  9
$EXTMIN
 10
41.75701897931133
 20
-27.06746452936774
 30
-0.0000000000112498
  9
$EXTMAX
 10
71.76349180826946
 20
-0.9622677732223792
 30
0.0000000000002956
  9
$LIMMIN
 10
0.0
 20
0.0
  9
$LIMMAX
 10
17.0
 20
11.0
  9
$ORTHOMODE
 70
     1
  9
$REGENMODE
 70
     1
  9
$FILLMODE
 70
     1
  9
$QTEXTMODE
 70
     0
  9
$MIRRTEXT
 70
     1
  9
$DRAGMODE
 70
     2
  9
$LTSCALE
 40
8.0
  9
$OSMODE
 70
    55
  9
$ATTMODE
 70
     1
  9
$TEXTSIZE
 40
0.2
  9
$TRACEWID
 40
0.05
  9
$TEXTSTYLE
  7
STANDARD
  9
$CLAYER
  8
0
  9
$CELTYPE
  6
BYLAYER
  9
$CECOLOR
 62
   256
  9
$CELTSCALE
 40
1.0
  9
$DELOBJ
 70
     1
  9
$DISPSILH
 70
     0
  9
$DIMSCALE
 40
12.0
  9
$DIMASZ
 40
0.1875
  9
$DIMEXO
 40
0.10625
  9
$DIMDLI
 40
0.6459999999999999
  9
$DIMRND
 40
0.0
  9
$DIMDLE
 40
0.0
  9
$DIMEXE
 40
0.306
  9
$DIMTP
 40
0.0
  9
$DIMTM
 40
0.0
  9
$DIMTXT
 40
0.125
  9
$DIMCEN
 40
0.153
  9
$DIMTSZ
 40
0.0
  9
$DIMTOL
 70
     0
  9
$DIMLIM
 70
     0
  9
$DIMTIH
 70
     1
  9
$DIMTOH
 70
     1
  9
$DIMSE1
 70
     0
  9
$DIMSE2
 70
     0
  9
$DIMTAD
 70
     0
  9
$DIMZIN
 70
     0
  9
$DIMBLK
  1
_FILLED
  9
$DIMASO
 70
     1
  9
$DIMSHO
 70
     1
  9
$DIMPOST
  1

  9
$DIMAPOST
  1

  9
$DIMALT
 70
     0
  9
$DIMALTD
 70
     2
  9
$DIMALTF
 40
25.4
  9
$DIMLFAC
 40
1.0
  9
$DIMTOFL
 70
     0
  9
$DIMTVP
 40
0.0
  9
$DIMTIX
 70
     0
  9
$DIMSOXD
 70
     0
  9
$DIMSAH
 70
     0
  9
$DIMBLK1
  1

  9
$DIMBLK2
  1

  9
$DIMSTYLE
  2
STANDARD
  9
$DIMCLRD
 70
     0
  9
$DIMCLRE
 70
     0
  9
$DIMCLRT
 70
     0
  9
$DIMTFAC
 40
1.0
  9
$DIMGAP
 40
0.09
  9
$DIMJUST
 70
     0
  9
$DIMSD1
 70
     0
  9
$DIMSD2
 70
     0
  9
$DIMTOLJ
 70
     1
  9
$DIMTZIN
 70
     0
  9
$DIMALTZ
 70
     0
  9
$DIMALTTZ
 70
     0
  9
$DIMFIT
 70
     3
  9
$DIMUPT
 70
     0
  9
$DIMUNIT
 70
     2
  9
$DIMDEC
 70
     4
  9
$DIMTDEC
 70
     4
  9
$DIMALTU
 70
     2
  9
$DIMALTTD
 70
     2
  9
$DIMTXSTY
  7
STANDARD
  9
$DIMAUNIT
 70
     0
  9
$LUNITS
 70
     2
  9
$LUPREC
 70
     4
  9
$SKETCHINC
 40
0.1
  9
$FILLETRAD
 40
0.0
  9
$AUNITS
 70
     0
  9
$AUPREC
 70
     0
  9
$MENU
  1
acad
  9
$ELEVATION
 40
0.0
  9
$PELEVATION
 40
0.0
  9
$THICKNESS
 40
0.0
  9
$LIMCHECK
 70
     0
  9
$BLIPMODE
 70
     0
  9
$CHAMFERA
 40
0.0
  9
$CHAMFERB
 40
0.0
  9
$CHAMFERC
 40
0.0
  9
$CHAMFERD
 40
0.0
  9
$SKPOLY
 70
     0
  9
$TDCREATE
 40
2453679.188597361
  9
$TDUPDATE
 40
2453685.625859120
  9
$TDINDWG
 40
0.0400360532
  9
$TDUSRTIMER
 40
0.0400360532
  9
$USRTIMER
 70
     1
  9
$ANGBASE
 50
0.0
  9
$ANGDIR
 70
     0
  9
$PDMODE
 70
     3
  9
$PDSIZE
 40
0.3125
  9
$PLINEWID
 40
0.0
  9
$COORDS
 70
     1
  9
$SPLFRAME
 70
     0
  9
$SPLINETYPE
 70
     6
  9
$SPLINESEGS
 70
     8
  9
$ATTDIA
 70
     0
  9
$ATTREQ
 70
     1
  9
$HANDLING
 70
 22529
  9
$HANDSEED
  5
7CE
  9
$SURFTAB1
 70
     6
  9
$SURFTAB2
 70
     6
  9
$SURFTYPE
 70
     6
  9
$SURFU
 70
     6
  9
$SURFV
 70
     6
  9
$UCSNAME
  2

  9
$UCSORG
 10
0.0
 20
0.0
 30
0.0
  9
$UCSXDIR
 10
1.0
 20
0.0
 30
0.0
  9
$UCSYDIR
 10
0.0
 20
1.0
 30
0.0
  9
$PUCSNAME
  2

  9
$PUCSORG
 10
0.0
 20
0.0
 30
0.0
  9
$PUCSXDIR
 10
1.0
 20
0.0
 30
0.0
  9
$PUCSYDIR
 10
0.0
 20
1.0
 30
0.0
  9
$USERI1
 70
     0
  9
$USERI2
 70
     0
  9
$USERI3
 70
     0
  9
$USERI4
 70
     0
  9
$USERI5
 70
     0
  9
$USERR1
 40
0.0
  9
$USERR2
 40
0.0
  9
$USERR3
 40
0.0
  9
$USERR4
 40
0.0
  9
$USERR5
 40
0.0
  9
$WORLDVIEW
 70
     1
  9
$SHADEDGE
 70
     3
  9
$SHADEDIF
 70
    70
  9
$TILEMODE
 70
     1
  9
$MAXACTVP
 70
    16
  9
$PINSBASE
 10
0.0
 20
0.0
 30
0.0
  9
$PLIMCHECK
 70
     0
  9
$PEXTMIN
 10
1.000000000000000E+20
 20
1.000000000000000E+20
 30
1.000000000000000E+20
  9
$PEXTMAX
 10
-1.000000000000000E+20
 20
-1.000000000000000E+20
 30
-1.000000000000000E+20
  9
$PLIMMIN
 10
0.0
 20
0.0
  9
$PLIMMAX
 10
12.0
 20
9.0
  9
$UNITMODE
 70
     0
  9
$VISRETAIN
 70
     0
  9
$PLINEGEN
 70
     1
  9
$PSLTSCALE
 70
     0
  9
$TREEDEPTH
 70
  3020
  9
$PICKSTYLE
 70
     1
  9
$CMLSTYLE
  2
STANDARD
  9
$CMLJUST
 70
     0
  9
$CMLSCALE
 40
1.0
  9
$PROXYGRAPHICS
 70
     1
  9
$MEASUREMENT
 70
     0
  0
ENDSEC
  0
SECTION
  2
CLASSES
  0
CLASS
  1
HATCH
  2
AcDbHatch
  3
AutoCAD 2000
 90
        0
280
     0
281
     1
  0
CLASS
  1
LWPOLYLINE
  2
AcDbPolyline
  3
AutoCAD 2000
 90
        0
280
     0
281
     1
  0
CLASS
  1
ACDBDICTIONARYWDFLT
  2
AcDbDictionaryWithDefault
  3
AutoCAD 2000
 90
        0
280
     0
281
     0
  0
CLASS
  1
ACDBPLACEHOLDER
  2
AcDbPlaceHolder
  3
AutoCAD 2000
 90
        0
280
     0
281
     0
  0
CLASS
  1
LAYOUT
  2
AcDbLayout
  3
AutoCAD 2000
 90
        0
280
     0
281
     0
  0
CLASS
  1
LONG_TRANSACTION
  2
AcDbLongTransaction
  3
AutoCAD 2000
 90
        0
280
     0
281
     0
  0
CLASS
  1
LWPOLYLINE
  2
AcDbPolyline
  3
AutoCAD 2000
 90
        0
280
     0
281
     1
  0
CLASS
  1
HATCH
  2
AcDbHatch
  3
AutoCAD 2000
 90
        0
280
     0
281
     1
  0
CLASS
  1
XRECORD
  2
AcDbXrecord
  3
AutoCAD 2000
 90
        0
280
     0
281
     0
  0
CLASS
  1
DICTIONARYVAR
  2
AcDbDictionaryVar
  3
AutoCAD 2000
 90
        0
280
     0
281
     0
  0
CLASS
  1
LONG_TRANSACTION
  2
AcDbLongTransaction
  3
AutoCAD 2000
 90
        0
280
     0
281
     0
  0
CLASS
  1
LWPOLYLINE
  2
AcDbPolyline
  3
AutoCAD 2000
 90
        0
280
     0
281
     1
  0
CLASS
  1
HATCH
  2
AcDbHatch
  3
AutoCAD 2000
 90
        0
280
     0
281
     1
  0
CLASS
  1
XRECORD
  2
AcDbXrecord
  3
AutoCAD 2000
 90
        0
280
     0
281
     0
  0
CLASS
  1
LONG_TRANSACTION
  2
AcDbLongTransaction
  3
AutoCAD 2000
 90
        0
280
     0
281
     0
  0
CLASS
  1
LWPOLYLINE
  2
AcDbPolyline
  3
AutoCAD 2000
 90
        0
280
     0
281
     1
  0
CLASS
  1
HATCH
  2
AcDbHatch
  3
AutoCAD 2000
 90
        0
280
     0
281
     1
  0
CLASS
  1
XRECORD
  2
AcDbXrecord
  3
AutoCAD 2000
 90
        0
280
     0
281
     0
  0
ENDSEC
  0
SECTION
  2
TABLES
  0
TABLE
  2
VPORT
  5
12
330
0
100
AcDbSymbolTable
 70
     3
  0
VPORT
  5
7AA
330
12
100
AcDbSymbolTableRecord
100
AcDbViewportTableRecord
  2
*ACTIVE
 70
     0
 10
0.0
 20
0.0
 11
1.0
 21
1.0
 12
56.7602553168903
 22
-14.01486612445594
 13
0.0
 23
0.0
 14
1.0
 24
1.0
 15
0.0
 25
0.0
 16
0.0
 26
0.0
 36
1.0
 17
0.0
 27
0.0
 37
0.0
 40
31.68020491710898
 41
1.786792452830188
 42
50.0
 43
0.0
 44
0.0
 50
0.0
 51
0.0
 71
     0
 72
   100
 73
     1
 74
     1
 75
     0
 76
     0
 77
     0
 78
     0
  0
ENDTAB
  0
TABLE
  2
LTYPE
  5
D
330
0
100
AcDbSymbolTable
 70
     3
  0
LTYPE
  5
E
330
D
100
AcDbSymbolTableRecord
100
AcDbLinetypeTableRecord
  2
BYBLOCK
 70
     0
  3

 72
    65
 73
     0
 40
0.0
  0
LTYPE
  5
F
330
D
100
AcDbSymbolTableRecord
100
AcDbLinetypeTableRecord
  2
BYLAYER
 70
     0
  3

 72
    65
 73
     0
 40
0.0
  0
LTYPE
  5
5
330
D
100
AcDbSymbolTableRecord
100
AcDbLinetypeTableRecord
  2
CONTINUOUS
 70
     0
  3
Solid line
 72
    65
 73
     0
 40
0.0
  0
LTYPE
  5
4B1
330
D
100
AcDbSymbolTableRecord
100
AcDbLinetypeTableRecord
  2
CENTER
 70
     0
  3
____ _ ____ _ ____ _ ____ _ ____ _ ____ _ ____
 72
    65
 73
     4
 40
0.6
 49
0.375
 74
     0
 49
-0.075
 74
     0
 49
0.075
 74
     0
 49
-0.075
 74
     0
  0
LTYPE
  5
22
330
D
100
AcDbSymbolTableRecord
100
AcDbLinetypeTableRecord
  2
HIDDEN
 70
     0
  3
- - - - - - - - - - - - - - - - - - - -
 72
    65
 73
     2
 40
0.2
 49
0.1
 74
     0
 49
-0.1
 74
     0
  0
ENDTAB
  0
TABLE
  2
LAYER
  5
A
330
0
100
AcDbSymbolTable
 70
     2
  0
LAYER
  5
4
330
A
100
AcDbSymbolTableRecord
100
AcDbLayerTableRecord
  2
0
 70
     0
 62
     7
  6
CONTINUOUS
  0
LAYER
  5
733
330
A
100
AcDbSymbolTableRecord
100
AcDbLayerTableRecord
  2
DEFPOINTS
 70
     0
 62
     7
  6
CONTINUOUS
  0
ENDTAB
  0
TABLE
  2
STYLE
  5
B
330
0
100
AcDbSymbolTable
 70
     1
  0
STYLE
  5
C
330
B
100
AcDbSymbolTableRecord
100
AcDbTextStyleTableRecord
  2
STANDARD
 70
     0
 40
0.0
 41
0.8
 50
0.0
 71
     0
 42
0.2
  3
txt
  4

  0
ENDTAB
  0
TABLE
  2
VIEW
  5
10
330
0
100
AcDbSymbolTable
 70
     0
  0
ENDTAB
  0
TABLE
  2
UCS
  5
11
330
0
100
AcDbSymbolTable
 70
     0
  0
ENDTAB
  0
TABLE
  2
APPID
  5
14
330
0
100
AcDbSymbolTable
 70
     1
  0
APPID
  5
15
330
14
100
AcDbSymbolTableRecord
100
AcDbRegAppTableRecord
  2
ACAD
 70
     0
  0
ENDTAB
  0
TABLE
  2
DIMSTYLE
  5
16
330
0
100
AcDbSymbolTable
 70
     1
  0
DIMSTYLE
105
1C
330
16
100
AcDbSymbolTableRecord
100
AcDbDimStyleTableRecord
  2
STANDARD
 70
     0
  3

  4

  5
_FILLED
  6
_FILLED
  7
_FILLED
 40
1.0
 41
0.1875
 42
0.0625
 43
0.38
 44
0.18
 45
0.0
 46
0.0
 47
0.00001
 48
0.00001
140
0.125
141
0.09
142
0.0
143
25.4
144
1.0
145
0.0
146
1.0
147
0.09
 71
     0
 72
     0
 73
     1
 74
     1
 75
     0
 76
     0
 77
     0
 78
     4
170
     0
171
     2
172
     0
173
     0
174
     0
175
     0
176
     0
177
     0
178
     0
270
     2
271
     4
272
     4
273
     2
274
     2
340
C
275
     0
280
     0
281
     0
282
     0
283
     1
284
     0
285
     0
286
     0
287
     3
288
     0
  0
ENDTAB
  0
TABLE
  2
BLOCK_RECORD
  5
1
330
0
100
AcDbSymbolTable
 70
     1
  0
BLOCK_RECORD
  5
2
102
{ACAD_XDICTIONARY
360
71F
102
}
330
1
100
AcDbSymbolTableRecord
100
AcDbBlockTableRecord
  2
*MODEL_SPACE
  0
BLOCK_RECORD
  5
7
102
{ACAD_XDICTIONARY
360
721
102
}
330
1
100
AcDbSymbolTableRecord
100
AcDbBlockTableRecord
  2
*PAPER_SPACE
  0
BLOCK_RECORD
  5
1D
330
1
100
AcDbSymbolTableRecord
100
AcDbBlockTableRecord
  2
_FILLED
  0
ENDTAB
  0
ENDSEC
  0
SECTION
  2
BLOCKS
  0
BLOCK
  5
3
330
2
100
AcDbEntity
  8
0
100
AcDbBlockBegin
  2
*MODEL_SPACE
 70
     0
 10
0.0
 20
0.0
 30
0.0
  3
*MODEL_SPACE
  1

  0
ENDBLK
  5
6
330
2
100
AcDbEntity
  8
0
100
AcDbBlockEnd
  0
BLOCK
  5
8
330
7
100
AcDbEntity
 67
     1
  8
0
100
AcDbBlockBegin
  2
*PAPER_SPACE
 70
     0
 10
0.0
 20
0.0
 30
0.0
  3
*PAPER_SPACE
  1

  0
ENDBLK
  5
9
330
7
100
AcDbEntity
 67
     1
  8
0
100
AcDbBlockEnd
  0
BLOCK
  5
1F
330
1D
100
AcDbEntity
  8
0
100
AcDbBlockBegin
  2
_FILLED
 70
     0
 10
0.0
 20
0.0
 30
0.0
  3
_FILLED
  1

  0
SOLID
  5
1E
330
1D
100
AcDbEntity
  8
0
  6
BYBLOCK
 62
     0
100
AcDbTrace
 10
0.0
 20
0.0
 30
0.0
 11
-1.0
 21
0.1666666667
 31
0.0
 12
-1.0
 22
-0.1666666667
 32
0.0
 13
-1.0
 23
-0.1666666667
 33
0.0
  0
ENDBLK
  5
20
330
1D
100
AcDbEntity
  8
0
  6
BYBLOCK
 62
     0
100
AcDbBlockEnd
  0
ENDSEC
  0
SECTION
  2
ENTITIES
  0
LINE
  5
21
330
2
100
AcDbEntity
  8
0
  6
HIDDEN
 62
     8
100
AcDbLine
 10
41.89233987302332
 20
-2.094019381765277
 30
0.0
 11
71.76110687771236
 21
-2.094019381765278
 31
0.0
  0
LINE
  5
23
330
2
100
AcDbEntity
  8
0
100
AcDbLine
 10
43.12043647178823
 20
-0.9647384169652678
 30
0.0
 11
71.76110687771238
 21
-0.9647384169652681
 31
0.0
  0
LINE
  5
25
330
2
100
AcDbEntity
  8
0
100
AcDbLine
 10
41.76110687771236
 20
-3.589738416965268
 30
0.0
 11
71.76110687771236
 21
-3.589738416965268
 31
0.0
  0
LWPOLYLINE
  5
26
330
2
100
AcDbEntity
  8
0
  6
CONTINUOUS
 62
     7
100
AcDbPolyline
 90
       28
 70
     0
 43
0.0
 10
48.80316586011236
 20
-20.49412982816524
 10
48.80624389531234
 20
-20.52583192096526
 10
48.81192617691235
 20
-20.57324453536524
 10
48.82171629531234
 20
-20.63721912096525
 10
48.83762132731238
 20
-20.71776682016526
 10
48.86192399291235
 20
-20.81354452256526
 10
48.89691557531236
 20
-20.92210109376524
 10
48.94485862171234
 20
-21.04074058976525
 10
49.00805186491237
 20
-21.16687172736527
 10
49.08822600731236
 20
-21.29696046496526
 10
49.18476029531234
 20
-21.42504566656526
 10
49.29582613051235
 20
-21.54605855776524
 10
49.41571050811237
 20
-21.65370439136526
 10
49.53999333851235
 20
-21.74595594016526
 10
49.66725725211237
 20
-21.82395978176526
 10
49.79641456891235
 20
-21.88883837856526
 10
49.92111516411236
 20
-21.93970001216527
 10
50.04183071611234
 20
-21.97926147616525
 10
50.15604224891237
 20
-22.00893212576525
 10
50.26439061691235
 20
-22.03098906816526
 10
50.36832207131235
 20
-22.04742261536524
 10
50.47164279451235
 20
-22.06008454336525
 10
50.57923349851236
 20
-22.07035915296526
 10
50.69616026651235
 20
-22.07916972096526
 10
50.82583030011235
 20
-22.08704981216527
 10
50.96885869051234
 20
-22.09429447136526
 10
51.12249491771234
 20
-22.10101083776526
 10
51.27625475131236
 20
-22.10701264256526
  0
LWPOLYLINE
  5
44
330
2
100
AcDbEntity
  8
0
  6
CONTINUOUS
 62
     7
100
AcDbPolyline
 90
       28
 70
     0
 43
0.0
 10
64.24595901051235
 20
-22.10701264256526
 10
64.39970841211236
 20
-22.10101126496525
 10
64.55331861531239
 20
-22.09429617696525
 10
64.69631868571237
 20
-22.08705338496526
 10
64.82596538171238
 20
-22.07917565376527
 10
64.94287555451238
 20
-22.07036800416526
 10
65.05045437691238
 20
-22.06009711296526
 10
65.15376713051235
 20
-22.04743989856525
 10
65.25769572891237
 20
-22.03101186176525
 10
65.36604504891236
 20
-22.00896115456524
 10
65.4802548537124
 20
-21.97929882336524
 10
65.60096531451238
 20
-21.93974872256525
 10
65.72564489691238
 20
-21.88890812416527
 10
65.85477111931236
 20
-21.82406267296526
 10
65.98200356891236
 20
-21.74610211776526
 10
66.10626714651236
 20
-21.65389686176526
 10
66.22616036571234
 20
-21.54628306336526
 10
66.33725061371238
 20
-21.42528956256526
 10
66.43380792411237
 20
-21.29722439936525
 10
66.51400314651237
 20
-21.16715770496524
 10
66.57722233691238
 20
-21.04103607296524
 10
66.62519443931235
 20
-20.92238893216524
 10
66.66021471771237
 20
-20.81380754816525
 10
66.68454165211234
 20
-20.71799466976526
 10
66.70046514971237
 20
-20.63740640576527
 10
66.71026809051234
 20
-20.57339012576524
 10
66.71595874491238
 20
-20.52593668896526
 10
66.71904226331237
 20
-20.49419357376526
  0
ARC
  5
62
330
2
100
AcDbEntity
  8
0
100
AcDbCircle
 10
57.76110688091223
 20
96.35791842028766
 30
0.0
 40
118.6422909373772
100
AcDbArc
 50
266.8667166412223
 51
273.520515260537
  0
LINE
  5
63
330
2
100
AcDbEntity
  8
0
  6
CONTINUOUS
 62
     7
100
AcDbLine
 10
52.39056155131234
 20
-23.08973841696527
 30
0.0
 11
63.13165220251237
 21
-23.08973841696527
 31
0.0
  0
ARC
  5
64
330
2
100
AcDbEntity
  8
0
  6
CONTINUOUS
 62
     7
100
AcDbCircle
 10
52.39003532091235
 20
-22.18348841696526
 30
0.0
 40
0.90625
100
AcDbArc
 50
196.4097412361999
 51
270.0
  0
LWPOLYLINE
  5
65
330
2
100
AcDbEntity
  8
0
  6
CONTINUOUS
 62
     7
100
AcDbPolyline
 90
        5
 70
     0
 43
0.0
 10
51.22937648611447
 20
-22.10518281360087
 10
51.44612134011234
 20
-22.30605358016526
 10
51.48417185851235
 20
-22.35701575456527
 10
51.51278121531234
 20
-22.41571697376524
 10
51.52063832091235
 20
-22.43925121856527
  0
LINE
  5
6C
330
2
100
AcDbEntity
  8
0
  6
CONTINUOUS
 62
     7
100
AcDbLine
 10
56.49023307771237
 20
-22.68348841696526
 30
0.0
 11
59.03198067771235
 21
-22.68348841696526
 31
0.0
  0
LINE
  5
6D
330
2
100
AcDbEntity
  8
0
  6
CONTINUOUS
 62
     7
100
AcDbLine
 10
55.87740156731236
 20
-22.43870217536525
 30
0.0
 11
55.96820229810054
 21
-22.31793334295344
 31
0.0
  0
LINE
  5
6E
330
2
100
AcDbEntity
  8
0
  6
CONTINUOUS
 62
     7
100
AcDbLine
 10
56.22392241531237
 20
-22.57365346016527
 30
0.0
 11
55.92036996933827
 21
-22.27010101419115
 31
0.0
  0
LINE
  5
6F
330
2
100
AcDbEntity
  8
0
  6
CONTINUOUS
 62
     7
100
AcDbLine
 10
55.92595713691237
 20
-22.37347323296526
 30
0.0
 11
55.85532506171235
 21
-22.48475322336526
 31
0.0
  0
LINE
  5
70
330
2
100
AcDbEntity
  8
0
  6
CONTINUOUS
 62
     7
100
AcDbLine
 10
55.85532506171235
 20
-22.48475322336526
 30
0.0
 11
55.87740156731236
 21
-22.43870217536525
 31
0.0
  0
LINE
  5
71
330
2
100
AcDbEntity
  8
0
  6
CONTINUOUS
 62
     7
100
AcDbLine
 10
55.85532506171235
 20
-22.48475322336526
 30
0.0
 11
55.85235325531236
 21
-22.49263925536526
 31
0.0
  0
ARC
  5
72
330
2
100
AcDbEntity
  8
0
  6
CONTINUOUS
 62
     7
100
AcDbCircle
 10
55.00046964091236
 20
-22.18348841696526
 30
0.0
 40
0.90625
100
AcDbArc
 50
270.0007744099
 51
340.5818082634999
  0
ARC
  5
73
330
2
100
AcDbEntity
  8
0
  6
CONTINUOUS
 62
     7
100
AcDbCircle
 10
56.48908745851237
 20
-22.30848841696527
 30
0.0
 40
0.375
100
AcDbArc
 50
225.0
 51
270.0
  0
ARC
  5
74
330
2
100
AcDbEntity
  8
0
  6
CONTINUOUS
 62
     7
100
AcDbCircle
 10
60.52058624571237
 20
-22.18348841696526
 30
0.0
 40
0.90625
100
AcDbArc
 50
199.884779755
 51
270.0
  0
LINE
  5
75
330
2
100
AcDbEntity
  8
0
  6
CONTINUOUS
 62
     7
100
AcDbLine
 10
59.55713044190402
 20
-22.31366873757359
 30
0.0
 11
59.66567975771237
 21
-22.48459137536524
 31
0.0
  0
LINE
  5
76
330
2
100
AcDbEntity
  8
0
  6
CONTINUOUS
 62
     7
100
AcDbLine
 10
59.60069816516043
 20
-22.27010101431719
 30
0.0
 11
59.29714571931235
 21
-22.57365346016527
 31
0.0
  0
ARC
  5
77
330
2
100
AcDbEntity
  8
0
  6
CONTINUOUS
 62
     7
100
AcDbCircle
 10
59.03198067771235
 20
-22.30848841696527
 30
0.0
 40
0.375
100
AcDbArc
 50
270.0
 51
315.0
  0
LWPOLYLINE
  5
78
330
2
100
AcDbEntity
  8
0
  6
CONTINUOUS
 62
     7
100
AcDbPolyline
 90
        3
 70
     0
 43
0.0
 10
64.01644045211234
 20
-22.39844558176526
 10
64.05437435291237
 20
-22.33269173376526
 10
64.26067978135115
 20
-22.10643803932488
  0
ARC
  5
7D
330
2
100
AcDbEntity
  8
0
  6
CONTINUOUS
 62
     7
100
AcDbCircle
 10
63.13217843451237
 20
-22.18348841696526
 30
0.0
 40
0.90625
100
AcDbArc
 50
270.0
 51
343.5902587638
  0
LINE
  5
7E
330
2
100
AcDbEntity
  8
0
  6
CONTINUOUS
 62
     7
100
AcDbLine
 10
64.00157542971236
 20
-22.43925123296527
 30
0.0
 11
64.01644045211234
 21
-22.39844558176526
 31
0.0
  0
ARC
  5
7F
330
2
100
AcDbEntity
  8
0
  6
HIDDEN
 62
     8
 48
0.5
100
AcDbCircle
 10
57.44316296766815
 20
-157.3550744476481
 30
0.0
 40
137.2606946492469
100
AcDbArc
 50
86.49366421267055
 51
93.23996160864034
  0
LWPOLYLINE
  5
80
330
2
100
AcDbEntity
  8
0
  6
HIDDEN
 62
     8
100
AcDbPolyline
 90
       15
 70
     0
 43
0.0
 10
66.90710012891234
 20
-18.59341650176526
 10
66.89040140411235
 20
-18.75162150976525
 10
66.86175150011239
 20
-18.90884686176524
 10
66.82134916731236
 20
-19.06350278336526
 10
66.76943080571236
 20
-19.21466358496525
 10
66.70657041371239
 20
-19.36088482816527
 10
66.63298992411235
 20
-19.50186896736527
 10
66.54869666491238
 20
-19.63747192256526
 10
66.45437322491237
 20
-19.76643153696524
 10
66.35061318171238
 20
-19.88791369856524
 10
66.23838249211236
 20
-20.00087734976526
 10
66.11813812891234
 20
-20.10497509856524
 10
65.99000328411235
 20
-20.20005146816524
 10
65.4312569563878
 20
-20.57054113680663
 10
49.89454052905966
 20
-20.55434959776526
  0
LWPOLYLINE
  5
91
330
2
100
AcDbEntity
  8
0
  6
CONTINUOUS
 62
     7
100
AcDbPolyline
 90
        4
 70
     0
 43
0.0
 10
45.7875678628671
 20
-3.589738416965267
 10
45.96151782331236
 20
-5.298850368965268
 10
46.21672437211237
 20
-7.853935698565265
 10
46.45835736571235
 20
-10.27507851936526
  0
LWPOLYLINE
  5
97
330
2
100
AcDbEntity
  8
0
  6
CONTINUOUS
 62
     7
100
AcDbPolyline
 90
       39
 70
     0
 43
0.0
 10
47.78996695291235
 20
-9.157187168965251
 10
47.87461166491235
 20
-9.976251064965268
 10
47.90187502491233
 20
-10.24096810976524
 10
47.92863923451236
 20
-10.50167650656527
 10
47.95489423611235
 20
-10.75846898816524
 10
47.98063285531236
 20
-11.01144431456527
 10
48.00585000091235
 20
-11.26070635776525
 10
48.03054178971234
 20
-11.50636643776526
 10
48.05470423771234
 20
-11.74853469536524
 10
48.07833471771235
 20
-11.98732324096526
 10
48.10143276891236
 20
-12.22283600416526
 10
48.12400604251235
 20
-12.45519848736526
 10
48.14606544411237
 20
-12.68455772416526
 10
48.16762199931236
 20
-12.91105074336526
 10
48.18869469051236
 20
-13.13479258816526
 10
48.20927407291236
 20
-13.35553544416524
 10
48.22930719931235
 20
-13.57255263936524
 10
48.24874088571235
 20
-13.78509304896525
 10
48.26752368411238
 20
-13.99240471776527
 10
48.28560548891235
 20
-14.19373362656527
 10
48.30293748091236
 20
-14.38832614976524
 10
48.31951491131235
 20
-14.57592033536527
 10
48.33542185211235
 20
-14.75728043296525
 10
48.35075154971235
 20
-14.93331116576527
 10
48.36559086331238
 20
-15.10487753376526
 10
48.37999443771235
 20
-15.27249878656525
 10
48.39399585691234
 20
-15.43646580096526
 10
48.40762702811236
 20
-15.59706176096526
 10
48.42091870971237
 20
-15.75456711136526
 10
48.43390059771235
 20
-15.90925979776526
 10
48.44660140731235
 20
-16.06141514816526
 10
48.45904904091236
 20
-16.21130616096525
 10
48.47127070651237
 20
-16.35920484896525
 10
48.48329282811235
 20
-16.50538109056525
 10
48.49513471451235
 20
-16.65002440256525
 10
48.50679874811238
 20
-16.79312119936527
 10
48.51828462491235
 20
-16.93462763136526
 10
48.52959149531236
 20
-17.07449689216525
 10
48.54071816251234
 20
-17.21267818016524
  0
LWPOLYLINE
  5
C0
330
2
100
AcDbEntity
  8
0
  6
CONTINUOUS
 62
     7
100
AcDbPolyline
 90
       12
 70
     0
 43
0.0
 10
46.52040662331237
 20
-10.85628075296526
 10
46.53547963771237
 20
-10.47543581216526
 10
46.55483692891235
 20
-10.10958609216526
 10
46.57906445531236
 20
-9.760263992965249
 10
46.60872558651234
 20
-9.428482284165248
 10
46.64427642811236
 20
-9.11458698976525
 10
46.68584251771235
 20
-8.817677416965274
 10
46.73328380571234
 20
-8.535945640965266
 10
46.78716674171235
 20
-8.269746061765282
 10
46.84882787771235
 20
-8.020975522565265
 10
46.92034043451235
 20
-7.792149757765265
 10
47.00538817051236
 20
-7.58704280416525
  0
LWPOLYLINE
  5
D5
330
2
100
AcDbEntity
  8
0
  6
CONTINUOUS
 62
     7
100
AcDbPolyline
 90
       10
 70
     0
 43
0.0
 10
47.24554307451237
 20
-11.79309387776526
 10
47.35759666971236
 20
-12.54254311296524
 10
47.48079093371237
 20
-13.38600514496527
 10
47.58722129211236
 20
-14.16440723296527
 10
47.67866752731237
 20
-14.91120859296526
 10
47.75695895451232
 20
-15.65956625056524
 10
47.82605774331236
 20
-16.44076913696525
 10
47.89027456731235
 20
-17.27858876416525
 10
47.95263269211235
 20
-18.17331742656524
 10
47.96489799771237
 20
-18.35345760896525
  0
ARC
  5
E1
330
2
100
AcDbEntity
  8
0
  6
HIDDEN
 62
     8
 48
0.5
100
AcDbCircle
 10
50.81339247083818
 20
-18.41886032687588
 30
0.0
 40
2.205198345418603
100
AcDbArc
 50
194.7694613783846
 51
239.2376547896231
  0
LINE
  5
E2
330
2
100
AcDbEntity
  8
0
  6
CONTINUOUS
 62
     7
100
AcDbLine
 10
48.62329483771237
 20
-18.25083982176527
 30
0.0
 11
48.65132846651235
 21
-18.60558864896526
 31
0.0
  0
LWPOLYLINE
  5
E3
330
2
100
AcDbEntity
  8
0
  6
CONTINUOUS
 62
     7
100
AcDbPolyline
 90
       50
 70
     0
 43
0.0
 10
48.68511747291236
 20
-20.23206369536524
 10
48.68649704411237
 20
-20.24774647936526
 10
48.68801457371237
 20
-20.26317732736524
 10
48.68971481531236
 20
-20.27890741056527
 10
48.69189827771234
 20
-20.29733731456527
 10
48.69416479451235
 20
-20.31482719296526
 10
48.69627333211235
 20
-20.32991237856526
 10
48.69837606651237
 20
-20.34403347936525
 10
48.70034875931236
 20
-20.35657922816526
 10
48.70274319451235
 20
-20.37101797696525
 10
48.70522975451234
 20
-20.38521726336524
 10
48.70780579451235
 20
-20.39919256096526
 10
48.71047700891236
 20
-20.41299928896526
 10
48.71324437371234
 20
-20.42666121216524
 10
48.71610560411236
 20
-20.44018364096526
 10
48.71905646971237
 20
-20.45356269696525
 10
48.72209055291236
 20
-20.46678519616527
 10
48.72519826491236
 20
-20.47982597216525
 10
48.72836776411237
 20
-20.49265431456525
 10
48.73158370491236
 20
-20.50523010176525
 10
48.73486003291237
 20
-20.51762730336526
 10
48.73821048731236
 20
-20.52991034656526
 10
48.74164926971236
 20
-20.54213851936526
 10
48.74477574011234
 20
-20.55295187296526
 10
48.74764984891237
 20
-20.56265883936525
 10
48.75055565051235
 20
-20.57226008736525
 10
48.75368758331237
 20
-20.58237953216524
 10
48.75675689211234
 20
-20.59207733696526
 10
48.75999538651237
 20
-20.60208807936526
 10
48.76356425691236
 20
-20.61287204896525
 10
48.76741882331237
 20
-20.62424501536527
 10
48.77152632091235
 20
-20.63607052096525
 10
48.77585700091234
 20
-20.64823137856524
 10
48.78041087131236
 20
-20.66070081056526
 10
48.78520059931236
 20
-20.67348693856526
 10
48.79023977371236
 20
-20.68659828256524
 10
48.79554288091234
 20
-20.70004347296524
 10
48.80112519611237
 20
-20.71383082496525
 10
48.80699788571238
 20
-20.72795660896525
 10
48.81316601051236
 20
-20.74240227776525
 10
48.81963428411236
 20
-20.75714918336525
 10
48.82640721691235
 20
-20.77217880576525
 10
48.83348926651237
 20
-20.78747308576525
 10
48.84088617691237
 20
-20.80301739936526
 10
48.84860437851236
 20
-20.81879929056526
 10
48.85665028411236
 20
-20.83480640416524
 10
48.86503023131234
 20
-20.85102624256526
 10
48.87375048731235
 20
-20.86744618176526
 10
48.88281725691235
 20
-20.88405348416525
 10
48.88712579291237
 20
-20.89172963936526
  0
LINE
  5
117
330
2
100
AcDbEntity
  8
0
  6
HIDDEN
 62
     8
100
AcDbLine
 10
48.70086458651235
 20
-19.06350278336526
 30
0.0
 11
48.75278294811235
 21
-19.21466358496525
 31
0.0
  0
LINE
  5
118
330
2
100
AcDbEntity
  8
0
  6
HIDDEN
 62
     8
100
AcDbLine
 10
48.61511362491237
 20
-18.59341650176526
 30
0.0
 11
48.63181234971236
 21
-18.75162150976525
 31
0.0
  0
LWPOLYLINE
  5
119
330
2
100
AcDbEntity
  8
0
  6
CONTINUOUS
 62
     7
100
AcDbPolyline
 90
       12
 70
     0
 43
0.0
 10
47.96490262331238
 20
-18.35336347296524
 10
47.98032443931236
 20
-18.50474703136525
 10
48.00933560091235
 20
-18.67136251616526
 10
48.05060855771237
 20
-18.83510548416526
 10
48.10352842491238
 20
-18.99422144256524
 10
48.16713554651238
 20
-19.14702821856526
 10
48.24011436891237
 20
-19.29193907616524
 10
48.32086192091233
 20
-19.42761554016525
 10
48.40743730331237
 20
-19.55285905216526
 10
48.49727828091236
 20
-19.66630952416524
 10
48.58760245531235
 20
-19.76707020896525
 10
48.65192826011235
 20
-19.83115269696527
  0
LWPOLYLINE
  5
127
330
2
100
AcDbEntity
  8
0
  6
CONTINUOUS
 62
     7
100
AcDbPolyline
 90
        3
 70
     0
 43
0.0
 10
48.65132846651235
 20
-18.60558864896526
 10
48.66029408411236
 20
-18.71897436576524
 10
48.67762225051237
 20
-18.93782466016526
  0
LINE
  5
12C
330
2
100
AcDbEntity
  8
0
  6
CONTINUOUS
 62
     7
100
AcDbLine
 10
48.67762225051237
 20
-18.93782466016526
 30
0.0
 11
48.70210446171234
 21
-19.24596313536525
 31
0.0
  0
LINE
  5
12D
330
2
100
AcDbEntity
  8
0
  6
CONTINUOUS
 62
     7
100
AcDbLine
 10
48.70210446171234
 20
-19.24596313536525
 30
0.0
 11
48.72497711931234
 21
-19.53220164096526
 31
0.0
  0
LINE
  5
12E
330
2
100
AcDbEntity
  8
0
  6
CONTINUOUS
 62
     7
100
AcDbLine
 10
48.72497711931234
 20
-19.53220164096526
 30
0.0
 11
48.74640931451236
 21
-19.79853046496526
 31
0.0
  0
LINE
  5
12F
330
2
100
AcDbEntity
  8
0
  6
CONTINUOUS
 62
     7
100
AcDbLine
 10
48.74640931451236
 20
-19.79853046496526
 30
0.0
 11
48.76599713051234
 21
-20.04019186176525
 31
0.0
  0
LINE
  5
130
330
2
100
AcDbEntity
  8
0
  6
CONTINUOUS
 62
     7
100
AcDbLine
 10
48.76599713051234
 20
-20.04019186176525
 30
0.0
 11
48.78791509691234
 21
-20.30870839936525
 31
0.0
  0
LINE
  5
131
330
2
100
AcDbEntity
  8
0
  6
CONTINUOUS
 62
     7
100
AcDbLine
 10
48.78791509691234
 20
-20.30870839936525
 30
0.0
 11
48.79633721211234
 21
-20.41144636896525
 31
0.0
  0
LINE
  5
132
330
2
100
AcDbEntity
  8
0
  6
CONTINUOUS
 62
     7
100
AcDbLine
 10
48.67330203931235
 20
-20.08667908576526
 30
0.0
 11
48.68549600571236
 21
-20.23518370976526
 31
0.0
  0
LWPOLYLINE
  5
133
330
2
100
AcDbEntity
  8
0
  6
CONTINUOUS
 62
     7
100
AcDbPolyline
 90
        3
 70
     0
 43
0.0
 10
48.79633721211234
 20
-20.41144636896525
 10
48.79972868731235
 20
-20.45277310176526
 10
48.80205466651236
 20
-20.48111005376525
  0
LINE
  5
138
330
2
100
AcDbEntity
  8
0
  6
CONTINUOUS
 62
     7
100
AcDbLine
 10
48.80205466651236
 20
-20.48111005376525
 30
0.0
 11
48.80316586011236
 21
-20.49412982816524
 31
0.0
  0
LWPOLYLINE
  5
139
330
2
100
AcDbEntity
  8
0
  6
CONTINUOUS
 62
     7
100
AcDbPolyline
 90
       36
 70
     0
 43
0.0
 10
48.56327330331237
 20
-18.95387934656526
 10
48.56315201531237
 20
-18.95319317056524
 10
48.56328916891235
 20
-18.95400568576526
 10
48.56368129691237
 20
-18.95640164896526
 10
48.56431229211236
 20
-18.96038717376525
 10
48.56516789211235
 20
-18.96597167936526
 10
48.56623577851235
 20
-18.97316972256526
 10
48.56750583931236
 20
-18.98200416096526
 10
48.56897016091235
 20
-18.99250769696524
 10
48.57062272731235
 20
-19.00472240576524
 10
48.57245741531236
 20
-19.01868562976525
 10
48.57446762011235
 20
-19.03442628096525
 10
48.57664774651235
 20
-19.05197577056524
 10
48.57899322811235
 20
-19.07136863296526
 10
48.58150041851235
 20
-19.09264203776526
 10
48.58416650971236
 20
-19.11583542496527
 10
48.58698968731236
 20
-19.14099208896525
 10
48.58996915131235
 20
-19.16815966656526
 10
48.59310484411236
 20
-19.19738794016525
 10
48.59639362011233
 20
-19.22869618496525
 10
48.59983454011234
 20
-19.26212738816526
 10
48.60342842011235
 20
-19.29773988256526
 10
48.60717626971236
 20
-19.33559197056526
 10
48.61108092251234
 20
-19.37575857056526
 10
48.61514929211236
 20
-19.41835619776524
 10
48.61938936411238
 20
-19.46351360736525
 10
48.62380962171235
 20
-19.51136579456525
 10
48.62841897531234
 20
-19.56205236736527
 10
48.63322664251234
 20
-19.61571534816526
 10
48.63824278491236
 20
-19.67250510816526
 10
48.64347865851235
 20
-19.73258081696526
 10
48.64894519611235
 20
-19.79609239296524
 10
48.65465284891235
 20
-19.86317513216526
 10
48.66061128091235
 20
-19.93394217216526
 10
48.66682798171234
 20
-20.00846257376525
 10
48.67330203931235
 20
-20.08667908576526
  0
LINE
  5
15F
330
2
100
AcDbEntity
  8
0
  6
CONTINUOUS
 62
     7
100
AcDbLine
 10
48.54071816251234
 20
-17.21267818016524
 30
0.0
 11
48.56242798171234
 21
-17.48372865056526
 31
0.0
  0
LWPOLYLINE
  5
160
330
2
100
AcDbEntity
  8
0
  6
CONTINUOUS
 62
     7
100
AcDbPolyline
 90
        4
 70
     0
 43
0.0
 10
48.58342045531236
 20
-17.74736343776526
 10
48.60370669691235
 20
-18.00319571296525
 10
48.61358811611236
 20
-18.12806935776524
 10
48.62329483771237
 20
-18.25083982176527
  0
LINE
  5
166
330
2
100
AcDbEntity
  8
0
  6
CONTINUOUS
 62
     7
100
AcDbLine
 10
48.56242798171234
 20
-17.48372865056526
 30
0.0
 11
48.58342045531236
 21
-17.74736343776526
 31
0.0
  0
LWPOLYLINE
  5
17A
330
2
100
AcDbEntity
  8
0
  6
CONTINUOUS
 62
     7
100
AcDbPolyline
 90
       16
 70
     0
 43
0.0
 10
47.83524790331236
 20
-9.595087853765249
 10
47.83084787771236
 20
-9.617567311365249
 10
47.79271908731234
 20
-9.827997872965248
 10
47.75041212251236
 20
-10.01893257216524
 10
47.69890225531236
 20
-10.19165185696525
 10
47.63872502651236
 20
-10.35272382176528
 10
47.57555586491235
 20
-10.50436450016526
 10
47.51419140091235
 20
-10.64608531456524
 10
47.45718182811237
 20
-10.77857835296526
 10
47.40618020411235
 20
-10.90256051936527
 10
47.36088410811234
 20
-11.02227954016525
 10
47.32020806011234
 20
-11.14335467136526
 10
47.28507190971237
 20
-11.26685276896525
 10
47.25721086011236
 20
-11.39345142496525
 10
47.23896683611235
 20
-11.52557819456524
 10
47.23440570011234
 20
-11.66851279136526
  0
LINE
  5
18C
330
2
100
AcDbEntity
  8
0
  6
CONTINUOUS
 62
     7
100
AcDbLine
 10
47.24554307451237
 20
-11.79309387776526
 30
0.0
 11
47.23440570011234
 21
-11.66851279136526
 31
0.0
  0
LINE
  5
18D
330
2
100
AcDbEntity
  8
0
  6
CONTINUOUS
 62
     7
100
AcDbLine
 10
46.45835736571235
 20
-10.27507851936526
 30
0.0
 11
46.52515231611235
 21
-10.94479627936524
 31
0.0
  0
LWPOLYLINE
  5
18E
330
2
100
AcDbEntity
  8
0
  6
CONTINUOUS
 62
     7
100
AcDbPolyline
 90
        3
 70
     0
 43
0.0
 10
46.52500518491234
 20
-10.94329809376525
 10
46.53030350811235
 20
-10.98873272096526
 10
46.54320564091236
 20
-11.06589581536526
  0
LINE
  5
193
330
2
100
AcDbEntity
  8
0
  6
CONTINUOUS
 62
     7
100
AcDbLine
 10
46.54320564091236
 20
-11.06589581536526
 30
0.0
 11
46.56242833531234
 21
-11.14867990016524
 31
0.0
  0
LWPOLYLINE
  5
194
330
2
100
AcDbEntity
  8
0
  6
CONTINUOUS
 62
     7
100
AcDbPolyline
 90
       15
 70
     0
 43
0.0
 10
46.56254760731235
 20
-11.14864468896524
 10
46.59172101211234
 20
-11.24746576896525
 10
46.62895342651236
 20
-11.34812240736527
 10
46.67127321371236
 20
-11.44369471296527
 10
46.71791593691236
 20
-11.53451857056526
 10
46.76846649371237
 20
-11.62130675136528
 10
46.82246661051235
 20
-11.70441675456524
 10
46.87957254011235
 20
-11.78420704416524
 10
46.93952413051235
 20
-11.86101262976524
 10
47.00202128251234
 20
-11.93503961376524
 10
47.06690939451235
 20
-12.00662469856526
 10
47.13444832891233
 20
-12.07639676096526
 10
47.20528307771234
 20
-12.14508250656526
 10
47.27956510811236
 20
-12.21285772576527
 10
47.31255699771236
 20
-12.24130380736524
  0
LINE
  5
1A5
330
2
100
AcDbEntity
  8
0
  6
HIDDEN
 62
     8
 48
0.3
100
AcDbLine
 10
45.22815769229308
 20
-2.3388845371009
 30
0.0
 11
42.00688126971235
 21
-2.219019381765277
 31
0.0
  0
LINE
  5
1A6
330
2
100
AcDbEntity
  8
0
100
AcDbLine
 10
42.00688126971235
 20
-2.219019381765277
 30
0.0
 11
41.88658435618338
 21
-3.589738416965267
 31
0.0
  0
LINE
  5
1A7
330
2
100
AcDbEntity
  8
0
  6
CONTINUOUS
 62
     7
100
AcDbLine
 10
41.89271440891235
 20
-2.089738416965267
 30
0.0
 11
41.76110687771236
 21
-3.589738416965268
 31
0.0
  0
LINE
  5
1A8
330
2
100
AcDbEntity
  8
0
  6
CONTINUOUS
 62
     7
100
AcDbLine
 10
41.88658435771237
 20
-3.589738416965268
 30
0.0
 11
41.76110687771236
 21
-3.589738416965268
 31
0.0
  0
LINE
  5
1AA
330
2
100
AcDbEntity
  8
0
  6
CONTINUOUS
 62
     7
100
AcDbLine
 10
43.12043647178823
 20
-0.9647384169652678
 30
0.0
 11
41.89271440891235
 21
-2.089738416965267
 31
0.0
  0
LINE
  5
1AB
330
2
100
AcDbEntity
  8
0
  6
HIDDEN
 62
     8
 48
0.3
100
AcDbLine
 10
45.7875678628671
 20
-3.589738416965267
 30
0.0
 11
45.70708633256607
 21
-2.820060933346569
 31
0.0
  0
LWPOLYLINE
  5
1AC
330
2
100
AcDbEntity
  8
0
  6
CONTINUOUS
 62
     7
100
AcDbPolyline
 90
       15
 70
     0
 43
0.0
 10
47.74103007291237
 20
-8.004710941765281
 10
47.77757628891237
 20
-7.986900213765274
 10
47.83300018171234
 20
-7.967804050565248
 10
47.90592238011234
 20
-7.949140271365266
 10
47.99740573691233
 20
-7.930624684165266
 10
48.10964713371234
 20
-7.911884378565268
 10
48.24162414811235
 20
-7.893099578565248
 10
48.38995612251236
 20
-7.87467228736525
 10
48.54983348091235
 20
-7.857091464965243
 10
48.71493372891237
 20
-7.840863549765273
 10
48.88105620091235
 20
-7.826068624965266
 10
49.05076263931235
 20
-7.812164866565268
 10
49.23287899131236
 20
-7.798315956165268
 10
49.44128904731235
 20
-7.783582810565249
 10
49.68854024731237
 20
-7.767463322565248
  0
LWPOLYLINE
  5
1BD
330
2
100
AcDbEntity
  8
0
  6
CONTINUOUS
 62
     7
100
AcDbPolyline
 90
        7
 70
     0
 43
0.0
 10
49.59089476891236
 20
-7.345601634565248
 10
49.38663244091234
 20
-7.351846042565249
 10
49.18728560571236
 20
-7.358302818565249
 10
48.98885861531235
 20
-7.365158991365248
 10
48.78398718011235
 20
-7.373037829765266
 10
48.55836844251235
 20
-7.38362806176525
 10
48.32346641851234
 20
-7.398235541765281
  0
LWPOLYLINE
  5
1CF
330
2
100
AcDbEntity
  8
0
  6
CONTINUOUS
 62
     7
100
AcDbPolyline
 90
        9
 70
     0
 43
0.0
 10
48.32346641851234
 20
-7.398235541765281
 10
48.12548358011236
 20
-7.413645636165249
 10
47.96375857051237
 20
-7.435753484165275
 10
47.82026603771234
 20
-7.447169719365248
 10
47.68731508091232
 20
-7.463397352965266
 10
47.56165677531234
 20
-7.479390524165275
 10
47.44266374171234
 20
-7.495142788165274
 10
47.33064954971235
 20
-7.51334532416525
 10
47.22548453051234
 20
-7.530480655365273
  0
LWPOLYLINE
  5
1DA
330
2
100
AcDbEntity
  8
0
  6
CONTINUOUS
 62
     7
100
AcDbPolyline
 90
        5
 70
     0
 43
0.0
 10
47.00538817051236
 20
-7.58704280416525
 10
47.02551482011236
 20
-7.572816476165257
 10
47.06850955451236
 20
-7.55864458976525
 10
47.13506973851233
 20
-7.544521488965266
 10
47.22548453051234
 20
-7.530480655365273
  0
LWPOLYLINE
  5
1FC
330
2
100
AcDbEntity
  8
0
  6
CONTINUOUS
 62
     7
100
AcDbPolyline
 90
        7
 70
     0
 43
0.0
 10
47.74103007291237
 20
-8.004710941765281
 10
47.70996402491235
 20
-8.026568876165249
 10
47.69344074331235
 20
-8.047898512965268
 10
47.68532667291236
 20
-8.069659735365249
 10
47.68248183131234
 20
-8.092418285765248
 10
47.68296932251234
 20
-8.116543021765281
 10
47.68436650651236
 20
-8.132702936965266
  0
LINE
  5
222
330
2
100
AcDbEntity
  8
0
  6
HIDDEN
 62
     8
100
AcDbLine
 10
47.91936834811233
 20
-8.957020242565249
 30
0.0
 11
47.91957335291235
 21
-8.95919017216525
 31
0.0
  0
LWPOLYLINE
  5
223
330
2
100
AcDbEntity
  8
0
  6
CONTINUOUS
 62
     7
100
AcDbPolyline
 90
        5
 70
     0
 43
0.0
 10
47.68436650651236
 20
-8.132702936965266
 10
47.70152969851236
 20
-8.299930656965265
 10
47.73137702171235
 20
-8.589913685765274
 10
47.76086837211238
 20
-8.875675885765268
 10
47.78996695291235
 20
-9.157187168965251
  0
LINE
  5
22A
330
2
100
AcDbEntity
  8
0
  6
HIDDEN
 62
     8
100
AcDbLine
 10
47.68436650651236
 20
-8.132702936965266
 30
0.0
 11
47.68516732411237
 21
-8.140101444165274
 31
0.0
  0
ARC
  5
31A
330
2
100
AcDbEntity
  8
0
  6
HIDDEN
 62
     8
 48
0.3
100
AcDbCircle
 10
45.17955526062969
 20
-2.866193818850908
 30
0.0
 40
0.5295444032215833
100
AcDbArc
 50
4.997833173089565
 51
84.73389056459049
  0
LINE
  5
31B
330
2
100
AcDbEntity
  8
0
  6
HIDDEN
 62
     8
 48
0.25
100
AcDbLine
 10
58.76508820411236
 20
-9.258110620165268
 30
0.0
 11
58.79273254811234
 21
-9.632655228165248
 31
0.0
  0
LINE
  5
31C
330
2
100
AcDbEntity
  8
0
  6
HIDDEN
 62
     8
 48
0.25
100
AcDbLine
 10
55.97393243611235
 20
-9.126897871365265
 30
0.0
 11
55.93256020731236
 21
-9.511676424965266
 31
0.0
  0
LINE
  5
31D
330
2
100
AcDbEntity
  8
0
  6
HIDDEN
 62
     8
 48
0.25
100
AcDbLine
 10
59.54713569851235
 20
-9.126897871365265
 30
0.0
 11
59.58850792891237
 21
-9.511676424965266
 31
0.0
  0
LWPOLYLINE
  5
31E
330
2
100
AcDbEntity
  8
0
  6
CONTINUOUS
 62
     7
100
AcDbPolyline
 90
       12
 70
     0
 43
0.0
 10
69.00180713211234
 20
-10.85628075296526
 10
68.98673411771238
 20
-10.47543581216526
 10
68.96737682491239
 20
-10.10958609216526
 10
68.94314930011238
 20
-9.760263992965249
 10
68.91348816891237
 20
-9.428482284165248
 10
68.87793732571235
 20
-9.11458698976525
 10
68.83637123611236
 20
-8.817677416965274
 10
68.78892994811237
 20
-8.535945640965266
 10
68.73504701211236
 20
-8.269746061765282
 10
68.67338587771236
 20
-8.020975522565265
 10
68.60187331931236
 20
-7.792149757765265
 10
68.51682558331238
 20
-7.58704280416525
  0
LINE
  5
32C
330
2
100
AcDbEntity
  8
0
  6
CONTINUOUS
 62
     7
100
AcDbLine
 10
67.65229470331239
 20
-9.930755928965268
 30
0.0
 11
67.76347815931235
 21
-8.855028738565273
 31
0.0
  0
LWPOLYLINE
  5
334
330
2
100
AcDbEntity
  8
0
  6
CONTINUOUS
 62
     7
100
AcDbPolyline
 90
        4
 70
     0
 43
0.0
 10
68.99706143771236
 20
-10.94479629376525
 10
69.06385638811237
 20
-10.27507851936526
 10
69.30548938331238
 20
-7.853935698565265
 10
69.56069593051235
 20
-5.298850368965268
  0
LINE
  5
33A
330
2
100
AcDbEntity
  8
0
  6
HIDDEN
 62
     8
 48
0.25
100
AcDbLine
 10
55.79145621691235
 20
-15.23904925696525
 30
0.0
 11
55.71721369211234
 21
-15.46168681216526
 31
0.0
  0
LINE
  5
33B
330
2
100
AcDbEntity
  8
0
  6
HIDDEN
 62
     8
 48
0.25
100
AcDbLine
 10
54.85423970171236
 20
-18.29315899456526
 30
0.0
 11
54.84311240251234
 21
-18.12859245056525
 31
0.0
  0
LINE
  5
33C
330
2
100
AcDbEntity
  8
0
  6
HIDDEN
 62
     8
 48
0.25
100
AcDbLine
 10
54.13456268891234
 20
-18.27011189536526
 30
0.0
 11
54.12967105531236
 21
-18.11225128576526
 31
0.0
  0
LINE
  5
33D
330
2
100
AcDbEntity
  8
0
  6
HIDDEN
 62
     8
 48
0.25
100
AcDbLine
 10
54.87197805691237
 20
-18.45587206816524
 30
0.0
 11
54.85423970171236
 21
-18.29315899456526
 31
0.0
  0
LINE
  5
33E
330
2
100
AcDbEntity
  8
0
  6
HIDDEN
 62
     8
 48
0.25
100
AcDbLine
 10
54.89621986811234
 20
-18.61574468416525
 30
0.0
 11
54.87197805691237
 21
-18.45587206816524
 31
0.0
  0
LINE
  5
33F
330
2
100
AcDbEntity
  8
0
  6
HIDDEN
 62
     8
 48
0.25
100
AcDbLine
 10
54.92681808891235
 20
-18.77180708576526
 30
0.0
 11
54.89621986811234
 21
-18.61574468416525
 31
0.0
  0
LINE
  5
340
330
2
100
AcDbEntity
  8
0
  6
HIDDEN
 62
     8
 48
0.25
100
AcDbLine
 10
54.96358712091235
 20
-18.92311262176525
 30
0.0
 11
54.92681808891235
 21
-18.77180708576526
 31
0.0
  0
LINE
  5
341
330
2
100
AcDbEntity
  8
0
  6
HIDDEN
 62
     8
 48
0.25
100
AcDbLine
 10
55.00630392731235
 20
-19.06874350496524
 30
0.0
 11
54.96358712091235
 21
-18.92311262176525
 31
0.0
  0
LINE
  5
342
330
2
100
AcDbEntity
  8
0
  6
HIDDEN
 62
     8
 48
0.25
100
AcDbLine
 10
55.23095996091235
 20
-19.57748019616526
 30
0.0
 11
55.16737912891234
 21
-19.46295853056526
 31
0.0
  0
LINE
  5
343
330
2
100
AcDbEntity
  8
0
  6
HIDDEN
 62
     8
 48
0.25
100
AcDbLine
 10
55.29886673691236
 20
-19.68235793056526
 30
0.0
 11
55.23095996091235
 21
-19.57748019616526
 31
0.0
  0
LINE
  5
344
330
2
100
AcDbEntity
  8
0
  6
HIDDEN
 62
     8
 48
0.25
100
AcDbLine
 10
55.37068754651234
 20
-19.77695556416525
 30
0.0
 11
55.29886673691236
 21
-19.68235793056526
 31
0.0
  0
LINE
  5
345
330
2
100
AcDbEntity
  8
0
  6
HIDDEN
 62
     8
 48
0.25
100
AcDbLine
 10
55.44598674331236
 20
-19.86069928416524
 30
0.0
 11
55.37068754651234
 21
-19.77695556416525
 31
0.0
  0
LINE
  5
346
330
2
100
AcDbEntity
  8
0
  6
HIDDEN
 62
     8
 48
0.25
100
AcDbLine
 10
55.52430757211233
 20
-19.93308111776526
 30
0.0
 11
55.44598674331236
 21
-19.86069928416524
 31
0.0
  0
LINE
  5
347
330
2
100
AcDbEntity
  8
0
  6
HIDDEN
 62
     8
 48
0.25
100
AcDbLine
 10
55.60517495931235
 20
-19.99366200736526
 30
0.0
 11
55.52430757211233
 21
-19.93308111776526
 31
0.0
  0
LINE
  5
348
330
2
100
AcDbEntity
  8
0
  6
HIDDEN
 62
     8
 48
0.25
100
AcDbLine
 10
55.68809837531235
 20
-20.04207448256527
 30
0.0
 11
55.60517495931235
 21
-19.99366200736526
 31
0.0
  0
LINE
  5
349
330
2
100
AcDbEntity
  8
0
  6
HIDDEN
 62
     8
 48
0.25
100
AcDbLine
 10
55.77257482491235
 20
-20.07802488096526
 30
0.0
 11
55.68809837531235
 21
-20.04207448256527
 31
0.0
  0
LINE
  5
34A
330
2
100
AcDbEntity
  8
0
  6
HIDDEN
 62
     8
 48
0.25
100
AcDbLine
 10
55.85809189051234
 20
-20.10129513216524
 30
0.0
 11
55.77257482491235
 21
-20.07802488096526
 31
0.0
  0
LINE
  5
34B
330
2
100
AcDbEntity
  8
0
  6
HIDDEN
 62
     8
 48
0.25
100
AcDbLine
 10
55.94413084251236
 20
-20.11174408576526
 30
0.0
 11
55.85809189051234
 21
-20.10129513216524
 31
0.0
  0
LINE
  5
34C
330
2
100
AcDbEntity
  8
0
  6
HIDDEN
 62
     8
 48
0.25
100
AcDbLine
 10
54.14256703131234
 20
-18.42648656736526
 30
0.0
 11
54.13456268891234
 21
-18.27011189536526
 31
0.0
  0
LINE
  5
34D
330
2
100
AcDbEntity
  8
0
  6
HIDDEN
 62
     8
 48
0.25
100
AcDbLine
 10
54.15363955611237
 20
-18.58050544736526
 30
0.0
 11
54.14256703131234
 21
-18.42648656736526
 31
0.0
  0
LINE
  5
34E
330
2
100
AcDbEntity
  8
0
  6
HIDDEN
 62
     8
 48
0.25
100
AcDbLine
 10
54.16771867451235
 20
-18.73131179136525
 30
0.0
 11
54.15363955611237
 21
-18.58050544736526
 31
0.0
  0
LINE
  5
34F
330
2
100
AcDbEntity
  8
0
  6
HIDDEN
 62
     8
 48
0.25
100
AcDbLine
 10
54.18472606651234
 20
-18.87806671776525
 30
0.0
 11
54.16771867451235
 21
-18.73131179136525
 31
0.0
  0
LINE
  5
350
330
2
100
AcDbEntity
  8
0
  6
HIDDEN
 62
     8
 48
0.25
100
AcDbLine
 10
54.20456713211236
 20
-19.01995388576526
 30
0.0
 11
54.18472606651234
 21
-18.87806671776525
 31
0.0
  0
LINE
  5
351
330
2
100
AcDbEntity
  8
0
  6
HIDDEN
 62
     8
 48
0.25
100
AcDbLine
 10
54.22713150011235
 20
-19.15618402976525
 30
0.0
 11
54.20456713211236
 21
-19.01995388576526
 31
0.0
  0
LINE
  5
352
330
2
100
AcDbEntity
  8
0
  6
HIDDEN
 62
     8
 48
0.25
100
AcDbLine
 10
54.25229365371236
 20
-19.28599935456524
 30
0.0
 11
54.22713150011235
 21
-19.15618402976525
 31
0.0
  0
LINE
  5
353
330
2
100
AcDbEntity
  8
0
  6
HIDDEN
 62
     8
 48
0.25
100
AcDbLine
 10
54.27991362971233
 20
-19.40867774816526
 30
0.0
 11
54.25229365371236
 21
-19.28599935456524
 31
0.0
  0
LINE
  5
354
330
2
100
AcDbEntity
  8
0
  6
HIDDEN
 62
     8
 48
0.25
100
AcDbLine
 10
54.30983778491235
 20
-19.52353679456526
 30
0.0
 11
54.27991362971233
 21
-19.40867774816526
 31
0.0
  0
LINE
  5
355
330
2
100
AcDbEntity
  8
0
  6
HIDDEN
 62
     8
 48
0.25
100
AcDbLine
 10
54.34189966811236
 20
-19.62993757856526
 30
0.0
 11
54.30983778491235
 21
-19.52353679456526
 31
0.0
  0
LINE
  5
356
330
2
100
AcDbEntity
  8
0
  6
HIDDEN
 62
     8
 48
0.25
100
AcDbLine
 10
54.37592092731235
 20
-19.72728823136525
 30
0.0
 11
54.34189966811236
 21
-19.62993757856526
 31
0.0
  0
LINE
  5
357
330
2
100
AcDbEntity
  8
0
  6
HIDDEN
 62
     8
 48
0.25
100
AcDbLine
 10
54.41171231771237
 20
-19.81504722976525
 30
0.0
 11
54.37592092731235
 21
-19.72728823136525
 31
0.0
  0
LINE
  5
358
330
2
100
AcDbEntity
  8
0
  6
HIDDEN
 62
     8
 48
0.25
100
AcDbLine
 10
54.44907474811235
 20
-19.89272640416526
 30
0.0
 11
54.41171231771237
 21
-19.81504722976525
 31
0.0
  0
LINE
  5
359
330
2
100
AcDbEntity
  8
0
  6
HIDDEN
 62
     8
 48
0.25
100
AcDbLine
 10
54.48780038171235
 20
-19.95989365376525
 30
0.0
 11
54.44907474811235
 21
-19.89272640416526
 31
0.0
  0
LINE
  5
35A
330
2
100
AcDbEntity
  8
0
  6
HIDDEN
 62
     8
 48
0.25
100
AcDbLine
 10
54.52767380571235
 20
-20.01617535296524
 30
0.0
 11
54.48780038171235
 21
-19.95989365376525
 31
0.0
  0
LINE
  5
35B
330
2
100
AcDbEntity
  8
0
  6
HIDDEN
 62
     8
 48
0.25
100
AcDbLine
 10
54.56847322011235
 20
-20.06125842816526
 30
0.0
 11
54.52767380571235
 21
-20.01617535296524
 31
0.0
  0
LINE
  5
35C
330
2
100
AcDbEntity
  8
0
  6
HIDDEN
 62
     8
 48
0.25
100
AcDbLine
 10
54.60997167291235
 20
-20.09489210016526
 30
0.0
 11
54.56847322011235
 21
-20.06125842816526
 31
0.0
  0
LINE
  5
35D
330
2
100
AcDbEntity
  8
0
  6
HIDDEN
 62
     8
 48
0.25
100
AcDbLine
 10
54.65193832571235
 20
-20.11688927616526
 30
0.0
 11
54.60997167291235
 21
-20.09489210016526
 31
0.0
  0
LINE
  5
35E
330
2
100
AcDbEntity
  8
0
  6
HIDDEN
 62
     8
 48
0.25
100
AcDbLine
 10
54.69413973211236
 20
-20.12712759456526
 30
0.0
 11
54.65193832571235
 21
-20.11688927616526
 31
0.0
  0
LINE
  5
35F
330
2
100
AcDbEntity
  8
0
  6
HIDDEN
 62
     8
 48
0.25
100
AcDbLine
 10
54.94665300251234
 20
-17.58436612416525
 30
0.0
 11
54.83866354971233
 21
-17.96317065696526
 31
0.0
  0
LINE
  5
360
330
2
100
AcDbEntity
  8
0
  6
HIDDEN
 62
     8
 48
0.25
100
AcDbLine
 10
55.31351061691236
 20
-16.54357127936527
 30
0.0
 11
55.18533498971236
 21
-16.88032887296525
 31
0.0
  0
LINE
  5
361
330
2
100
AcDbEntity
  8
0
  6
HIDDEN
 62
     8
 48
0.25
100
AcDbLine
 10
55.43429882331235
 20
-16.23137368256524
 30
0.0
 11
55.31351061691236
 21
-16.54357127936527
 31
0.0
  0
LINE
  5
362
330
2
100
AcDbEntity
  8
0
  6
HIDDEN
 62
     8
 48
0.25
100
AcDbLine
 10
55.54121790651236
 20
-15.95079370016525
 30
0.0
 11
55.43429882331235
 21
-16.23137368256524
 31
0.0
  0
LINE
  5
363
330
2
100
AcDbEntity
  8
0
  6
HIDDEN
 62
     8
 48
0.25
100
AcDbLine
 10
54.84311240251234
 20
-18.12859245056525
 30
0.0
 11
54.83866365051234
 21
-17.96317066816526
 31
0.0
  0
LINE
  5
364
330
2
100
AcDbEntity
  8
0
  6
HIDDEN
 62
     8
 48
0.25
100
AcDbLine
 10
54.23347944251235
 20
-17.63463910976527
 30
0.0
 11
54.12967052251237
 21
-18.11225546336525
 31
0.0
  0
LINE
  5
365
330
2
100
AcDbEntity
  8
0
  6
HIDDEN
 62
     8
 48
0.25
100
AcDbLine
 10
54.34373313851235
 20
-17.19228039296526
 30
0.0
 11
54.23347944251235
 21
-17.63463910976527
 31
0.0
  0
LINE
  5
366
330
2
100
AcDbEntity
  8
0
  6
HIDDEN
 62
     8
 48
0.25
100
AcDbLine
 10
54.46028292411234
 20
-16.76857149536524
 30
0.0
 11
54.34373313851235
 21
-17.19228039296526
 31
0.0
  0
LINE
  5
367
330
2
100
AcDbEntity
  8
0
  6
HIDDEN
 62
     8
 48
0.25
100
AcDbLine
 10
54.58134074331237
 20
-16.35939228416526
 30
0.0
 11
54.46028292411234
 21
-16.76857149536524
 31
0.0
  0
LINE
  5
368
330
2
100
AcDbEntity
  8
0
  6
HIDDEN
 62
     8
 48
0.25
100
AcDbLine
 10
54.69835353051234
 20
-15.98868143296525
 30
0.0
 11
54.58134074331237
 21
-16.35939228416526
 31
0.0
  0
LINE
  5
369
330
2
100
AcDbEntity
  8
0
  6
HIDDEN
 62
     8
 48
0.25
100
AcDbLine
 10
54.80119520091235
 20
-15.67082339616527
 30
0.0
 11
54.69835353051234
 21
-15.98868143296525
 31
0.0
  0
LINE
  5
36A
330
2
100
AcDbEntity
  8
0
  6
HIDDEN
 62
     8
 48
0.25
100
AcDbLine
 10
54.89041059771238
 20
-15.39486251456526
 30
0.0
 11
54.80119520091235
 21
-15.67082339616527
 31
0.0
  0
LINE
  5
36B
330
2
100
AcDbEntity
  8
0
  6
HIDDEN
 62
     8
 48
0.25
100
AcDbLine
 10
60.66682843291234
 20
-18.29315899456526
 30
0.0
 11
60.67795573371235
 21
-18.12859245056525
 31
0.0
  0
LINE
  5
36C
330
2
100
AcDbEntity
  8
0
  6
HIDDEN
 62
     8
 48
0.25
100
AcDbLine
 10
61.38650544571236
 20
-18.27011189536526
 30
0.0
 11
61.39139707931234
 21
-18.11225128576526
 31
0.0
  0
LINE
  5
36D
330
2
100
AcDbEntity
  8
0
  6
HIDDEN
 62
     8
 48
0.25
100
AcDbLine
 10
60.22220139931234
 20
-19.68235793056526
 30
0.0
 11
60.29010817531236
 21
-19.57748019616526
 31
0.0
  0
LINE
  5
36E
330
2
100
AcDbEntity
  8
0
  6
HIDDEN
 62
     8
 48
0.25
100
AcDbLine
 10
60.15038058811235
 20
-19.77695556416525
 30
0.0
 11
60.22220139931234
 21
-19.68235793056526
 31
0.0
  0
LINE
  5
36F
330
2
100
AcDbEntity
  8
0
  6
HIDDEN
 62
     8
 48
0.25
100
AcDbLine
 10
60.07508139291234
 20
-19.86069928416524
 30
0.0
 11
60.15038058811235
 21
-19.77695556416525
 31
0.0
  0
LINE
  5
370
330
2
100
AcDbEntity
  8
0
  6
HIDDEN
 62
     8
 48
0.25
100
AcDbLine
 10
59.99676056251236
 20
-19.93308111776526
 30
0.0
 11
60.07508139291234
 21
-19.86069928416524
 31
0.0
  0
LINE
  5
371
330
2
100
AcDbEntity
  8
0
  6
HIDDEN
 62
     8
 48
0.25
100
AcDbLine
 10
59.91589317691235
 20
-19.99366200736526
 30
0.0
 11
59.99676056251236
 21
-19.93308111776526
 31
0.0
  0
LINE
  5
372
330
2
100
AcDbEntity
  8
0
  6
HIDDEN
 62
     8
 48
0.25
100
AcDbLine
 10
59.83296976091235
 20
-20.04207448256527
 30
0.0
 11
59.91589317691235
 21
-19.99366200736526
 31
0.0
  0
LINE
  5
373
330
2
100
AcDbEntity
  8
0
  6
HIDDEN
 62
     8
 48
0.25
100
AcDbLine
 10
59.74849331131235
 20
-20.07802488096526
 30
0.0
 11
59.83296976091235
 21
-20.04207448256527
 31
0.0
  0
LINE
  5
374
330
2
100
AcDbEntity
  8
0
  6
HIDDEN
 62
     8
 48
0.25
100
AcDbLine
 10
59.66297624571236
 20
-20.10129513216524
 30
0.0
 11
59.74849331131235
 21
-20.07802488096526
 31
0.0
  0
LINE
  5
375
330
2
100
AcDbEntity
  8
0
  6
HIDDEN
 62
     8
 48
0.25
100
AcDbLine
 10
59.57693729211233
 20
-20.11174408576526
 30
0.0
 11
59.66297624571236
 21
-20.10129513216524
 31
0.0
  0
LINE
  5
376
330
2
100
AcDbEntity
  8
0
  6
HIDDEN
 62
     8
 48
0.25
100
AcDbLine
 10
60.64909007931233
 20
-18.45587206816524
 30
0.0
 11
60.66682843291234
 21
-18.29315899456526
 31
0.0
  0
LINE
  5
377
330
2
100
AcDbEntity
  8
0
  6
HIDDEN
 62
     8
 48
0.25
100
AcDbLine
 10
60.62484826811235
 20
-18.61574468416525
 30
0.0
 11
60.64909007931233
 21
-18.45587206816524
 31
0.0
  0
LINE
  5
378
330
2
100
AcDbEntity
  8
0
  6
HIDDEN
 62
     8
 48
0.25
100
AcDbLine
 10
60.59425004571237
 20
-18.77180708576526
 30
0.0
 11
60.62484826811235
 21
-18.61574468416525
 31
0.0
  0
LINE
  5
379
330
2
100
AcDbEntity
  8
0
  6
HIDDEN
 62
     8
 48
0.25
100
AcDbLine
 10
60.55748101531237
 20
-18.92311262176525
 30
0.0
 11
60.59425004571237
 21
-18.77180708576526
 31
0.0
  0
LINE
  5
37A
330
2
100
AcDbEntity
  8
0
  6
HIDDEN
 62
     8
 48
0.25
100
AcDbLine
 10
60.29010817531236
 20
-19.57748019616526
 30
0.0
 11
60.35368900571238
 21
-19.46295853056526
 31
0.0
  0
LINE
  5
37B
330
2
100
AcDbEntity
  8
0
  6
HIDDEN
 62
     8
 48
0.25
100
AcDbLine
 10
61.37850110491235
 20
-18.42648656736526
 30
0.0
 11
61.38650544571236
 21
-18.27011189536526
 31
0.0
  0
LINE
  5
37C
330
2
100
AcDbEntity
  8
0
  6
HIDDEN
 62
     8
 48
0.25
100
AcDbLine
 10
61.36742857851236
 20
-18.58050544736526
 30
0.0
 11
61.37850110491235
 21
-18.42648656736526
 31
0.0
  0
LINE
  5
37D
330
2
100
AcDbEntity
  8
0
  6
HIDDEN
 62
     8
 48
0.25
100
AcDbLine
 10
61.35334946171237
 20
-18.73131179136525
 30
0.0
 11
61.36742857851236
 21
-18.58050544736526
 31
0.0
  0
LINE
  5
37E
330
2
100
AcDbEntity
  8
0
  6
HIDDEN
 62
     8
 48
0.25
100
AcDbLine
 10
61.33634206811236
 20
-18.87806671776525
 30
0.0
 11
61.35334946171237
 21
-18.73131179136525
 31
0.0
  0
LINE
  5
37F
330
2
100
AcDbEntity
  8
0
  6
HIDDEN
 62
     8
 48
0.25
100
AcDbLine
 10
61.31650100411237
 20
-19.01995388576526
 30
0.0
 11
61.33634206811236
 21
-18.87806671776525
 31
0.0
  0
LINE
  5
380
330
2
100
AcDbEntity
  8
0
  6
HIDDEN
 62
     8
 48
0.25
100
AcDbLine
 10
61.14514720731238
 20
-19.72728823136525
 30
0.0
 11
61.17916846811237
 21
-19.62993757856526
 31
0.0
  0
LINE
  5
381
330
2
100
AcDbEntity
  8
0
  6
HIDDEN
 62
     8
 48
0.25
100
AcDbLine
 10
61.10935581691236
 20
-19.81504722976525
 30
0.0
 11
61.14514720731238
 21
-19.72728823136525
 31
0.0
  0
LINE
  5
382
330
2
100
AcDbEntity
  8
0
  6
HIDDEN
 62
     8
 48
0.25
100
AcDbLine
 10
61.07199338811234
 20
-19.89272640416526
 30
0.0
 11
61.10935581691236
 21
-19.81504722976525
 31
0.0
  0
LINE
  5
383
330
2
100
AcDbEntity
  8
0
  6
HIDDEN
 62
     8
 48
0.25
100
AcDbLine
 10
61.03326775291235
 20
-19.95989365376525
 30
0.0
 11
61.07199338811234
 21
-19.89272640416526
 31
0.0
  0
LINE
  5
384
330
2
100
AcDbEntity
  8
0
  6
HIDDEN
 62
     8
 48
0.25
100
AcDbLine
 10
60.99339432891238
 20
-20.01617535296524
 30
0.0
 11
61.03326775291235
 21
-19.95989365376525
 31
0.0
  0
LINE
  5
385
330
2
100
AcDbEntity
  8
0
  6
HIDDEN
 62
     8
 48
0.25
100
AcDbLine
 10
60.95259491451234
 20
-20.06125842816526
 30
0.0
 11
60.99339432891238
 21
-20.01617535296524
 31
0.0
  0
LINE
  5
386
330
2
100
AcDbEntity
  8
0
  6
HIDDEN
 62
     8
 48
0.25
100
AcDbLine
 10
60.91109646171235
 20
-20.09489210016526
 30
0.0
 11
60.95259491451234
 21
-20.06125842816526
 31
0.0
  0
LINE
  5
387
330
2
100
AcDbEntity
  8
0
  6
HIDDEN
 62
     8
 48
0.25
100
AcDbLine
 10
60.86912980891238
 20
-20.11688927616526
 30
0.0
 11
60.91109646171235
 21
-20.09489210016526
 31
0.0
  0
LINE
  5
388
330
2
100
AcDbEntity
  8
0
  6
HIDDEN
 62
     8
 48
0.25
100
AcDbLine
 10
60.82692840251233
 20
-20.12712759456526
 30
0.0
 11
60.86912980891238
 21
-20.11688927616526
 31
0.0
  0
LINE
  5
389
330
2
100
AcDbEntity
  8
0
  6
HIDDEN
 62
     8
 48
0.25
100
AcDbLine
 10
60.08676931131235
 20
-16.23137368256524
 30
0.0
 11
60.20755751931234
 21
-16.54357127936527
 31
0.0
  0
LINE
  5
38A
330
2
100
AcDbEntity
  8
0
  6
HIDDEN
 62
     8
 48
0.25
100
AcDbLine
 10
59.97985022811234
 20
-15.95079370016525
 30
0.0
 11
60.08676931131235
 21
-16.23137368256524
 31
0.0
  0
LINE
  5
38B
330
2
100
AcDbEntity
  8
0
  6
HIDDEN
 62
     8
 48
0.25
100
AcDbLine
 10
59.88633597211235
 20
-15.69655150016525
 30
0.0
 11
59.97985022811234
 21
-15.95079370016525
 31
0.0
  0
LINE
  5
38C
330
2
100
AcDbEntity
  8
0
  6
HIDDEN
 62
     8
 48
0.25
100
AcDbLine
 10
60.67795573371235
 20
-18.12859245056525
 30
0.0
 11
60.68240448411238
 21
-17.96317066816526
 31
0.0
  0
LINE
  5
38D
330
2
100
AcDbEntity
  8
0
  6
HIDDEN
 62
     8
 48
0.25
100
AcDbLine
 10
61.28758869371235
 20
-17.63463910976527
 30
0.0
 11
61.39139761211236
 21
-18.11225546336525
 31
0.0
  0
LINE
  5
38E
330
2
100
AcDbEntity
  8
0
  6
HIDDEN
 62
     8
 48
0.25
100
AcDbLine
 10
61.17733499611235
 20
-17.19228039296526
 30
0.0
 11
61.28758869371235
 21
-17.63463910976527
 31
0.0
  0
LINE
  5
38F
330
2
100
AcDbEntity
  8
0
  6
HIDDEN
 62
     8
 48
0.25
100
AcDbLine
 10
61.06078521051237
 20
-16.76857149536524
 30
0.0
 11
61.17733499611235
 21
-17.19228039296526
 31
0.0
  0
LINE
  5
390
330
2
100
AcDbEntity
  8
0
  6
HIDDEN
 62
     8
 48
0.25
100
AcDbLine
 10
60.93972739131236
 20
-16.35939228416526
 30
0.0
 11
61.06078521051237
 21
-16.76857149536524
 31
0.0
  0
LINE
  5
391
330
2
100
AcDbEntity
  8
0
  6
HIDDEN
 62
     8
 48
0.25
100
AcDbLine
 10
60.82271460411236
 20
-15.98868143296525
 30
0.0
 11
60.93972739131236
 21
-16.35939228416526
 31
0.0
  0
LINE
  5
392
330
2
100
AcDbEntity
  8
0
  6
HIDDEN
 62
     8
 48
0.25
100
AcDbLine
 10
60.71987293371235
 20
-15.67082339616527
 30
0.0
 11
60.82271460411236
 21
-15.98868143296525
 31
0.0
  0
LINE
  5
393
330
2
100
AcDbEntity
  8
0
  6
HIDDEN
 62
     8
 48
0.25
100
AcDbLine
 10
60.63065753851235
 20
-15.39486251456526
 30
0.0
 11
60.71987293371235
 21
-15.67082339616527
 31
0.0
  0
LINE
  5
394
330
2
100
AcDbEntity
  8
0
  6
HIDDEN
 62
     8
 48
0.25
100
AcDbLine
 10
60.57441513371237
 20
-17.58436612416525
 30
0.0
 11
60.68240458491236
 21
-17.96317065696526
 31
0.0
  0
LINE
  5
395
330
2
100
AcDbEntity
  8
0
  6
HIDDEN
 62
     8
 48
0.25
100
AcDbLine
 10
56.48518527291234
 20
-12.29919217056524
 30
0.0
 11
56.36623242171236
 21
-12.99731076576525
 31
0.0
  0
LINE
  5
396
330
2
100
AcDbEntity
  8
0
  6
HIDDEN
 62
     8
 48
0.25
100
AcDbLine
 10
56.01125969851235
 20
-14.50512644896525
 30
0.0
 11
55.93412276731235
 21
-14.77581352256525
 31
0.0
  0
LINE
  5
397
330
2
100
AcDbEntity
  8
0
  6
HIDDEN
 62
     8
 48
0.25
100
AcDbLine
 10
55.86136344571234
 20
-15.01799687616524
 30
0.0
 11
55.79145621691235
 21
-15.23904925696525
 31
0.0
  0
LINE
  5
398
330
2
100
AcDbEntity
  8
0
  6
HIDDEN
 62
     8
 48
0.25
100
AcDbLine
 10
55.93412276731235
 20
-14.77581352256525
 30
0.0
 11
55.86136344571234
 21
-15.01799687616524
 31
0.0
  0
LINE
  5
399
330
2
100
AcDbEntity
  8
0
  6
HIDDEN
 62
     8
 48
0.25
100
AcDbLine
 10
55.16909752251236
 20
-14.45766434496526
 30
0.0
 11
55.10193141051233
 21
-14.70203907296524
 31
0.0
  0
LINE
  5
39A
330
2
100
AcDbEntity
  8
0
  6
HIDDEN
 62
     8
 48
0.25
100
AcDbLine
 10
55.24110564891235
 20
-14.18033903296525
 30
0.0
 11
55.16909752251236
 21
-14.45766434496526
 31
0.0
  0
LINE
  5
39B
330
2
100
AcDbEntity
  8
0
  6
HIDDEN
 62
     8
 48
0.25
100
AcDbLine
 10
55.39132394171234
 20
-13.49277837536527
 30
0.0
 11
55.21915140411237
 21
-14.20486807456526
 31
0.0
  0
LINE
  5
39C
330
2
100
AcDbEntity
  8
0
  6
HIDDEN
 62
     8
 48
0.25
100
AcDbLine
 10
55.54662660091235
 20
-12.75878678336528
 30
0.0
 11
55.39132394171234
 21
-13.49277837536527
 31
0.0
  0
LINE
  5
39D
330
2
100
AcDbEntity
  8
0
  6
HIDDEN
 62
     8
 48
0.25
100
AcDbLine
 10
55.80696160571235
 20
-10.91815914336526
 30
0.0
 11
55.74684022811236
 21
-11.49352732736524
 31
0.0
  0
LINE
  5
39E
330
2
100
AcDbEntity
  8
0
  6
HIDDEN
 62
     8
 48
0.25
100
AcDbLine
 10
55.85277873851236
 20
-10.40310449216524
 30
0.0
 11
55.80696160571235
 21
-10.91815914336526
 31
0.0
  0
LINE
  5
39F
330
2
100
AcDbEntity
  8
0
  6
HIDDEN
 62
     8
 48
0.25
100
AcDbLine
 10
55.89306273371237
 20
-9.936000434565244
 30
0.0
 11
55.85277873851236
 21
-10.40310449216524
 31
0.0
  0
LINE
  5
3A0
330
2
100
AcDbEntity
  8
0
  6
HIDDEN
 62
     8
 48
0.25
100
AcDbLine
 10
55.93256020731236
 20
-9.511676424965266
 30
0.0
 11
55.89306273371237
 21
-9.936000434565244
 31
0.0
  0
LINE
  5
3A1
330
2
100
AcDbEntity
  8
0
  6
HIDDEN
 62
     8
 48
0.25
100
AcDbLine
 10
56.56769837051236
 20
-11.64657798976524
 30
0.0
 11
56.48518527291234
 21
-12.29919217056524
 31
0.0
  0
LINE
  5
3A2
330
2
100
AcDbEntity
  8
0
  6
HIDDEN
 62
     8
 48
0.25
100
AcDbLine
 10
56.69906871131233
 20
-10.05128887776526
 30
0.0
 11
56.66585765051234
 21
-10.51944636256527
 31
0.0
  0
LINE
  5
3A3
330
2
100
AcDbEntity
  8
0
  6
HIDDEN
 62
     8
 48
0.25
100
AcDbLine
 10
56.72833558651236
 20
-9.632655228165248
 30
0.0
 11
56.69906871131233
 21
-10.05128887776526
 31
0.0
  0
LINE
  5
3A4
330
2
100
AcDbEntity
  8
0
  6
HIDDEN
 62
     8
 48
0.25
100
AcDbLine
 10
60.12974419291236
 20
-13.49277837536527
 30
0.0
 11
60.30191673211236
 21
-14.20486807456526
 31
0.0
  0
LINE
  5
3A5
330
2
100
AcDbEntity
  8
0
  6
HIDDEN
 62
     8
 48
0.25
100
AcDbLine
 10
59.31991840251235
 20
-13.76626924576525
 30
0.0
 11
59.50980843611235
 21
-14.50512644896525
 31
0.0
  0
LINE
  5
3A6
330
2
100
AcDbEntity
  8
0
  6
HIDDEN
 62
     8
 48
0.25
100
AcDbLine
 10
59.15483571451237
 20
-12.99731076576525
 30
0.0
 11
59.31991840251235
 21
-13.76626924576525
 31
0.0
  0
LINE
  5
3A7
330
2
100
AcDbEntity
  8
0
  6
HIDDEN
 62
     8
 48
0.25
100
AcDbLine
 10
59.97444153371235
 20
-12.75878678336528
 30
0.0
 11
60.12974419291236
 21
-13.49277837536527
 31
0.0
  0
LINE
  5
3A8
330
2
100
AcDbEntity
  8
0
  6
HIDDEN
 62
     8
 48
0.25
100
AcDbLine
 10
59.58694536891234
 20
-14.77581352256525
 30
0.0
 11
59.65970468891235
 21
-15.01799687616524
 31
0.0
  0
LINE
  5
3A9
330
2
100
AcDbEntity
  8
0
  6
HIDDEN
 62
     8
 48
0.25
100
AcDbLine
 10
59.50980843611235
 20
-14.50512644896525
 30
0.0
 11
59.58694536891234
 21
-14.77581352256525
 31
0.0
  0
LINE
  5
3AA
330
2
100
AcDbEntity
  8
0
  6
HIDDEN
 62
     8
 48
0.25
100
AcDbLine
 10
60.27996248731238
 20
-14.18033903296525
 30
0.0
 11
60.35197061371237
 21
-14.45766434496526
 31
0.0
  0
LINE
  5
3AB
330
2
100
AcDbEntity
  8
0
  6
HIDDEN
 62
     8
 48
0.25
100
AcDbLine
 10
58.95336976411236
 20
-11.64657798976524
 30
0.0
 11
59.03588286331235
 21
-12.29919217056524
 31
0.0
  0
LINE
  5
3AC
330
2
100
AcDbEntity
  8
0
  6
HIDDEN
 62
     8
 48
0.25
100
AcDbLine
 10
58.89638952571236
 20
-11.04519929856525
 30
0.0
 11
58.95336976411236
 21
-11.64657798976524
 31
0.0
  0
LINE
  5
3AD
330
2
100
AcDbEntity
  8
0
  6
HIDDEN
 62
     8
 48
0.25
100
AcDbLine
 10
58.85521048571236
 20
-10.51944636256527
 30
0.0
 11
58.89638952571236
 21
-11.04519929856525
 31
0.0
  0
LINE
  5
3AE
330
2
100
AcDbEntity
  8
0
  6
HIDDEN
 62
     8
 48
0.25
100
AcDbLine
 10
58.82199942331236
 20
-10.05128887776526
 30
0.0
 11
58.85521048571236
 21
-10.51944636256527
 31
0.0
  0
LINE
  5
3AF
330
2
100
AcDbEntity
  8
0
  6
HIDDEN
 62
     8
 48
0.25
100
AcDbLine
 10
58.79273254811234
 20
-9.632655228165248
 30
0.0
 11
58.82199942331236
 21
-10.05128887776526
 31
0.0
  0
LINE
  5
3B0
330
2
100
AcDbEntity
  8
0
  6
HIDDEN
 62
     8
 48
0.25
100
AcDbLine
 10
59.77422790811236
 20
-11.49352732736524
 30
0.0
 11
59.85794526491234
 21
-12.10282951616525
 31
0.0
  0
LINE
  5
3B1
330
2
100
AcDbEntity
  8
0
  6
HIDDEN
 62
     8
 48
0.25
100
AcDbLine
 10
59.66828939771237
 20
-10.40310449216524
 30
0.0
 11
59.71410653051235
 21
-10.91815914336526
 31
0.0
  0
LINE
  5
3B2
330
2
100
AcDbEntity
  8
0
  6
HIDDEN
 62
     8
 48
0.25
100
AcDbLine
 10
59.62800540251236
 20
-9.936000434565244
 30
0.0
 11
59.66828939771237
 21
-10.40310449216524
 31
0.0
  0
LINE
  5
3B3
330
2
100
AcDbEntity
  8
0
  6
HIDDEN
 62
     8
 48
0.25
100
AcDbLine
 10
59.58850792891237
 20
-9.511676424965266
 30
0.0
 11
59.62800540251236
 21
-9.936000434565244
 31
0.0
  0
LWPOLYLINE
  5
3B4
330
2
100
AcDbEntity
  8
0
  6
CONTINUOUS
 62
     7
100
AcDbPolyline
 90
       40
 70
     0
 43
0.0
 10
66.96141300411238
 20
-17.46335185856526
 10
66.98262922011237
 20
-17.19857560576524
 10
66.99349754491239
 20
-17.06364943456525
 10
67.00453818491239
 20
-16.92710936096526
 10
67.01575004731235
 20
-16.78900229216525
 10
67.02713232411237
 20
-16.64937212576526
 10
67.03868470331237
 20
-16.50826009536526
 10
67.05040975451236
 20
-16.36567467776524
 10
67.06232582331238
 20
-16.22143492736526
 10
67.07445712411235
 20
-16.07529417536524
 10
67.08682856411236
 20
-15.92700391456526
 10
67.09946568411236
 20
-15.77631469856525
 10
67.11239472571235
 20
-15.62297520256525
 10
67.12564280251235
 20
-15.46673164576525
 10
67.13923797051235
 20
-15.30732802976525
 10
67.15320930651238
 20
-15.14450592576526
 10
67.16758702811238
 20
-14.97800390816524
 10
67.18241384571236
 20
-14.80742837856524
 10
67.19776365371238
 20
-14.63204625376527
 10
67.21371977051235
 20
-14.45104441376527
 10
67.23036515931237
 20
-14.26364560896525
 10
67.24772861691239
 20
-14.06971226176528
 10
67.26577108571236
 20
-13.86987533536524
 10
67.28444878491238
 20
-13.66480842656526
 10
67.30371693851238
 20
-13.45518278016525
 10
67.32352947451237
 20
-13.24166806816527
 10
67.34383867131239
 20
-13.02493379776525
 10
67.3646068553124
 20
-12.80552387936527
 10
67.38584607771237
 20
-12.58343597376526
 10
67.40756879131239
 20
-12.35856230176528
 10
67.42978543131236
 20
-12.13076436896526
 10
67.45250576091236
 20
-11.89990897376524
 10
67.47573387931236
 20
-11.66589282976524
 10
67.49946832411236
 20
-11.42861445056524
 10
67.52370626811238
 20
-11.18797033376525
 10
67.54844399931236
 20
-10.94385688256525
 10
67.57367790651237
 20
-10.69617189376527
 10
67.59940286491239
 20
-10.44481977056526
 10
67.62561175611238
 20
-10.18970967296525
 10
67.65229470331239
 20
-9.930755928965268
  0
LWPOLYLINE
  5
3DE
330
2
100
AcDbEntity
  8
0
  6
CONTINUOUS
 62
     7
100
AcDbPolyline
 90
       10
 70
     0
 43
0.0
 10
67.55731575771237
 20
-18.35345760896525
 10
67.56958106171238
 20
-18.17331742656524
 10
67.63193918651238
 20
-17.27858876416525
 10
67.69615601211235
 20
-16.44076913696525
 10
67.76525479931236
 20
-15.65956625056524
 10
67.84354622651237
 20
-14.91120859296526
 10
67.93499246331238
 20
-14.16440723296527
 10
68.04142282011238
 20
-13.38600514496527
 10
68.16461708571235
 20
-12.54254311296524
 10
68.27667068091237
 20
-11.79309387776526
  0
LWPOLYLINE
  5
3EA
330
2
100
AcDbEntity
  8
0
  6
CONTINUOUS
 62
     7
100
AcDbPolyline
 90
       49
 70
     0
 43
0.0
 10
66.6350759369124
 20
-20.89175106336524
 10
66.6393964969124
 20
-20.88405348416525
 10
66.64846326651236
 20
-20.86744618176526
 10
66.65718352251237
 20
-20.85102624256526
 10
66.66556346971238
 20
-20.83480640416524
 10
66.67360937691238
 20
-20.81879929056526
 10
66.68132757851238
 20
-20.80301739936526
 10
66.68872448891234
 20
-20.78747308576525
 10
66.69580653851237
 20
-20.77217880576525
 10
66.70257946971237
 20
-20.75714918336525
 10
66.70904774331238
 20
-20.74240227776525
 10
66.71521586971237
 20
-20.72795660896525
 10
66.72108855931238
 20
-20.71383082496525
 10
66.72667087451237
 20
-20.70004347296524
 10
66.73197398011239
 20
-20.68659828256524
 10
66.73701315611236
 20
-20.67348693856526
 10
66.74180288251237
 20
-20.66070081056526
 10
66.74635675291238
 20
-20.64823137856524
 10
66.75068743291236
 20
-20.63607052096525
 10
66.75479493211234
 20
-20.62424501536527
 10
66.75864949851238
 20
-20.61287204896525
 10
66.76221836731237
 20
-20.60208807936526
 10
66.76545686331239
 20
-20.59207733696526
 10
66.76852617051235
 20
-20.58237953216524
 10
66.77165810331239
 20
-20.57226008736525
 10
66.77456390651236
 20
-20.56265883936525
 10
66.7774380137124
 20
-20.55295187296526
 10
66.78056448571236
 20
-20.54213851936526
 10
66.78400326651239
 20
-20.52991034656526
 10
66.78735372251235
 20
-20.51762730336526
 10
66.79063004891235
 20
-20.50523010176525
 10
66.79384599131238
 20
-20.49265431456525
 10
66.79701548891235
 20
-20.47982597216525
 10
66.80012320251235
 20
-20.46678519616527
 10
66.80315728411237
 20
-20.45356269696525
 10
66.80610814971238
 20
-20.44018364096526
 10
66.80896938171237
 20
-20.42666121216524
 10
66.81173674491238
 20
-20.41299928896526
 10
66.81440795931236
 20
-20.39919256096526
 10
66.81698399931237
 20
-20.38521726336524
 10
66.81947055931236
 20
-20.37101797696525
 10
66.82186499451238
 20
-20.35657922816526
 10
66.82383768731234
 20
-20.34403347936525
 10
66.82594042171238
 20
-20.32991237856526
 10
66.82804895931237
 20
-20.31482719296526
 10
66.83031547611237
 20
-20.29733731456527
 10
66.83249894011239
 20
-20.27890741056527
 10
66.83419918011238
 20
-20.26317732736524
 10
66.83571670971237
 20
-20.24774647936526
  0
ARC
  5
41D
330
2
100
AcDbEntity
  8
0
  6
HIDDEN
 62
     8
 48
0.5
100
AcDbCircle
 10
64.70996690378656
 20
-18.41886032687588
 30
0.0
 40
2.205198345418603
100
AcDbArc
 50
300.7623452103768
 51
345.2305386216153
  0
LINE
  5
41E
330
2
100
AcDbEntity
  8
0
  6
HIDDEN
 62
     8
100
AcDbLine
 10
65.93632222491239
 20
-20.23564593536524
 30
0.0
 11
65.92807145851238
 21
-20.24091120736525
 31
0.0
  0
LINE
  5
41F
330
2
100
AcDbEntity
  8
0
  6
CONTINUOUS
 62
     7
100
AcDbLine
 10
66.87436433691239
 20
-18.56157245216525
 30
0.0
 11
66.90185226171239
 21
-18.21373061536525
 31
0.0
  0
LINE
  5
420
330
2
100
AcDbEntity
  8
0
  6
CONTINUOUS
 62
     7
100
AcDbLine
 10
66.95877207771236
 20
-18.95492779616525
 30
0.0
 11
66.95905443611237
 21
-18.95323519296526
 31
0.0
  0
LWPOLYLINE
  5
421
330
2
100
AcDbEntity
  8
0
  6
CONTINUOUS
 62
     7
100
AcDbPolyline
 90
        4
 70
     0
 43
0.0
 10
66.95596741051234
 20
-18.97324205536526
 10
66.95771761371237
 20
-18.96157141696525
 10
66.95833643291236
 20
-18.95762527616526
 10
66.95877207771236
 20
-18.95492779616525
  0
LINE
  5
427
330
2
100
AcDbEntity
  8
0
  6
CONTINUOUS
 62
     7
100
AcDbLine
 10
66.95358218171238
 20
-18.99005095456525
 30
0.0
 11
66.95596741051234
 21
-18.97324205536526
 31
0.0
  0
LINE
  5
428
330
2
100
AcDbEntity
  8
0
  6
CONTINUOUS
 62
     7
100
AcDbLine
 10
66.95060248091237
 20
-19.01219588256525
 30
0.0
 11
66.95358218171238
 21
-18.99005095456525
 31
0.0
  0
LWPOLYLINE
  5
429
330
2
100
AcDbEntity
  8
0
  6
CONTINUOUS
 62
     7
100
AcDbPolyline
 90
        5
 70
     0
 43
0.0
 10
66.71995212251236
 20
-20.48363148096524
 10
66.72242577051235
 20
-20.45349553216524
 10
66.72570294011238
 20
-20.41356225536524
 10
66.72952969051237
 20
-20.36690636096526
 10
66.73858994651239
 20
-20.25627814976524
  0
LINE
  5
430
330
2
100
AcDbEntity
  8
0
  6
CONTINUOUS
 62
     7
100
AcDbLine
 10
66.83571670971237
 20
-20.24774647936526
 30
0.0
 11
66.83709628251235
 21
-20.23206369536524
 31
0.0
  0
LINE
  5
431
330
2
100
AcDbEntity
  8
0
  6
CONTINUOUS
 62
     7
100
AcDbLine
 10
66.83671775771237
 20
-20.23518361536525
 30
0.0
 11
66.84739296251236
 21
-20.10510291776525
 31
0.0
  0
LWPOLYLINE
  5
432
330
2
100
AcDbEntity
  8
0
  6
CONTINUOUS
 62
     7
100
AcDbPolyline
 90
        3
 70
     0
 43
0.0
 10
66.73858994651239
 20
-20.25627814976524
 10
66.74372699131239
 20
-20.19342864096526
 10
66.76736176411235
 20
-19.90289585536526
  0
LINE
  5
437
330
2
100
AcDbEntity
  8
0
  6
CONTINUOUS
 62
     7
100
AcDbLine
 10
66.76736176411235
 20
-19.90289585536526
 30
0.0
 11
66.78756655291237
 21
-19.65261205536526
 31
0.0
  0
LINE
  5
438
330
2
100
AcDbEntity
  8
0
  6
CONTINUOUS
 62
     7
100
AcDbLine
 10
66.78756655291237
 20
-19.65261205536526
 30
0.0
 11
66.80920685531238
 21
-19.38263091296526
 31
0.0
  0
LWPOLYLINE
  5
439
330
2
100
AcDbEntity
  8
0
  6
CONTINUOUS
 62
     7
100
AcDbPolyline
 90
        3
 70
     0
 43
0.0
 10
66.80920685531238
 20
-19.38263091296526
 10
66.81672384091235
 20
-19.28844303456527
 10
66.84852081531239
 20
-18.88824183296525
  0
LWPOLYLINE
  5
43E
330
2
100
AcDbEntity
  8
0
  6
CONTINUOUS
 62
     7
100
AcDbPolyline
 90
        3
 70
     0
 43
0.0
 10
66.84852081531239
 20
-18.88824183296525
 10
66.85694408891236
 20
-18.78186122656527
 10
66.87436433691239
 20
-18.56157245216525
  0
LWPOLYLINE
  5
443
330
2
100
AcDbEntity
  8
0
  6
CONTINUOUS
 62
     7
100
AcDbPolyline
 90
       12
 70
     0
 43
0.0
 10
66.87028099931236
 20
-19.83115642336525
 10
66.93466021211235
 20
-19.76701877056525
 10
67.02503623131237
 20
-19.66619022336525
 10
67.11492773691237
 20
-19.55265505536525
 10
67.20154334811237
 20
-19.42731767136526
 10
67.28231380891235
 20
-19.29154851936525
 10
67.35529797691238
 20
-19.14654996416526
 10
67.41889555131236
 20
-18.99365932736525
 10
67.47179317691238
 20
-18.83446144576525
 10
67.51303258651238
 20
-18.67063626976526
 10
67.54199946491237
 20
-18.50393551456525
 10
67.55731113211236
 20
-18.35336344896527
  0
LWPOLYLINE
  5
451
330
2
100
AcDbEntity
  8
0
  6
CONTINUOUS
 62
     7
100
AcDbPolyline
 90
       29
 70
     0
 43
0.0
 10
66.84739296251236
 20
-20.10510291776525
 10
66.85878634331238
 20
-19.96761997376526
 10
66.86417967131238
 20
-19.90324775616524
 10
66.86937242811239
 20
-19.84180457216526
 10
66.87437083931236
 20
-19.78322492256526
 10
66.87918178171237
 20
-19.72742564256525
 10
66.88381257371237
 20
-19.67431091776527
 10
66.8882708201124
 20
-19.62377634496525
 10
66.89256434651237
 20
-19.57571147296526
 10
66.89670046971237
 20
-19.53000941216524
 10
66.90068565531238
 20
-19.48657115936526
 10
66.90452619451237
 20
-19.44529883296524
 10
66.90822814811237
 20
-19.40609675296526
 10
66.91179729691238
 20
-19.36887253856524
 10
66.91523909691238
 20
-19.33353789216526
 10
66.91855825851239
 20
-19.30001294496526
 10
66.92175665691239
 20
-19.26824670496525
 10
66.92483500251235
 20
-19.23819874816526
 10
66.92779389691238
 20
-19.20982851776526
 10
66.93063365211235
 20
-19.18309716256526
 10
66.93335171291237
 20
-19.15799353536525
 10
66.93594726971237
 20
-19.13449176576526
 10
66.93842022011238
 20
-19.11255688736525
 10
66.94076987771236
 20
-19.09215638496525
 10
66.94299492731237
 20
-19.07326044736525
 10
66.94509343611237
 20
-19.05584167616525
 10
66.94706296091236
 20
-19.03987402656525
 10
66.94890051131237
 20
-19.02533297216526
 10
66.95060248091237
 20
-19.01219588256525
  0
LINE
  5
470
330
2
100
AcDbEntity
  8
0
  6
CONTINUOUS
 62
     7
100
AcDbLine
 10
66.94088430811238
 20
-17.72104608096526
 30
0.0
 11
66.96141300411238
 21
-17.46335185856526
 31
0.0
  0
LINE
  5
471
330
2
100
AcDbEntity
  8
0
  6
CONTINUOUS
 62
     7
100
AcDbLine
 10
66.92103360251237
 20
-17.97128990016526
 30
0.0
 11
66.94088430811238
 21
-17.72104608096526
 31
0.0
  0
LINE
  5
472
330
2
100
AcDbEntity
  8
0
  6
CONTINUOUS
 62
     7
100
AcDbLine
 10
66.90185226171239
 20
-18.21373061536525
 30
0.0
 11
66.92103360251237
 21
-17.97128990016526
 31
0.0
  0
LWPOLYLINE
  5
486
330
2
100
AcDbEntity
  8
0
  6
CONTINUOUS
 62
     7
100
AcDbPolyline
 90
       15
 70
     0
 43
0.0
 10
68.20965675611238
 20
-12.24130380736524
 10
68.24264864731235
 20
-12.21285772576527
 10
68.31693067611237
 20
-12.14508250656526
 10
68.38776542491238
 20
-12.07639676096526
 10
68.45530435931237
 20
-12.00662469856526
 10
68.52019247291237
 20
-11.93503961376524
 10
68.58268962331239
 20
-11.86101262976524
 10
68.64264121371239
 20
-11.78420704416524
 10
68.69974714491236
 20
-11.70441675456524
 10
68.75374726171237
 20
-11.62130675136528
 10
68.80429781851238
 20
-11.53451857056526
 10
68.85094054011237
 20
-11.44369471296527
 10
68.89326032891235
 20
-11.34812240736527
 10
68.93049274331237
 20
-11.24746576896525
 10
68.95966608731235
 20
-11.14864489216525
  0
LWPOLYLINE
  5
497
330
2
100
AcDbEntity
  8
0
  6
CONTINUOUS
 62
     7
100
AcDbPolyline
 90
       16
 70
     0
 43
0.0
 10
67.68696521691238
 20
-9.595084828165248
 10
67.69136586491239
 20
-9.617567466565247
 10
67.72949465851239
 20
-9.82799798176525
 10
67.77180162971238
 20
-10.01893260256525
 10
67.82331150331238
 20
-10.19165181856527
 10
67.88348873531238
 20
-10.35272376416527
 10
67.94665790011238
 20
-10.50436443936526
 10
68.00802236731236
 20
-10.64608524096524
 10
68.06503194331238
 20
-10.77857827456524
 10
68.11603357051236
 20
-10.90256044256528
 10
68.16132966811237
 20
-11.02227946816526
 10
68.20200571291237
 20
-11.14335460736527
 10
68.23714186011237
 20
-11.26685271456527
 10
68.26500290651238
 20
-11.39345138656527
 10
68.28324692411236
 20
-11.52557817376526
 10
68.2878080553124
 20
-11.66851279136526
  0
LINE
  5
4A9
330
2
100
AcDbEntity
  8
0
  6
CONTINUOUS
 62
     7
100
AcDbLine
 10
68.27667068091237
 20
-11.79309387776526
 30
0.0
 11
68.2878080553124
 21
-11.66851279136526
 31
0.0
  0
LWPOLYLINE
  5
4AA
330
2
100
AcDbEntity
  8
0
  6
CONTINUOUS
 62
     7
100
AcDbPolyline
 90
        3
 70
     0
 43
0.0
 10
68.95978536411236
 20
-11.14868010496524
 10
68.97921063611237
 20
-11.06487475936527
 10
68.99218816251236
 20
-10.98666578816526
  0
LINE
  5
4AF
330
2
100
AcDbEntity
  8
0
  6
CONTINUOUS
 62
     7
100
AcDbLine
 10
68.99218816251236
 20
-10.98666578816526
 30
0.0
 11
68.99720929211234
 21
-10.94329071456525
 31
0.0
  0
LINE
  5
4B0
330
2
100
AcDbEntity
  8
0
  6
CENTER
 62
     1
100
AcDbLine
 10
57.76110687771236
 20
-2.96998141517804
 30
0.0
 11
57.76110687771236
 21
-8.178097015552509
 31
0.0
  0
LINE
  5
4B2
330
2
100
AcDbEntity
  8
0
  6
CENTER
 62
     1
100
AcDbLine
 10
55.15704907752513
 20
-5.574039215365274
 30
0.0
 11
60.3651646778996
 21
-5.574039215365274
 31
0.0
  0
LINE
  5
4B3
330
2
100
AcDbEntity
  8
0
  6
HIDDEN
 62
     8
 48
0.25
100
AcDbLine
 10
58.05658368091236
 20
-6.931419901765281
 30
0.0
 11
58.11037929051234
 21
-6.957901890565267
 31
0.0
  0
LINE
  5
4B4
330
2
100
AcDbEntity
  8
0
  6
HIDDEN
 62
     8
 48
0.25
100
AcDbLine
 10
58.08508318331236
 20
-6.284302496965274
 30
0.0
 11
58.19005336411236
 21
-6.311895368965274
 31
0.0
  0
LWPOLYLINE
  5
4B5
330
2
100
AcDbEntity
  8
0
  6
CONTINUOUS
 62
     7
100
AcDbPolyline
 90
       19
 70
     0
 43
0.0
 10
57.76053406811236
 20
-4.273799580165267
 10
57.85609553691235
 20
-4.277252356165249
 10
57.95498131931235
 20
-4.288155311365265
 10
58.05607175771235
 20
-4.307207418565248
 10
58.15843071451237
 20
-4.335017872965281
 10
58.26062441691236
 20
-4.371925020165249
 10
58.36099051611235
 20
-4.417906872965268
 10
58.45717669531236
 20
-4.472145165765248
 10
58.54815351611235
 20
-4.534026149765274
 10
58.63344219451237
 20
-4.603150242565249
 10
58.71272365851236
 20
-4.679265887365268
 10
58.78522940891234
 20
-4.761660296965274
 10
58.85052339771236
 20
-4.849835735365275
 10
58.90806763291234
 20
-4.943059490565268
 10
58.95753754011237
 20
-5.040804287365268
 10
58.99852470171236
 20
-5.14227047456525
 10
59.03077446971234
 20
-5.246825760965251
 10
59.05403598651234
 20
-5.353662845765249
 10
59.06815639771237
 20
-5.462073509765268
  0
LWPOLYLINE
  5
4CA
330
2
100
AcDbEntity
  8
0
  6
CONTINUOUS
 62
     7
100
AcDbPolyline
 90
       20
 70
     0
 43
0.0
 10
57.76053406811236
 20
-6.858413242565248
 10
57.85957545851236
 20
-6.854709728965268
 10
57.96059348731235
 20
-6.843234588165266
 10
58.06266231451236
 20
-6.823528551365249
 10
58.16505463291234
 20
-6.795175543365274
 10
58.26659583451236
 20
-6.757966277765248
 10
58.36607354971234
 20
-6.711887221765266
 10
58.46167078331236
 20
-6.657508804165274
 10
58.55244694171235
 20
-6.595281346565258
 10
58.63754401691237
 20
-6.525783367365249
 10
58.71651233051235
 20
-6.449381972165248
 10
58.78865273851237
 20
-6.366753749765265
 10
58.85358629051236
 20
-6.278332583365248
 10
58.91074287931236
 20
-6.184891856965258
 10
58.95980610651235
 20
-6.086950044165249
 10
59.00035981691236
 20
-5.985335146565248
 10
59.03216774491234
 20
-5.880642173765274
 10
59.05497061531237
 20
-5.773719221765269
 10
59.06862718331236
 20
-5.665235463365249
 10
59.07240429211235
 20
-5.574013167365251
  0
LWPOLYLINE
  5
4E0
330
2
100
AcDbEntity
  8
0
  6
CONTINUOUS
 62
     7
100
AcDbPolyline
 90
       20
 70
     0
 43
0.0
 10
59.07303406811236
 20
-5.574039242565248
 10
59.06862682331236
 20
-5.680475805765269
 10
59.05497143611235
 20
-5.788950373765274
 10
59.03217129691235
 20
-5.895864413765274
 10
59.00036758811236
 20
-6.00054899616525
 10
58.95981954331235
 20
-6.102156122565268
 10
58.91076330011235
 20
-6.20009107136525
 10
58.85361497211234
 20
-6.293525866565268
 10
58.78869074011236
 20
-6.381942352965275
 10
58.71656062651236
 20
-6.464567168965274
 10
58.63760339131234
 20
-6.540966608965248
 10
58.55251820091236
 20
-6.610464012165266
 10
58.46175427291235
 20
-6.67269261856525
 10
58.36616878971234
 20
-6.72707423456525
 10
58.26669902171237
 20
-6.773159626565274
 10
58.16515699131234
 20
-6.810378738565248
 10
58.06275298651236
 20
-6.83874333056525
 10
57.96066217371238
 20
-6.858460101765281
 10
57.85961341211235
 20
-6.869942876165268
 10
57.76053406811236
 20
-6.873649229765248
  0
LINE
  5
4F6
330
2
100
AcDbEntity
  8
0
  6
HIDDEN
 62
     8
 48
0.25
100
AcDbLine
 10
57.03244577371235
 20
-6.441459098565275
 30
0.0
 11
56.93939735131234
 21
-6.500388052165249
 31
0.0
  0
LWPOLYLINE
  5
4F7
330
2
100
AcDbEntity
  8
0
  6
CONTINUOUS
 62
     7
100
AcDbPolyline
 90
       20
 70
     0
 43
0.0
 10
57.76053406811236
 20
-6.873649229765248
 10
57.66141232251236
 20
-6.869939698565268
 10
57.56036692411235
 20
-6.85845414016525
 10
57.45829499931237
 20
-6.838738612165251
 10
57.35591540251236
 20
-6.810380104965268
 10
57.25438762651235
 20
-6.773167285765268
 10
57.15493774651235
 20
-6.727094004165266
 10
57.05935905051235
 20
-6.672720890565265
 10
56.96859176891236
 20
-6.610495351365266
 10
56.88349872251236
 20
-6.540996824965247
 10
56.80454180411236
 20
-6.464603268165248
 10
56.73240954171236
 20
-6.381982466565268
 10
56.66748349371236
 20
-6.293571050565248
 10
56.61033105211235
 20
-6.20013830656525
 10
56.56127187451237
 20
-6.102207973765274
 10
56.52071953531235
 20
-6.000603128965273
 10
56.48891182651237
 20
-5.895922492165269
 10
56.46610679131235
 20
-5.789009991365269
 10
56.45244652251235
 20
-5.680538599365249
 10
56.44803406811236
 20
-5.574039215365274
  0
LWPOLYLINE
  5
50D
330
2
100
AcDbEntity
  8
0
  6
CONTINUOUS
 62
     7
100
AcDbPolyline
 90
       20
 70
     0
 43
0.0
 10
56.44866421531237
 20
-5.574013108165274
 10
56.45244616411234
 20
-5.665298274565266
 10
56.46610761691237
 20
-5.77377885376525
 10
56.48891538491234
 20
-5.880700274565249
 10
56.52072731451237
 20
-5.985389298565266
 10
56.56128532571234
 20
-6.087001920965249
 10
56.61035148891234
 20
-6.184939116165274
 10
56.66751219931235
 20
-6.278377797765266
 10
56.73244757051235
 20
-6.366793893765247
 10
56.80459012891235
 20
-6.449418096965274
 10
56.88355812411235
 20
-6.52581360416525
 10
56.96866309371235
 20
-6.595312728965268
 10
57.05944263451236
 20
-6.657537128965266
 10
57.15503303771235
 20
-6.711907013765248
 10
57.25449078011236
 20
-6.757973922565248
 10
57.35601766811235
 20
-6.79517687936525
 10
57.45838549531235
 20
-6.823523792965268
 10
57.56043535131233
 20
-6.843228589765274
 10
57.66145002491235
 20
-6.854706533765273
 10
57.76053406811236
 20
-6.858413242565248
  0
LINE
  5
523
330
2
100
AcDbEntity
  8
0
  6
HIDDEN
 62
     8
 48
0.25
100
AcDbLine
 10
58.00064212731236
 20
-6.909717527365273
 30
0.0
 11
58.05658368091236
 21
-6.931419901765281
 31
0.0
  0
LINE
  5
524
330
2
100
AcDbEntity
  8
0
  6
HIDDEN
 62
     8
 48
0.25
100
AcDbLine
 10
57.94278398811234
 20
-6.892795573765248
 30
0.0
 11
58.00064212731236
 21
-6.909717527365273
 31
0.0
  0
LINE
  5
525
330
2
100
AcDbEntity
  8
0
  6
HIDDEN
 62
     8
 48
0.25
100
AcDbLine
 10
57.88328602171235
 20
-6.880678432965268
 30
0.0
 11
57.94278398811234
 21
-6.892795573765248
 31
0.0
  0
LINE
  5
526
330
2
100
AcDbEntity
  8
0
  6
HIDDEN
 62
     8
 48
0.25
100
AcDbLine
 10
57.82243869051235
 20
-6.873392623365248
 30
0.0
 11
57.88328602171235
 21
-6.880678432965268
 31
0.0
  0
LINE
  5
527
330
2
100
AcDbEntity
  8
0
  6
HIDDEN
 62
     8
 48
0.25
100
AcDbLine
 10
57.76053406811236
 20
-6.870960580165274
 30
0.0
 11
57.82243869051235
 21
-6.873392623365248
 31
0.0
  0
LINE
  5
528
330
2
100
AcDbEntity
  8
0
  6
HIDDEN
 62
     8
 48
0.25
100
AcDbLine
 10
56.78343058331235
 20
-8.925188330565248
 30
0.0
 11
56.75597993051233
 21
-9.258110620165268
 31
0.0
  0
LINE
  5
529
330
2
100
AcDbEntity
  8
0
  6
HIDDEN
 62
     8
 48
0.25
100
AcDbLine
 10
56.81188158171237
 20
-8.629483056965248
 30
0.0
 11
56.78343058331235
 21
-8.925188330565248
 31
0.0
  0
LINE
  5
52A
330
2
100
AcDbEntity
  8
0
  6
HIDDEN
 62
     8
 48
0.25
100
AcDbLine
 10
56.84230931131235
 20
-8.365789992965268
 30
0.0
 11
56.81188158171237
 21
-8.629483056965248
 31
0.0
  0
LINE
  5
52B
330
2
100
AcDbEntity
  8
0
  6
HIDDEN
 62
     8
 48
0.25
100
AcDbLine
 10
56.87498533851236
 20
-8.132111189765268
 30
0.0
 11
56.84230931131235
 21
-8.365789992965268
 31
0.0
  0
LINE
  5
52C
330
2
100
AcDbEntity
  8
0
  6
HIDDEN
 62
     8
 48
0.25
100
AcDbLine
 10
57.09731343611237
 20
-7.301546205765248
 30
0.0
 11
57.06039090651235
 21
-7.382673700165248
 31
0.0
  0
LINE
  5
52D
330
2
100
AcDbEntity
  8
0
  6
HIDDEN
 62
     8
 48
0.25
100
AcDbLine
 10
57.13563181691235
 20
-7.231246082565249
 30
0.0
 11
57.09731343611237
 21
-7.301546205765248
 31
0.0
  0
LINE
  5
52E
330
2
100
AcDbEntity
  8
0
  6
HIDDEN
 62
     8
 48
0.25
100
AcDbLine
 10
57.17608613531236
 20
-7.169287938565268
 30
0.0
 11
57.13563181691235
 21
-7.231246082565249
 31
0.0
  0
LINE
  5
52F
330
2
100
AcDbEntity
  8
0
  6
HIDDEN
 62
     8
 48
0.25
100
AcDbLine
 10
57.21852950491236
 20
-7.115008524165268
 30
0.0
 11
57.17608613531236
 21
-7.169287938565268
 31
0.0
  0
LINE
  5
530
330
2
100
AcDbEntity
  8
0
  6
HIDDEN
 62
     8
 48
0.25
100
AcDbLine
 10
57.26313885691237
 20
-7.067354648965249
 30
0.0
 11
57.21852950491236
 21
-7.115008524165268
 31
0.0
  0
LINE
  5
531
330
2
100
AcDbEntity
  8
0
  6
HIDDEN
 62
     8
 48
0.25
100
AcDbLine
 10
57.30997250811235
 20
-7.025627295365268
 30
0.0
 11
57.26313885691237
 21
-7.067354648965249
 31
0.0
  0
LINE
  5
532
330
2
100
AcDbEntity
  8
0
  6
HIDDEN
 62
     8
 48
0.25
100
AcDbLine
 10
57.35915409531237
 20
-6.989250034565266
 30
0.0
 11
57.30997250811235
 21
-7.025627295365268
 31
0.0
  0
LINE
  5
533
330
2
100
AcDbEntity
  8
0
  6
HIDDEN
 62
     8
 48
0.25
100
AcDbLine
 10
57.41068884411236
 20
-6.957901890565267
 30
0.0
 11
57.35915409531237
 21
-6.989250034565266
 31
0.0
  0
LINE
  5
534
330
2
100
AcDbEntity
  8
0
  6
HIDDEN
 62
     8
 48
0.25
100
AcDbLine
 10
57.46448445531235
 20
-6.931419901765281
 30
0.0
 11
57.41068884411236
 21
-6.957901890565267
 31
0.0
  0
LINE
  5
535
330
2
100
AcDbEntity
  8
0
  6
HIDDEN
 62
     8
 48
0.25
100
AcDbLine
 10
57.52042600731236
 20
-6.909717527365273
 30
0.0
 11
57.46448445531235
 21
-6.931419901765281
 31
0.0
  0
LINE
  5
536
330
2
100
AcDbEntity
  8
0
  6
HIDDEN
 62
     8
 48
0.25
100
AcDbLine
 10
57.57828414811235
 20
-6.892795573765248
 30
0.0
 11
57.52042600731236
 21
-6.909717527365273
 31
0.0
  0
LINE
  5
537
330
2
100
AcDbEntity
  8
0
  6
HIDDEN
 62
     8
 48
0.25
100
AcDbLine
 10
57.63778211291235
 20
-6.880678432965268
 30
0.0
 11
57.57828414811235
 21
-6.892795573765248
 31
0.0
  0
LINE
  5
538
330
2
100
AcDbEntity
  8
0
  6
HIDDEN
 62
     8
 48
0.25
100
AcDbLine
 10
57.69862944571234
 20
-6.873392623365248
 30
0.0
 11
57.63778211291235
 21
-6.880678432965268
 31
0.0
  0
LINE
  5
539
330
2
100
AcDbEntity
  8
0
  6
HIDDEN
 62
     8
 48
0.25
100
AcDbLine
 10
57.76053406811236
 20
-6.870960580165274
 30
0.0
 11
57.69862944571234
 21
-6.873392623365248
 31
0.0
  0
LINE
  5
53A
330
2
100
AcDbEntity
  8
0
  6
HIDDEN
 62
     8
 48
0.25
100
AcDbLine
 10
56.06553154171236
 20
-8.47124745056525
 30
0.0
 11
56.01818814491235
 21
-8.781052149765265
 31
0.0
  0
LINE
  5
53B
330
2
100
AcDbEntity
  8
0
  6
HIDDEN
 62
     8
 48
0.25
100
AcDbLine
 10
56.11566301371237
 20
-8.193455184965266
 30
0.0
 11
56.06553154171236
 21
-8.47124745056525
 31
0.0
  0
LINE
  5
53C
330
2
100
AcDbEntity
  8
0
  6
HIDDEN
 62
     8
 48
0.25
100
AcDbLine
 10
56.16721668091234
 20
-7.94688153696525
 30
0.0
 11
56.11566301371237
 21
-8.193455184965266
 31
0.0
  0
LINE
  5
53D
330
2
100
AcDbEntity
  8
0
  6
HIDDEN
 62
     8
 48
0.25
100
AcDbLine
 10
56.21936099291234
 20
-7.726348632965247
 30
0.0
 11
56.16721668091234
 21
-7.94688153696525
 31
0.0
  0
LINE
  5
53E
330
2
100
AcDbEntity
  8
0
  6
HIDDEN
 62
     8
 48
0.25
100
AcDbLine
 10
56.52939550171236
 20
-6.931304479365266
 30
0.0
 11
56.46004565371235
 21
-7.050457224965249
 31
0.0
  0
LINE
  5
53F
330
2
100
AcDbEntity
  8
0
  6
HIDDEN
 62
     8
 48
0.25
100
AcDbLine
 10
56.60305754171234
 20
-6.824926671365268
 30
0.0
 11
56.52939550171236
 21
-6.931304479365266
 31
0.0
  0
LINE
  5
540
330
2
100
AcDbEntity
  8
0
  6
HIDDEN
 62
     8
 48
0.25
100
AcDbLine
 10
56.68153167131236
 20
-6.729022023365274
 30
0.0
 11
56.60305754171234
 21
-6.824926671365268
 31
0.0
  0
LINE
  5
541
330
2
100
AcDbEntity
  8
0
  6
HIDDEN
 62
     8
 48
0.25
100
AcDbLine
 10
56.76385002971234
 20
-6.643551807365248
 30
0.0
 11
56.68153167131236
 21
-6.729022023365274
 31
0.0
  0
LINE
  5
542
330
2
100
AcDbEntity
  8
0
  6
HIDDEN
 62
     8
 48
0.25
100
AcDbLine
 10
56.84987494811235
 20
-6.567552696965258
 30
0.0
 11
56.76385002971234
 21
-6.643551807365248
 31
0.0
  0
LINE
  5
543
330
2
100
AcDbEntity
  8
0
  6
HIDDEN
 62
     8
 48
0.25
100
AcDbLine
 10
56.93939735131234
 20
-6.500388052165249
 30
0.0
 11
56.84987494811235
 21
-6.567552696965258
 31
0.0
  0
LINE
  5
544
330
2
100
AcDbEntity
  8
0
  6
HIDDEN
 62
     8
 48
0.25
100
AcDbLine
 10
57.12889870651235
 20
-6.390469082565275
 30
0.0
 11
57.03244577371235
 21
-6.441459098565275
 31
0.0
  0
LINE
  5
545
330
2
100
AcDbEntity
  8
0
  6
HIDDEN
 62
     8
 48
0.25
100
AcDbLine
 10
57.22850625531235
 20
-6.347299032965274
 30
0.0
 11
57.12889870651235
 21
-6.390469082565275
 31
0.0
  0
LINE
  5
546
330
2
100
AcDbEntity
  8
0
  6
HIDDEN
 62
     8
 48
0.25
100
AcDbLine
 10
57.33101477211234
 20
-6.311895368965274
 30
0.0
 11
57.22850625531235
 21
-6.347299032965274
 31
0.0
  0
LINE
  5
547
330
2
100
AcDbEntity
  8
0
  6
HIDDEN
 62
     8
 48
0.25
100
AcDbLine
 10
57.43598495291234
 20
-6.284302496965274
 30
0.0
 11
57.33101477211234
 21
-6.311895368965274
 31
0.0
  0
LINE
  5
548
330
2
100
AcDbEntity
  8
0
  6
HIDDEN
 62
     8
 48
0.25
100
AcDbLine
 10
57.54290812251234
 20
-6.264570901765281
 30
0.0
 11
57.43598495291234
 21
-6.284302496965274
 31
0.0
  0
LINE
  5
549
330
2
100
AcDbEntity
  8
0
  6
HIDDEN
 62
     8
 48
0.25
100
AcDbLine
 10
57.65126378331236
 20
-6.252729492165251
 30
0.0
 11
57.54290812251234
 21
-6.264570901765281
 31
0.0
  0
LINE
  5
54A
330
2
100
AcDbEntity
  8
0
  6
HIDDEN
 62
     8
 48
0.25
100
AcDbLine
 10
57.76053406811236
 20
-6.248882464965248
 30
0.0
 11
57.65126378331236
 21
-6.252729492165251
 31
0.0
  0
LINE
  5
54B
330
2
100
AcDbEntity
  8
0
  6
HIDDEN
 62
     8
 48
0.25
100
AcDbLine
 10
57.97816001371235
 20
-6.264570901765281
 30
0.0
 11
58.08508318331236
 21
-6.284302496965274
 31
0.0
  0
LINE
  5
54C
330
2
100
AcDbEntity
  8
0
  6
HIDDEN
 62
     8
 48
0.25
100
AcDbLine
 10
57.86980435291233
 20
-6.252729492165251
 30
0.0
 11
57.97816001371235
 21
-6.264570901765281
 31
0.0
  0
LINE
  5
54D
330
2
100
AcDbEntity
  8
0
  6
HIDDEN
 62
     8
 48
0.25
100
AcDbLine
 10
57.76053406811236
 20
-6.248882464965248
 30
0.0
 11
57.86980435291233
 21
-6.252729492165251
 31
0.0
  0
LWPOLYLINE
  5
54E
330
2
100
AcDbEntity
  8
0
  6
CONTINUOUS
 62
     7
100
AcDbPolyline
 90
       20
 70
     0
 43
0.0
 10
56.44803406811236
 20
-5.574039215365274
 10
56.45290598331236
 20
-5.462139452165281
 10
56.46702072571234
 20
-5.353728623365249
 10
56.49027597691237
 20
-5.246893132165268
 10
56.52251997371236
 20
-5.142336469765268
 10
56.56350047931237
 20
-5.04087062016525
 10
56.61296462171235
 20
-4.943123520965251
 10
56.67050126651234
 20
-4.849899940165251
 10
56.73579058331235
 20
-4.761719890565267
 10
56.80829114011236
 20
-4.679321591365265
 10
56.88756676891235
 20
-4.603202460165249
 10
56.97283837371237
 20
-4.534082828165274
 10
57.06381569691235
 20
-4.47219217376525
 10
57.16003413851236
 20
-4.417929042565248
 10
57.26045246491235
 20
-4.371921447365274
 10
57.36268582651236
 20
-4.335002612165268
 10
57.46509008571236
 20
-4.307185957765248
 10
57.56620640891235
 20
-4.288137559365274
 10
57.66507547931237
 20
-4.277244914565265
 10
57.76053406811236
 20
-4.273799580165267
  0
LINE
  5
564
330
2
100
AcDbEntity
  8
0
  6
HIDDEN
 62
     8
 48
0.25
100
AcDbLine
 10
58.48862236091235
 20
-6.441459098565275
 30
0.0
 11
58.58167078491236
 21
-6.500388052165249
 31
0.0
  0
LINE
  5
565
330
2
100
AcDbEntity
  8
0
  6
HIDDEN
 62
     8
 48
0.25
100
AcDbLine
 10
58.73763755291235
 20
-8.925188330565248
 30
0.0
 11
58.76508820411236
 21
-9.258110620165268
 31
0.0
  0
LINE
  5
566
330
2
100
AcDbEntity
  8
0
  6
HIDDEN
 62
     8
 48
0.25
100
AcDbLine
 10
58.70918655291236
 20
-8.629483056965248
 30
0.0
 11
58.73763755291235
 21
-8.925188330565248
 31
0.0
  0
LINE
  5
567
330
2
100
AcDbEntity
  8
0
  6
HIDDEN
 62
     8
 48
0.25
100
AcDbLine
 10
58.67875882491235
 20
-8.365789992965268
 30
0.0
 11
58.70918655291236
 21
-8.629483056965248
 31
0.0
  0
LINE
  5
568
330
2
100
AcDbEntity
  8
0
  6
HIDDEN
 62
     8
 48
0.25
100
AcDbLine
 10
58.64608279771236
 20
-8.132111189765268
 30
0.0
 11
58.67875882491235
 21
-8.365789992965268
 31
0.0
  0
LINE
  5
569
330
2
100
AcDbEntity
  8
0
  6
HIDDEN
 62
     8
 48
0.25
100
AcDbLine
 10
58.57287849851236
 20
-7.744034706565265
 30
0.0
 11
58.61062514651236
 21
-7.922804959365265
 31
0.0
  0
LINE
  5
56A
330
2
100
AcDbEntity
  8
0
  6
HIDDEN
 62
     8
 48
0.25
100
AcDbLine
 10
58.42375470011235
 20
-7.301546205765248
 30
0.0
 11
58.46067722811234
 21
-7.382673700165248
 31
0.0
  0
LINE
  5
56B
330
2
100
AcDbEntity
  8
0
  6
HIDDEN
 62
     8
 48
0.25
100
AcDbLine
 10
58.38543631771234
 20
-7.231246082565249
 30
0.0
 11
58.42375470011235
 21
-7.301546205765248
 31
0.0
  0
LINE
  5
56C
330
2
100
AcDbEntity
  8
0
  6
HIDDEN
 62
     8
 48
0.25
100
AcDbLine
 10
58.34498200091236
 20
-7.169287938565268
 30
0.0
 11
58.38543631771234
 21
-7.231246082565249
 31
0.0
  0
LINE
  5
56D
330
2
100
AcDbEntity
  8
0
  6
HIDDEN
 62
     8
 48
0.25
100
AcDbLine
 10
58.30253862971234
 20
-7.115008524165268
 30
0.0
 11
58.34498200091236
 21
-7.169287938565268
 31
0.0
  0
LINE
  5
56E
330
2
100
AcDbEntity
  8
0
  6
HIDDEN
 62
     8
 48
0.25
100
AcDbLine
 10
58.25792927931236
 20
-7.067354648965249
 30
0.0
 11
58.30253862971234
 21
-7.115008524165268
 31
0.0
  0
LINE
  5
56F
330
2
100
AcDbEntity
  8
0
  6
HIDDEN
 62
     8
 48
0.25
100
AcDbLine
 10
58.21109562651234
 20
-7.025627295365268
 30
0.0
 11
58.25792927931236
 21
-7.067354648965249
 31
0.0
  0
LINE
  5
570
330
2
100
AcDbEntity
  8
0
  6
HIDDEN
 62
     8
 48
0.25
100
AcDbLine
 10
58.16191403931235
 20
-6.989250034565266
 30
0.0
 11
58.21109562651234
 21
-7.025627295365268
 31
0.0
  0
LINE
  5
571
330
2
100
AcDbEntity
  8
0
  6
HIDDEN
 62
     8
 48
0.25
100
AcDbLine
 10
58.11037929051234
 20
-6.957901890565267
 30
0.0
 11
58.16191403931235
 21
-6.989250034565266
 31
0.0
  0
LINE
  5
572
330
2
100
AcDbEntity
  8
0
  6
HIDDEN
 62
     8
 48
0.25
100
AcDbLine
 10
59.35385145371235
 20
-7.94688153696525
 30
0.0
 11
59.40540512091236
 21
-8.193455184965266
 31
0.0
  0
LINE
  5
573
330
2
100
AcDbEntity
  8
0
  6
HIDDEN
 62
     8
 48
0.25
100
AcDbLine
 10
59.30170714171236
 20
-7.726348632965247
 30
0.0
 11
59.35385145371235
 21
-7.94688153696525
 31
0.0
  0
LINE
  5
574
330
2
100
AcDbEntity
  8
0
  6
HIDDEN
 62
     8
 48
0.25
100
AcDbLine
 10
59.24786561851236
 20
-7.525646220165249
 30
0.0
 11
59.30170714171236
 21
-7.726348632965247
 31
0.0
  0
LINE
  5
575
330
2
100
AcDbEntity
  8
0
  6
HIDDEN
 62
     8
 48
0.25
100
AcDbLine
 10
58.91801059291235
 20
-6.824926671365268
 30
0.0
 11
58.99167263291234
 21
-6.931304479365266
 31
0.0
  0
LINE
  5
576
330
2
100
AcDbEntity
  8
0
  6
HIDDEN
 62
     8
 48
0.25
100
AcDbLine
 10
58.83953646491234
 20
-6.729022023365274
 30
0.0
 11
58.91801059291235
 21
-6.824926671365268
 31
0.0
  0
LINE
  5
577
330
2
100
AcDbEntity
  8
0
  6
HIDDEN
 62
     8
 48
0.25
100
AcDbLine
 10
58.75721810491235
 20
-6.643551807365248
 30
0.0
 11
58.83953646491234
 21
-6.729022023365274
 31
0.0
  0
LINE
  5
578
330
2
100
AcDbEntity
  8
0
  6
HIDDEN
 62
     8
 48
0.25
100
AcDbLine
 10
58.67119318651235
 20
-6.567552696965258
 30
0.0
 11
58.75721810491235
 21
-6.643551807365248
 31
0.0
  0
LINE
  5
579
330
2
100
AcDbEntity
  8
0
  6
HIDDEN
 62
     8
 48
0.25
100
AcDbLine
 10
58.58167078491236
 20
-6.500388052165249
 30
0.0
 11
58.67119318651235
 21
-6.567552696965258
 31
0.0
  0
LINE
  5
57A
330
2
100
AcDbEntity
  8
0
  6
HIDDEN
 62
     8
 48
0.25
100
AcDbLine
 10
58.39216942811235
 20
-6.390469082565275
 30
0.0
 11
58.48862236091235
 21
-6.441459098565275
 31
0.0
  0
LINE
  5
57B
330
2
100
AcDbEntity
  8
0
  6
HIDDEN
 62
     8
 48
0.25
100
AcDbLine
 10
58.29256188091235
 20
-6.347299032965274
 30
0.0
 11
58.39216942811235
 21
-6.390469082565275
 31
0.0
  0
LINE
  5
57C
330
2
100
AcDbEntity
  8
0
  6
HIDDEN
 62
     8
 48
0.25
100
AcDbLine
 10
58.19005336411236
 20
-6.311895368965274
 30
0.0
 11
58.29256188091235
 21
-6.347299032965274
 31
0.0
  0
LINE
  5
57D
330
2
100
AcDbEntity
  8
0
  6
CONTINUOUS
 62
     7
100
AcDbLine
 10
59.06815639771237
 20
-5.462073509765268
 30
0.0
 11
59.07303406811236
 21
-5.574039242565248
 31
0.0
  0
LWPOLYLINE
  5
57F
330
2
100
AcDbEntity
  8
0
  6
CONTINUOUS
 62
     7
100
AcDbPolyline
 90
       15
 70
     0
 43
0.0
 10
67.78118368251234
 20
-8.004710941765281
 10
67.74463746491237
 20
-7.986900213765274
 10
67.68921357211237
 20
-7.967804050565248
 10
67.6162913753124
 20
-7.949140271365266
 10
67.52480801691238
 20
-7.930624684165266
 10
67.41256662011237
 20
-7.911884378565268
 10
67.28058960571236
 20
-7.893099578565248
 10
67.13225763131238
 20
-7.87467228736525
 10
66.97238027291236
 20
-7.857091464965243
 10
66.80728002491237
 20
-7.840863549765273
 10
66.64115755291236
 20
-7.826068624965266
 10
66.47145111451236
 20
-7.812164866565268
 10
66.28933476411235
 20
-7.798315956165268
 10
66.08092470651239
 20
-7.783582810565249
 10
65.83367350651236
 20
-7.767463322565248
  0
LWPOLYLINE
  5
599
330
2
100
AcDbEntity
  8
0
  6
CONTINUOUS
 62
     7
100
AcDbPolyline
 90
        7
 70
     0
 43
0.0
 10
65.93131898651238
 20
-7.345601634565248
 10
66.13558131291238
 20
-7.351846042565249
 10
66.33492814811238
 20
-7.358302818565249
 10
66.53335513851239
 20
-7.365158991365248
 10
66.73822657371239
 20
-7.373037829765266
 10
66.96384531131236
 20
-7.38362806176525
 10
67.19874733531238
 20
-7.398235541765281
  0
LWPOLYLINE
  5
5C3
330
2
100
AcDbEntity
  8
0
  6
CONTINUOUS
 62
     7
100
AcDbPolyline
 90
        9
 70
     0
 43
0.0
 10
67.19874733531238
 20
-7.398235541765281
 10
67.39673017531238
 20
-7.413645636165249
 10
67.55845518331238
 20
-7.435753484165275
 10
67.70194771771237
 20
-7.447169719365248
 10
67.83489867291236
 20
-7.463397352965266
 10
67.96055697851237
 20
-7.479390524165275
 10
68.07955001211237
 20
-7.495142788165274
 10
68.19156420571236
 20
-7.51334532416525
 10
68.29672922331237
 20
-7.530480655365273
  0
LINE
  5
5DD
330
2
100
AcDbEntity
  8
0
  6
HIDDEN
 62
     8
100
AcDbLine
 10
67.83784722011238
 20
-8.132703210565267
 30
0.0
 11
67.83668937691238
 21
-8.143175060165248
 31
0.0
  0
LWPOLYLINE
  5
5DE
330
2
100
AcDbEntity
  8
0
  6
CONTINUOUS
 62
     7
100
AcDbPolyline
 90
        4
 70
     0
 43
0.0
 10
67.76347815931235
 20
-8.855028738565273
 10
67.79227532251237
 20
-8.575957328965266
 10
67.82141077051234
 20
-8.292857842565268
 10
67.83784722011238
 20
-8.132703210565267
  0
LINE
  5
5E4
330
2
100
AcDbEntity
  8
0
  6
HIDDEN
 62
     8
100
AcDbLine
 10
67.60284510011238
 20
-8.957023439365251
 30
0.0
 11
67.60250004091237
 21
-8.960711202565249
 31
0.0
  0
LWPOLYLINE
  5
5E5
330
2
100
AcDbEntity
  8
0
  6
CONTINUOUS
 62
     7
100
AcDbPolyline
 90
        7
 70
     0
 43
0.0
 10
67.78118368251234
 20
-8.004710941765281
 10
67.81224972411236
 20
-8.026568853765247
 10
67.82877300731236
 20
-8.047898474565251
 10
67.83688708411235
 20
-8.06965966176525
 10
67.83973193051235
 20
-8.092418194565269
 10
67.83924443291237
 20
-8.116543000965251
 10
67.83784722011238
 20
-8.132703210565267
  0
LWPOLYLINE
  5
606
330
2
100
AcDbEntity
  8
0
  6
CONTINUOUS
 62
     7
100
AcDbPolyline
 90
        5
 70
     0
 43
0.0
 10
68.51682558331238
 20
-7.58704280416525
 10
68.49669893371238
 20
-7.572816476165257
 10
68.45370420091235
 20
-7.55864458976525
 10
68.38714401531238
 20
-7.544521488965266
 10
68.29672922331237
 20
-7.530480655365273
  0
LINE
  5
6EC
330
2
100
AcDbEntity
  8
0
  6
CONTINUOUS
 62
     7
100
AcDbLine
 10
69.56069593051235
 20
-5.298850368965268
 30
0.0
 11
69.73464589199808
 21
-3.589738416965267
 31
0.0
  0
LINE
  5
6EE
330
2
100
AcDbEntity
  8
0
  6
CONTINUOUS
 62
     7
100
AcDbLine
 10
71.76110687771238
 20
-0.9647384169652681
 30
0.0
 11
71.76110687771236
 21
-3.589738416965268
 31
0.0
  0
LINE
  5
6EF
330
2
100
AcDbEntity
  8
0
  6
HIDDEN
 62
     8
 48
0.3
100
AcDbLine
 10
71.57360687771237
 20
-2.293117501765266
 30
0.0
 11
71.57360687771237
 21
-2.281001447365298
 31
0.0
  0
LINE
  5
6F1
330
2
100
AcDbEntity
  8
0
  6
CENTER
 62
     1
100
AcDbLine
 10
57.76110687771236
 20
-27.06735584575161
 30
0.0
 11
57.76110687771236
 21
-18.49418540663282
 31
0.0
  0
ENDSEC
  0
SECTION
  2
OBJECTS
  0
DICTIONARY
  5
1A
330
0
100
AcDbDictionary
  3
ACAD_GROUP
350
18
  3
ACAD_LAYOUT
350
6F5
  3
ACAD_MLINESTYLE
350
19
  3
ACAD_PLOTSETTINGS
350
6F6
  3
ACAD_PLOTSTYLENAME
350
6F3
  3
ACDBHEADERROUNDTRIPXREC
350
7AB
  3
ACDBVARIABLEDICTIONARY
350
774
  0
DICTIONARY
  5
71F
330
2
100
AcDbDictionary
280
     1
  3
ACAD_LAYOUTSELFREF
360
7CC
  0
DICTIONARY
  5
721
330
7
100
AcDbDictionary
280
     1
  3
ACAD_LAYOUTSELFREF
360
7CD
  0
DICTIONARY
  5
18
102
{ACAD_REACTORS
330
1A
102
}
330
1A
100
AcDbDictionary
  0
DICTIONARY
  5
6F5
102
{ACAD_REACTORS
330
1A
102
}
330
1A
100
AcDbDictionary
  0
DICTIONARY
  5
19
102
{ACAD_REACTORS
330
1A
102
}
330
1A
100
AcDbDictionary
  3
STANDARD
350
1B
  0
DICTIONARY
  5
6F6
102
{ACAD_REACTORS
330
1A
102
}
330
1A
100
AcDbDictionary
  0
ACDBDICTIONARYWDFLT
  5
6F3
102
{ACAD_REACTORS
330
1A
102
}
330
1A
100
AcDbDictionary
281
     1
  3
Normal
350
6F4
100
AcDbDictionaryWithDefault
340
6F4
  0
DICTIONARY
  5
7AB
102
{ACAD_REACTORS
330
1A
102
}
330
1A
100
AcDbDictionary
  3
CEPSNTYPE
350
7B5
  3
DIMSTYLEDATA
350
7B9
  3
FINGERPRINTGUID
350
7B6
  3
HYPERLINKBASE
350
7AE
  3
INSUNITS
350
7B4
  3
LAYOUTDICT
350
7B0
  3
LWETCUNION
350
7B3
  3
PLOTSETDICT
350
7B1
  3
PLOTSTYLNAMDICT
350
7B2
  3
PSVPSCALE
350
7B8
  3
PUCSBASE
350
7BC
  3
PUCSORGBACK
350
7C2
  3
PUCSORGBOTTOM
350
7BE
  3
PUCSORGFRONT
350
7C1
  3
PUCSORGLEFT
350
7BF
  3
PUCSORGRIGHT
350
7C0
  3
PUCSORGTOP
350
7BD
  3
PUCSORTHOREF
350
7BA
  3
PUCSORTHOVIEW
350
7BB
  3
STYLESHEET
350
7AF
  3
TSTACKALIGN
350
7AC
  3
TSTACKSIZE
350
7AD
  3
UCSBASE
350
7C5
  3
UCSORGBACK
350
7CB
  3
UCSORGBOTTOM
350
7C7
  3
UCSORGFRONT
350
7CA
  3
UCSORGLEFT
350
7C8
  3
UCSORGRIGHT
350
7C9
  3
UCSORGTOP
350
7C6
  3
UCSORTHOREF
350
7C3
  3
UCSORTHOVIEW
350
7C4
  3
VERSIONGUID
350
7B7
  0
DICTIONARY
  5
774
102
{ACAD_REACTORS
330
1A
102
}
330
1A
100
AcDbDictionary
  3
DIMASSOC
350
775
  0
XRECORD
  5
7CC
102
{ACAD_REACTORS
330
71F
102
}
330
71F
100
AcDbXrecord
340
2
  0
XRECORD
  5
7CD
102
{ACAD_REACTORS
330
721
102
}
330
721
100
AcDbXrecord
340
7
  0
MLINESTYLE
  5
1B
102
{ACAD_REACTORS
330
19
102
}
330
19
100
AcDbMlineStyle
  2
STANDARD
 70
     0
  3

 62
   256
 51
90.0
 52
90.0
 71
     2
 49
0.5
 62
   256
  6
BYLAYER
 49
-0.5
 62
   256
  6
BYLAYER
  0
ACDBPLACEHOLDER
  5
6F4
102
{ACAD_REACTORS
330
6F3
102
}
330
6F3
100
AcDbPlaceHolder
280
     0
  0
XRECORD
  5
7B5
102
{ACAD_REACTORS
330
7AB
102
}
330
7AB
100
AcDbXrecord
 90
        0
  0
XRECORD
  5
7B9
102
{ACAD_REACTORS
330
7AB
102
}
330
7AB
100
AcDbXrecord
1000
DSTYLE
1002
{
1070
   341
340
1D
1070
   342
340
1D
1002
}
  0
XRECORD
  5
7B6
102
{ACAD_REACTORS
330
7AB
102
}
330
7AB
100
AcDbXrecord
  1
{CE5D80E4-A88B-4C6C-8F75-F9283ABCC617}
  0
XRECORD
  5
7AE
102
{ACAD_REACTORS
330
7AB
102
}
330
7AB
100
AcDbXrecord
  1

  0
XRECORD
  5
7B4
102
{ACAD_REACTORS
330
7AB
102
}
330
7AB
100
AcDbXrecord
 90
        0
  0
XRECORD
  5
7B0
102
{ACAD_REACTORS
330
7AB
102
}
330
7AB
100
AcDbXrecord
340
6F5
  0
XRECORD
  5
7B3
102
{ACAD_REACTORS
330
7AB
102
}
330
7AB
100
AcDbXrecord
 90
    14877
  0
XRECORD
  5
7B1
102
{ACAD_REACTORS
330
7AB
102
}
330
7AB
100
AcDbXrecord
340
6F6
  0
XRECORD
  5
7B2
102
{ACAD_REACTORS
330
7AB
102
}
330
7AB
100
AcDbXrecord
340
6F3
  0
XRECORD
  5
7B8
102
{ACAD_REACTORS
330
7AB
102
}
330
7AB
100
AcDbXrecord
 40
0.0
  0
XRECORD
  5
7BC
102
{ACAD_REACTORS
330
7AB
102
}
330
7AB
100
AcDbXrecord
340
0
  0
XRECORD
  5
7C2
102
{ACAD_REACTORS
330
7AB
102
}
330
7AB
100
AcDbXrecord
 10
0.0
 20
0.0
 30
0.0
  0
XRECORD
  5
7BE
102
{ACAD_REACTORS
330
7AB
102
}
330
7AB
100
AcDbXrecord
 10
0.0
 20
0.0
 30
0.0
  0
XRECORD
  5
7C1
102
{ACAD_REACTORS
330
7AB
102
}
330
7AB
100
AcDbXrecord
 10
0.0
 20
0.0
 30
0.0
  0
XRECORD
  5
7BF
102
{ACAD_REACTORS
330
7AB
102
}
330
7AB
100
AcDbXrecord
 10
0.0
 20
0.0
 30
0.0
  0
XRECORD
  5
7C0
102
{ACAD_REACTORS
330
7AB
102
}
330
7AB
100
AcDbXrecord
 10
0.0
 20
0.0
 30
0.0
  0
XRECORD
  5
7BD
102
{ACAD_REACTORS
330
7AB
102
}
330
7AB
100
AcDbXrecord
 10
0.0
 20
0.0
 30
0.0
  0
XRECORD
  5
7BA
102
{ACAD_REACTORS
330
7AB
102
}
330
7AB
100
AcDbXrecord
340
0
  0
XRECORD
  5
7BB
102
{ACAD_REACTORS
330
7AB
102
}
330
7AB
100
AcDbXrecord
 70
     0
  0
XRECORD
  5
7AF
102
{ACAD_REACTORS
330
7AB
102
}
330
7AB
100
AcDbXrecord
  1

  0
XRECORD
  5
7AC
102
{ACAD_REACTORS
330
7AB
102
}
330
7AB
100
AcDbXrecord
 90
        1
  0
XRECORD
  5
7AD
102
{ACAD_REACTORS
330
7AB
102
}
330
7AB
100
AcDbXrecord
 90
       70
  0
XRECORD
  5
7C5
102
{ACAD_REACTORS
330
7AB
102
}
330
7AB
100
AcDbXrecord
340
0
  0
XRECORD
  5
7CB
102
{ACAD_REACTORS
330
7AB
102
}
330
7AB
100
AcDbXrecord
 10
0.0
 20
0.0
 30
0.0
  0
XRECORD
  5
7C7
102
{ACAD_REACTORS
330
7AB
102
}
330
7AB
100
AcDbXrecord
 10
0.0
 20
0.0
 30
0.0
  0
XRECORD
  5
7CA
102
{ACAD_REACTORS
330
7AB
102
}
330
7AB
100
AcDbXrecord
 10
0.0
 20
0.0
 30
0.0
  0
XRECORD
  5
7C8
102
{ACAD_REACTORS
330
7AB
102
}
330
7AB
100
AcDbXrecord
 10
0.0
 20
0.0
 30
0.0
  0
XRECORD
  5
7C9
102
{ACAD_REACTORS
330
7AB
102
}
330
7AB
100
AcDbXrecord
 10
0.0
 20
0.0
 30
0.0
  0
XRECORD
  5
7C6
102
{ACAD_REACTORS
330
7AB
102
}
330
7AB
100
AcDbXrecord
 10
0.0
 20
0.0
 30
0.0
  0
XRECORD
  5
7C3
102
{ACAD_REACTORS
330
7AB
102
}
330
7AB
100
AcDbXrecord
340
0
  0
XRECORD
  5
7C4
102
{ACAD_REACTORS
330
7AB
102
}
330
7AB
100
AcDbXrecord
 70
     0
  0
XRECORD
  5
7B7
102
{ACAD_REACTORS
330
7AB
102
}
330
7AB
100
AcDbXrecord
  1
{08BE7A5E-BECC-4333-99D0-5A6609967B6E}
  0
DICTIONARYVAR
  5
775
102
{ACAD_REACTORS
330
774
102
}
330
774
100
DictionaryVariables
280
     0
  1
1
  0
ENDSEC
  0
EOF
