  0
SECTION
  2
HEADER
  9
$ACADVER
  1
AC1014
  9
$ACADMAINTVER
 70
     9
  9
$DWGCODEPAGE
  3
ANSI_1252
  9
$INSBASE
 10
153.1595395919859
 20
-23.08973841696527
 30
0.0
  9
$EXTMIN
 10
144.648893861628
 20
-26.36977706837302
 30
-0.0000000349181948
  9
$EXTMAX
 10
204.6720321626309
 20
-0.9627689575757614
 30
0.0000000814935746
  9
$LIMMIN
 10
0.0
 20
0.0
  9
$LIMMAX
 10
17.0
 20
11.0
  9
$ORTHOMODE
 70
     1
  9
$REGENMODE
 70
     1
  9
$FILLMODE
 70
     1
  9
$QTEXTMODE
 70
     0
  9
$MIRRTEXT
 70
     1
  9
$DRAGMODE
 70
     2
  9
$LTSCALE
 40
8.0
  9
$OSMODE
 70
    55
  9
$ATTMODE
 70
     1
  9
$TEXTSIZE
 40
0.2
  9
$TRACEWID
 40
0.05
  9
$TEXTSTYLE
  7
STANDARD
  9
$CLAYER
  8
0
  9
$CELTYPE
  6
BYLAYER
  9
$CECOLOR
 62
   256
  9
$CELTSCALE
 40
1.0
  9
$DELOBJ
 70
     1
  9
$DISPSILH
 70
     0
  9
$DIMSCALE
 40
12.0
  9
$DIMASZ
 40
0.1875
  9
$DIMEXO
 40
0.10625
  9
$DIMDLI
 40
0.6459999999999999
  9
$DIMRND
 40
0.0
  9
$DIMDLE
 40
0.0
  9
$DIMEXE
 40
0.306
  9
$DIMTP
 40
0.0
  9
$DIMTM
 40
0.0
  9
$DIMTXT
 40
0.125
  9
$DIMCEN
 40
0.153
  9
$DIMTSZ
 40
0.0
  9
$DIMTOL
 70
     0
  9
$DIMLIM
 70
     0
  9
$DIMTIH
 70
     1
  9
$DIMTOH
 70
     1
  9
$DIMSE1
 70
     0
  9
$DIMSE2
 70
     0
  9
$DIMTAD
 70
     0
  9
$DIMZIN
 70
     0
  9
$DIMBLK
  1
_FILLED
  9
$DIMASO
 70
     1
  9
$DIMSHO
 70
     1
  9
$DIMPOST
  1

  9
$DIMAPOST
  1

  9
$DIMALT
 70
     0
  9
$DIMALTD
 70
     2
  9
$DIMALTF
 40
25.4
  9
$DIMLFAC
 40
1.0
  9
$DIMTOFL
 70
     0
  9
$DIMTVP
 40
0.0
  9
$DIMTIX
 70
     0
  9
$DIMSOXD
 70
     0
  9
$DIMSAH
 70
     0
  9
$DIMBLK1
  1

  9
$DIMBLK2
  1

  9
$DIMSTYLE
  2
STANDARD
  9
$DIMCLRD
 70
     0
  9
$DIMCLRE
 70
     0
  9
$DIMCLRT
 70
     0
  9
$DIMTFAC
 40
1.0
  9
$DIMGAP
 40
0.09
  9
$DIMJUST
 70
     0
  9
$DIMSD1
 70
     0
  9
$DIMSD2
 70
     0
  9
$DIMTOLJ
 70
     1
  9
$DIMTZIN
 70
     0
  9
$DIMALTZ
 70
     0
  9
$DIMALTTZ
 70
     0
  9
$DIMFIT
 70
     3
  9
$DIMUPT
 70
     0
  9
$DIMUNIT
 70
     2
  9
$DIMDEC
 70
     4
  9
$DIMTDEC
 70
     4
  9
$DIMALTU
 70
     2
  9
$DIMALTTD
 70
     2
  9
$DIMTXSTY
  7
STANDARD
  9
$DIMAUNIT
 70
     0
  9
$LUNITS
 70
     2
  9
$LUPREC
 70
     4
  9
$SKETCHINC
 40
0.1
  9
$FILLETRAD
 40
0.0
  9
$AUNITS
 70
     0
  9
$AUPREC
 70
     0
  9
$MENU
  1
acad
  9
$ELEVATION
 40
0.0
  9
$PELEVATION
 40
0.0
  9
$THICKNESS
 40
0.0
  9
$LIMCHECK
 70
     0
  9
$BLIPMODE
 70
     0
  9
$CHAMFERA
 40
0.0
  9
$CHAMFERB
 40
0.0
  9
$CHAMFERC
 40
0.0
  9
$CHAMFERD
 40
0.0
  9
$SKPOLY
 70
     0
  9
$TDCREATE
 40
2453679.188597361
  9
$TDUPDATE
 40
2453685.629612430
  9
$TDINDWG
 40
0.0357802778
  9
$TDUSRTIMER
 40
0.0357802778
  9
$USRTIMER
 70
     1
  9
$ANGBASE
 50
0.0
  9
$ANGDIR
 70
     0
  9
$PDMODE
 70
     3
  9
$PDSIZE
 40
0.3125
  9
$PLINEWID
 40
0.0
  9
$COORDS
 70
     1
  9
$SPLFRAME
 70
     0
  9
$SPLINETYPE
 70
     6
  9
$SPLINESEGS
 70
     8
  9
$ATTDIA
 70
     0
  9
$ATTREQ
 70
     1
  9
$HANDLING
 70
 22529
  9
$HANDSEED
  5
493
  9
$SURFTAB1
 70
     6
  9
$SURFTAB2
 70
     6
  9
$SURFTYPE
 70
     6
  9
$SURFU
 70
     6
  9
$SURFV
 70
     6
  9
$UCSNAME
  2

  9
$UCSORG
 10
0.0
 20
0.0
 30
0.0
  9
$UCSXDIR
 10
1.0
 20
0.0
 30
0.0
  9
$UCSYDIR
 10
0.0
 20
1.0
 30
0.0
  9
$PUCSNAME
  2

  9
$PUCSORG
 10
0.0
 20
0.0
 30
0.0
  9
$PUCSXDIR
 10
1.0
 20
0.0
 30
0.0
  9
$PUCSYDIR
 10
0.0
 20
1.0
 30
0.0
  9
$USERI1
 70
     0
  9
$USERI2
 70
     0
  9
$USERI3
 70
     0
  9
$USERI4
 70
     0
  9
$USERI5
 70
     0
  9
$USERR1
 40
0.0
  9
$USERR2
 40
0.0
  9
$USERR3
 40
0.0
  9
$USERR4
 40
0.0
  9
$USERR5
 40
0.0
  9
$WORLDVIEW
 70
     1
  9
$SHADEDGE
 70
     3
  9
$SHADEDIF
 70
    70
  9
$TILEMODE
 70
     1
  9
$MAXACTVP
 70
    16
  9
$PINSBASE
 10
0.0
 20
0.0
 30
0.0
  9
$PLIMCHECK
 70
     0
  9
$PEXTMIN
 10
1.000000000000000E+20
 20
1.000000000000000E+20
 30
1.000000000000000E+20
  9
$PEXTMAX
 10
-1.000000000000000E+20
 20
-1.000000000000000E+20
 30
-1.000000000000000E+20
  9
$PLIMMIN
 10
0.0
 20
0.0
  9
$PLIMMAX
 10
12.0
 20
9.0
  9
$UNITMODE
 70
     0
  9
$VISRETAIN
 70
     0
  9
$PLINEGEN
 70
     1
  9
$PSLTSCALE
 70
     0
  9
$TREEDEPTH
 70
  3020
  9
$PICKSTYLE
 70
     1
  9
$CMLSTYLE
  2
STANDARD
  9
$CMLJUST
 70
     0
  9
$CMLSCALE
 40
1.0
  9
$PROXYGRAPHICS
 70
     1
  9
$MEASUREMENT
 70
     0
  0
ENDSEC
  0
SECTION
  2
CLASSES
  0
CLASS
  1
HATCH
  2
AcDbHatch
  3
AutoCAD 2000
 90
        0
280
     0
281
     1
  0
CLASS
  1
LWPOLYLINE
  2
AcDbPolyline
  3
AutoCAD 2000
 90
        0
280
     0
281
     1
  0
CLASS
  1
ACDBDICTIONARYWDFLT
  2
AcDbDictionaryWithDefault
  3
AutoCAD 2000
 90
        0
280
     0
281
     0
  0
CLASS
  1
ACDBPLACEHOLDER
  2
AcDbPlaceHolder
  3
AutoCAD 2000
 90
        0
280
     0
281
     0
  0
CLASS
  1
LAYOUT
  2
AcDbLayout
  3
AutoCAD 2000
 90
        0
280
     0
281
     0
  0
CLASS
  1
LONG_TRANSACTION
  2
AcDbLongTransaction
  3
AutoCAD 2000
 90
        0
280
     0
281
     0
  0
CLASS
  1
LWPOLYLINE
  2
AcDbPolyline
  3
AutoCAD 2000
 90
        0
280
     0
281
     1
  0
CLASS
  1
HATCH
  2
AcDbHatch
  3
AutoCAD 2000
 90
        0
280
     0
281
     1
  0
CLASS
  1
XRECORD
  2
AcDbXrecord
  3
AutoCAD 2000
 90
        0
280
     0
281
     0
  0
CLASS
  1
LONG_TRANSACTION
  2
AcDbLongTransaction
  3
AutoCAD 2000
 90
        0
280
     0
281
     0
  0
CLASS
  1
LWPOLYLINE
  2
AcDbPolyline
  3
AutoCAD 2000
 90
        0
280
     0
281
     1
  0
CLASS
  1
HATCH
  2
AcDbHatch
  3
AutoCAD 2000
 90
        0
280
     0
281
     1
  0
CLASS
  1
XRECORD
  2
AcDbXrecord
  3
AutoCAD 2000
 90
        0
280
     0
281
     0
  0
CLASS
  1
DICTIONARYVAR
  2
AcDbDictionaryVar
  3
AutoCAD 2000
 90
        0
280
     0
281
     0
  0
CLASS
  1
LONG_TRANSACTION
  2
AcDbLongTransaction
  3
AutoCAD 2000
 90
        0
280
     0
281
     0
  0
CLASS
  1
LWPOLYLINE
  2
AcDbPolyline
  3
AutoCAD 2000
 90
        0
280
     0
281
     1
  0
CLASS
  1
HATCH
  2
AcDbHatch
  3
AutoCAD 2000
 90
        0
280
     0
281
     1
  0
CLASS
  1
XRECORD
  2
AcDbXrecord
  3
AutoCAD 2000
 90
        0
280
     0
281
     0
  0
ENDSEC
  0
SECTION
  2
TABLES
  0
TABLE
  2
VPORT
  5
12
330
0
100
AcDbSymbolTable
 70
     3
  0
VPORT
  5
46F
330
12
100
AcDbSymbolTableRecord
100
AcDbViewportTableRecord
  2
*ACTIVE
 70
     0
 10
0.0
 20
0.0
 11
1.0
 21
1.0
 12
174.6604629526797
 22
-13.6662730552016
 13
0.0
 23
0.0
 14
1.0
 24
1.0
 15
0.0
 25
0.0
 16
0.0
 26
0.0
 36
1.0
 17
0.0
 27
0.0
 37
0.0
 40
40.90418398465263
 41
1.786792452830188
 42
50.0
 43
0.0
 44
0.0
 50
0.0
 51
0.0
 71
     0
 72
   100
 73
     1
 74
     1
 75
     0
 76
     0
 77
     0
 78
     0
  0
ENDTAB
  0
TABLE
  2
LTYPE
  5
D
330
0
100
AcDbSymbolTable
 70
     4
  0
LTYPE
  5
E
330
D
100
AcDbSymbolTableRecord
100
AcDbLinetypeTableRecord
  2
BYBLOCK
 70
     0
  3

 72
    65
 73
     0
 40
0.0
  0
LTYPE
  5
F
330
D
100
AcDbSymbolTableRecord
100
AcDbLinetypeTableRecord
  2
BYLAYER
 70
     0
  3

 72
    65
 73
     0
 40
0.0
  0
LTYPE
  5
5
330
D
100
AcDbSymbolTableRecord
100
AcDbLinetypeTableRecord
  2
CONTINUOUS
 70
     0
  3
Solid line
 72
    65
 73
     0
 40
0.0
  0
LTYPE
  5
23
330
D
100
AcDbSymbolTableRecord
100
AcDbLinetypeTableRecord
  2
CENTER
 70
     0
  3
____ _ ____ _ ____ _ ____ _ ____ _ ____ _ ____
 72
    65
 73
     4
 40
0.6
 49
0.375
 74
     0
 49
-0.075
 74
     0
 49
0.075
 74
     0
 49
-0.075
 74
     0
  0
LTYPE
  5
FB
330
D
100
AcDbSymbolTableRecord
100
AcDbLinetypeTableRecord
  2
HIDDEN
 70
     0
  3
- - - - - - - - - - - - - - - - - - - -
 72
    65
 73
     2
 40
0.2
 49
0.1
 74
     0
 49
-0.1
 74
     0
  0
LTYPE
  5
32A
330
D
100
AcDbSymbolTableRecord
100
AcDbLinetypeTableRecord
  2
PHANTOM
 70
     0
  3
_____ _ _ _____ _ _ _____ _ _ _____
 72
    65
 73
     6
 40
0.8
 49
0.45
 74
     0
 49
-0.05
 74
     0
 49
0.1
 74
     0
 49
-0.05
 74
     0
 49
0.1
 74
     0
 49
-0.05
 74
     0
  0
ENDTAB
  0
TABLE
  2
LAYER
  5
A
330
0
100
AcDbSymbolTable
 70
     1
  0
LAYER
  5
4
330
A
100
AcDbSymbolTableRecord
100
AcDbLayerTableRecord
  2
0
 70
     0
 62
     7
  6
CONTINUOUS
  0
ENDTAB
  0
TABLE
  2
STYLE
  5
B
330
0
100
AcDbSymbolTable
 70
     1
  0
STYLE
  5
C
330
B
100
AcDbSymbolTableRecord
100
AcDbTextStyleTableRecord
  2
STANDARD
 70
     0
 40
0.0
 41
0.8
 50
0.0
 71
     0
 42
0.2
  3
txt
  4

  0
ENDTAB
  0
TABLE
  2
VIEW
  5
10
330
0
100
AcDbSymbolTable
 70
     0
  0
ENDTAB
  0
TABLE
  2
UCS
  5
11
330
0
100
AcDbSymbolTable
 70
     0
  0
ENDTAB
  0
TABLE
  2
APPID
  5
14
330
0
100
AcDbSymbolTable
 70
     1
  0
APPID
  5
15
330
14
100
AcDbSymbolTableRecord
100
AcDbRegAppTableRecord
  2
ACAD
 70
     0
  0
ENDTAB
  0
TABLE
  2
DIMSTYLE
  5
16
330
0
100
AcDbSymbolTable
 70
     1
  0
DIMSTYLE
105
1C
330
16
100
AcDbSymbolTableRecord
100
AcDbDimStyleTableRecord
  2
STANDARD
 70
     0
  3

  4

  5
_FILLED
  6
_FILLED
  7
_FILLED
 40
1.0
 41
0.1875
 42
0.0625
 43
0.38
 44
0.18
 45
0.0
 46
0.0
 47
0.00001
 48
0.00001
140
0.125
141
0.09
142
0.0
143
25.4
144
1.0
145
0.0
146
1.0
147
0.09
 71
     0
 72
     0
 73
     1
 74
     1
 75
     0
 76
     0
 77
     0
 78
     4
170
     0
171
     2
172
     0
173
     0
174
     0
175
     0
176
     0
177
     0
178
     0
270
     2
271
     4
272
     4
273
     2
274
     2
340
C
275
     0
280
     0
281
     0
282
     0
283
     1
284
     0
285
     0
286
     0
287
     3
288
     0
  0
ENDTAB
  0
TABLE
  2
BLOCK_RECORD
  5
1
330
0
100
AcDbSymbolTable
 70
     1
  0
BLOCK_RECORD
  5
2
102
{ACAD_XDICTIONARY
360
3FD
102
}
330
1
100
AcDbSymbolTableRecord
100
AcDbBlockTableRecord
  2
*MODEL_SPACE
  0
BLOCK_RECORD
  5
7
102
{ACAD_XDICTIONARY
360
3FF
102
}
330
1
100
AcDbSymbolTableRecord
100
AcDbBlockTableRecord
  2
*PAPER_SPACE
  0
BLOCK_RECORD
  5
1D
330
1
100
AcDbSymbolTableRecord
100
AcDbBlockTableRecord
  2
_FILLED
  0
ENDTAB
  0
ENDSEC
  0
SECTION
  2
BLOCKS
  0
BLOCK
  5
3
330
2
100
AcDbEntity
  8
0
100
AcDbBlockBegin
  2
*MODEL_SPACE
 70
     0
 10
0.0
 20
0.0
 30
0.0
  3
*MODEL_SPACE
  1

  0
ENDBLK
  5
6
330
2
100
AcDbEntity
  8
0
100
AcDbBlockEnd
  0
BLOCK
  5
8
330
7
100
AcDbEntity
 67
     1
  8
0
100
AcDbBlockBegin
  2
*PAPER_SPACE
 70
     0
 10
0.0
 20
0.0
 30
0.0
  3
*PAPER_SPACE
  1

  0
ENDBLK
  5
9
330
7
100
AcDbEntity
 67
     1
  8
0
100
AcDbBlockEnd
  0
BLOCK
  5
1F
330
1D
100
AcDbEntity
  8
0
100
AcDbBlockBegin
  2
_FILLED
 70
     0
 10
0.0
 20
0.0
 30
0.0
  3
_FILLED
  1

  0
SOLID
  5
1E
330
1D
100
AcDbEntity
  8
0
  6
BYBLOCK
 62
     0
100
AcDbTrace
 10
0.0
 20
0.0
 30
0.0
 11
-1.0
 21
0.1666666667
 31
0.0
 12
-1.0
 22
-0.1666666667
 32
0.0
 13
-1.0
 23
-0.1666666667
 33
0.0
  0
ENDBLK
  5
20
330
1D
100
AcDbEntity
  8
0
  6
BYBLOCK
 62
     0
100
AcDbBlockEnd
  0
ENDSEC
  0
SECTION
  2
ENTITIES
  0
LINE
  5
21
330
2
100
AcDbEntity
  8
0
  6
CONTINUOUS
 62
     7
100
AcDbLine
 10
149.3097387775859
 20
-21.26854297216524
 30
0.0
 11
149.2576827311859
 21
-21.14945300896526
 31
0.0
  0
LINE
  5
22
330
2
100
AcDbEntity
  8
0
  6
CENTER
 62
     1
100
AcDbLine
 10
153.1595395919859
 20
-18.99875573806156
 30
0.0
 11
153.1595395919859
 21
-26.36822109586899
 31
0.0
  0
LINE
  5
24
330
2
100
AcDbEntity
  8
0
  6
CONTINUOUS
 62
     7
100
AcDbLine
 10
188.0831244847859
 20
-22.88128127296527
 30
0.0
 11
188.6693768815859
 21
-20.69335753856526
 31
0.0
  0
LINE
  5
25
330
2
100
AcDbEntity
  8
0
  6
CONTINUOUS
 62
     7
100
AcDbLine
 10
184.4859547007859
 20
-22.88128127296527
 30
0.0
 11
183.9407094943859
 21
-20.84639846016526
 31
0.0
  0
ARC
  5
26
330
2
100
AcDbEntity
  8
0
  6
CONTINUOUS
 62
     7
100
AcDbCircle
 10
176.5093836799859
 20
-21.07710842976526
 30
0.0
 40
0.625
100
AcDbArc
 50
272.4057058144999
 51
351.6444312358
  0
ARC
  5
27
330
2
100
AcDbEntity
  8
0
  6
CONTINUOUS
 62
     7
100
AcDbCircle
 10
173.2432374159859
 20
-22.18348841696526
 30
0.0
 40
0.90625
100
AcDbArc
 50
270.0
 51
350.0
  0
LWPOLYLINE
  5
28
330
2
100
AcDbEntity
  8
0
  6
CONTINUOUS
 62
     7
100
AcDbPolyline
 90
        5
 70
     0
 43
0.0
 10
173.1582317983859
 20
-21.89155166976525
 10
173.5610242079859
 20
-21.87995744896525
 10
173.9236976607859
 20
-21.87067769376526
 10
174.2228965263859
 20
-21.86402272096526
 10
174.4347591503859
 20
-21.86046336096524
  0
LWPOLYLINE
  5
2F
330
2
100
AcDbEntity
  8
0
  6
CONTINUOUS
 62
     7
100
AcDbPolyline
 90
        5
 70
     0
 43
0.0
 10
174.3161326175859
 20
-21.83101688096525
 10
174.0902182079859
 20
-21.83556864096524
 10
173.8075026751858
 20
-21.84227663136526
 10
173.4890762911859
 20
-21.85066597696526
 10
173.1572754719859
 20
-21.86031992416527
  0
LWPOLYLINE
  5
36
330
2
100
AcDbEntity
  8
0
  6
CONTINUOUS
 62
     7
100
AcDbPolyline
 90
        4
 70
     0
 43
0.0
 10
174.3376869231859
 20
-21.79006672416524
 10
172.1610171071859
 20
-21.86992604096527
 10
169.9994053567859
 20
-21.94119221056524
 10
168.9937433471859
 20
-21.97045647456526
  0
LWPOLYLINE
  5
3C
330
2
100
AcDbEntity
  8
0
  6
CONTINUOUS
 62
     7
100
AcDbPolyline
 90
        4
 70
     0
 43
0.0
 10
157.0297660495859
 20
-22.19205513536525
 10
156.5357320127858
 20
-22.18524222976525
 10
156.0417728687859
 20
-22.17793687616527
 10
155.5478927215859
 20
-22.17012170016527
  0
LWPOLYLINE
  5
42
330
2
100
AcDbEntity
  8
0
  6
CONTINUOUS
 62
     7
100
AcDbPolyline
 90
        3
 70
     0
 43
0.0
 10
157.0300880031859
 20
-22.22329496096524
 10
156.3551915871859
 20
-22.21385968576524
 10
155.6962333311859
 20
-22.20376328736525
  0
LWPOLYLINE
  5
47
330
2
100
AcDbEntity
  8
0
  6
CONTINUOUS
 62
     7
100
AcDbPolyline
 90
        4
 70
     0
 43
0.0
 10
160.2635176143859
 20
-22.15149865376526
 10
159.3012844447859
 20
-22.16301930496527
 10
157.2052880975859
 20
-22.17832523136525
 10
156.2325435471859
 20
-22.18075825856524
  0
LINE
  5
4D
330
2
100
AcDbEntity
  8
0
  6
CONTINUOUS
 62
     7
100
AcDbLine
 10
173.2411389359859
 20
-23.08973841696527
 30
0.0
 11
154.0185725295859
 21
-23.08973841696527
 31
0.0
  0
LINE
  5
4E
330
2
100
AcDbEntity
  8
0
  6
CONTINUOUS
 62
     7
100
AcDbLine
 10
155.4493742431859
 20
-22.34195674976526
 30
0.0
 11
170.1533128607859
 21
-22.06882814176526
 31
0.0
  0
LWPOLYLINE
  5
4F
330
2
100
AcDbEntity
  8
0
  6
CONTINUOUS
 62
     7
100
AcDbPolyline
 90
        7
 70
     0
 43
0.0
 10
152.2679876127859
 20
-22.18812021056526
 10
152.4324384495859
 20
-22.18716845696526
 10
152.5381205855859
 20
-22.18654680096526
 10
152.6635801807859
 20
-22.18581437376526
 10
152.7918221839859
 20
-22.18511300576526
 10
152.9247414479859
 20
-22.18443234976526
 10
152.9682529167859
 20
-22.18420466496525
  0
LINE
  5
58
330
2
100
AcDbEntity
  8
0
  6
CONTINUOUS
 62
     7
100
AcDbLine
 10
151.8880939919859
 20
-22.68348841696526
 30
0.0
 11
153.2651507679859
 21
-22.68348841696526
 31
0.0
  0
LINE
  5
59
330
2
100
AcDbEntity
  8
0
  6
CONTINUOUS
 62
     7
100
AcDbLine
 10
150.4940422335859
 20
-22.15999496736525
 30
0.0
 11
150.3673170575859
 21
-22.13275716576525
 31
0.0
  0
LINE
  5
5A
330
2
100
AcDbEntity
  8
0
  6
CONTINUOUS
 62
     7
100
AcDbLine
 10
150.1268968815859
 20
-22.05045719616526
 30
0.0
 11
150.0112899423859
 21
-21.99496962976525
 31
0.0
  0
LINE
  5
5B
330
2
100
AcDbEntity
  8
0
  6
CONTINUOUS
 62
     7
100
AcDbLine
 10
150.2457456703859
 20
-22.09639676256525
 30
0.0
 11
150.1260773983859
 21
-22.05010266016525
 31
0.0
  0
LINE
  5
5C
330
2
100
AcDbEntity
  8
0
  6
CONTINUOUS
 62
     7
100
AcDbLine
 10
150.3681853583859
 20
-22.13298009216527
 30
0.0
 11
150.2448998303859
 21
-22.09610711136524
 31
0.0
  0
LINE
  5
5D
330
2
100
AcDbEntity
  8
0
  6
CONTINUOUS
 62
     7
100
AcDbLine
 10
149.3706795855859
 20
-21.38230286656527
 30
0.0
 11
149.3093456831859
 21
-21.26773294336526
 31
0.0
  0
LINE
  5
5E
330
2
100
AcDbEntity
  8
0
  6
CONTINUOUS
 62
     7
100
AcDbLine
 10
150.0120791823859
 20
-21.99538722976524
 30
0.0
 11
149.9010629935859
 21
-21.93095315456526
 31
0.0
  0
LINE
  5
5F
330
2
100
AcDbEntity
  8
0
  6
CONTINUOUS
 62
     7
100
AcDbLine
 10
149.5185422271859
 20
-21.59345955136525
 30
0.0
 11
149.4399199839859
 21
-21.49010566976524
 31
0.0
  0
LINE
  5
60
330
2
100
AcDbEntity
  8
0
  6
CONTINUOUS
 62
     7
100
AcDbLine
 10
149.6973723727859
 20
-21.77809265696525
 30
0.0
 11
149.6037852639859
 21
-21.68878319776526
 31
0.0
  0
LINE
  5
61
330
2
100
AcDbEntity
  8
0
  6
CONTINUOUS
 62
     7
100
AcDbLine
 10
149.7967147247859
 20
-21.85888967456527
 30
0.0
 11
149.6966974239859
 21
-21.77749770656525
 31
0.0
  0
LINE
  5
62
330
2
100
AcDbEntity
  8
0
  6
CONTINUOUS
 62
     7
100
AcDbLine
 10
149.9018185583859
 20
-21.93143224256524
 30
0.0
 11
149.7959969807858
 21
-21.85835115936524
 31
0.0
  0
LINE
  5
63
330
2
100
AcDbEntity
  8
0
  6
CONTINUOUS
 62
     7
100
AcDbLine
 10
149.6044120511859
 20
-21.68943055616524
 30
0.0
 11
149.5179684143859
 21
-21.59276430656525
 31
0.0
  0
LINE
  5
64
330
2
100
AcDbEntity
  8
0
  6
CONTINUOUS
 62
     7
100
AcDbLine
 10
149.4404367711859
 20
-21.49084407616526
 30
0.0
 11
149.3702231983859
 21
-21.38152613056524
 31
0.0
  0
LINE
  5
65
330
2
100
AcDbEntity
  8
0
  6
CONTINUOUS
 62
     7
100
AcDbLine
 10
150.7433876879859
 20
-22.18368928736527
 30
0.0
 11
150.6220589247859
 21
-22.17700745696525
 31
0.0
  0
LINE
  5
66
330
2
100
AcDbEntity
  8
0
  6
CONTINUOUS
 62
     7
100
AcDbLine
 10
150.6229556031859
 20
-22.17709029056526
 30
0.0
 11
150.4931560159858
 21
-22.15984090656525
 31
0.0
  0
ARC
  5
67
330
2
100
AcDbEntity
  8
0
  6
CONTINUOUS
 62
     7
100
AcDbCircle
 10
151.1798442447859
 20
-22.30734646016525
 30
0.0
 40
0.125
100
AcDbArc
 50
45.00000001570001
 51
71.16894280460001
  0
ARC
  5
68
330
2
100
AcDbEntity
  8
0
  6
CONTINUOUS
 62
     7
100
AcDbCircle
 10
151.8880929839859
 20
-22.30848841696527
 30
0.0
 40
0.375
100
AcDbArc
 50
225.0
 51
270.0
  0
LINE
  5
69
330
2
100
AcDbEntity
  8
0
  6
CONTINUOUS
 62
     7
100
AcDbLine
 10
151.2682323535859
 20
-22.21895787296524
 30
0.0
 11
151.6229279407859
 21
-22.57365346016527
 31
0.0
  0
LINE
  5
6A
330
2
100
AcDbEntity
  8
0
  6
CONTINUOUS
 62
     7
100
AcDbLine
 10
151.8977497983859
 20
-22.19003159296524
 30
0.0
 11
152.0223586863859
 21
-22.18944744896526
 31
0.0
  0
LINE
  5
6B
330
2
100
AcDbEntity
  8
0
  6
CONTINUOUS
 62
     7
100
AcDbLine
 10
151.8404262847859
 20
-22.19026469696525
 30
0.0
 11
151.8977497983859
 21
-22.19003159296524
 31
0.0
  0
LINE
  5
6C
330
2
100
AcDbEntity
  8
0
  6
CONTINUOUS
 62
     7
100
AcDbLine
 10
151.8202298607858
 20
-22.19033938656524
 30
0.0
 11
151.8404262847859
 21
-22.19026469696525
 31
0.0
  0
LINE
  5
6D
330
2
100
AcDbEntity
  8
0
  6
CONTINUOUS
 62
     7
100
AcDbLine
 10
151.8040431583859
 20
-22.19039605696524
 30
0.0
 11
151.8202298607858
 21
-22.19033938656524
 31
0.0
  0
LINE
  5
6E
330
2
100
AcDbEntity
  8
0
  6
CONTINUOUS
 62
     7
100
AcDbLine
 10
151.7717565631859
 20
-22.19046973056526
 30
0.0
 11
151.8040431583859
 21
-22.19039605696524
 31
0.0
  0
LINE
  5
6F
330
2
100
AcDbEntity
  8
0
  6
CONTINUOUS
 62
     7
100
AcDbLine
 10
151.7654380783859
 20
-22.19046666816525
 30
0.0
 11
151.7717565631859
 21
-22.19046973056526
 31
0.0
  0
LWPOLYLINE
  5
70
330
2
100
AcDbEntity
  8
0
  6
CONTINUOUS
 62
     7
100
AcDbPolyline
 90
        5
 70
     0
 43
0.0
 10
151.6666998831859
 20
-22.19055843776526
 10
151.5662645759859
 20
-22.19046319936527
 10
151.4470782687858
 20
-22.19020849056526
 10
151.3000170543859
 20
-22.18963436416525
 10
151.1066974687859
 20
-22.18833986816524
  0
LWPOLYLINE
  5
77
330
2
100
AcDbEntity
  8
0
  6
CONTINUOUS
 62
     7
100
AcDbPolyline
 90
        3
 70
     0
 43
0.0
 10
152.0223586863859
 20
-22.18944744896526
 10
152.2034615535859
 20
-22.18848377536525
 10
152.2679876127859
 20
-22.18812021056526
  0
LWPOLYLINE
  5
7C
330
2
100
AcDbEntity
  8
0
  6
CONTINUOUS
 62
     7
100
AcDbPolyline
 90
        3
 70
     0
 43
0.0
 10
151.1066974687859
 20
-22.18833986816524
 10
150.8479208207859
 20
-22.18537570176526
 10
150.7433892351859
 20
-22.18368943936526
  0
LWPOLYLINE
  5
81
330
2
100
AcDbEntity
  8
0
  6
CONTINUOUS
 62
     7
100
AcDbPolyline
 90
        7
 70
     0
 43
0.0
 10
155.0541010703859
 20
-22.16166167936526
 10
154.8008418623859
 20
-22.15864064416526
 10
154.5026864623859
 20
-22.15762502336525
 10
154.1806826767859
 20
-22.15862952096525
 10
153.8557403279859
 20
-22.16167513216525
 10
153.5463959487859
 20
-22.16657733216526
 10
153.2691884223859
 20
-22.17298619936526
  0
LWPOLYLINE
  5
8A
330
2
100
AcDbEntity
  8
0
  6
CONTINUOUS
 62
     7
100
AcDbPolyline
 90
        8
 70
     0
 43
0.0
 10
155.0544162127859
 20
-22.19289796576526
 10
154.7447969455859
 20
-22.18951250816525
 10
154.3844897791859
 20
-22.18899691936526
 10
154.0089934335859
 20
-22.19122146336526
 10
153.6587156607859
 20
-22.19579621216524
 10
153.3552834143859
 20
-22.20198515616524
 10
153.1131709007859
 20
-22.20908524736526
 10
152.9324741663859
 20
-22.21678414176526
  0
LINE
  5
94
330
2
100
AcDbEntity
  8
0
  6
CONTINUOUS
 62
     7
100
AcDbLine
 10
152.7558891759859
 20
-22.23470784896524
 30
0.0
 11
152.7557091327859
 21
-22.20347025536526
 31
0.0
  0
LWPOLYLINE
  5
95
330
2
100
AcDbEntity
  8
0
  6
CONTINUOUS
 62
     7
100
AcDbPolyline
 90
        3
 70
     0
 43
0.0
 10
152.8114576991859
 20
-22.22490915616526
 10
152.7572235439859
 20
-22.23325754176527
 10
152.7562970623859
 20
-22.23470545856526
  0
LINE
  5
9A
330
2
100
AcDbEntity
  8
0
  6
CONTINUOUS
 62
     7
100
AcDbLine
 10
153.1218377631859
 20
-22.39722841376524
 30
0.0
 11
153.0658190271859
 21
-22.32874465376525
 31
0.0
  0
LINE
  5
9B
330
2
100
AcDbEntity
  8
0
  6
CONTINUOUS
 62
     7
100
AcDbLine
 10
153.1559098239859
 20
-22.46984068576524
 30
0.0
 11
153.1218377631859
 21
-22.39722841376524
 31
0.0
  0
LINE
  5
9C
330
2
100
AcDbEntity
  8
0
  6
CONTINUOUS
 62
     7
100
AcDbLine
 10
153.0658190271859
 20
-22.32874465376525
 30
0.0
 11
153.0007328191859
 21
-22.28064260576526
 31
0.0
  0
LWPOLYLINE
  5
9D
330
2
100
AcDbEntity
  8
0
  6
CONTINUOUS
 62
     7
100
AcDbPolyline
 90
        4
 70
     0
 43
0.0
 10
153.0007328191859
 20
-22.28064260576526
 10
152.9411855711859
 20
-22.25407558016525
 10
152.9038505055859
 20
-22.24418934496525
 10
152.8936062927859
 20
-22.24242292736526
  0
LINE
  5
A3
330
2
100
AcDbEntity
  8
0
  6
CONTINUOUS
 62
     7
100
AcDbLine
 10
153.0405237183859
 20
-22.18058008096524
 30
0.0
 11
152.8735606607859
 21
-22.18895374816526
 31
0.0
  0
LWPOLYLINE
  5
A4
330
2
100
AcDbEntity
  8
0
  6
CONTINUOUS
 62
     7
100
AcDbPolyline
 90
        3
 70
     0
 43
0.0
 10
152.8735606607859
 20
-22.18895374816526
 10
152.7769319103859
 20
-22.19752520416526
 10
152.7558634223859
 20
-22.20346937376526
  0
LINE
  5
A9
330
2
100
AcDbEntity
  8
0
  6
CONTINUOUS
 62
     7
100
AcDbLine
 10
152.9324741663859
 20
-22.21678414176526
 30
0.0
 11
152.8114576991859
 21
-22.22490915616526
 31
0.0
  0
LWPOLYLINE
  5
AA
330
2
100
AcDbEntity
  8
0
  6
CONTINUOUS
 62
     7
100
AcDbPolyline
 90
        3
 70
     0
 43
0.0
 10
152.7562970623859
 20
-22.23470545856526
 10
152.7875200463859
 20
-22.24119605056525
 10
152.9147265743859
 20
-22.24775251616525
  0
ARC
  5
AF
330
2
100
AcDbEntity
  8
0
  6
CONTINUOUS
 62
     7
100
AcDbCircle
 10
154.0157204719859
 20
-22.18348841696526
 30
0.0
 40
0.90625
100
AcDbArc
 50
198.4109011677999
 51
270.0
  0
LINE
  5
B0
330
2
100
AcDbEntity
  8
0
  6
CONTINUOUS
 62
     7
100
AcDbLine
 10
153.2691884223859
 20
-22.17298619936526
 30
0.0
 11
153.0405237183859
 21
-22.18058008096524
 31
0.0
  0
LINE
  5
B1
330
2
100
AcDbEntity
  8
0
  6
CONTINUOUS
 62
     7
100
AcDbLine
 10
155.6962333311859
 20
-22.20376328736525
 30
0.0
 11
155.0544162127859
 21
-22.19289796576526
 31
0.0
  0
LINE
  5
B2
330
2
100
AcDbEntity
  8
0
  6
CONTINUOUS
 62
     7
100
AcDbLine
 10
155.5478927215859
 20
-22.17012170016527
 30
0.0
 11
155.0541010703859
 21
-22.16166167936526
 31
0.0
  0
LWPOLYLINE
  5
B3
330
2
100
AcDbEntity
  8
0
  6
CONTINUOUS
 62
     7
100
AcDbPolyline
 90
        4
 70
     0
 43
0.0
 10
169.1683337231859
 20
-21.97310423296524
 10
165.1788417583859
 20
-22.06615146816526
 10
161.1889334383858
 20
-22.13928482656526
 10
157.1987233983859
 20
-22.19194843616524
  0
LWPOLYLINE
  5
B9
330
2
100
AcDbEntity
  8
0
  6
CONTINUOUS
 62
     7
100
AcDbPolyline
 90
        4
 70
     0
 43
0.0
 10
157.1990495535859
 20
-22.22318824416525
 10
162.9309993023859
 20
-22.14110096576527
 10
168.2242623471859
 20
-22.02816195936525
 10
173.1582317983859
 20
-21.89155166976525
  0
LINE
  5
BF
330
2
100
AcDbEntity
  8
0
  6
CONTINUOUS
 62
     7
100
AcDbLine
 10
157.1987233983859
 20
-22.19194843616524
 30
0.0
 11
157.1526610671859
 21
-22.19231335296524
 31
0.0
  0
LINE
  5
C0
330
2
100
AcDbEntity
  8
0
  6
CONTINUOUS
 62
     7
100
AcDbLine
 10
157.1990495535859
 20
-22.22318824416525
 30
0.0
 11
157.1375644655859
 21
-22.22362568736524
 31
0.0
  0
LWPOLYLINE
  5
C1
330
2
100
AcDbEntity
  8
0
  6
CONTINUOUS
 62
     7
100
AcDbPolyline
 90
        3
 70
     0
 43
0.0
 10
157.1526610671859
 20
-22.19231335296524
 10
157.1075253519859
 20
-22.19245353376526
 10
157.0657493247859
 20
-22.19236805376525
  0
LINE
  5
C6
330
2
100
AcDbEntity
  8
0
  6
CONTINUOUS
 62
     7
100
AcDbLine
 10
157.1375644655859
 20
-22.22362568736524
 30
0.0
 11
157.0795869007859
 21
-22.22366208576525
 31
0.0
  0
LINE
  5
C7
330
2
100
AcDbEntity
  8
0
  6
CONTINUOUS
 62
     7
100
AcDbLine
 10
157.0657493247859
 20
-22.19236805376525
 30
0.0
 11
157.0297660495859
 21
-22.19205513536525
 31
0.0
  0
LINE
  5
C8
330
2
100
AcDbEntity
  8
0
  6
CONTINUOUS
 62
     7
100
AcDbLine
 10
157.0795869007859
 20
-22.22366208576525
 30
0.0
 11
157.0300880031859
 21
-22.22329496096524
 31
0.0
  0
LINE
  5
C9
330
2
100
AcDbEntity
  8
0
  6
CONTINUOUS
 62
     7
100
AcDbLine
 10
173.1572754719859
 20
-21.86031992416527
 30
0.0
 11
169.1683337231859
 21
-21.97310423296524
 31
0.0
  0
LINE
  5
CA
330
2
100
AcDbEntity
  8
0
  6
CONTINUOUS
 62
     7
100
AcDbLine
 10
176.5356182639859
 20
-21.70155758496524
 30
0.0
 11
174.3376869231859
 21
-21.79006672416524
 31
0.0
  0
LINE
  5
CB
330
2
100
AcDbEntity
  8
0
  6
CONTINUOUS
 62
     7
100
AcDbLine
 10
174.1357194415859
 20
-22.34085707776525
 30
0.0
 11
174.1696567839859
 21
-22.14838884256526
 31
0.0
  0
LWPOLYLINE
  5
CC
330
2
100
AcDbEntity
  8
0
  6
CONTINUOUS
 62
     7
100
AcDbPolyline
 90
        5
 70
     0
 43
0.0
 10
174.3254720015859
 20
-21.91657807456525
 10
174.2708937551859
 20
-21.95903182816526
 10
174.2242598927859
 20
-22.01398301216524
 10
174.1895580047859
 20
-22.07882889376524
 10
174.1697365055859
 20
-22.14793363456525
  0
LWPOLYLINE
  5
D3
330
2
100
AcDbEntity
  8
0
  6
CONTINUOUS
 62
     7
100
AcDbPolyline
 90
        3
 70
     0
 43
0.0
 10
174.5672602127859
 20
-21.86150789856525
 10
174.5562974943859
 20
-21.86340784096526
 10
174.4511703167859
 20
-21.87029940736526
  0
LWPOLYLINE
  5
D8
330
2
100
AcDbEntity
  8
0
  6
CONTINUOUS
 62
     7
100
AcDbPolyline
 90
        3
 70
     0
 43
0.0
 10
174.4347591503859
 20
-21.86046336096524
 10
174.5502287391859
 20
-21.86015390816526
 10
174.5672602127859
 20
-21.86150789856525
  0
LWPOLYLINE
  5
DD
330
2
100
AcDbEntity
  8
0
  6
CONTINUOUS
 62
     7
100
AcDbPolyline
 90
        3
 70
     0
 43
0.0
 10
174.5661314287859
 20
-21.83027872416527
 10
174.5558508143859
 20
-21.82912631936525
 10
174.4737109375859
 20
-21.82882612096527
  0
LINE
  5
E2
330
2
100
AcDbEntity
  8
0
  6
CONTINUOUS
 62
     7
100
AcDbLine
 10
174.5662804959859
 20
-21.83027339456526
 30
0.0
 11
174.5673970687859
 21
-21.86150300416525
 31
0.0
  0
LWPOLYLINE
  5
E3
330
2
100
AcDbEntity
  8
0
  6
CONTINUOUS
 62
     7
100
AcDbPolyline
 90
        4
 70
     0
 43
0.0
 10
174.4428632303859
 20
-21.87070364896527
 10
174.4333452335859
 20
-21.87240834016525
 10
174.3851727375859
 20
-21.88680601856526
 10
174.3269805039859
 20
-21.91563742976526
  0
LWPOLYLINE
  5
E9
330
2
100
AcDbEntity
  8
0
  6
CONTINUOUS
 62
     7
100
AcDbPolyline
 90
        6
 70
     0
 43
0.0
 10
174.4602468079859
 20
-21.86772637056525
 10
174.4623066383859
 20
-21.86754077696524
 10
174.4561433327859
 20
-21.86830680096524
 10
174.4319874927859
 20
-21.87270789856526
 10
174.3832497935859
 20
-21.88754712896526
 10
174.3254720015859
 20
-21.91657807456525
  0
LINE
  5
F1
330
2
100
AcDbEntity
  8
0
  6
CONTINUOUS
 62
     7
100
AcDbLine
 10
174.4737109375859
 20
-21.82882612096527
 30
0.0
 11
174.3161326175859
 21
-21.83101688096525
 31
0.0
  0
LINE
  5
F2
330
2
100
AcDbEntity
  8
0
  6
CONTINUOUS
 62
     7
100
AcDbLine
 10
174.4511703167859
 20
-21.87029940736526
 30
0.0
 11
174.4430334751859
 21
-21.87069536416525
 31
0.0
  0
ARC
  5
F3
330
2
100
AcDbEntity
  8
0
  6
CONTINUOUS
 62
     7
100
AcDbCircle
 10
187.1505649967859
 20
-22.80848841696526
 30
0.0
 40
0.28125
100
AcDbArc
 50
223.1753933477
 51
270.0
  0
ARC
  5
F4
330
2
100
AcDbEntity
  8
0
  6
CONTINUOUS
 62
     7
100
AcDbCircle
 10
186.2845395919859
 20
-23.62098841696526
 30
0.0
 40
0.90625
100
AcDbArc
 50
43.17306249860002
 51
136.8272047907
  0
LINE
  5
F5
330
2
100
AcDbEntity
  8
0
  6
CONTINUOUS
 62
     7
100
AcDbLine
 10
185.4185141887859
 20
-23.08973841696527
 30
0.0
 11
184.7576213391858
 21
-23.08973841696527
 31
0.0
  0
ARC
  5
F6
330
2
100
AcDbEntity
  8
0
  6
CONTINUOUS
 62
     7
100
AcDbCircle
 10
184.7576213391858
 20
-22.80848841696526
 30
0.0
 40
0.28125
100
AcDbArc
 50
194.9999999999999
 51
270.0
  0
ARC
  5
F7
330
2
100
AcDbEntity
  8
0
  6
CONTINUOUS
 62
     7
100
AcDbCircle
 10
185.4185141887859
 20
-22.80848841696526
 30
0.0
 40
0.28125
100
AcDbArc
 50
270.0
 51
316.8236142755
  0
ARC
  5
F8
330
2
100
AcDbEntity
  8
0
  6
CONTINUOUS
 62
     7
100
AcDbCircle
 10
187.8114578463859
 20
-22.80848841696526
 30
0.0
 40
0.28125
100
AcDbArc
 50
270.0
 51
344.9999999999999
  0
LINE
  5
F9
330
2
100
AcDbEntity
  8
0
  6
CONTINUOUS
 62
     7
100
AcDbLine
 10
187.8114578463859
 20
-23.08973841696527
 30
0.0
 11
187.1505649967859
 21
-23.08973841696527
 31
0.0
  0
LINE
  5
FD
330
2
100
AcDbEntity
  8
0
  6
CONTINUOUS
 62
     7
100
AcDbLine
 10
144.9095395919859
 20
-2.089738416965268
 30
0.0
 11
204.4095395919859
 21
-2.089738416965268
 31
0.0
  0
LINE
  5
100
330
2
100
AcDbEntity
  8
0
100
AcDbLine
 10
144.6595395919859
 20
-0.9647384169652681
 30
0.0
 11
204.6595395919859
 21
-0.9647384169652681
 31
0.0
  0
LWPOLYLINE
  5
101
330
2
100
AcDbEntity
  8
0
  6
CONTINUOUS
 62
     7
100
AcDbPolyline
 90
       17
 70
     0
 43
0.0
 10
155.0935747791859
 20
-7.94439653376525
 10
156.8818980191859
 20
-8.035345616965265
 10
158.6382026159859
 20
-8.135458386565268
 10
160.3627801599859
 20
-8.244427087365274
 10
162.0560752063859
 20
-8.361965863365249
 10
163.7184896079859
 20
-8.487799847365273
 10
165.3504048127859
 20
-8.62166551136525
 10
166.9521767615859
 20
-8.763309368965273
 10
168.5240818463859
 20
-8.91248169056525
 10
170.0658949887859
 20
-9.06888955136528
 10
171.5874730959859
 20
-9.233369762565274
 10
173.2438310735859
 20
-9.425057917765251
 10
175.1082688975859
 20
-9.659811488965274
 10
177.1839635567859
 20
-9.94937692416525
 10
179.3053423855859
 20
-10.28108123136524
 10
181.2624928623859
 20
-10.62323267776526
 10
182.9948387903859
 20
-10.95753221536524
  0
LWPOLYLINE
  5
114
330
2
100
AcDbEntity
  8
0
  6
CONTINUOUS
 62
     7
100
AcDbPolyline
 90
       24
 70
     0
 43
0.0
 10
184.3949577039859
 20
-11.25140622816525
 10
183.7546939871859
 20
-11.11393322176525
 10
182.7304064127859
 20
-10.90451922176524
 10
181.5913579487859
 20
-10.68436271136528
 10
180.3245530831859
 20
-10.45471369696524
 10
178.9066844623859
 20
-10.21576122976525
 10
177.3418657631859
 20
-9.97275989856525
 10
175.6522262591859
 20
-9.73262552096525
 10
173.7777121903859
 20
-9.490067847365274
 10
172.0246500111859
 20
-9.282588621765249
 10
170.4440069775859
 20
-9.108809301765248
 10
168.8682299599859
 20
-8.946515951365249
 10
167.2609497551859
 20
-8.791806919365249
 10
165.6288974719859
 20
-8.645554759365268
 10
164.0773250015859
 20
-8.51634627136525
 10
162.6968671471859
 20
-8.40922921376525
 10
161.4651986831859
 20
-8.319746338565273
 10
160.3580651871858
 20
-8.244114517765268
 10
159.3581188575859
 20
-8.179646578565268
 10
158.4512092559859
 20
-8.12428284096525
 10
157.6260773967859
 20
-8.076444525765275
 10
156.8733385551859
 20
-8.03488410816525
 10
156.1850092223859
 20
-7.998599748165268
 10
155.5541108655859
 20
-7.966772580165248
  0
LWPOLYLINE
  5
12E
330
2
100
AcDbEntity
  8
0
  6
CONTINUOUS
 62
     7
100
AcDbPolyline
 90
        9
 70
     0
 43
0.0
 10
148.2740458047859
 20
-14.54316568736527
 10
148.0311298111859
 20
-12.78452508576527
 10
147.9171035711859
 20
-11.95969554336524
 10
147.8073037359859
 20
-11.16679933696524
 10
147.7012276287859
 20
-10.40257107296526
 10
147.5983724527859
 20
-9.663585463365251
 10
147.4981139391859
 20
-8.945372733765275
 10
147.3999385743859
 20
-8.244136264965248
 10
147.3048451039859
 20
-7.566832941765248
  0
LWPOLYLINE
  5
139
330
2
100
AcDbEntity
  8
0
  6
CONTINUOUS
 62
     7
100
AcDbPolyline
 90
        8
 70
     0
 43
0.0
 10
149.1631768175859
 20
-20.79103782656525
 10
149.0537817999859
 20
-20.03797325216525
 10
148.9309043375859
 20
-19.19649103136524
 10
148.8009990591859
 20
-18.30155325856525
 10
148.6681407407859
 20
-17.37102156256526
 10
148.5348339807859
 20
-16.42290239616524
 10
148.4029263743859
 20
-15.47465733856525
 10
148.2740458047859
 20
-14.54316568736527
  0
LINE
  5
143
330
2
100
AcDbEntity
  8
0
  6
CONTINUOUS
 62
     7
100
AcDbLine
 10
149.2580100799859
 20
-21.15029109696526
 30
0.0
 11
149.2155656303859
 21
-21.02743671456527
 31
0.0
  0
LINE
  5
144
330
2
100
AcDbEntity
  8
0
  6
CONTINUOUS
 62
     7
100
AcDbLine
 10
149.2158252591859
 20
-21.02829754976525
 30
0.0
 11
149.1832634511859
 21
-20.90245777696524
 31
0.0
  0
LINE
  5
145
330
2
100
AcDbEntity
  8
0
  6
CONTINUOUS
 62
     7
100
AcDbLine
 10
149.1834537983859
 20
-20.90333583776526
 30
0.0
 11
149.1631776351859
 21
-20.79104511616525
 31
0.0
  0
LINE
  5
146
330
2
100
AcDbEntity
  8
0
  6
HIDDEN
 62
     8
100
AcDbLine
 10
146.7615625439859
 20
-2.815669439365265
 30
0.0
 11
146.9687399935859
 21
-4.28981359136528
 31
0.0
  0
LINE
  5
147
330
2
100
AcDbEntity
  8
0
  6
CONTINUOUS
 62
     7
100
AcDbLine
 10
144.6595395919859
 20
-0.9647384169652681
 30
0.0
 11
144.6595395919859
 21
-3.589738416965268
 31
0.0
  0
LINE
  5
148
330
2
100
AcDbEntity
  8
0
  6
CONTINUOUS
 62
     7
100
AcDbLine
 10
147.3048439855859
 20
-7.566833154565266
 30
0.0
 11
146.7438206767859
 21
-3.611363088965248
 31
0.0
  0
LINE
  5
14A
330
2
100
AcDbEntity
  8
0
  6
HIDDEN
 62
     8
100
AcDbLine
 10
146.0668709743859
 20
-2.175869476165267
 30
0.0
 11
144.9095395919859
 21
-2.101637204165278
 31
0.0
  0
LINE
  5
14B
330
2
100
AcDbEntity
  8
0
  6
CONTINUOUS
 62
     7
100
AcDbLine
 10
144.9095395919859
 20
-2.089738416965268
 30
0.0
 11
144.6595395919859
 21
-2.089738416965268
 31
0.0
  0
LINE
  5
14C
330
2
100
AcDbEntity
  8
0
  6
CONTINUOUS
 62
     7
100
AcDbLine
 10
144.9095395919859
 20
-2.089738416965268
 30
0.0
 11
144.9095395919859
 21
-0.9647384169652681
 31
0.0
  0
LWPOLYLINE
  5
14D
330
2
100
AcDbEntity
  8
0
  6
CONTINUOUS
 62
     7
100
AcDbPolyline
 90
        8
 70
     0
 43
0.0
 10
153.5484752415859
 20
-7.87451436896525
 10
153.2517389727859
 20
-7.862004725765274
 10
152.9578716655859
 20
-7.849800516165274
 10
152.6637969647859
 20
-7.837518381765249
 10
152.3675255151859
 20
-7.824562695365266
 10
152.0726232495859
 20
-7.810502332165249
 10
151.7879515711859
 20
-7.795605700165268
 10
151.5220675055859
 20
-7.778898952965249
  0
LWPOLYLINE
  5
157
330
2
100
AcDbEntity
  8
0
  6
CONTINUOUS
 62
     7
100
AcDbPolyline
 90
        5
 70
     0
 43
0.0
 10
155.0935747791859
 20
-7.94439653376525
 10
154.7166792127858
 20
-7.926618946565248
 10
154.3320739855859
 20
-7.90897123776525
 10
153.9417572575859
 20
-7.891568701765265
 10
153.5488563567859
 20
-7.874564540165273
  0
LWPOLYLINE
  5
15E
330
2
100
AcDbEntity
  8
0
  6
CONTINUOUS
 62
     7
100
AcDbPolyline
 90
        5
 70
     0
 43
0.0
 10
155.5541108655859
 20
-7.966772580165248
 10
154.9756521071859
 20
-7.938782700165248
 10
154.4478685471859
 20
-7.91423218976525
 10
153.9718718143859
 20
-7.89289324416525
 10
153.5488563567859
 20
-7.874564540165273
  0
LINE
  5
263
330
2
100
AcDbEntity
  8
0
  6
HIDDEN
 62
     8
100
AcDbLine
 10
191.1360699519859
 20
-2.080027317765278
 30
0.0
 11
191.4679368399859
 21
-2.048580151365278
 31
0.0
  0
LWPOLYLINE
  5
264
330
2
100
AcDbEntity
  8
0
  6
CONTINUOUS
 62
     7
100
AcDbPolyline
 90
       21
 70
     0
 43
0.0
 10
192.8970557583859
 20
-13.40133635136525
 10
192.7570907119859
 20
-13.36124508416526
 10
192.5981286911859
 20
-13.31742299616524
 10
192.4180738127859
 20
-13.26950743456524
 10
192.2145281967859
 20
-13.21697170656527
 10
191.9850370495859
 20
-13.15904601536524
 10
191.7273365007859
 20
-13.09451989056526
 10
191.4393728095859
 20
-13.02200418496527
 10
191.1193554847859
 20
-12.94016403296525
 10
190.7658478943859
 20
-12.84823003936524
 10
190.3781138143859
 20
-12.74587312416525
 10
189.9563091487859
 20
-12.63338801856525
 10
189.5018331135859
 20
-12.51177346016526
 10
189.0178992383859
 20
-12.38265275136525
 10
188.5099784063859
 20
-12.24823031296524
 10
187.9862625551859
 20
-12.11125895296525
 10
187.4568083023859
 20
-11.97469508256526
 10
186.9324438911859
 20
-11.84175364736526
 10
186.4236104815859
 20
-11.71558894816524
 10
185.9394599343859
 20
-11.59887558016524
 10
185.4867744079859
 20
-11.49342079616527
  0
LINE
  5
27B
330
2
100
AcDbEntity
  8
0
  6
CONTINUOUS
 62
     7
100
AcDbLine
 10
175.3403990700614
 20
-20.73233717900826
 30
0.0
 11
193.4044025455859
 21
-20.21969777536527
 31
0.0
  0
LWPOLYLINE
  5
27C
330
2
100
AcDbEntity
  8
0
  6
CONTINUOUS
 62
     7
100
AcDbPolyline
 90
       15
 70
     0
 43
0.0
 10
177.1277493567859
 20
-21.16793072736526
 10
177.1441026303859
 20
-21.07141437056525
 10
177.1626881871859
 20
-20.98905943296525
 10
177.1833018735859
 20
-20.92045950016525
 10
177.2053354415859
 20
-20.86483698176525
 10
177.2278757119859
 20
-20.82100272096526
 10
177.2502000991859
 20
-20.78702337536525
 10
177.2723614351859
 20
-20.76038349536526
 10
177.2949266239859
 20
-20.73887576096525
 10
177.3186459279859
 20
-20.72107541376524
 10
177.3446447087859
 20
-20.70604085536526
 10
177.3742160095859
 20
-20.69325000096525
 10
177.4090284191859
 20
-20.68275165696526
 10
177.4512516031859
 20
-20.67496533216524
 10
177.5029335695859
 20
-20.67096648576524
  0
LINE
  5
28D
330
2
100
AcDbEntity
  8
0
  6
CONTINUOUS
 62
     7
100
AcDbLine
 10
183.3944096223859
 20
-20.56629710816526
 30
0.0
 11
189.2113009663859
 21
-20.40121921216526
 31
0.0
  0
LINE
  5
28E
330
2
100
AcDbEntity
  8
0
  6
CONTINUOUS
 62
     7
100
AcDbLine
 10
183.3952961119859
 20
-20.59753453216524
 30
0.0
 11
189.2121874543859
 21
-20.43245663456525
 31
0.0
  0
ARC
  5
28F
330
2
100
AcDbEntity
  8
0
  6
CONTINUOUS
 62
     7
100
AcDbCircle
 10
183.6086724911859
 20
-20.93536750656525
 30
0.0
 40
0.34375
100
AcDbArc
 50
15.00000000000001
 51
91.6255639559
  0
ARC
  5
290
330
2
100
AcDbEntity
  8
0
  6
CONTINUOUS
 62
     7
100
AcDbCircle
 10
189.0013756911859
 20
-20.78232766976526
 30
0.0
 40
0.3437354047999999
100
AcDbArc
 50
91.61919568650002
 51
164.9981776127
  0
ARC
  5
291
330
2
100
AcDbEntity
  8
0
  6
CONTINUOUS
 62
     7
100
AcDbCircle
 10
189.0014138847859
 20
-20.78232658656526
 30
0.0
 40
0.34375
100
AcDbArc
 50
116.0844760381999
 51
165.0
  0
LWPOLYLINE
  5
292
330
2
100
AcDbEntity
  8
0
  6
CONTINUOUS
 62
     7
100
AcDbPolyline
 90
        8
 70
     0
 43
0.0
 10
184.7768923279859
 20
-11.33398702336527
 10
184.8470232559859
 20
-11.34949498016526
 10
184.9254512415859
 20
-11.36690045856526
 10
185.0133245087858
 20
-11.38648097856527
 10
185.1118603855859
 20
-11.40853664256526
 10
185.2225202079859
 20
-11.43343126816525
 10
185.3468570335859
 20
-11.46156099456527
 10
185.4868154175859
 20
-11.49342552896526
  0
LWPOLYLINE
  5
29C
330
2
100
AcDbEntity
  8
0
  6
CONTINUOUS
 62
     7
100
AcDbPolyline
 90
        3
 70
     0
 43
0.0
 10
185.4868154175859
 20
-11.49342552896526
 10
184.6719318479859
 20
-11.31087620416527
 10
184.5221998447859
 20
-11.27872678176525
  0
LINE
  5
2A1
330
2
100
AcDbEntity
  8
0
  6
CONTINUOUS
 62
     7
100
AcDbLine
 10
184.6578931359859
 20
-11.30779406336525
 30
0.0
 11
184.7768923279859
 21
-11.33398702336527
 31
0.0
  0
LWPOLYLINE
  5
2A2
330
2
100
AcDbEntity
  8
0
  6
CONTINUOUS
 62
     7
100
AcDbPolyline
 90
        3
 70
     0
 43
0.0
 10
184.5223258751859
 20
-11.27813981056525
 10
184.5624292495859
 20
-11.28689154496525
 10
184.6578931359859
 20
-11.30779406336525
  0
LINE
  5
2A7
330
2
100
AcDbEntity
  8
0
  6
CONTINUOUS
 62
     7
100
AcDbLine
 10
182.9948387903859
 20
-10.95753221536524
 30
0.0
 11
184.5223258751859
 21
-11.27813981056525
 31
0.0
  0
LINE
  5
328
330
2
100
AcDbEntity
  8
0
  6
HIDDEN
 62
     8
100
AcDbLine
 10
190.9799067887859
 20
-2.094019381765278
 30
0.0
 11
191.1360699519859
 21
-2.080027317765278
 31
0.0
  0
LWPOLYLINE
  5
32B
330
2
100
AcDbEntity
  8
0
  6
CONTINUOUS
 62
     7
100
AcDbPolyline
 90
       23
 70
     0
 43
0.0
 10
197.7497035311859
 20
-6.887439658565249
 10
197.7196049583859
 20
-7.083690176965248
 10
197.6795372175859
 20
-7.284449746565258
 10
197.6268439823859
 20
-7.49196842016525
 10
197.5587195391859
 20
-7.710877064965274
 10
197.4755109775859
 20
-7.946401068165251
 10
197.3828980335859
 20
-8.206904765765266
 10
197.2832850671859
 20
-8.498905285765275
 10
197.1763186415859
 20
-8.826686887365248
 10
197.0615351519859
 20
-9.195756141765251
 10
196.9389889327859
 20
-9.611402855365248
 10
196.8090158863859
 20
-10.07958828736526
 10
196.6726794815859
 20
-10.60527027776525
 10
196.5315834751859
 20
-11.19232364096524
 10
196.3875759695859
 20
-11.84487281216525
 10
196.2410519071859
 20
-12.57736972736526
 10
196.0962674559859
 20
-13.39114330176526
 10
195.9663042223859
 20
-14.22510240896524
 10
195.8610495535859
 20
-15.00271062816527
 10
195.7777996831859
 20
-15.71723445376526
 10
195.7065746463859
 20
-16.43582560896525
 10
195.6430066063859
 20
-17.21191061376524
 10
195.5873718991859
 20
-18.09064522176525
  0
LWPOLYLINE
  5
344
330
2
100
AcDbEntity
  8
0
  6
CONTINUOUS
 62
     7
100
AcDbPolyline
 90
       21
 70
     0
 43
0.0
 10
197.6472662575859
 20
-6.824926671365268
 10
197.5984110463859
 20
-6.931304479365266
 10
197.5446938911859
 20
-7.050457224965249
 10
197.4844211935859
 20
-7.186887640965267
 10
197.4162851615859
 20
-7.344564112965265
 10
197.3398392879859
 20
-7.525646220165249
 10
197.2570296255859
 20
-7.726348632965247
 10
197.1679268815859
 20
-7.94688153696525
 10
197.0705199599859
 20
-8.193455184965266
 10
196.9635731567859
 20
-8.47124745056525
 10
196.8477038911859
 20
-8.781052149765265
 10
196.7224192223859
 20
-9.126897871365265
 10
196.5877978383859
 20
-9.511676424965266
 10
196.4447831183859
 20
-9.936000434565244
 10
196.2934460031859
 20
-10.40310449216524
 10
196.1333026479859
 20
-10.91815914336526
 10
195.9617452111859
 20
-11.49352732736524
 10
195.7869655759859
 20
-12.10282951616525
 10
195.6056639503859
 20
-12.75878678336528
 10
195.4114254895859
 20
-13.49277837536527
 10
195.2305686591859
 20
-14.20486807456526
  0
LWPOLYLINE
  5
35B
330
2
100
AcDbEntity
  8
0
  6
CONTINUOUS
 62
     7
100
AcDbPolyline
 90
       12
 70
     0
 43
0.0
 10
195.2305555743859
 20
-14.20486313056526
 10
195.1555483983859
 20
-14.50502956736524
 10
195.0897457599859
 20
-14.76702177536524
 10
195.0283680047859
 20
-15.00727217056525
 10
194.9626965327859
 20
-15.25905361216528
 10
194.8887442399859
 20
-15.53852677696524
 10
194.8035832687859
 20
-15.86008078816524
 10
194.7058240351859
 20
-16.23950838496524
 10
194.6034757327859
 20
-16.67157066336526
 10
194.5106687215859
 20
-17.12719372416526
 10
194.4315781407859
 20
-17.60276765696525
 10
194.3656907935859
 20
-18.11868404256524
  0
ARC
  5
369
330
2
100
AcDbEntity
  8
0
  6
CONTINUOUS
 62
     7
100
AcDbCircle
 10
193.3405764159859
 20
-17.97060324096526
 30
0.0
 40
2.25
100
AcDbArc
 50
271.6255639559
 51
356.9416969638999
  0
LWPOLYLINE
  5
36A
330
2
100
AcDbEntity
  8
0
  6
CONTINUOUS
 62
     7
100
AcDbPolyline
 90
       21
 70
     0
 43
0.0
 10
192.2634358591859
 20
-20.25207728736526
 10
192.4248252383859
 20
-20.24123673376525
 10
192.5849619999859
 20
-20.21794562176526
 10
192.7429551839859
 20
-20.18233351296525
 10
192.8979259359859
 20
-20.13459850656527
 10
193.0490122095859
 20
-20.07500613056524
 10
193.1953735727859
 20
-20.00388787776525
 10
193.3361958767859
 20
-19.92163934976525
 10
193.4706957807859
 20
-19.82871806336525
 10
193.5981251119859
 20
-19.72564090496526
 10
193.7177750287859
 20
-19.61298125536524
 10
193.8289799647859
 20
-19.49136579456526
 10
193.9311213263859
 20
-19.36147102336526
 10
194.0236309407859
 20
-19.22401949696526
 10
194.1059942111859
 20
-19.07977580896526
 10
194.1777529807859
 20
-18.92954232896526
 10
194.2385080783859
 20
-18.77415474976526
 10
194.2879215487859
 20
-18.61447743296526
 10
194.3257185199859
 20
-18.45139860576525
 10
194.3516887423859
 20
-18.28582540896526
 10
194.3656881647859
 20
-18.11867884096526
  0
LINE
  5
381
330
2
100
AcDbEntity
  8
0
  6
HIDDEN
 62
     8
100
AcDbLine
 10
199.6602340735859
 20
-1.345818567365292
 30
0.0
 11
199.9256177071859
 21
-1.313117295365266
 31
0.0
  0
LINE
  5
382
330
2
100
AcDbEntity
  8
0
  6
HIDDEN
 62
     8
100
AcDbLine
 10
199.7246633279859
 20
-2.440466016965267
 30
0.0
 11
199.8680472303859
 21
-2.207739676165267
 31
0.0
  0
LWPOLYLINE
  5
384
330
2
100
AcDbEntity
  8
0
  6
CONTINUOUS
 62
     7
100
AcDbPolyline
 90
       11
 70
     0
 43
0.0
 10
197.9259873023859
 20
-6.252729492165251
 10
197.9098680559859
 20
-6.284302496965274
 10
197.8958535759859
 20
-6.311895368965274
 10
197.8779710975859
 20
-6.347299032965274
 10
197.8563160239859
 20
-6.390469082565275
 10
197.8309496639859
 20
-6.441459098565275
 10
197.8019165471859
 20
-6.500388052165249
 10
197.7691909103859
 20
-6.567552696965258
 10
197.7326219855859
 20
-6.643551807365248
 10
197.6920684287859
 20
-6.729022023365274
 10
197.6472662575859
 20
-6.824926671365268
  0
ARC
  5
391
330
2
100
AcDbEntity
  8
0
  6
CONTINUOUS
 62
     7
100
AcDbCircle
 10
200.1039745951859
 20
-7.200541396165249
 30
0.0
 40
2.3749999936
100
AcDbArc
 50
156.3775912138
 51
172.4245132146999
  0
LINE
  5
392
330
2
100
AcDbEntity
  8
0
  6
CONTINUOUS
 62
     7
100
AcDbLine
 10
197.9279648015859
 20
-6.248882464965248
 30
0.0
 11
197.9259873023859
 21
-6.252729492165251
 31
0.0
  0
LWPOLYLINE
  5
399
330
2
100
AcDbEntity
  8
0
  6
CONTINUOUS
 62
     7
100
AcDbPolyline
 90
        4
 70
     0
 43
0.0
 10
198.9480327871859
 20
-4.147158580165267
 10
198.6304748111859
 20
-4.743003967365268
 10
198.2898567439859
 20
-5.449555445765248
 10
197.9279648015859
 20
-6.248882464965248
  0
LINE
  5
39F
330
2
100
AcDbEntity
  8
0
  6
HIDDEN
 62
     8
100
AcDbLine
 10
191.8176200367859
 20
-2.015131237765267
 30
0.0
 11
192.1834937503859
 21
-1.982067812165283
 31
0.0
  0
LINE
  5
3A0
330
2
100
AcDbEntity
  8
0
  6
HIDDEN
 62
     8
100
AcDbLine
 10
192.1834937503859
 20
-1.982067812165283
 30
0.0
 11
192.5682104031859
 21
-1.950892024965284
 31
0.0
  0
LINE
  5
3A1
330
2
100
AcDbEntity
  8
0
  6
HIDDEN
 62
     8
100
AcDbLine
 10
192.5682104031859
 20
-1.950892024965284
 30
0.0
 11
192.9761706383859
 21
-1.920847866565267
 31
0.0
  0
LINE
  5
3A2
330
2
100
AcDbEntity
  8
0
  6
HIDDEN
 62
     8
100
AcDbLine
 10
191.4679368399859
 20
-2.048580151365278
 30
0.0
 11
191.8176200367859
 21
-2.015131237765267
 31
0.0
  0
LINE
  5
3A3
330
2
100
AcDbEntity
  8
0
  6
HIDDEN
 62
     8
100
AcDbLine
 10
194.4463423679859
 20
-1.819041111365265
 30
0.0
 11
194.9451759999859
 21
-1.783053629765291
 31
0.0
  0
LINE
  5
3A4
330
2
100
AcDbEntity
  8
0
  6
HIDDEN
 62
     8
100
AcDbLine
 10
194.9451759999859
 20
-1.783053629765291
 30
0.0
 11
195.3816529087859
 21
-1.750742253765267
 31
0.0
  0
LINE
  5
3A5
330
2
100
AcDbEntity
  8
0
  6
HIDDEN
 62
     8
100
AcDbLine
 10
193.9122059487859
 20
-1.856212324165291
 30
0.0
 11
194.4463423679859
 21
-1.819041111365265
 31
0.0
  0
LINE
  5
3A6
330
2
100
AcDbEntity
  8
0
  6
HIDDEN
 62
     8
100
AcDbLine
 10
197.3915705183859
 20
-1.622299728965309
 30
0.0
 11
197.8171664847859
 21
-1.581850440965283
 31
0.0
  0
LINE
  5
3A7
330
2
100
AcDbEntity
  8
0
  6
HIDDEN
 62
     8
100
AcDbLine
 10
196.5780126095859
 20
-1.6933695529653
 30
0.0
 11
196.9812315231859
 21
-1.6591653209653
 31
0.0
  0
LINE
  5
3A8
330
2
100
AcDbEntity
  8
0
  6
HIDDEN
 62
     8
100
AcDbLine
 10
196.9812315231859
 20
-1.6591653209653
 30
0.0
 11
197.3915705183859
 21
-1.622299728965309
 31
0.0
  0
LINE
  5
3A9
330
2
100
AcDbEntity
  8
0
  6
HIDDEN
 62
     8
100
AcDbLine
 10
199.0346517471859
 20
-1.418947160965267
 30
0.0
 11
199.3642711823859
 21
-1.381118103365267
 31
0.0
  0
LINE
  5
3AA
330
2
100
AcDbEntity
  8
0
  6
HIDDEN
 62
     8
100
AcDbLine
 10
199.3642711823859
 20
-1.381118103365267
 30
0.0
 11
199.6602340735859
 21
-1.345818567365292
 31
0.0
  0
LINE
  5
3AD
330
2
100
AcDbEntity
  8
0
  6
CONTINUOUS
 62
     7
100
AcDbLine
 10
204.6595395919859
 20
-3.589738416965268
 30
0.0
 11
204.6595395919859
 21
-0.9647384169652681
 31
0.0
  0
LINE
  5
3AF
330
2
100
AcDbEntity
  8
0
  6
HIDDEN
 62
     8
100
AcDbLine
 10
201.9054495791859
 20
-1.189506938565266
 30
0.0
 11
201.9934666847859
 21
-1.224711010565265
 31
0.0
  0
LINE
  5
3B0
330
2
100
AcDbEntity
  8
0
  6
HIDDEN
 62
     8
100
AcDbLine
 10
199.9256177071859
 20
-1.313117295365266
 30
0.0
 11
200.1629364991859
 21
-1.282995650565283
 31
0.0
  0
LINE
  5
3B1
330
2
100
AcDbEntity
  8
0
  6
HIDDEN
 62
     8
100
AcDbLine
 10
200.1629364991859
 20
-1.282995650565283
 30
0.0
 11
200.3728648991859
 21
-1.255515087365267
 31
0.0
  0
LINE
  5
3B2
330
2
100
AcDbEntity
  8
0
  6
HIDDEN
 62
     8
100
AcDbLine
 10
199.8680472303859
 20
-2.207739676165267
 30
0.0
 11
200.0039460607859
 21
-2.004694853765265
 31
0.0
  0
LINE
  5
3B3
330
2
100
AcDbEntity
  8
0
  6
HIDDEN
 62
     8
100
AcDbLine
 10
200.2536166895859
 20
-1.720460119365284
 30
0.0
 11
200.3687552991859
 21
-1.600312108165283
 31
0.0
  0
LINE
  5
3B4
330
2
100
AcDbEntity
  8
0
  6
HIDDEN
 62
     8
100
AcDbLine
 10
200.5542458175859
 20
-1.230876484165278
 30
0.0
 11
200.7059403647859
 21
-1.209249184965266
 31
0.0
  0
LINE
  5
3B5
330
2
100
AcDbEntity
  8
0
  6
HIDDEN
 62
     8
100
AcDbLine
 10
200.7059403647859
 20
-1.209249184965266
 30
0.0
 11
200.8266107519859
 21
-1.190884287365278
 31
0.0
  0
LINE
  5
3B6
330
2
100
AcDbEntity
  8
0
  6
HIDDEN
 62
     8
100
AcDbLine
 10
200.8266107519859
 20
-1.190884287365278
 30
0.0
 11
200.9160372831859
 21
-1.176033732165265
 31
0.0
  0
LINE
  5
3B7
330
2
100
AcDbEntity
  8
0
  6
HIDDEN
 62
     8
100
AcDbLine
 10
200.9160372831859
 20
-1.176033732165265
 30
0.0
 11
200.9800409823859
 21
-1.164325533765278
 31
0.0
  0
LINE
  5
3B8
330
2
100
AcDbEntity
  8
0
  6
HIDDEN
 62
     8
100
AcDbLine
 10
200.9800409823859
 20
-1.164325533765278
 30
0.0
 11
201.0250424223859
 21
-1.155302165765284
 31
0.0
  0
LINE
  5
3B9
330
2
100
AcDbEntity
  8
0
  6
HIDDEN
 62
     8
100
AcDbLine
 10
201.0471282607859
 20
-1.150664164165291
 30
0.0
 11
201.1546916079859
 21
-1.122582997765292
 31
0.0
  0
LINE
  5
3BA
330
2
100
AcDbEntity
  8
0
  6
HIDDEN
 62
     8
100
AcDbLine
 10
201.1546916079859
 20
-1.122582997765292
 30
0.0
 11
201.2590377487859
 21
-1.104548221765291
 31
0.0
  0
LINE
  5
3BB
330
2
100
AcDbEntity
  8
0
  6
HIDDEN
 62
     8
100
AcDbLine
 10
201.2590377487859
 20
-1.104548221765291
 30
0.0
 11
201.3604515711859
 21
-1.095841309765283
 31
0.0
  0
LINE
  5
3BC
330
2
100
AcDbEntity
  8
0
  6
HIDDEN
 62
     8
100
AcDbLine
 10
201.3604515711859
 20
-1.095841309765283
 30
0.0
 11
201.4621645231859
 21
-1.096044372165266
 31
0.0
  0
LINE
  5
3BD
330
2
100
AcDbEntity
  8
0
  6
HIDDEN
 62
     8
100
AcDbLine
 10
201.4621645231859
 20
-1.096044372165266
 30
0.0
 11
201.5702308991859
 21
-1.105699757765265
 31
0.0
  0
LINE
  5
3BE
330
2
100
AcDbEntity
  8
0
  6
HIDDEN
 62
     8
100
AcDbLine
 10
201.5702308991859
 20
-1.105699757765265
 30
0.0
 11
201.6869579039859
 21
-1.125962460165283
 31
0.0
  0
LINE
  5
3BF
330
2
100
AcDbEntity
  8
0
  6
HIDDEN
 62
     8
100
AcDbLine
 10
200.4807400463858
 20
-1.464245808965266
 30
0.0
 11
200.5938231039859
 21
-1.377424794565278
 31
0.0
  0
LINE
  5
3C0
330
2
100
AcDbEntity
  8
0
  6
HIDDEN
 62
     8
100
AcDbLine
 10
200.5938231039859
 20
-1.377424794565278
 30
0.0
 11
200.7086119903859
 21
-1.302620175365284
 31
0.0
  0
LINE
  5
3C1
330
2
100
AcDbEntity
  8
0
  6
HIDDEN
 62
     8
100
AcDbLine
 10
200.7086119903859
 20
-1.302620175365284
 30
0.0
 11
200.8234231263859
 21
-1.240017181765267
 31
0.0
  0
LINE
  5
3C2
330
2
100
AcDbEntity
  8
0
  6
HIDDEN
 62
     8
100
AcDbLine
 10
200.8234231263859
 20
-1.240017181765267
 30
0.0
 11
200.8577309375859
 21
-1.223560464965267
 31
0.0
  0
LINE
  5
3C3
330
2
100
AcDbEntity
  8
0
  6
HIDDEN
 62
     8
100
AcDbLine
 10
200.3728648991859
 20
-1.255515087365267
 30
0.0
 11
200.5542458175859
 21
-1.230876484165278
 31
0.0
  0
LINE
  5
3C4
330
2
100
AcDbEntity
  8
0
  6
HIDDEN
 62
     8
100
AcDbLine
 10
200.3687552991859
 20
-1.600312108165283
 30
0.0
 11
200.4807400463858
 21
-1.464245808965266
 31
0.0
  0
LINE
  5
3C5
330
2
100
AcDbEntity
  8
0
  6
HIDDEN
 62
     8
100
AcDbLine
 10
201.9934666847859
 20
-1.224711010565265
 30
0.0
 11
202.0699260031859
 21
-1.260356730565291
 31
0.0
  0
LINE
  5
3C6
330
2
100
AcDbEntity
  8
0
  6
HIDDEN
 62
     8
100
AcDbLine
 10
202.0699260031859
 20
-1.260356730565291
 30
0.0
 11
202.1357273903859
 21
-1.295611407365278
 31
0.0
  0
LINE
  5
3C7
330
2
100
AcDbEntity
  8
0
  6
HIDDEN
 62
     8
100
AcDbLine
 10
202.1357273903859
 20
-1.295611407365278
 30
0.0
 11
202.1918650559859
 21
-1.331547906565283
 31
0.0
  0
LINE
  5
3C8
330
2
100
AcDbEntity
  8
0
  6
HIDDEN
 62
     8
100
AcDbLine
 10
202.1918650559859
 20
-1.331547906565283
 30
0.0
 11
202.2413292015859
 21
-1.370838639365267
 31
0.0
  0
LINE
  5
3C9
330
2
100
AcDbEntity
  8
0
  6
HIDDEN
 62
     8
100
AcDbLine
 10
202.2413292015859
 20
-1.370838639365267
 30
0.0
 11
202.2889545423859
 21
-1.417440869765265
 31
0.0
  0
LINE
  5
3CA
330
2
100
AcDbEntity
  8
0
  6
HIDDEN
 62
     8
100
AcDbLine
 10
202.2889545423859
 20
-1.417440869765265
 30
0.0
 11
202.3380562447859
 21
-1.475270780165267
 31
0.0
  0
ARC
  5
3CB
330
2
100
AcDbEntity
  8
0
  6
CONTINUOUS
 62
     7
100
AcDbCircle
 10
202.7561291759858
 20
-2.015898620165266
 30
0.0
 40
0.125
100
AcDbArc
 50
196.3847507803999
 51
218.7830080808999
  0
LINE
  5
3CC
330
2
100
AcDbEntity
  8
0
  6
HIDDEN
 62
     8
100
AcDbLine
 10
202.5991311887859
 20
-1.943169284165279
 30
0.0
 11
202.6362055007859
 21
-2.051159397765268
 31
0.0
  0
LINE
  5
3CD
330
2
100
AcDbEntity
  8
0
  6
HIDDEN
 62
     8
100
AcDbLine
 10
202.5507495071859
 20
-1.830336887365298
 30
0.0
 11
202.5991311887859
 21
-1.943169284165279
 31
0.0
  0
LINE
  5
3CE
330
2
100
AcDbEntity
  8
0
  6
CONTINUOUS
 62
     7
100
AcDbLine
 10
204.6595395919859
 20
-2.089738416965268
 30
0.0
 11
204.4095395919859
 21
-2.089738416965268
 31
0.0
  0
LINE
  5
3CF
330
2
100
AcDbEntity
  8
0
  6
CONTINUOUS
 62
     7
100
AcDbLine
 10
204.4095395919859
 20
-2.089738416965268
 30
0.0
 11
204.4095395919859
 21
-0.9647384169652681
 31
0.0
  0
LINE
  5
440
330
2
100
AcDbEntity
  8
0
100
AcDbLine
 10
204.6595395919859
 20
-3.589738416965268
 30
0.0
 11
144.6595395919859
 21
-3.589738416965268
 31
0.0
  0
ENDSEC
  0
SECTION
  2
OBJECTS
  0
DICTIONARY
  5
1A
330
0
100
AcDbDictionary
  3
ACAD_GROUP
350
18
  3
ACAD_LAYOUT
350
3D3
  3
ACAD_MLINESTYLE
350
19
  3
ACAD_PLOTSETTINGS
350
3D4
  3
ACAD_PLOTSTYLENAME
350
3D1
  3
ACDBHEADERROUNDTRIPXREC
350
470
  3
ACDBVARIABLEDICTIONARY
350
46D
  0
DICTIONARY
  5
3FD
330
2
100
AcDbDictionary
280
     1
  3
ACAD_LAYOUTSELFREF
360
491
  0
DICTIONARY
  5
3FF
330
7
100
AcDbDictionary
280
     1
  3
ACAD_LAYOUTSELFREF
360
492
  0
DICTIONARY
  5
18
102
{ACAD_REACTORS
330
1A
102
}
330
1A
100
AcDbDictionary
  0
DICTIONARY
  5
3D3
102
{ACAD_REACTORS
330
1A
102
}
330
1A
100
AcDbDictionary
  0
DICTIONARY
  5
19
102
{ACAD_REACTORS
330
1A
102
}
330
1A
100
AcDbDictionary
  3
STANDARD
350
1B
  0
DICTIONARY
  5
3D4
102
{ACAD_REACTORS
330
1A
102
}
330
1A
100
AcDbDictionary
  0
ACDBDICTIONARYWDFLT
  5
3D1
102
{ACAD_REACTORS
330
1A
102
}
330
1A
100
AcDbDictionary
281
     1
  3
Normal
350
3D2
100
AcDbDictionaryWithDefault
340
3D2
  0
DICTIONARY
  5
470
102
{ACAD_REACTORS
330
1A
102
}
330
1A
100
AcDbDictionary
  3
CEPSNTYPE
350
47A
  3
DIMSTYLEDATA
350
47E
  3
FINGERPRINTGUID
350
47B
  3
HYPERLINKBASE
350
473
  3
INSUNITS
350
479
  3
LAYOUTDICT
350
475
  3
LWETCUNION
350
478
  3
PLOTSETDICT
350
476
  3
PLOTSTYLNAMDICT
350
477
  3
PSVPSCALE
350
47D
  3
PUCSBASE
350
481
  3
PUCSORGBACK
350
487
  3
PUCSORGBOTTOM
350
483
  3
PUCSORGFRONT
350
486
  3
PUCSORGLEFT
350
484
  3
PUCSORGRIGHT
350
485
  3
PUCSORGTOP
350
482
  3
PUCSORTHOREF
350
47F
  3
PUCSORTHOVIEW
350
480
  3
STYLESHEET
350
474
  3
TSTACKALIGN
350
471
  3
TSTACKSIZE
350
472
  3
UCSBASE
350
48A
  3
UCSORGBACK
350
490
  3
UCSORGBOTTOM
350
48C
  3
UCSORGFRONT
350
48F
  3
UCSORGLEFT
350
48D
  3
UCSORGRIGHT
350
48E
  3
UCSORGTOP
350
48B
  3
UCSORTHOREF
350
488
  3
UCSORTHOVIEW
350
489
  3
VERSIONGUID
350
47C
  0
DICTIONARY
  5
46D
102
{ACAD_REACTORS
330
1A
102
}
330
1A
100
AcDbDictionary
  3
DIMASSOC
350
46E
  0
XRECORD
  5
491
102
{ACAD_REACTORS
330
3FD
102
}
330
3FD
100
AcDbXrecord
340
2
  0
XRECORD
  5
492
102
{ACAD_REACTORS
330
3FF
102
}
330
3FF
100
AcDbXrecord
340
7
  0
MLINESTYLE
  5
1B
102
{ACAD_REACTORS
330
19
102
}
330
19
100
AcDbMlineStyle
  2
STANDARD
 70
     0
  3

 62
   256
 51
90.0
 52
90.0
 71
     2
 49
0.5
 62
   256
  6
BYLAYER
 49
-0.5
 62
   256
  6
BYLAYER
  0
ACDBPLACEHOLDER
  5
3D2
102
{ACAD_REACTORS
330
3D1
102
}
330
3D1
100
AcDbPlaceHolder
280
     0
  0
XRECORD
  5
47A
102
{ACAD_REACTORS
330
470
102
}
330
470
100
AcDbXrecord
 90
        0
  0
XRECORD
  5
47E
102
{ACAD_REACTORS
330
470
102
}
330
470
100
AcDbXrecord
1000
DSTYLE
1002
{
1070
   341
340
1D
1070
   342
340
1D
1002
}
  0
XRECORD
  5
47B
102
{ACAD_REACTORS
330
470
102
}
330
470
100
AcDbXrecord
  1
{3AA969F4-BDFB-439D-B587-B0229B9CA21D}
  0
XRECORD
  5
473
102
{ACAD_REACTORS
330
470
102
}
330
470
100
AcDbXrecord
  1

  0
XRECORD
  5
479
102
{ACAD_REACTORS
330
470
102
}
330
470
100
AcDbXrecord
 90
        0
  0
XRECORD
  5
475
102
{ACAD_REACTORS
330
470
102
}
330
470
100
AcDbXrecord
340
3D3
  0
XRECORD
  5
478
102
{ACAD_REACTORS
330
470
102
}
330
470
100
AcDbXrecord
 90
    14877
  0
XRECORD
  5
476
102
{ACAD_REACTORS
330
470
102
}
330
470
100
AcDbXrecord
340
3D4
  0
XRECORD
  5
477
102
{ACAD_REACTORS
330
470
102
}
330
470
100
AcDbXrecord
340
3D1
  0
XRECORD
  5
47D
102
{ACAD_REACTORS
330
470
102
}
330
470
100
AcDbXrecord
 40
0.0
  0
XRECORD
  5
481
102
{ACAD_REACTORS
330
470
102
}
330
470
100
AcDbXrecord
340
0
  0
XRECORD
  5
487
102
{ACAD_REACTORS
330
470
102
}
330
470
100
AcDbXrecord
 10
0.0
 20
0.0
 30
0.0
  0
XRECORD
  5
483
102
{ACAD_REACTORS
330
470
102
}
330
470
100
AcDbXrecord
 10
0.0
 20
0.0
 30
0.0
  0
XRECORD
  5
486
102
{ACAD_REACTORS
330
470
102
}
330
470
100
AcDbXrecord
 10
0.0
 20
0.0
 30
0.0
  0
XRECORD
  5
484
102
{ACAD_REACTORS
330
470
102
}
330
470
100
AcDbXrecord
 10
0.0
 20
0.0
 30
0.0
  0
XRECORD
  5
485
102
{ACAD_REACTORS
330
470
102
}
330
470
100
AcDbXrecord
 10
0.0
 20
0.0
 30
0.0
  0
XRECORD
  5
482
102
{ACAD_REACTORS
330
470
102
}
330
470
100
AcDbXrecord
 10
0.0
 20
0.0
 30
0.0
  0
XRECORD
  5
47F
102
{ACAD_REACTORS
330
470
102
}
330
470
100
AcDbXrecord
340
0
  0
XRECORD
  5
480
102
{ACAD_REACTORS
330
470
102
}
330
470
100
AcDbXrecord
 70
     0
  0
XRECORD
  5
474
102
{ACAD_REACTORS
330
470
102
}
330
470
100
AcDbXrecord
  1

  0
XRECORD
  5
471
102
{ACAD_REACTORS
330
470
102
}
330
470
100
AcDbXrecord
 90
        1
  0
XRECORD
  5
472
102
{ACAD_REACTORS
330
470
102
}
330
470
100
AcDbXrecord
 90
       70
  0
XRECORD
  5
48A
102
{ACAD_REACTORS
330
470
102
}
330
470
100
AcDbXrecord
340
0
  0
XRECORD
  5
490
102
{ACAD_REACTORS
330
470
102
}
330
470
100
AcDbXrecord
 10
0.0
 20
0.0
 30
0.0
  0
XRECORD
  5
48C
102
{ACAD_REACTORS
330
470
102
}
330
470
100
AcDbXrecord
 10
0.0
 20
0.0
 30
0.0
  0
XRECORD
  5
48F
102
{ACAD_REACTORS
330
470
102
}
330
470
100
AcDbXrecord
 10
0.0
 20
0.0
 30
0.0
  0
XRECORD
  5
48D
102
{ACAD_REACTORS
330
470
102
}
330
470
100
AcDbXrecord
 10
0.0
 20
0.0
 30
0.0
  0
XRECORD
  5
48E
102
{ACAD_REACTORS
330
470
102
}
330
470
100
AcDbXrecord
 10
0.0
 20
0.0
 30
0.0
  0
XRECORD
  5
48B
102
{ACAD_REACTORS
330
470
102
}
330
470
100
AcDbXrecord
 10
0.0
 20
0.0
 30
0.0
  0
XRECORD
  5
488
102
{ACAD_REACTORS
330
470
102
}
330
470
100
AcDbXrecord
340
0
  0
XRECORD
  5
489
102
{ACAD_REACTORS
330
470
102
}
330
470
100
AcDbXrecord
 70
     0
  0
XRECORD
  5
47C
102
{ACAD_REACTORS
330
470
102
}
330
470
100
AcDbXrecord
  1
{6B77D748-0CD0-4145-BD2B-FEF7B19B9A7E}
  0
DICTIONARYVAR
  5
46E
102
{ACAD_REACTORS
330
46D
102
}
330
46D
100
DictionaryVariables
280
     0
  1
1
  0
ENDSEC
  0
EOF
