  0
SECTION
  2
HEADER
  9
$ACADVER
  1
AC1014
  9
$ACADMAINTVER
 70
     9
  9
$DWGCODEPAGE
  3
ANSI_1252
  9
$INSBASE
 10
47.95454033000502
 20
5.021879573250359
 30
0.0
  9
$EXTMIN
 10
14.95454033000501
 20
-2.405107554331692
 30
0.0
  9
$EXTMAX
 10
163.373868618005
 20
115.9778623214883
 30
0.0
  9
$LIMMIN
 10
0.0
 20
0.0
  9
$LIMMAX
 10
17.0
 20
11.0
  9
$ORTHOMODE
 70
     1
  9
$REGENMODE
 70
     1
  9
$FILLMODE
 70
     1
  9
$QTEXTMODE
 70
     0
  9
$MIRRTEXT
 70
     1
  9
$DRAGMODE
 70
     2
  9
$LTSCALE
 40
0.9350000000000001
  9
$OSMODE
 70
  3071
  9
$ATTMODE
 70
     1
  9
$TEXTSIZE
 40
0.2
  9
$TRACEWID
 40
0.05
  9
$TEXTSTYLE
  7
STANDARD
  9
$CLAYER
  8
0
  9
$CELTYPE
  6
BYLAYER
  9
$CECOLOR
 62
   256
  9
$CELTSCALE
 40
1.0
  9
$DELOBJ
 70
     1
  9
$DISPSILH
 70
     0
  9
$DIMSCALE
 40
1.0
  9
$DIMASZ
 40
0.1875
  9
$DIMEXO
 40
0.0625
  9
$DIMDLI
 40
0.38
  9
$DIMRND
 40
0.0
  9
$DIMDLE
 40
0.0
  9
$DIMEXE
 40
0.18
  9
$DIMTP
 40
0.00001
  9
$DIMTM
 40
0.00001
  9
$DIMTXT
 40
0.125
  9
$DIMCEN
 40
0.09
  9
$DIMTSZ
 40
0.0
  9
$DIMTOL
 70
     0
  9
$DIMLIM
 70
     0
  9
$DIMTIH
 70
     1
  9
$DIMTOH
 70
     1
  9
$DIMSE1
 70
     0
  9
$DIMSE2
 70
     0
  9
$DIMTAD
 70
     0
  9
$DIMZIN
 70
     4
  9
$DIMBLK
  1
_FILLED
  9
$DIMASO
 70
     1
  9
$DIMSHO
 70
     1
  9
$DIMPOST
  1

  9
$DIMAPOST
  1

  9
$DIMALT
 70
     0
  9
$DIMALTD
 70
     2
  9
$DIMALTF
 40
25.4
  9
$DIMLFAC
 40
1.0
  9
$DIMTOFL
 70
     0
  9
$DIMTVP
 40
0.0
  9
$DIMTIX
 70
     0
  9
$DIMSOXD
 70
     0
  9
$DIMSAH
 70
     0
  9
$DIMBLK1
  1
_FILLED
  9
$DIMBLK2
  1
_FILLED
  9
$DIMSTYLE
  2
STANDARD
  9
$DIMCLRD
 70
     0
  9
$DIMCLRE
 70
     0
  9
$DIMCLRT
 70
     0
  9
$DIMTFAC
 40
1.0
  9
$DIMGAP
 40
0.09
  9
$DIMJUST
 70
     0
  9
$DIMSD1
 70
     0
  9
$DIMSD2
 70
     0
  9
$DIMTOLJ
 70
     1
  9
$DIMTZIN
 70
     4
  9
$DIMALTZ
 70
     0
  9
$DIMALTTZ
 70
     0
  9
$DIMFIT
 70
     3
  9
$DIMUPT
 70
     0
  9
$DIMUNIT
 70
     2
  9
$DIMDEC
 70
     5
  9
$DIMTDEC
 70
     5
  9
$DIMALTU
 70
     2
  9
$DIMALTTD
 70
     2
  9
$DIMTXSTY
  7
STANDARD
  9
$DIMAUNIT
 70
     0
  9
$LUNITS
 70
     2
  9
$LUPREC
 70
     4
  9
$SKETCHINC
 40
0.1
  9
$FILLETRAD
 40
0.5
  9
$AUNITS
 70
     0
  9
$AUPREC
 70
     0
  9
$MENU
  1
acad
  9
$ELEVATION
 40
0.0
  9
$PELEVATION
 40
0.0
  9
$THICKNESS
 40
0.0
  9
$LIMCHECK
 70
     0
  9
$BLIPMODE
 70
     0
  9
$CHAMFERA
 40
0.0
  9
$CHAMFERB
 40
0.0
  9
$CHAMFERC
 40
0.0
  9
$CHAMFERD
 40
0.0
  9
$SKPOLY
 70
     0
  9
$TDCREATE
 40
2453887.623736400
  9
$TDUPDATE
 40
2453887.678117812
  9
$TDINDWG
 40
0.0543853935
  9
$TDUSRTIMER
 40
0.0543853935
  9
$USRTIMER
 70
     1
  9
$ANGBASE
 50
0.0
  9
$ANGDIR
 70
     0
  9
$PDMODE
 70
     3
  9
$PDSIZE
 40
0.015625
  9
$PLINEWID
 40
0.0
  9
$COORDS
 70
     1
  9
$SPLFRAME
 70
     0
  9
$SPLINETYPE
 70
     6
  9
$SPLINESEGS
 70
     8
  9
$ATTDIA
 70
     0
  9
$ATTREQ
 70
     1
  9
$HANDLING
 70
-16383
  9
$HANDSEED
  5
EBA
  9
$SURFTAB1
 70
     6
  9
$SURFTAB2
 70
     6
  9
$SURFTYPE
 70
     6
  9
$SURFU
 70
     6
  9
$SURFV
 70
     6
  9
$UCSNAME
  2

  9
$UCSORG
 10
0.0
 20
0.0
 30
0.0
  9
$UCSXDIR
 10
1.0
 20
0.0
 30
0.0
  9
$UCSYDIR
 10
0.0
 20
1.0
 30
0.0
  9
$PUCSNAME
  2

  9
$PUCSORG
 10
0.0
 20
0.0
 30
0.0
  9
$PUCSXDIR
 10
1.0
 20
0.0
 30
0.0
  9
$PUCSYDIR
 10
0.0
 20
1.0
 30
0.0
  9
$USERI1
 70
     0
  9
$USERI2
 70
     0
  9
$USERI3
 70
     0
  9
$USERI4
 70
     0
  9
$USERI5
 70
     0
  9
$USERR1
 40
0.0
  9
$USERR2
 40
0.0
  9
$USERR3
 40
0.0
  9
$USERR4
 40
0.0
  9
$USERR5
 40
0.0
  9
$WORLDVIEW
 70
     1
  9
$SHADEDGE
 70
     3
  9
$SHADEDIF
 70
    70
  9
$TILEMODE
 70
     1
  9
$MAXACTVP
 70
    16
  9
$PINSBASE
 10
0.0
 20
0.0
 30
0.0
  9
$PLIMCHECK
 70
     0
  9
$PEXTMIN
 10
31.45603069405575
 20
20.49090612880826
 30
0.0
  9
$PEXTMAX
 10
310.8560453806402
 20
188.1309110497677
 30
0.0
  9
$PLIMMIN
 10
-6.643958934736053
 20
-3.639094438627948
  9
$PLIMMAX
 10
348.9560471687795
 20
212.2609147166454
  9
$UNITMODE
 70
     0
  9
$VISRETAIN
 70
     0
  9
$PLINEGEN
 70
     1
  9
$PSLTSCALE
 70
     0
  9
$TREEDEPTH
 70
  3020
  9
$PICKSTYLE
 70
     1
  9
$CMLSTYLE
  2
STANDARD
  9
$CMLJUST
 70
     0
  9
$CMLSCALE
 40
1.0
  9
$PROXYGRAPHICS
 70
     0
  9
$MEASUREMENT
 70
     0
  0
ENDSEC
  0
SECTION
  2
CLASSES
  0
CLASS
  1
ACDBDICTIONARYWDFLT
  2
AcDbDictionaryWithDefault
  3
AutoCAD 2000
 90
        0
280
     0
281
     0
  0
CLASS
  1
ACDBPLACEHOLDER
  2
AcDbPlaceHolder
  3
AutoCAD 2000
 90
        0
280
     0
281
     0
  0
CLASS
  1
LAYOUT
  2
AcDbLayout
  3
AutoCAD 2000
 90
        0
280
     0
281
     0
  0
CLASS
  1
LWPOLYLINE
  2
AcDbPolyline
  3
AutoCAD 2000
 90
        0
280
     0
281
     1
  0
CLASS
  1
IMAGE
  2
AcDbRasterImage
  3
ISM
 90
      127
280
     0
281
     1
  0
CLASS
  1
OLE2FRAME
  2
AcDbOle2Frame
  3
AutoCAD 2000
 90
        0
280
     0
281
     1
  0
CLASS
  1
HATCH
  2
AcDbHatch
  3
AutoCAD 2000
 90
        0
280
     0
281
     1
  0
CLASS
  1
DICTIONARYVAR
  2
AcDbDictionaryVar
  3
AutoCAD 2000
 90
        0
280
     0
281
     0
  0
CLASS
  1
RASTERVARIABLES
  2
AcDbRasterVariables
  3
ISM
 90
        0
280
     0
281
     0
  0
CLASS
  1
IMAGEDEF
  2
AcDbRasterImageDef
  3
ISM
 90
        0
280
     0
281
     0
  0
CLASS
  1
IMAGEDEF_REACTOR
  2
AcDbRasterImageDefReactor
  3
ISM
 90
        1
280
     0
281
     0
  0
CLASS
  1
IDBUFFER
  2
AcDbIdBuffer
  3
AutoCAD 2000
 90
        0
280
     0
281
     0
  0
CLASS
  1
SPATIAL_FILTER
  2
AcDbSpatialFilter
  3
AutoCAD 2000
 90
        0
280
     0
281
     0
  0
CLASS
  1
XRECORD
  2
AcDbXrecord
  3
AutoCAD 2000
 90
        0
280
     0
281
     0
  0
CLASS
  1
SORTENTSTABLE
  2
AcDbSortentsTable
  3
AutoCAD 2000
 90
        0
280
     0
281
     0
  0
CLASS
  1
LAYER_INDEX
  2
AcDbLayerIndex
  3
AutoCAD 2000
 90
        0
280
     0
281
     0
  0
CLASS
  1
SPATIAL_INDEX
  2
AcDbSpatialIndex
  3
AutoCAD 2000
 90
        0
280
     0
281
     0
  0
CLASS
  1
OBJECT_PTR
  2
CAseDLPNTableRecord
  3
ASE-LPNTableRecord
 90
        1
280
     0
281
     0
  0
CLASS
  1
PLOTSETTINGS
  2
AcDbPlotSettings
  3
AutoCAD 2000
 90
        0
280
     0
281
     0
  0
CLASS
  1
VBA_PROJECT
  2
AcDbVbaProject
  3
acadvba
 90
        0
280
     0
281
     0
  0
CLASS
  1
WIPEOUT
  2
AcDbWipeout
  3
WipeOut|AutoCAD Express Tool|expresstools@autodesk.com
 90
      127
280
     0
281
     1
  0
CLASS
  1
WIPEOUTVARIABLES
  2
AcDbWipeoutVariables
  3
WipeOut|AutoCAD Express Tool|expresstools@autodesk.com
 90
        0
280
     0
281
     0
  0
CLASS
  1
RTEXT
  2
RText
  3
RText|AutoCAD Express Tool|expresstools@autodesk.com
 90
        0
280
     0
281
     1
  0
CLASS
  1
ARCALIGNEDTEXT
  2
AcDbArcAlignedText
  3
ATEXT|AutoCAD Express Tool|expresstools@autodesk.com
 90
        0
280
     0
281
     1
  0
CLASS
  1
LONG_TRANSACTION
  2
AcDbLongTransaction
  3
AutoCAD 2000
 90
        0
280
     0
281
     0
  0
CLASS
  1
LWPOLYLINE
  2
AcDbPolyline
  3
AutoCAD 2000
 90
        0
280
     0
281
     1
  0
CLASS
  1
HATCH
  2
AcDbHatch
  3
AutoCAD 2000
 90
        0
280
     0
281
     1
  0
CLASS
  1
XRECORD
  2
AcDbXrecord
  3
AutoCAD 2000
 90
        0
280
     0
281
     0
  0
ENDSEC
  0
SECTION
  2
TABLES
  0
TABLE
  2
VPORT
  5
8
330
0
100
AcDbSymbolTable
 70
    17
  0
VPORT
  5
E94
330
8
100
AcDbSymbolTableRecord
100
AcDbViewportTableRecord
  2
*ACTIVE
 70
     0
 10
0.0
 20
0.0
 11
1.0
 21
1.0
 12
53.15286071603376
 22
21.77874094980316
 13
0.0
 23
0.0
 14
1.0
 24
1.0
 15
0.0
 25
0.0
 16
0.0
 26
0.0
 36
1.0
 17
0.0
 27
0.0
 37
0.0
 40
77.72230068142608
 41
1.877227722772277
 42
50.0
 43
0.0
 44
0.0
 50
0.0
 51
0.0
 71
     0
 72
   100
 73
     1
 74
     1
 75
     0
 76
     0
 77
     0
 78
     0
  0
ENDTAB
  0
TABLE
  2
LTYPE
  5
5
330
0
100
AcDbSymbolTable
 70
     7
  0
LTYPE
  5
14
330
5
100
AcDbSymbolTableRecord
100
AcDbLinetypeTableRecord
  2
BYBLOCK
 70
     0
  3

 72
    65
 73
     0
 40
0.0
  0
LTYPE
  5
15
330
5
100
AcDbSymbolTableRecord
100
AcDbLinetypeTableRecord
  2
BYLAYER
 70
     0
  3

 72
    65
 73
     0
 40
0.0
  0
LTYPE
  5
16
330
5
100
AcDbSymbolTableRecord
100
AcDbLinetypeTableRecord
  2
CONTINUOUS
 70
     0
  3
Solid line
 72
    65
 73
     0
 40
0.0
  0
LTYPE
  5
1F5
330
5
100
AcDbSymbolTableRecord
100
AcDbLinetypeTableRecord
  2
CENTER
 70
     0
  3
____ _ ____ _ ____ _ ____ _ ____ _ ____ _ ____
 72
    65
 73
     4
 40
0.6
 49
0.375
 74
     0
 49
-0.075
 74
     0
 49
0.075
 74
     0
 49
-0.075
 74
     0
  0
LTYPE
  5
1F6
330
5
100
AcDbSymbolTableRecord
100
AcDbLinetypeTableRecord
  2
HIDDEN
 70
     0
  3
- - - - - - - - - - - - - - - - - - - -
 72
    65
 73
     2
 40
0.2
 49
0.1
 74
     0
 49
-0.1
 74
     0
  0
LTYPE
  5
1F9
330
5
100
AcDbSymbolTableRecord
100
AcDbLinetypeTableRecord
  2
DASHED
 70
     0
  3
- - - - - - - - - - - - - - - - - - - -
 72
    65
 73
     2
 40
0.2
 49
0.1
 74
     0
 49
-0.1
 74
     0
  0
LTYPE
  5
DA6
330
5
100
AcDbSymbolTableRecord
100
AcDbLinetypeTableRecord
  2
CENTERX2
 70
     0
  3
Center (2x) ________  __  ________  __  _____
 72
    65
 73
     4
 40
4.0
 49
2.5
 74
     0
 49
-0.5
 74
     0
 49
0.5
 74
     0
 49
-0.5
 74
     0
  0
ENDTAB
  0
TABLE
  2
LAYER
  5
2
330
0
100
AcDbSymbolTable
 70
    53
  0
LAYER
  5
10
330
2
100
AcDbSymbolTableRecord
100
AcDbLayerTableRecord
  2
0
 70
     0
 62
     7
  6
CONTINUOUS
  0
LAYER
  5
C0F
330
2
100
AcDbSymbolTableRecord
100
AcDbLayerTableRecord
  2
DEFPOINTS
 70
     0
 62
     7
  6
CONTINUOUS
  0
LAYER
  5
DA7
330
2
100
AcDbSymbolTableRecord
100
AcDbLayerTableRecord
  2
CENTER
 70
     0
 62
     1
  6
CENTERX2
  0
ENDTAB
  0
TABLE
  2
STYLE
  5
3
330
0
100
AcDbSymbolTable
 70
     7
  0
STYLE
  5
11
330
3
100
AcDbSymbolTableRecord
100
AcDbTextStyleTableRecord
  2
STANDARD
 70
     0
 40
0.0
 41
0.8
 50
0.0
 71
     0
 42
0.2
  3
txt
  4

  0
STYLE
  5
DA5
330
3
100
AcDbSymbolTableRecord
100
AcDbTextStyleTableRecord
  2

 70
     1
 40
0.0
 41
1.0
 50
0.0
 71
     0
 42
0.2
  3
ltypeshp.shx
  4

  0
ENDTAB
  0
TABLE
  2
VIEW
  5
6
330
0
100
AcDbSymbolTable
 70
     0
  0
ENDTAB
  0
TABLE
  2
UCS
  5
7
330
0
100
AcDbSymbolTable
 70
     0
  0
ENDTAB
  0
TABLE
  2
APPID
  5
9
330
0
100
AcDbSymbolTable
 70
     2
  0
APPID
  5
232
330
9
100
AcDbSymbolTableRecord
100
AcDbRegAppTableRecord
  2
ACAD
 70
     0
  0
APPID
  5
BEB
330
9
100
AcDbSymbolTableRecord
100
AcDbRegAppTableRecord
  2
DCO15
 70
     0
  0
ENDTAB
  0
TABLE
  2
DIMSTYLE
  5
A
330
0
100
AcDbSymbolTable
 70
     5
  0
DIMSTYLE
105
259
330
A
100
AcDbSymbolTableRecord
100
AcDbDimStyleTableRecord
  2
STANDARD
 70
     0
  3

  4

  5
_FILLED
  6
_FILLED
  7
_FILLED
 40
1.0
 41
0.1875
 42
0.0625
 43
0.38
 44
0.18
 45
0.0
 46
0.0
 47
0.00001
 48
0.00001
140
0.125
141
0.09
142
0.0
143
25.4
144
1.0
145
0.0
146
1.0
147
0.09
 71
     0
 72
     0
 73
     1
 74
     1
 75
     0
 76
     0
 77
     0
 78
     4
170
     0
171
     2
172
     0
173
     0
174
     0
175
     0
176
     0
177
     0
178
     0
270
     2
271
     5
272
     5
273
     2
274
     2
340
11
275
     0
280
     0
281
     0
282
     0
283
     1
284
     4
285
     0
286
     0
287
     3
288
     0
  0
ENDTAB
  0
TABLE
  2
BLOCK_RECORD
  5
1
330
0
100
AcDbSymbolTable
 70
    40
  0
BLOCK_RECORD
  5
1F
102
{ACAD_XDICTIONARY
360
EB8
102
}
330
1
100
AcDbSymbolTableRecord
100
AcDbBlockTableRecord
  2
*MODEL_SPACE
  0
BLOCK_RECORD
  5
1B
102
{ACAD_XDICTIONARY
360
EB6
102
}
330
1
100
AcDbSymbolTableRecord
100
AcDbBlockTableRecord
  2
*PAPER_SPACE
  0
BLOCK_RECORD
  5
233
330
1
100
AcDbSymbolTableRecord
100
AcDbBlockTableRecord
  2
_FILLED
  0
ENDTAB
  0
ENDSEC
  0
SECTION
  2
BLOCKS
  0
BLOCK
  5
20
330
1F
100
AcDbEntity
  8
0
100
AcDbBlockBegin
  2
*MODEL_SPACE
 70
     0
 10
0.0
 20
0.0
 30
0.0
  3
*MODEL_SPACE
  1

  0
ENDBLK
  5
21
330
1F
100
AcDbEntity
  8
0
100
AcDbBlockEnd
  0
BLOCK
  5
1C
330
1B
100
AcDbEntity
 67
     1
  8
0
100
AcDbBlockBegin
  2
*PAPER_SPACE
 70
     0
 10
0.0
 20
0.0
 30
0.0
  3
*PAPER_SPACE
  1

  0
ENDBLK
  5
1D
330
1B
100
AcDbEntity
 67
     1
  8
0
100
AcDbBlockEnd
  0
BLOCK
  5
49B
330
233
100
AcDbEntity
  8
0
100
AcDbBlockBegin
  2
_FILLED
 70
     0
 10
0.0
 20
0.0
 30
0.0
  3
_FILLED
  1

  0
SOLID
  5
49C
330
233
100
AcDbEntity
  8
0
  6
BYBLOCK
 62
     0
100
AcDbTrace
 10
0.0
 20
0.0
 30
0.0
 11
-1.0
 21
0.1666666667
 31
0.0
 12
-1.0
 22
-0.1666666667
 32
0.0
 13
-1.0
 23
-0.1666666667
 33
0.0
  0
ENDBLK
  5
49D
330
233
100
AcDbEntity
  8
0
  6
BYBLOCK
 62
     0
100
AcDbBlockEnd
  0
ENDSEC
  0
SECTION
  2
ENTITIES
  0
LWPOLYLINE
  5
549
330
1F
100
AcDbEntity
  8
0
  6
DASHED
 62
     8
100
AcDbPolyline
 90
       27
 70
     0
 43
0.0
 10
20.51511289000501
 20
24.55838990925036
 10
20.37030990280501
 20
24.82951202445036
 10
20.25569760680501
 20
25.04169377005036
 10
20.14022465960501
 20
25.25340828845036
 10
19.93285408680501
 20
25.62860485485035
 10
19.74521604520501
 20
25.96261501485036
 10
19.57474881640501
 20
26.26145066445035
 10
19.42011317320501
 20
26.52853809325036
 10
19.28021832200501
 20
26.76664068205035
 10
19.15378731560501
 20
26.97867540365036
 10
19.039583088405
 20
27.16734595885036
 10
18.93635761320501
 20
27.33524736045036
 10
18.88970498440501
 20
27.40998389325036
 10
18.84238848680501
 20
27.48430137965036
 10
18.79919895720501
 20
27.55021212365036
 10
18.75487133480501
 20
27.61536285005036
 10
18.71407068840501
 20
27.67266886765035
 10
18.67181265640501
 20
27.72890744045036
 10
18.63292258920501
 20
27.77758791885036
 10
18.59240914920501
 20
27.82492447085036
 10
18.55530458280501
 20
27.86512780205036
 10
18.516577363605
 20
27.90376615725036
 10
18.48099520200501
 20
27.93625620205036
 10
18.44396792680501
 20
27.96708488365036
 10
18.40830137000501
 20
27.99403153165036
 10
18.37142010440501
 20
28.01929150765036
 10
18.34842225960501
 20
28.03379979085036
  0
LWPOLYLINE
  5
602
330
1F
100
AcDbEntity
  8
0
  6
CONTINUOUS
 62
     7
100
AcDbPolyline
 90
       14
 70
     0
 43
0.0
 10
69.26371523080502
 20
20.38275888205036
 10
70.47135747080502
 20
20.42910719245035
 10
71.66215763880501
 20
20.47590796365036
 10
72.24099725960501
 20
20.49852253485036
 10
72.80380116200501
 20
20.52020478125036
 10
73.34707020680501
 20
20.54062547565036
 10
73.86758658600502
 20
20.55991966765036
 10
74.257059349205
 20
20.57434959565036
 10
74.80100965000501
 20
20.59367744685036
 10
75.306534504405
 20
20.60969290125036
 10
75.544975744405
 20
20.61618959405036
 10
75.77394508360502
 20
20.62165826125036
 10
76.06460605800501
 20
20.62744940685035
 10
76.203700168405
 20
20.62975216845035
  0
LWPOLYLINE
  5
603
330
1F
100
AcDbEntity
  8
0
  6
CONTINUOUS
 62
     7
100
AcDbPolyline
 90
        8
 70
     0
 43
0.0
 10
69.26371518120501
 20
20.38277513805036
 10
68.43901011080501
 20
20.35324356685035
 10
67.61422036520501
 20
20.32614643405036
 10
66.80943492040501
 20
20.30139598125035
 10
66.00462145160502
 20
20.27755769645036
 10
64.92860454120502
 20
20.24585062925036
 10
63.85262139080501
 20
20.21306045005036
 10
62.77671668040501
 20
20.17786166445036
  0
LWPOLYLINE
  5
636
330
1F
100
AcDbEntity
  8
0
  6
CONTINUOUS
 62
     7
100
AcDbPolyline
 90
       27
 70
     0
 43
0.0
 10
33.565655243842
 20
26.02187957325035
 10
32.51909443400501
 20
26.12551866445036
 10
31.84047089320501
 20
26.18345434925036
 10
31.16124793160501
 20
26.23397526605035
 10
30.48157490600501
 20
26.27885971565036
 10
29.80160117640501
 20
26.31988599725036
 10
29.12147609800501
 20
26.35883241325036
 10
28.44134903080501
 20
26.39747726125035
 10
27.76136933160501
 20
26.43759884365036
 10
27.08168635720501
 20
26.48097546125036
 10
26.40244946760501
 20
26.52938541325036
 10
25.72380801800501
 20
26.58460700205036
 10
25.04591136680501
 20
26.64841852685036
 10
24.48484452040501
 20
26.70907440205036
 10
23.97952885480501
 20
26.77064397005036
 10
23.47499427560501
 20
26.83914691245036
 10
22.97145351400501
 20
26.91490473805036
 10
22.46911929960501
 20
26.99823896205035
 10
21.96820436680501
 20
27.08947109325036
 10
21.46892144360501
 20
27.18892264685035
 10
20.97148326120501
 20
27.29691513005036
 10
20.52932890120501
 20
27.40075427085036
 10
20.08896401000501
 20
27.51187879885036
 10
19.65053974440501
 20
27.63051716365036
 10
19.21420725960501
 20
27.75689781805036
 10
18.78011771240501
 20
27.89124921005036
 10
18.34842225960501
 20
28.03379979085036
  0
LINE
  5
65D
330
1F
100
AcDbEntity
  8
0
  6
DASHED
 62
     8
100
AcDbLine
 10
78.74372907880502
 20
24.55838990925036
 30
0.0
 11
78.86380432520501
 21
25.41276969165036
 31
0.0
  0
LINE
  5
969
330
1F
100
AcDbEntity
  8
0
  6
CONTINUOUS
 62
     7
100
AcDbLine
 10
14.95454033000501
 20
24.52187957325036
 30
0.0
 11
15.06580744520501
 21
25.79366850925036
 31
0.0
  0
LINE
  5
96A
330
1F
100
AcDbEntity
  8
0
  6
CONTINUOUS
 62
     7
100
AcDbLine
 10
15.45263767880501
 20
24.52187957325036
 30
0.0
 11
15.45263767880501
 21
24.52051776365036
 31
0.0
  0
LWPOLYLINE
  5
96B
330
1F
100
AcDbEntity
  8
0
  6
CONTINUOUS
 62
     7
100
AcDbPolyline
 90
       26
 70
     0
 43
0.0
 10
16.46990286760501
 20
26.12846176845036
 10
16.51242402760501
 20
26.39399537325036
 10
16.55372244360501
 20
26.62609111565036
 10
16.59202345160501
 20
26.82998751245035
 10
16.62755080840501
 20
27.00975698125036
 10
16.66268690440501
 20
27.16827809965035
 10
16.69932464520501
 20
27.30763960045035
 10
16.73849411400501
 20
27.42904385165036
 10
16.78032444520501
 20
27.53309901165036
 10
16.82475665160501
 20
27.62147366925036
 10
16.87276869480501
 20
27.69848547565036
 10
16.925576870805
 20
27.76795827405036
 10
16.98380376360501
 20
27.83132401805036
 10
17.04800697800501
 20
27.88927625005035
 10
17.11900514120501
 20
27.94229243885036
 10
17.19795936680501
 20
27.99064827245036
 10
17.28639788360501
 20
28.03439447725036
 10
17.38474971240501
 20
28.07274808365036
 10
17.49074629480501
 20
28.10392511885035
 10
17.60108697480501
 20
28.12642781805036
 10
17.71231401000501
 20
28.13944469485035
 10
17.82101396360501
 20
28.14284361165036
 10
17.92440305640501
 20
28.13713718445036
 10
18.02107114920501
 20
28.12317794765036
 10
18.11137169320501
 20
28.10168844845036
 10
18.17534697800501
 20
28.08093411725036
  0
LWPOLYLINE
  5
96C
330
1F
100
AcDbEntity
  8
0
  6
CONTINUOUS
 62
     7
100
AcDbPolyline
 90
       20
 70
     0
 43
0.0
 10
24.13394073800501
 20
9.99651897325036
 10
24.06765957000501
 20
10.99030797325035
 10
23.99127404360501
 20
11.85417540525036
 10
23.90392557800501
 20
12.65759648845036
 10
23.79509746920501
 20
13.49481656365036
 10
23.64897689160501
 20
14.44470571405036
 10
23.47735464840501
 20
15.39631754125036
 10
23.30284933320501
 20
16.23755976045035
 10
23.13006322600501
 20
16.97931428525036
 10
22.96194039560501
 20
17.63255310925035
 10
22.802248787605
 20
18.20156734925036
 10
22.65327869960501
 20
18.69367413485036
 10
22.51425152840501
 20
19.12288415085036
 10
22.383911285205
 20
19.50184497165036
 10
22.26250654760501
 20
19.84066325325036
 10
22.16012836360501
 20
20.14845116365036
 10
22.08562121320501
 20
20.42237049965036
 10
22.03229907720501
 20
20.67387520525036
 10
21.99216994760501
 20
20.92197297965036
 10
21.96164062600501
 20
21.17653974285035
  0
LWPOLYLINE
  5
96D
330
1F
100
AcDbEntity
  8
0
  6
CONTINUOUS
 62
     7
100
AcDbPolyline
 90
        4
 70
     0
 43
0.0
 10
21.76463799560501
 20
21.92480760365036
 10
21.40885602760501
 20
22.70790969805035
 10
21.07479623560501
 20
23.39968265965036
 10
20.76319033480501
 20
24.01471695085036
  0
LWPOLYLINE
  5
96E
330
1F
100
AcDbEntity
  8
0
  6
CONTINUOUS
 62
     7
100
AcDbPolyline
 90
        6
 70
     0
 43
0.0
 10
24.53085713960501
 20
13.91271606925035
 10
24.73010519400501
 20
13.07985765325036
 10
24.89459553960501
 20
12.34834721645036
 10
25.03922508040501
 20
11.64304077805036
 10
25.18450383400501
 20
10.84077386605036
 10
25.32942567080501
 20
9.898735829250362
  0
LINE
  5
96F
330
1F
100
AcDbEntity
  8
0
  6
CONTINUOUS
 62
     7
100
AcDbLine
 10
21.76463799560501
 20
21.92480760365036
 30
0.0
 11
21.76664448200501
 21
21.92120686605036
 31
0.0
  0
LWPOLYLINE
  5
970
330
1F
100
AcDbEntity
  8
0
  6
CONTINUOUS
 62
     7
100
AcDbPolyline
 90
       30
 70
     0
 43
0.0
 10
21.76664448200501
 20
21.92120686605036
 10
21.78343128200501
 20
21.89059893485036
 10
21.79816970760501
 20
21.86346574445035
 10
21.81701879080501
 20
21.82846066765036
 10
21.83986640680501
 20
21.78560369165035
 10
21.86668700840501
 20
21.73472635565036
 10
21.89752769320501
 20
21.67548938285035
 10
21.93251740840501
 20
21.60735387245036
 10
21.97179308200501
 20
21.52971318765036
 10
22.01545335560501
 20
21.44198037965036
 10
22.06409513640501
 20
21.34248237165036
 10
22.11800389640501
 20
21.23005646925036
 10
22.17773637960501
 20
21.10284418125036
 10
22.24420750440501
 20
20.95802216365036
 10
22.31824367240501
 20
20.79268423405036
 10
22.40062465480501
 20
20.60371836365035
 10
22.49194861480501
 20
20.38807268045036
 10
22.59252449640501
 20
20.14314076685035
 10
22.70259422120501
 20
19.86655083405035
 10
22.82225797320501
 20
19.55637269485036
 10
22.95148202760501
 20
19.21053356205035
 10
23.090544765205
 20
18.82504655725036
 10
23.239031826005
 20
18.39758563085035
 10
23.39613841640501
 20
17.92671210925036
 10
23.56191943720501
 20
17.40836955725036
 10
23.73722215080501
 20
16.83572004845036
 10
23.92239331080501
 20
16.20411867085036
 10
24.116995314005
 20
15.51151096365035
 10
24.32759574760501
 20
14.72134415565036
 10
24.53084953320501
 20
13.91271258765036
  0
LWPOLYLINE
  5
971
330
1F
100
AcDbEntity
  8
0
  6
CONTINUOUS
 62
     7
100
AcDbPolyline
 90
        3
 70
     0
 43
0.0
 10
20.49739648680501
 20
24.52051776365036
 10
20.551558099605
 20
24.41917953005036
 10
20.76320455880501
 20
24.01470062765036
  0
LINE
  5
972
330
1F
100
AcDbEntity
  8
0
  6
CONTINUOUS
 62
     7
100
AcDbLine
 10
33.06114062120501
 20
5.207174811650361
 30
0.0
 11
32.45734487191969
 21
7.460571224848283
 31
0.0
  0
LWPOLYLINE
  5
973
330
1F
100
AcDbEntity
  8
0
  6
CONTINUOUS
 62
     7
100
AcDbPolyline
 90
       29
 70
     0
 43
0.0
 10
74.98114255080501
 20
6.01393028685036
 10
74.98262158600501
 20
6.014013448450363
 10
75.10183817800501
 20
6.03006659725036
 10
75.21431433160501
 20
6.054213326850359
 10
75.31995812040502
 20
6.085254082050362
 10
75.41880113480501
 20
6.12213685165036
 10
75.51098866760502
 20
6.163928394050358
 10
75.59676377960501
 20
6.209783706050359
 10
75.67645254440501
 20
6.259034605250363
 10
75.75042382760502
 20
6.311182219650362
 10
75.81904142440501
 20
6.365863894850363
 10
75.88263000520502
 20
6.422811064450364
 10
75.94119736360501
 20
6.481471160450361
 10
75.99457692360501
 20
6.541009250050358
 10
76.04268897320501
 20
6.60056724845036
 10
76.085543666005
 20
6.659282669250359
 10
76.12318923720501
 20
6.71622632045036
 10
76.15580869800502
 20
6.77055923565036
 10
76.18420788040501
 20
6.82254396525036
 10
76.20921006920501
 20
6.872799683650363
 10
76.23147673000501
 20
6.921970686850357
 10
76.25128762920501
 20
6.970129499650361
 10
76.26875097640501
 20
7.016991059650358
 10
76.28399143240502
 20
7.062278190850364
 10
76.29715262760502
 20
7.105738250050357
 10
76.30834687400501
 20
7.146965672450363
 10
76.31768715240501
 20
7.18545311245036
 10
76.32533593160501
 20
7.220793674050362
 10
76.33148504360502
 20
7.252679768450363
  0
LWPOLYLINE
  5
974
330
1F
100
AcDbEntity
  8
0
  6
CONTINUOUS
 62
     7
100
AcDbPolyline
 90
       29
 70
     0
 43
0.0
 10
74.86745340360501
 20
6.007537867650363
 10
74.97971510120502
 20
6.01374161805036
 10
75.09741810760501
 20
6.02929869005036
 10
75.20868885000502
 20
6.052791778050362
 10
75.313337262805
 20
6.08306112845036
 10
75.41129841320501
 20
6.119057518850361
 10
75.50262349800501
 20
6.159826390850362
 10
75.58747338120501
 20
6.204472602050358
 10
75.66613272040502
 20
6.252269834050359
 10
75.738979474005
 20
6.302676939650361
 10
75.80639497800501
 20
6.35528880365036
 10
75.86870982600501
 20
6.409780518850361
 10
75.92616770120502
 20
6.465797088450358
 10
75.97901901960502
 20
6.522998744450362
 10
76.02750639560501
 20
6.581104816450363
 10
76.07185977480501
 20
6.639888032450357
 10
76.11228222120501
 20
6.699148333250363
 10
76.14883575880501
 20
6.758503246850359
 10
76.18153280360501
 20
6.817434859650362
 10
76.210459998805
 20
6.875442462850358
 10
76.23576815080501
 20
6.93201626125036
 10
76.25764133320501
 20
6.986643998850361
 10
76.27629899240502
 20
7.038836245250358
 10
76.29199713800502
 20
7.088155026050358
 10
76.30500646120501
 20
7.134177117250359
 10
76.31561345800502
 20
7.176521365250358
 10
76.32411701800501
 20
7.214880234050362
 10
76.33078807080501
 20
7.248873672450358
 10
76.33631204680501
 20
7.280737981250361
  0
LINE
  5
978
330
1F
100
AcDbEntity
  8
0
  6
CONTINUOUS
 62
     7
100
AcDbLine
 10
74.788989312405
 20
6.006206885250364
 30
0.0
 11
74.86745211400502
 21
6.007535989250364
 31
0.0
  0
LINE
  5
97F
330
1F
100
AcDbEntity
  8
0
  6
CONTINUOUS
 62
     7
100
AcDbLine
 10
73.72598593000501
 20
5.506254573250359
 30
0.0
 11
72.37115093320501
 21
5.506254573250359
 31
0.0
  0
LWPOLYLINE
  5
982
330
1F
100
AcDbEntity
  8
0
  6
CONTINUOUS
 62
     7
100
AcDbPolyline
 90
        4
 70
     0
 43
0.0
 10
74.42957875240501
 20
6.002107608450359
 10
74.52846422120501
 20
6.002943525250358
 10
74.64535927880501
 20
6.004203478850364
 10
74.788989312405
 20
6.006206885250364
  0
LWPOLYLINE
  5
984
330
1F
100
AcDbEntity
  8
0
  6
CONTINUOUS
 62
     7
100
AcDbPolyline
 90
        5
 70
     0
 43
0.0
 10
74.13959145160501
 20
6.000657123650363
 10
74.20059600360501
 20
6.000854757250358
 10
74.26817224520501
 20
6.001135624450363
 10
74.34382119400502
 20
6.001534992450359
 10
74.42957875240501
 20
6.002107608450359
  0
LINE
  5
985
330
1F
100
AcDbEntity
  8
0
  6
CONTINUOUS
 62
     7
100
AcDbLine
 10
70.88475435720501
 20
6.00699389165036
 30
0.0
 11
70.80912306440501
 21
6.006822128450359
 31
0.0
  0
LINE
  5
986
330
1F
100
AcDbEntity
  8
0
  6
CONTINUOUS
 62
     7
100
AcDbLine
 10
70.80912306440501
 20
6.006822128450359
 30
0.0
 11
70.67946563560501
 21
6.006534219650362
 31
0.0
  0
LINE
  5
987
330
1F
100
AcDbEntity
  8
0
  6
CONTINUOUS
 62
     7
100
AcDbLine
 10
71.150808677205
 20
6.007553557250361
 30
0.0
 11
70.88475435720501
 21
6.00699389165036
 31
0.0
  0
LINE
  5
988
330
1F
100
AcDbEntity
  8
0
  6
CONTINUOUS
 62
     7
100
AcDbLine
 10
74.03356619080502
 20
6.000425931650362
 30
0.0
 11
74.13959145160501
 21
6.000657123650363
 31
0.0
  0
LINE
  5
989
330
1F
100
AcDbEntity
  8
0
  6
CONTINUOUS
 62
     7
100
AcDbLine
 10
70.67946563560501
 20
6.006534219650362
 30
0.0
 11
70.51329234600501
 21
6.006228187650364
 31
0.0
  0
LINE
  5
98B
330
1F
100
AcDbEntity
  8
0
  6
CONTINUOUS
 62
     7
100
AcDbLine
 10
70.51329234600501
 20
6.006228187650364
 30
0.0
 11
70.47592260360501
 21
6.006186046850359
 31
0.0
  0
LINE
  5
98C
330
1F
100
AcDbEntity
  8
0
  6
CONTINUOUS
 62
     7
100
AcDbLine
 10
73.87865645960501
 20
6.000314083650359
 30
0.0
 11
74.03356619080502
 21
6.000425931650362
 31
0.0
  0
LINE
  5
98D
330
1F
100
AcDbEntity
  8
0
  6
CONTINUOUS
 62
     7
100
AcDbLine
 10
73.83770080040502
 20
6.000327619650363
 30
0.0
 11
73.87865645960501
 21
6.000314083650359
 31
0.0
  0
LINE
  5
98E
330
1F
100
AcDbEntity
  8
0
  6
CONTINUOUS
 62
     7
100
AcDbLine
 10
73.81649542600502
 20
6.000340222850361
 30
0.0
 11
73.83770080040502
 21
6.000327619650363
 31
0.0
  0
LWPOLYLINE
  5
98F
330
1F
100
AcDbEntity
  8
0
  6
CONTINUOUS
 62
     7
100
AcDbPolyline
 90
        4
 70
     0
 43
0.0
 10
73.78724376360501
 20
6.000363075650362
 10
73.79169878600501
 20
6.000359218050363
 10
73.79914848680501
 20
6.000353082050359
 10
73.81649542600502
 20
6.000340222850361
  0
LINE
  5
990
330
1F
100
AcDbEntity
  8
0
  6
CONTINUOUS
 62
     7
100
AcDbLine
 10
73.78496407080501
 20
6.000365150850363
 30
0.0
 11
73.78724376360501
 21
6.000363075650362
 31
0.0
  0
LWPOLYLINE
  5
992
330
1F
100
AcDbEntity
  8
0
  6
CONTINUOUS
 62
     7
100
AcDbPolyline
 90
       13
 70
     0
 43
0.0
 10
70.47594688360502
 20
6.006198067650359
 10
68.51879850440501
 20
6.008557464450362
 10
66.50756792680501
 20
6.018104165250363
 10
64.45462770120501
 20
6.03506630925036
 10
62.37086265800501
 20
6.059488576450362
 10
60.26680838920501
 20
6.09125861005036
 10
58.15395606440501
 20
6.130099770050364
 10
56.04642270600502
 20
6.175507952450359
 10
53.95349954760501
 20
6.226923779650363
 10
51.86996206120501
 20
6.284113565250358
 10
49.78681259720501
 20
6.347031181250358
 10
47.69596785320501
 20
6.415698299650358
 10
45.58957457320501
 20
6.49020715725036
  0
LWPOLYLINE
  5
993
330
1F
100
AcDbEntity
  8
0
  6
CONTINUOUS
 62
     7
100
AcDbPolyline
 90
        4
 70
     0
 43
0.0
 10
73.75301454920502
 20
6.000438944450358
 10
73.75891787400501
 20
6.000417435650362
 10
73.76401131880502
 20
6.00039903565036
 10
73.78496407080501
 20
6.000365150850363
  0
LWPOLYLINE
  5
994
330
1F
100
AcDbEntity
  8
0
  6
CONTINUOUS
 62
     7
100
AcDbPolyline
 90
        3
 70
     0
 43
0.0
 10
73.73084629320501
 20
6.000521654850359
 10
73.73905753000501
 20
6.000490638850358
 10
73.75301454920502
 20
6.000438944450358
  0
LINE
  5
995
330
1F
100
AcDbEntity
  8
0
  6
CONTINUOUS
 62
     7
100
AcDbLine
 10
73.71142219240501
 20
6.000596915650362
 30
0.0
 11
73.73084629320501
 21
6.000521654850359
 31
0.0
  0
LWPOLYLINE
  5
996
330
1F
100
AcDbEntity
  8
0
  6
CONTINUOUS
 62
     7
100
AcDbPolyline
 90
       11
 70
     0
 43
0.0
 10
72.45447207880501
 20
6.006511138050363
 10
72.32564397000501
 20
6.007019939650362
 10
72.19716305640502
 20
6.007421630850359
 10
72.06963301480501
 20
6.007722045250361
 10
71.94366457800501
 20
6.007928533250364
 10
71.81982818120501
 20
6.008049672450361
 10
71.69866061160501
 20
6.008095021250362
 10
71.58069426760501
 20
6.008074706050358
 10
71.46646658280501
 20
6.007999376450364
 10
71.35644460200501
 20
6.00788005005036
 10
71.150808677205
 20
6.007553557250361
  0
LINE
  5
997
330
1F
100
AcDbEntity
  8
0
  6
CONTINUOUS
 62
     7
100
AcDbLine
 10
73.687078843605
 20
6.000694891650361
 30
0.0
 11
73.71142219240501
 21
6.000596915650362
 31
0.0
  0
LWPOLYLINE
  5
998
330
1F
100
AcDbEntity
  8
0
  6
CONTINUOUS
 62
     7
100
AcDbPolyline
 90
        3
 70
     0
 43
0.0
 10
73.638091282005
 20
6.000902861250359
 10
73.65638960680501
 20
6.000823723650363
 10
73.687078843605
 20
6.000694891650361
  0
LINE
  5
99A
330
1F
100
AcDbEntity
  8
0
  6
CONTINUOUS
 62
     7
100
AcDbLine
 10
73.59405927400501
 20
6.001098790850363
 30
0.0
 11
73.638091282005
 21
6.000902861250359
 31
0.0
  0
LINE
  5
99B
330
1F
100
AcDbEntity
  8
0
  6
CONTINUOUS
 62
     7
100
AcDbLine
 10
72.45447207560501
 20
6.006511157250358
 30
0.0
 11
72.81241644520502
 21
6.004944264450358
 31
0.0
  0
LINE
  5
99C
330
1F
100
AcDbEntity
  8
0
  6
CONTINUOUS
 62
     7
100
AcDbLine
 10
73.53739993000501
 20
6.001359794050358
 30
0.0
 11
73.59405927400501
 21
6.001098790850363
 31
0.0
  0
LWPOLYLINE
  5
99D
330
1F
100
AcDbEntity
  8
0
  6
CONTINUOUS
 62
     7
100
AcDbPolyline
 90
        3
 70
     0
 43
0.0
 10
73.41840577480501
 20
6.00192969485036
 10
73.46364731720502
 20
6.001710166850358
 10
73.53739993000501
 20
6.001359794050358
  0
LWPOLYLINE
  5
99E
330
1F
100
AcDbEntity
  8
0
  6
CONTINUOUS
 62
     7
100
AcDbPolyline
 90
        6
 70
     0
 43
0.0
 10
72.81241644520502
 20
6.004944264450358
 10
73.05506352680501
 20
6.003746890050358
 10
73.15258103400501
 20
6.003256880450358
 10
73.23520688360502
 20
6.002840802050364
 10
73.30572775880501
 20
6.002487102850359
 10
73.41840577480501
 20
6.00192969485036
  0
LINE
  5
9A7
330
1F
100
AcDbEntity
  8
0
  6
CONTINUOUS
 62
     7
100
AcDbLine
 10
26.21813258600501
 20
7.974373810050359
 30
0.0
 11
37.64692392896256
 21
7.690184329445996
 31
0.0
  0
LWPOLYLINE
  5
9AE
330
1F
100
AcDbEntity
  8
0
  6
CONTINUOUS
 62
     7
100
AcDbPolyline
 90
       24
 70
     0
 43
0.0
 10
27.34058900520501
 20
7.946477822850361
 10
27.209394133205
 20
7.954044645250363
 10
27.07894088680501
 20
7.970188589250362
 10
26.94975397800501
 20
7.994844720450359
 10
26.82235303560501
 20
8.027913862850361
 10
26.69725050120501
 20
8.069263005250363
 10
26.57494957320501
 20
8.118725827650358
 10
26.45594218280501
 20
8.176103378050363
 10
26.34070701160501
 20
8.241164864450361
 10
26.22970756840501
 20
8.313648592450363
 10
26.12339032680501
 20
8.393263011650361
 10
26.02218292200501
 20
8.479687888450364
 10
25.92649244200501
 20
8.572575597250363
 10
25.83670378120501
 20
8.671552518850361
 10
25.75317809160501
 20
8.77622053645036
 10
25.676251341205
 20
8.886158645250361
 10
25.60623295080501
 20
9.000924643650364
 10
25.54340455080501
 20
9.120056909250358
 10
25.48801885800501
 20
9.243076256450358
 10
25.44029864680501
 20
9.369487867650363
 10
25.40043586120501
 20
9.49878327565036
 10
25.36859090440501
 20
9.630442122050361
 10
25.34489156520501
 20
9.763936506050363
 10
25.32943381640501
 20
9.898726243650358
  0
LWPOLYLINE
  5
9B0
330
1F
100
AcDbEntity
  8
0
  6
CONTINUOUS
 62
     7
100
AcDbPolyline
 90
       17
 70
     0
 43
0.0
 10
45.58957457320501
 20
6.49020715725036
 10
45.543520982805
 20
6.493966109250358
 10
45.49798847560501
 20
6.501829853250363
 10
45.45334353320501
 20
6.513741114050361
 10
45.40994304200501
 20
6.529598555650359
 10
45.36813775560502
 20
6.54928026925036
 10
45.32826079880502
 20
6.57262305645036
 10
45.290635379605
 20
6.59944424205036
 10
45.255560266005
 20
6.62952409805036
 10
45.22332083240501
 20
6.662624941250363
 10
45.194172043605
 20
6.698477568450364
 10
45.16835207400501
 20
6.736796941250361
 10
45.14606408840501
 20
6.777272979650362
 10
45.12749126920501
 20
6.819582501250359
 10
45.112778616405
 20
6.863384362050361
 10
45.10204831560502
 20
6.908327600450363
 10
45.095382680405
 20
6.954051075650362
  0
LINE
  5
9B3
330
1F
100
AcDbEntity
  8
0
  6
CONTINUOUS
 62
     7
100
AcDbLine
 10
36.59794004040501
 20
5.207174811650361
 30
0.0
 11
37.16396101578807
 21
7.319593851885464
 31
0.0
  0
LINE
  5
9B5
330
1F
100
AcDbEntity
  8
0
  6
CONTINUOUS
 62
     7
100
AcDbLine
 10
45.071620389205
 20
7.191066040450358
 30
0.0
 11
45.095382293205
 21
6.954051030850358
 31
0.0
  0
LINE
  5
9B6
330
1F
100
AcDbEntity
  8
0
  6
CONTINUOUS
 62
     7
100
AcDbLine
 10
48.00913575560501
 20
5.744937237250361
 30
0.0
 11
47.89199767109875
 21
6.409260326312612
 31
0.0
  0
LWPOLYLINE
  5
9B8
330
1F
100
AcDbEntity
  8
0
  6
HIDDEN
 62
     8
100
AcDbPolyline
 90
       16
 70
     0
 43
0.0
 10
57.61959037800501
 20
22.51798611245035
 10
57.63597451080501
 20
22.52630239405036
 10
57.67004576840502
 20
22.54555432525036
 10
57.70267448520501
 20
22.56669956685036
 10
57.73372525640501
 20
22.58961992845036
 10
57.76294503400501
 20
22.61408785965036
 10
57.79011535240501
 20
22.63984763085036
 10
57.81509911400501
 20
22.66666794605036
 10
57.83782029800502
 20
22.69434826125036
 10
57.85816709960501
 20
22.72260442925035
 10
57.87612930440501
 20
22.75124135885036
 10
57.89169633800502
 20
22.78003337805036
 10
57.90491680840502
 20
22.80883363725036
 10
57.91581820680502
 20
22.83742615725036
 10
57.92448378280501
 20
22.86570455725036
 10
57.93098443080501
 20
22.89351896365035
  0
LINE
  5
9B9
330
1F
100
AcDbEntity
  8
0
  6
CONTINUOUS
 62
     7
100
AcDbLine
 10
18.21005833960501
 20
28.06794135565036
 30
0.0
 11
18.17534697800501
 21
28.08093411725036
 31
0.0
  0
LWPOLYLINE
  5
9BA
330
1F
100
AcDbEntity
  8
0
  6
CONTINUOUS
 62
     7
100
AcDbPolyline
 90
        3
 70
     0
 43
0.0
 10
18.34842225960501
 20
28.03379979085036
 10
18.27355186760364
 20
28.04948635561103
 10
18.21005860200501
 20
28.06794125485037
  0
LWPOLYLINE
  5
9BC
330
1F
100
AcDbEntity
  8
0
  6
HIDDEN
 62
     8
100
AcDbPolyline
 90
       14
 70
     0
 43
0.0
 10
46.68371231560501
 20
22.30407432045036
 10
46.69223651080502
 20
22.27651285965035
 10
46.70294779720501
 20
22.24877392685036
 10
46.71588899080501
 20
22.22102438125035
 10
46.73111518920501
 20
22.19338858125035
 10
46.748620104405
 20
22.16608693005036
 10
46.76842229800501
 20
22.13927176365036
 10
46.790471726805
 20
22.11317065805036
 10
46.81472877480501
 20
22.08796841165035
 10
46.84105268520501
 20
22.06392384205036
 10
46.86935829800501
 20
22.04120681645036
 10
46.89946767720501
 20
22.02003773005036
 10
46.93112752680501
 20
22.00064303405036
 10
46.96134529000501
 20
21.98454871245036
  0
LWPOLYLINE
  5
9BD
330
1F
100
AcDbEntity
  8
0
  6
HIDDEN
 62
     8
100
AcDbPolyline
 90
        3
 70
     0
 43
0.0
 10
46.68371231560501
 20
22.30407432045036
 10
46.66561619720501
 20
22.37120221965036
 10
46.64771529960501
 20
22.43864785325035
  0
LWPOLYLINE
  5
9BE
330
1F
100
AcDbEntity
  8
0
  6
HIDDEN
 62
     8
100
AcDbPolyline
 90
       11
 70
     0
 43
0.0
 10
56.05959257640501
 20
23.49146189325036
 10
56.03810660520501
 20
23.46744717805036
 10
56.01737381480501
 20
23.44104785805036
 10
55.99819088200502
 20
23.41306630445036
 10
55.98075088840501
 20
23.38372147565036
 10
55.96528439560501
 20
23.35338439565036
 10
55.95196158440501
 20
23.32245740205036
 10
55.94082507560502
 20
23.29116743245035
 10
55.93189639080501
 20
23.25972071885036
 10
55.92520192840502
 20
23.22841541325036
 10
55.920728357205
 20
23.19754577165036
  0
LWPOLYLINE
  5
9BF
330
1F
100
AcDbEntity
  8
0
  6
CONTINUOUS
 62
     7
100
AcDbPolyline
 90
        4
 70
     0
 43
0.0
 10
33.03634093960501
 20
16.44373906285036
 10
32.53529715880501
 20
16.32201158765036
 10
32.08166888840501
 20
16.20928856365036
 10
31.66810096200501
 20
16.10436415565035
  0
LINE
  5
9C0
330
1F
100
AcDbEntity
  8
0
  6
CONTINUOUS
 62
     7
100
AcDbLine
 10
33.03633753480501
 20
16.44373828525036
 30
0.0
 11
33.596184595605
 21
16.57642896685035
 31
0.0
  0
LWPOLYLINE
  5
9C1
330
1F
100
AcDbEntity
  8
0
  6
CONTINUOUS
 62
     7
100
AcDbPolyline
 90
        3
 70
     0
 43
0.0
 10
34.74483200840501
 20
16.83797290605036
 10
34.19361583080501
 20
16.71424592365036
 10
33.59617492520502
 20
16.57642670285036
  0
LINE
  5
9C2
330
1F
100
AcDbEntity
  8
0
  6
CONTINUOUS
 62
     7
100
AcDbLine
 10
34.74479306440501
 20
16.83796334605036
 30
0.0
 11
35.24043854280501
 21
16.94642453005036
 31
0.0
  0
LINE
  5
9C3
330
1F
100
AcDbEntity
  8
0
  6
CONTINUOUS
 62
     7
100
AcDbLine
 10
35.68923074440501
 20
17.04236753165036
 30
0.0
 11
35.24044857480501
 21
16.94642704205036
 31
0.0
  0
LINE
  5
9C4
330
1F
100
AcDbEntity
  8
0
  6
CONTINUOUS
 62
     7
100
AcDbLine
 10
35.68923444360502
 20
17.04236849485036
 30
0.0
 11
36.09795660680501
 21
17.12788680685036
 31
0.0
  0
LWPOLYLINE
  5
9C5
330
1F
100
AcDbEntity
  8
0
  6
CONTINUOUS
 62
     7
100
AcDbPolyline
 90
        3
 70
     0
 43
0.0
 10
36.81477238280502
 20
17.27363619405036
 10
36.47177224200501
 20
17.20456302925035
 10
36.097958230805
 20
17.12788721805036
  0
LINE
  5
9C6
330
1F
100
AcDbEntity
  8
0
  6
CONTINUOUS
 62
     7
100
AcDbLine
 10
36.81477257480501
 20
17.27363624845035
 30
0.0
 11
37.130415691605
 21
17.33612518605036
 31
0.0
  0
LINE
  5
9C7
330
1F
100
AcDbEntity
  8
0
  6
CONTINUOUS
 62
     7
100
AcDbLine
 10
37.42151311720501
 20
17.39284904525035
 30
0.0
 11
37.13041578280501
 21
17.33612521165036
 31
0.0
  0
LWPOLYLINE
  5
9C8
330
1F
100
AcDbEntity
  8
0
  6
CONTINUOUS
 62
     7
100
AcDbPolyline
 90
        6
 70
     0
 43
0.0
 10
37.42151311720501
 20
17.39284904525035
 10
37.69044751720501
 20
17.44448824525036
 10
37.93928640520501
 20
17.49161890925036
 10
38.169841966805
 20
17.53473363245036
 10
38.38370220840501
 20
17.57425430765036
 10
38.58181482920501
 20
17.61046268845036
  0
LWPOLYLINE
  5
9C9
330
1F
100
AcDbEntity
  8
0
  6
CONTINUOUS
 62
     7
100
AcDbPolyline
 90
       11
 70
     0
 43
0.0
 10
38.97024837800501
 20
17.68034045805036
 10
37.55899820360501
 20
17.41932656205035
 10
36.307561395605
 20
17.17105935885036
 10
35.20027014280501
 20
16.93772926445036
 10
34.22124711560501
 20
16.72052292365036
 10
33.35768070760501
 20
16.52032046445036
 10
32.59778685000501
 20
16.33735073485036
 10
31.92691239080501
 20
16.17027077645035
 10
31.330220379605
 20
16.01707227245036
 10
30.79573240360501
 20
15.87602882125035
 10
30.31106340200501
 20
15.74484070925036
  0
LWPOLYLINE
  5
9CA
330
1F
100
AcDbEntity
  8
0
  6
CONTINUOUS
 62
     7
100
AcDbPolyline
 90
       11
 70
     0
 43
0.0
 10
38.58181602920501
 20
17.61045552685035
 10
41.42662645800501
 20
18.08957939565036
 10
44.34806388040501
 20
18.50999437645035
 10
46.89180827240501
 20
18.82730771565036
 10
49.07722585800501
 20
19.07177399885036
 10
51.21517092040502
 20
19.29001969805035
 10
53.40990097800501
 20
19.49430319725036
 10
55.66244327880501
 20
19.68383282765036
 10
57.973656093205
 20
19.85792290605036
 10
60.34457706120502
 20
20.01589230445036
 10
62.77647898120502
 20
20.15698013965035
  0
LWPOLYLINE
  5
9CB
330
1F
100
AcDbEntity
  8
0
  6
CONTINUOUS
 62
     7
100
AcDbPolyline
 90
       15
 70
     0
 43
0.0
 10
62.77647898280502
 20
20.15698010925036
 10
60.99382668360501
 20
20.05559878925036
 10
59.24375412680501
 20
19.94509312685035
 10
57.52590114120501
 20
19.82576771885035
 10
55.83997630760501
 20
19.69791934445036
 10
54.18583235560501
 20
19.56185936845036
 10
52.56331145960501
 20
19.41785292525035
 10
50.97217773960501
 20
19.26620145165036
 10
49.41112951720501
 20
19.10705210605036
 10
47.864904749205
 20
18.93900054125035
 10
46.15993083560501
 20
18.74006103245036
 10
44.264689794005
 20
18.49888208525035
 10
42.34197855880501
 20
18.22852470925035
 10
40.55631915080501
 20
17.95084185485036
 10
38.97024837800501
 20
17.68034045805036
  0
LWPOLYLINE
  5
9CC
330
1F
100
AcDbEntity
  8
0
  6
HIDDEN
 62
     8
100
AcDbPolyline
 90
       11
 70
     0
 43
0.0
 10
49.31184133000501
 20
22.85118867885036
 10
49.30398180840501
 20
22.88065855725036
 10
49.29387076680502
 20
22.91041322285035
 10
49.28147000200501
 20
22.94025142285036
 10
49.26680564840501
 20
22.96987629005035
 10
49.24998165160501
 20
22.99893343405036
 10
49.23107031880501
 20
23.02720384525036
 10
49.21022662440501
 20
23.05439192845036
 10
49.18764634120501
 20
23.08021926445036
 10
49.16350732520502
 20
23.10448432525036
 10
49.15769091080502
 20
23.10988276845036
  0
LWPOLYLINE
  5
9CD
330
1F
100
AcDbEntity
  8
0
  6
CONTINUOUS
 62
     7
100
AcDbPolyline
 90
        5
 70
     0
 43
0.0
 10
30.31106079560501
 20
15.74485203085036
 10
30.61384771240501
 20
15.82716172365036
 10
30.93864924840501
 20
15.91409619085036
 10
31.28871959880501
 20
16.00625495085036
 10
31.66810176840501
 20
16.10436432365036
  0
LWPOLYLINE
  5
9CE
330
1F
100
AcDbEntity
  8
0
  6
HIDDEN
 62
     8
100
AcDbPolyline
 90
       30
 70
     0
 43
0.0
 10
54.49315684840501
 20
23.02276241965036
 10
54.581564298005
 20
23.03190823085036
 10
54.66925932680502
 20
23.04227288845036
 10
54.75600333320501
 20
23.05382189165035
 10
54.84156663080502
 20
23.06651583245036
 10
54.92572282440502
 20
23.08030975565036
 10
55.008247534805
 20
23.09515273005036
 10
55.08891958760502
 20
23.11098770765036
 10
55.16752133160501
 20
23.12775118605036
 10
55.243839374805
 20
23.14537287565035
 10
55.31766533800501
 20
23.16377529485035
 10
55.38879680360501
 20
23.18287334285036
 10
55.457052805205
 20
23.20257810765036
 10
55.522235717205
 20
23.22278528845036
 10
55.58416797160501
 20
23.24338404205036
 10
55.64268486440501
 20
23.26425425805036
 10
55.69763617000501
 20
23.28526601325036
 10
55.74888900360502
 20
23.30627944525036
 10
55.79633115880501
 20
23.32714490925036
 10
55.83988927080501
 20
23.34771060045036
 10
55.87950077000501
 20
23.36780939405036
 10
55.91512482600501
 20
23.38726130445036
 10
55.94676841960501
 20
23.40588688845036
 10
55.974478586005
 20
23.42350505965036
 10
55.99835599720501
 20
23.43994456045036
 10
56.01851357640502
 20
23.45501817645036
 10
56.03511571880502
 20
23.46855036045035
 10
56.04837149960501
 20
23.48037842445036
 10
56.05850942440501
 20
23.49033404205036
 10
56.05959239720501
 20
23.49146206285035
  0
LWPOLYLINE
  5
9CF
330
1F
100
AcDbEntity
  8
0
  6
HIDDEN
 62
     8
100
AcDbPolyline
 90
       22
 70
     0
 43
0.0
 10
54.59941828680502
 20
21.77697825485036
 10
54.76789817320501
 20
21.79394779085036
 10
54.93557328840501
 20
21.81304906285036
 10
55.10222191720501
 20
21.83426100845036
 10
55.267618534805
 20
21.85756073325035
 10
55.43154089000501
 20
21.88292438285036
 10
55.59376993800501
 20
21.91032734125035
 10
55.75409060200501
 20
21.93974460685036
 10
55.91229228040501
 20
21.97115119085036
 10
56.06816459400501
 20
22.00452155085036
 10
56.22150810440501
 20
22.03983222445036
 10
56.37213174600501
 20
22.07706219085036
 10
56.51984829800501
 20
22.11619256205036
 10
56.66447762440501
 20
22.15720821965036
 10
56.80584701160501
 20
22.20009906925036
 10
56.94379133320501
 20
22.24486154605036
 10
57.07815138600501
 20
22.29149982445036
 10
57.20876077640501
 20
22.34002286765036
 10
57.335488173205
 20
22.39046268045036
 10
57.45819053640501
 20
22.44286119245035
 10
57.57672253320501
 20
22.49727685005036
 10
57.61959089640502
 20
22.51798504845036
  0
LINE
  5
9D0
330
1F
100
AcDbEntity
  8
0
  6
CONTINUOUS
 62
     7
100
AcDbLine
 10
80.95454033000502
 20
24.52187957325036
 30
0.0
 11
80.93897478760501
 21
24.52051776365036
 31
0.0
  0
LWPOLYLINE
  5
9D1
330
1F
100
AcDbEntity
  8
0
  6
HIDDEN
 62
     8
100
AcDbPolyline
 90
        8
 70
     0
 43
0.0
 10
57.38443746120501
 20
22.45549578605036
 10
57.41943194760501
 20
22.45844881165036
 10
57.45513556840501
 20
22.46372985005036
 10
57.49136703400501
 20
22.47140453165036
 10
57.52792153640502
 20
22.48152852525036
 10
57.56454455080501
 20
22.49413321165036
 10
57.60069372840502
 20
22.50910405005036
 10
57.61959037800501
 20
22.51798611245035
  0
LWPOLYLINE
  5
9D2
330
1F
100
AcDbEntity
  8
0
  6
HIDDEN
 62
     8
100
AcDbPolyline
 90
        6
 70
     0
 43
0.0
 10
51.596767157205
 20
22.77165215565035
 10
52.17693199880502
 20
22.81758375885036
 10
52.75673192840502
 20
22.86566727245035
 10
53.33608837160501
 20
22.91589616045035
 10
53.91492282440501
 20
22.96826358605036
 10
54.49315684840501
 20
23.02276241965036
  0
LWPOLYLINE
  5
9D3
330
1F
100
AcDbEntity
  8
0
  6
HIDDEN
 62
     8
100
AcDbPolyline
 90
        6
 70
     0
 43
0.0
 10
51.49517382120501
 20
21.51105253165036
 10
52.11683581640501
 20
21.56009070605036
 10
52.73815840200501
 20
21.61120798765036
 10
53.359074414805
 20
21.66439886285036
 10
53.97951673160502
 20
21.71965760205036
 10
54.59941828680502
 20
21.77697825485036
  0
LWPOLYLINE
  5
9D4
330
1F
100
AcDbEntity
  8
0
  6
CONTINUOUS
 62
     7
100
AcDbPolyline
 90
       16
 70
     0
 43
0.0
 10
15.45263767880501
 20
24.52051776365036
 10
15.40244464840501
 20
24.52464672845036
 10
15.35277700040501
 20
24.52827420365036
 10
15.30423040520501
 20
24.53135694925036
 10
15.25724423880501
 20
24.53386686605036
 10
15.21243797160501
 20
24.53577105005036
 10
15.17017448840501
 20
24.53705396205036
 10
15.13104015880501
 20
24.53769790285036
 10
15.09533369800501
 20
24.53769790445036
 10
15.06355961640501
 20
24.53705396685036
 10
15.03595958760501
 20
24.53577104045036
 10
15.01291816040501
 20
24.53386684205035
 10
14.99462068200501
 20
24.53135694765036
 10
14.98131009640501
 20
24.52827421805036
 10
14.97310464360501
 20
24.52464673165036
 10
14.97010587240501
 20
24.52051776365036
  0
LWPOLYLINE
  5
9D5
330
1F
100
AcDbEntity
  8
0
  6
CONTINUOUS
 62
     7
100
AcDbPolyline
 90
       13
 70
     0
 43
0.0
 10
15.45263767880501
 20
24.52187957325036
 10
15.40082481160501
 20
24.52614178285036
 10
15.34955543720501
 20
24.52988623725036
 10
15.29938642920501
 20
24.53307172525036
 10
15.25086381640501
 20
24.53566301165036
 10
15.20462741480501
 20
24.53762717645036
 10
15.161084486805
 20
24.53894868205036
 10
15.12068098120501
 20
24.53961377965036
 10
15.08385859560501
 20
24.53961439565036
 10
15.051021195605
 20
24.53894960525035
 10
15.02253047080501
 20
24.53762565325035
 10
14.99871472360501
 20
24.53565724365036
 10
14.979859888405
 20
24.53307087565036
  0
LINE
  5
9D6
330
1F
100
AcDbEntity
  8
0
  6
CONTINUOUS
 62
     7
100
AcDbLine
 10
14.95454033000501
 20
24.52187957325036
 30
0.0
 11
14.97010587240501
 21
24.52051776365036
 31
0.0
  0
LWPOLYLINE
  5
9D7
330
1F
100
AcDbEntity
  8
0
  6
HIDDEN
 62
     8
100
AcDbPolyline
 90
        9
 70
     0
 43
0.0
 10
46.96134529000501
 20
21.98454871245036
 10
46.998140395605
 20
21.96781605805036
 10
47.033128634005
 20
21.95458093165036
 10
47.06867885640501
 20
21.94362812365036
 10
47.104438619605
 20
21.93503125965035
 10
47.14016059560501
 20
21.92880021165036
 10
47.17546136680501
 20
21.92493513005036
 10
47.210029400405
 20
21.92337897645035
 10
47.243643574805
 20
21.92403929805036
  0
LWPOLYLINE
  5
9D8
330
1F
100
AcDbEntity
  8
0
  6
HIDDEN
 62
     8
100
AcDbPolyline
 90
       29
 70
     0
 43
0.0
 10
46.961345395605
 20
21.98454885005035
 10
47.02206878280501
 20
21.95543359725036
 10
47.12810355880501
 20
21.90896404205036
 10
47.239816315605
 20
21.86506747885036
 10
47.35688451240501
 20
21.82369827725036
 10
47.47916149160501
 20
21.78475678765035
 10
47.60667821160502
 20
21.74811677165036
 10
47.73947243400501
 20
21.71368686125036
 10
47.87755627560501
 20
21.68141109805036
 10
48.02087893640501
 20
21.65126790765036
 10
48.16937384840501
 20
21.62325148845036
 10
48.32296611240501
 20
21.59736727085036
 10
48.48154551560501
 20
21.57363376685036
 10
48.64495979400501
 20
21.55207955405035
 10
48.81304440520501
 20
21.53273637165035
 10
48.98561862600501
 20
21.51563866765036
 10
49.16244549960501
 20
21.50082568205036
 10
49.34325603720501
 20
21.48833621165036
 10
49.52776947880501
 20
21.47820598285036
 10
49.71567754280501
 20
21.47046804045036
 10
49.90663084040502
 20
21.46515180205036
 10
50.10026674600502
 20
21.46228076685036
 10
50.29621040520502
 20
21.46187228205036
 10
50.49405490120502
 20
21.46393696685036
 10
50.69337610920502
 20
21.46847762765035
 10
50.893744150805
 20
21.47548905325036
 10
51.09472452520501
 20
21.48495803565035
 10
51.29588519560501
 20
21.49686372045036
 10
51.49517381960501
 20
21.51105253325036
  0
LWPOLYLINE
  5
9D9
330
1F
100
AcDbEntity
  8
0
  6
HIDDEN
 62
     8
100
AcDbPolyline
 90
       13
 70
     0
 43
0.0
 10
49.15769091080502
 20
23.10988276845036
 10
49.13797538920501
 20
23.12702965965036
 10
49.11136533160501
 20
23.14761161165036
 10
49.08394020360501
 20
23.16609414765036
 10
49.055940568405
 20
23.18239814765036
 10
49.02756685800501
 20
23.19649604525036
 10
48.99903275720501
 20
23.20837489005036
 10
48.97047645160501
 20
23.21806946125036
 10
48.94209151880501
 20
23.22560590605036
 10
48.91396912520502
 20
23.23104928685036
 10
48.886259531605
 20
23.23445534125036
 10
48.85901929480501
 20
23.23589665965036
 10
48.83237849800501
 20
23.23544096205036
  0
LWPOLYLINE
  5
9DA
330
1F
100
AcDbEntity
  8
0
  6
HIDDEN
 62
     8
100
AcDbPolyline
 90
       34
 70
     0
 43
0.0
 10
49.15769124200501
 20
23.10988312845036
 10
49.16063346920501
 20
23.10723006445036
 10
49.17588518280502
 20
23.09445529805036
 10
49.19513712040501
 20
23.08002979885036
 10
49.21863044840501
 20
23.06419427565035
 10
49.24655420360501
 20
23.04719327245036
 10
49.279055690005
 20
23.02926509965036
 10
49.31627067720501
 20
23.01062637165036
 10
49.35824270760502
 20
22.99151258925036
 10
49.40499024520502
 20
22.97213954765036
 10
49.45652979240501
 20
22.95269805325035
 10
49.51280499240501
 20
22.93338300525036
 10
49.57367788680501
 20
22.91438974765036
 10
49.63909394760502
 20
22.89586341805036
 10
49.70891454440502
 20
22.87795612685036
 10
49.78296689960501
 20
22.86080871565036
 10
49.861051259605
 20
22.84454900205036
 10
49.94301908520501
 20
22.82927839565036
 10
50.02866690920502
 20
22.81509646285036
 10
50.11778032360502
 20
22.80209143245035
 10
50.21010402120501
 20
22.79034468365036
 10
50.30545227880501
 20
22.77991769485036
 10
50.40359076840501
 20
22.77086943245036
 10
50.50428032520501
 20
22.76325035725036
 10
50.60726581480501
 20
22.75710361165036
 10
50.71230653160501
 20
22.75246354765036
 10
50.81916634760502
 20
22.74935776045035
 10
50.92759317960501
 20
22.74780813805036
 10
51.03733298600501
 20
22.74783026125036
 10
51.14812291400501
 20
22.74943351245036
 10
51.25971777160501
 20
22.75262171885036
 10
51.37186231400502
 20
22.75739325165036
 10
51.48429828200502
 20
22.76374093645036
 10
51.596767157205
 20
22.77165215565035
  0
LWPOLYLINE
  5
9DB
330
1F
100
AcDbEntity
  8
0
  6
HIDDEN
 62
     8
100
AcDbPolyline
 90
       12
 70
     0
 43
0.0
 10
56.34228311080502
 20
23.62901838445036
 10
56.31635493480501
 20
23.62672591085036
 10
56.29014428680502
 20
23.62251317005036
 10
56.26378576360501
 20
23.61634061645035
 10
56.23733018440501
 20
23.60815298285036
 10
56.21091623880501
 20
23.59791854765036
 10
56.18461336680501
 20
23.58558158445036
 10
56.15858264040501
 20
23.57112691405036
 10
56.13294579080501
 20
23.55452654285036
 10
56.10790641480502
 20
23.53581496685035
 10
56.08361239720501
 20
23.51500453325036
 10
56.05959257640501
 20
23.49146189325036
  0
LWPOLYLINE
  5
9DC
330
1F
100
AcDbEntity
  8
0
  6
HIDDEN
 62
     8
100
AcDbPolyline
 90
       29
 70
     0
 43
0.0
 10
47.173604018005
 20
23.14850827565036
 10
47.13093197960501
 20
23.14499556685036
 10
47.08993976680502
 20
23.13911478285036
 10
47.05068184040501
 20
23.13101482285035
 10
47.013103491605
 20
23.12081477485036
 10
46.977217200405
 20
23.10863477325035
 10
46.94298261960502
 20
23.09456585325035
 10
46.91044359560502
 20
23.07872245805036
 10
46.87954808200501
 20
23.06116575405036
 10
46.85032676360501
 20
23.04198784685036
 10
46.82277705640501
 20
23.02125508845036
 10
46.79688419720501
 20
22.99901008205036
 10
46.77269502760501
 20
22.97533806605036
 10
46.75018423080501
 20
22.95024555885036
 10
46.72941079720501
 20
22.92381521805036
 10
46.71038732840502
 20
22.89606904845036
 10
46.69314957800501
 20
22.86704302605035
 10
46.67776020200501
 20
22.83681286605035
 10
46.66424393000501
 20
22.80536972845035
 10
46.65267990280502
 20
22.77280900205036
 10
46.643115891605
 20
22.73913884205036
 10
46.63562689000501
 20
22.70443025005036
 10
46.63028810760501
 20
22.66876278605035
 10
46.62717031880501
 20
22.63216330925036
 10
46.62635645000501
 20
22.59475817645036
 10
46.627925310805
 20
22.55658423565036
 10
46.63195476680501
 20
22.51778617645036
 10
46.63852750600502
 20
22.47842539405036
 10
46.64771529960501
 20
22.43864785325035
  0
LINE
  5
9DD
330
1F
100
AcDbEntity
  8
0
  6
HIDDEN
 62
     8
100
AcDbLine
 10
57.36525010920501
 20
23.68262981325035
 30
0.0
 11
56.34228311080502
 21
23.62901838445036
 31
0.0
  0
LINE
  5
9DE
330
1F
100
AcDbEntity
  8
0
  6
HIDDEN
 62
     8
100
AcDbLine
 10
48.83237849800501
 20
23.23544096205036
 30
0.0
 11
47.173604018005
 21
23.14850827565036
 31
0.0
  0
LINE
  5
9DF
330
1F
100
AcDbEntity
  8
0
  6
CONTINUOUS
 62
     7
100
AcDbLine
 10
80.45644298120501
 20
24.52051776365036
 30
0.0
 11
15.45263767880501
 21
24.52051776365036
 31
0.0
  0
LINE
  5
9E0
330
1F
100
AcDbEntity
  8
0
  6
CONTINUOUS
 62
     7
100
AcDbLine
 10
80.45644298120501
 20
24.52187957325036
 30
0.0
 11
15.45263767880501
 21
24.52187957325036
 31
0.0
  0
LWPOLYLINE
  5
9E2
330
1F
100
AcDbEntity
  8
0
  6
HIDDEN
 62
     8
100
AcDbPolyline
 90
       29
 70
     0
 43
0.0
 10
57.95770755880501
 20
23.03137941805036
 10
57.964122139605
 20
23.07192233165036
 10
57.96789605000501
 20
23.11169349325036
 10
57.96912926440501
 20
23.15058073645035
 10
57.96792170280501
 20
23.18853437325036
 10
57.96437380200501
 20
23.22542441165035
 10
57.95857546120501
 20
23.26124221485036
 10
57.95062451080501
 20
23.29588425485036
 10
57.940596653205
 20
23.32934386125035
 10
57.92857087080502
 20
23.36156816525036
 10
57.91462774280501
 20
23.39249811085036
 10
57.89880602920502
 20
23.42215045005036
 10
57.88118590440501
 20
23.45044379405035
 10
57.86178242760501
 20
23.47739565805036
 10
57.840644197205
 20
23.50295242125036
 10
57.81780777960502
 20
23.52707108525036
 10
57.79325846600501
 20
23.54974653485036
 10
57.76705159560501
 20
23.57089405165036
 10
57.73914617480501
 20
23.59049976685036
 10
57.70956382600501
 20
23.60848545325036
 10
57.67829379080501
 20
23.62478573645036
 10
57.64529683880501
 20
23.63933371565035
 10
57.61060603080501
 20
23.65201852205036
 10
57.57414800200502
 20
23.66275853965036
 10
57.53594954440501
 20
23.67142455405036
 10
57.49595316360501
 20
23.67789704045036
 10
57.45418258440501
 20
23.68202704845035
 10
57.41062051560501
 20
23.68366126765036
 10
57.36525010920501
 20
23.68262981325035
  0
LWPOLYLINE
  5
9E3
330
1F
100
AcDbEntity
  8
0
  6
HIDDEN
 62
     8
100
AcDbPolyline
 90
        3
 70
     0
 43
0.0
 10
57.93098443080501
 20
22.89351896365035
 10
57.94444055240501
 20
22.96224397965036
 10
57.95770755880501
 20
23.03137941805036
  0
LINE
  5
9E4
330
1F
100
AcDbEntity
  8
0
  6
CONTINUOUS
 62
     7
100
AcDbLine
 10
80.594224541205
 20
26.02187957325035
 30
0.0
 11
80.345175867605
 21
26.02187957325035
 31
0.0
  0
LINE
  5
9E5
330
1F
100
AcDbEntity
  8
0
  6
CONTINUOUS
 62
     7
100
AcDbLine
 10
80.345175867605
 20
26.02187957325035
 30
0.0
 11
15.56390479400501
 21
26.02187957325035
 31
0.0
  0
LINE
  5
9E6
330
1F
100
AcDbEntity
  8
0
  6
CONTINUOUS
 62
     7
100
AcDbLine
 10
15.56390479400501
 20
26.02187957325035
 30
0.0
 11
15.31485611880501
 21
26.02187957325035
 31
0.0
  0
LINE
  5
9E7
330
1F
100
AcDbEntity
  8
0
  6
CONTINUOUS
 62
     7
100
AcDbLine
 10
34.95414185640501
 20
26.02187957325035
 30
0.0
 11
34.62697917640501
 21
26.02200530605036
 31
0.0
  0
LINE
  5
9EB
330
1F
100
AcDbEntity
  8
CENTER
100
AcDbLine
 10
74.79226942231623
 20
22.97254532189932
 30
0.0
 11
82.12796114560957
 21
22.07183563458069
 31
0.0
  0
LWPOLYLINE
  5
9EC
330
1F
100
AcDbEntity
  8
0
  6
CONTINUOUS
 62
     7
100
AcDbPolyline
 90
       13
 70
     0
 43
0.0
 10
80.92921597000502
 20
24.53307172525036
 10
80.91031189160501
 20
24.53566301165036
 10
80.88652599240502
 20
24.53762717645036
 10
80.85808794760501
 20
24.53894868205036
 10
80.82528655080501
 20
24.53961377965036
 10
80.78847120360501
 20
24.53961439565036
 10
80.74803521640502
 20
24.53894960525035
 10
80.704411643605
 20
24.53762565325035
 10
80.658096872405
 20
24.53565724365036
 10
80.60967972040501
 20
24.53307087565036
 10
80.55957163560501
 20
24.52988940685036
 10
80.50830916520501
 20
24.52614592525036
 10
80.45644298120501
 20
24.52187957325036
  0
LWPOLYLINE
  5
9ED
330
1F
100
AcDbEntity
  8
0
  6
CONTINUOUS
 62
     7
100
AcDbPolyline
 90
        4
 70
     0
 43
0.0
 10
14.979859888405
 20
24.53307087565036
 10
14.96611615880501
 20
24.52988940685036
 10
14.95764189160501
 20
24.52614592525036
 10
14.95454033000501
 20
24.52187957325036
  0
LINE
  5
9EE
330
1F
100
AcDbEntity
  8
0
  6
CONTINUOUS
 62
     7
100
AcDbLine
 10
80.94297467240501
 20
24.52988623725036
 30
0.0
 11
80.92921597000502
 21
24.53307172525036
 31
0.0
  0
LINE
  5
9F1
330
1F
100
AcDbEntity
  8
CENTER
100
AcDbLine
 10
72.45454033000502
 20
9.45749270500228
 30
0.0
 11
72.45454033000502
 21
2.997289082070836
 31
0.0
  0
LINE
  5
9F5
330
1F
100
AcDbEntity
  8
0
  6
CONTINUOUS
 62
     7
100
AcDbLine
 10
74.26868187880501
 20
5.938924034050359
 30
0.0
 11
73.91381217800502
 21
5.584054334850364
 31
0.0
  0
LWPOLYLINE
  5
9F7
330
1F
100
AcDbEntity
  8
0
  6
CONTINUOUS
 62
     7
100
AcDbPolyline
 90
        7
 70
     0
 43
0.0
 10
77.82106093480502
 20
17.80623745965036
 10
77.93323537640501
 20
18.61542033325036
 10
77.98596358440502
 20
18.99526999565036
 10
78.036177702805
 20
19.35629448685036
 10
78.08397197960501
 20
19.69910872685036
 10
78.12946479880501
 20
20.02459880205036
 10
78.17265890600501
 20
20.33285745165036
  0
LINE
  5
9F8
330
1F
100
AcDbEntity
  8
0
  6
CONTINUOUS
 62
     7
100
AcDbLine
 10
78.17265890600501
 20
20.33285745325036
 30
0.0
 11
78.21184470280501
 21
20.61179864845036
 31
0.0
  0
LINE
  5
9F9
330
1F
100
AcDbEntity
  8
0
  6
CONTINUOUS
 62
     7
100
AcDbLine
 10
78.21184285960502
 20
20.61179884685036
 30
0.0
 11
78.76165924680501
 21
24.52051776365036
 31
0.0
  0
LWPOLYLINE
  5
9FA
330
1F
100
AcDbEntity
  8
0
  6
CONTINUOUS
 62
     7
100
AcDbPolyline
 90
        8
 70
     0
 43
0.0
 10
76.42652241000501
 20
7.91890819885036
 10
76.51933644680501
 20
8.577161147650357
 10
76.617289866005
 20
9.271011138050361
 10
76.71917359720501
 20
9.991984790850359
 10
76.82330289640501
 20
10.72831378605036
 10
76.92827130280502
 20
11.47010300685035
 10
77.03255845160501
 20
12.20666564205036
 10
77.13485762920502
 20
12.92882760845036
  0
LWPOLYLINE
  5
9FB
330
1F
100
AcDbEntity
  8
0
  6
CONTINUOUS
 62
     7
100
AcDbPolyline
 90
        9
 70
     0
 43
0.0
 10
77.13485762920502
 20
12.92882760845036
 10
77.328140586005
 20
14.29278085645036
 10
77.41626950920501
 20
14.91559681965036
 10
77.49684675560501
 20
15.48639938765036
 10
77.56995259880501
 20
16.00587641165036
 10
77.63770468040501
 20
16.48903931885036
 10
77.70136121800502
 20
16.94479149005036
 10
77.76213147880501
 20
17.38157322445036
 10
77.82106093480502
 20
17.80623745965036
  0
LINE
  5
9FC
330
1F
100
AcDbEntity
  8
0
  6
CONTINUOUS
 62
     7
100
AcDbLine
 10
76.339793859605
 20
7.303256926850359
 30
0.0
 11
76.42652241640501
 21
7.918908243650363
 31
0.0
  0
LINE
  5
9FD
330
1F
100
AcDbEntity
  8
0
  6
CONTINUOUS
 62
     7
100
AcDbLine
 10
76.33592837800501
 20
7.278386797250362
 30
0.0
 11
76.33999084680501
 21
7.304602557250362
 31
0.0
  0
LWPOLYLINE
  5
9FE
330
1F
100
AcDbEntity
  8
0
  6
CONTINUOUS
 62
     7
100
AcDbPolyline
 90
       16
 70
     0
 43
0.0
 10
80.93897478760501
 20
24.52051776365036
 10
80.93597602440501
 20
24.52464672845036
 10
80.92777061160502
 20
24.52827420365036
 10
80.91445997000501
 20
24.53135694925036
 10
80.89616227400501
 20
24.53386686605036
 10
80.87312093160502
 20
24.53577105005036
 10
80.84552119720502
 20
24.53705396205036
 10
80.81374714760501
 20
24.53769790285036
 10
80.77804070600501
 20
24.53769790445036
 10
80.738906382805
 20
24.53705396685036
 10
80.69664244680501
 20
24.53577104045036
 10
80.65183591880501
 20
24.53386684205035
 10
80.604850230805
 20
24.53135694765036
 10
80.55630387560501
 20
24.52827421805036
 10
80.50663606760501
 20
24.52464673165036
 10
80.45644298120501
 20
24.52051776365036
  0
LWPOLYLINE
  5
9FF
330
1F
100
AcDbEntity
  8
0
  6
CONTINUOUS
 62
     7
100
AcDbPolyline
 90
        3
 70
     0
 43
0.0
 10
80.95454033000502
 20
24.52187957325036
 10
80.951444752405
 20
24.52614178285036
 10
80.94297467240501
 20
24.52988623725036
  0
LINE
  5
A00
330
1F
100
AcDbEntity
  8
0
  6
CONTINUOUS
 62
     7
100
AcDbLine
 10
80.95454033000502
 20
24.52187957325036
 30
0.0
 11
80.843273216405
 21
25.79366850925036
 31
0.0
  0
LINE
  5
A01
330
1F
100
AcDbEntity
  8
0
  6
CONTINUOUS
 62
     7
100
AcDbLine
 10
80.45644298120501
 20
24.52187957325036
 30
0.0
 11
80.45644298120501
 21
24.52051776365036
 31
0.0
  0
ARC
  5
BC8
330
1F
100
AcDbEntity
  8
0
  6
DASHED
 62
     8
100
AcDbCircle
 10
79.60650538760501
 20
25.30838990925035
 30
0.0
 40
0.75
100
AcDbArc
 50
107.9511656948018
 51
172.0000033754
  0
ARC
  5
BCB
330
1F
100
AcDbEntity
  8
0
  6
CONTINUOUS
 62
     7
100
AcDbCircle
 10
34.82954033000501
 20
4.459379573250359
 30
0.0
 40
0.9375
100
AcDbArc
 50
43.173185495
 51
136.8268472293999
  0
ARC
  5
BCC
330
1F
100
AcDbEntity
  8
0
  6
CONTINUOUS
 62
     7
100
AcDbCircle
 10
35.69556573480501
 20
5.271879573250359
 30
0.0
 40
0.25
100
AcDbArc
 50
223.1749221533
 51
270.0
  0
ARC
  5
BCD
330
1F
100
AcDbEntity
  8
0
  6
CONTINUOUS
 62
     7
100
AcDbCircle
 10
33.96351492680501
 20
5.271879573250359
 30
0.0
 40
0.25
100
AcDbArc
 50
270.0
 51
316.8249483901
  0
ARC
  5
BCF
330
1F
100
AcDbEntity
  8
0
  6
CONTINUOUS
 62
     7
100
AcDbCircle
 10
33.30263234280501
 20
5.271879573250359
 30
0.0
 40
0.25
100
AcDbArc
 50
194.9993911401
 51
269.9976474526
  0
ARC
  5
BD0
330
1F
100
AcDbEntity
  8
0
  6
CONTINUOUS
 62
     7
100
AcDbCircle
 10
36.35644449320501
 20
5.271879573250359
 30
0.0
 40
0.25
100
AcDbArc
 50
270.0032292840999
 51
345.0008357546999
  0
ARC
  5
BD1
330
1F
100
AcDbEntity
  8
0
  6
CONTINUOUS
 62
     7
100
AcDbCircle
 10
71.59835945160501
 20
5.896879573250359
 30
0.0
 40
0.875
100
AcDbArc
 50
270.0
 51
7.194223614296425
  0
ARC
  5
BD2
330
1F
100
AcDbEntity
  8
0
  6
CONTINUOUS
 62
     7
100
AcDbCircle
 10
48.87084250760501
 20
5.896879573250359
 30
0.0
 40
0.875
100
AcDbArc
 50
190.0000119430999
 51
270.0
  0
ARC
  5
BD3
330
1F
100
AcDbEntity
  8
0
  6
CONTINUOUS
 62
     7
100
AcDbCircle
 10
80.59422445800501
 20
25.77187957325036
 30
0.0
 40
0.25
100
AcDbArc
 50
4.9999983306
 51
89.9999808459
  0
ARC
  5
BD4
330
1F
100
AcDbEntity
  8
0
  6
CONTINUOUS
 62
     7
100
AcDbCircle
 10
15.31485611880501
 20
25.77187957325036
 30
0.0
 40
0.25
100
AcDbArc
 50
90.0
 51
175.0
  0
ARC
  5
BD5
330
1F
100
AcDbEntity
  8
0
  6
CONTINUOUS
 62
     7
100
AcDbCircle
 10
74.43440980040501
 20
5.773195653250361
 30
0.0
 40
0.234375
100
AcDbArc
 50
102.4115047758
 51
134.9999999933999
  0
ARC
  5
BD7
330
1F
100
AcDbEntity
  8
0
  6
CONTINUOUS
 62
     7
100
AcDbCircle
 10
73.72598693960501
 20
5.771879573250359
 30
0.0
 40
0.265625
100
AcDbArc
 50
270.0
 51
315.0
  0
ARC
  5
BD8
330
1F
100
AcDbEntity
  8
0
  6
CONTINUOUS
 62
     7
100
AcDbCircle
 10
44.714037936405
 20
7.155216648450362
 30
0.0
 40
0.359375
100
AcDbArc
 50
5.725054230899998
 51
88.5765130573
  0
ARC
  5
BD9
330
1F
100
AcDbEntity
  8
0
  6
CONTINUOUS
 62
     7
100
AcDbCircle
 10
26.27132093640501
 20
10.11433791885036
 30
0.0
 40
2.140625
100
AcDbArc
 50
183.1551229887999
 51
268.5763444103999
  0
ARC
  5
BDA
330
1F
100
AcDbEntity
  8
0
  6
CONTINUOUS
 62
     7
100
AcDbCircle
 10
19.48994966440501
 20
20.92581503725035
 30
0.0
 40
2.4843749952
100
AcDbArc
 50
5.792188889100001
 51
23.7111063565
  0
ARC
  5
BDB
330
1F
100
AcDbEntity
  8
0
  6
CONTINUOUS
 62
     7
100
AcDbCircle
 10
16.34626717320501
 20
26.14687957325036
 30
0.0
 40
0.125
100
AcDbArc
 50
270.0000011108999
 51
351.5270517373999
  0
ARC
  5
C35
330
1F
100
AcDbEntity
  8
0
  6
CONTINUOUS
 62
     7
100
AcDbCircle
 10
31.97438195878274
 20
7.331161702268676
 30
0.0
 40
0.5
100
AcDbArc
 50
15.00000000336282
 51
88.57634441115264
  0
LINE
  5
C36
330
1F
100
AcDbEntity
  8
DEFPOINTS
100
AcDbLine
 10
37.65934638931162
 20
7.690029988103622
 30
0.0
 11
44.72296552232174
 21
7.514480741889575
 31
0.0
  0
ARC
  5
C37
330
1F
100
AcDbEntity
  8
DEFPOINTS
100
AcDbCircle
 10
37.64692392896256
 20
7.190184329445996
 30
0.0
 40
0.5
100
AcDbArc
 50
88.57634441270233
 51
165.0000000132623
  0
LINE
  5
E53
330
1F
100
AcDbEntity
  8
0
100
AcDbLine
 10
33.30262207788052
 20
5.021879573461096
 30
0.0
 11
33.9635149267253
 21
5.021879573250359
 31
0.0
  0
LINE
  5
E54
330
1F
100
AcDbEntity
  8
0
100
AcDbLine
 10
35.69556573480501
 20
5.021879573250359
 30
0.0
 11
36.35645858361501
 21
5.021879573647439
 31
0.0
  0
LINE
  5
E55
330
1F
100
AcDbEntity
  8
0
100
AcDbLine
 10
48.87084250760501
 20
5.021879573250359
 30
0.0
 11
71.59835945160501
 21
5.021879573250359
 31
0.0
  0
VIEWPORT
  5
C30
330
1B
100
AcDbEntity
 67
     1
  8
0
100
AcDbViewport
 10
8.142717016024853
 20
5.721456694790698
 30
0.0
 40
23.22337631558431
 41
12.37110236220472
 68
     1
 69
     1
1001
ACAD
1000
MVIEW
1002
{
1070
    16
1010
0.0
1020
0.0
1030
0.0
1010
0.0
1020
0.0
1030
1.0
1040
0.0
1040
12.37110236220472
1040
8.142717016024853
1040
5.721456694790698
1040
50.0
1040
0.0
1040
0.0
1070
     0
1070
   100
1070
     1
1070
     1
1070
     0
1070
     0
1070
     0
1070
     0
1040
0.0
1040
0.0
1040
0.0
1040
10.0
1040
10.0
1040
10.0
1040
10.0
1070
     0
1002
{
1002
}
1002
}
  0
VIEWPORT
  5
C32
330
1B
100
AcDbEntity
 67
     1
  8
0
100
AcDbViewport
 10
171.1560380373479
 20
104.3109085892879
 30
0.0
 40
279.4000146865844
 41
167.6400049209594
 68
    -1
 69
     2
1001
ACAD
1000
MVIEW
1002
{
1070
    16
1010
0.0
1020
0.0
1030
0.0
1010
0.0
1020
0.0
1030
1.0
1040
0.0
1040
260.9583393309306
1040
84.7069317807726
1040
46.51591380262843
1040
50.0
1040
0.0
1040
0.0
1070
     0
1070
   100
1070
     1
1070
     1
1070
     0
1070
     0
1070
     0
1070
     0
1040
0.0
1040
0.0
1040
0.0
1040
1.0
1040
1.0
1040
0.0
1040
0.0
1070
     0
1002
{
1002
}
1002
}
  0
ENDSEC
  0
SECTION
  2
OBJECTS
  0
DICTIONARY
  5
C
330
0
100
AcDbDictionary
  3
ACAD_GROUP
350
D
  3
ACAD_LAYOUT
350
1A
  3
ACAD_MLINESTYLE
350
17
  3
ACAD_PLOTSETTINGS
350
19
  3
ACAD_PLOTSTYLENAME
350
E
  3
ACDBHEADERROUNDTRIPXREC
350
E95
  3
ACDBVARIABLEDICTIONARY
350
C2B
  3
ASE_INDEX_DICTIONARY
350
BEA
  0
DICTIONARY
  5
EB8
330
1F
100
AcDbDictionary
280
     1
  3
ACAD_LAYOUTSELFREF
360
EB9
  0
DICTIONARY
  5
EB6
330
1B
100
AcDbDictionary
280
     1
  3
ACAD_LAYOUTSELFREF
360
EB7
  0
DICTIONARY
  5
D
102
{ACAD_REACTORS
330
C
102
}
330
C
100
AcDbDictionary
  0
DICTIONARY
  5
1A
102
{ACAD_REACTORS
330
C
102
}
330
C
100
AcDbDictionary
  0
DICTIONARY
  5
17
102
{ACAD_REACTORS
330
C
102
}
330
C
100
AcDbDictionary
  3
STANDARD
350
18
  0
DICTIONARY
  5
19
102
{ACAD_REACTORS
330
C
102
}
330
C
100
AcDbDictionary
  0
ACDBDICTIONARYWDFLT
  5
E
102
{ACAD_REACTORS
330
C
102
}
330
C
100
AcDbDictionary
281
     1
  3
Normal
350
F
100
AcDbDictionaryWithDefault
340
F
  0
DICTIONARY
  5
E95
102
{ACAD_REACTORS
330
C
102
}
330
C
100
AcDbDictionary
  3
CEPSNTYPE
350
E9F
  3
DIMSTYLEDATA
350
EA3
  3
FINGERPRINTGUID
350
EA0
  3
HYPERLINKBASE
350
E98
  3
INSUNITS
350
E9E
  3
LAYOUTDICT
350
E9A
  3
LWETCUNION
350
E9D
  3
PLOTSETDICT
350
E9B
  3
PLOTSTYLNAMDICT
350
E9C
  3
PSVPSCALE
350
EA2
  3
PUCSBASE
350
EA6
  3
PUCSORGBACK
350
EAC
  3
PUCSORGBOTTOM
350
EA8
  3
PUCSORGFRONT
350
EAB
  3
PUCSORGLEFT
350
EA9
  3
PUCSORGRIGHT
350
EAA
  3
PUCSORGTOP
350
EA7
  3
PUCSORTHOREF
350
EA4
  3
PUCSORTHOVIEW
350
EA5
  3
STYLESHEET
350
E99
  3
TSTACKALIGN
350
E96
  3
TSTACKSIZE
350
E97
  3
UCSBASE
350
EAF
  3
UCSORGBACK
350
EB5
  3
UCSORGBOTTOM
350
EB1
  3
UCSORGFRONT
350
EB4
  3
UCSORGLEFT
350
EB2
  3
UCSORGRIGHT
350
EB3
  3
UCSORGTOP
350
EB0
  3
UCSORTHOREF
350
EAD
  3
UCSORTHOVIEW
350
EAE
  3
VERSIONGUID
350
EA1
  0
DICTIONARY
  5
C2B
102
{ACAD_REACTORS
330
C
102
}
330
C
100
AcDbDictionary
  3
SORTENTS
350
C2C
  0
DICTIONARY
  5
BEA
102
{ACAD_REACTORS
330
C
102
}
330
C
100
AcDbDictionary
  3
ASEBLOCKHIERARCHYINDEXRECORD
350
BEC
1001
DCO15
1040
1562496248.509
  0
XRECORD
  5
EB9
102
{ACAD_REACTORS
330
EB8
102
}
330
EB8
100
AcDbXrecord
340
1F
  0
XRECORD
  5
EB7
102
{ACAD_REACTORS
330
EB6
102
}
330
EB6
100
AcDbXrecord
340
1B
  0
MLINESTYLE
  5
18
102
{ACAD_REACTORS
330
17
102
}
330
17
100
AcDbMlineStyle
  2
STANDARD
 70
     0
  3

 62
   256
 51
90.0
 52
90.0
 71
     2
 49
0.5
 62
   256
  6
BYLAYER
 49
-0.5
 62
   256
  6
BYLAYER
  0
ACDBPLACEHOLDER
  5
F
102
{ACAD_REACTORS
330
E
102
}
330
0
100
AcDbPlaceHolder
280
     0
  0
XRECORD
  5
E9F
102
{ACAD_REACTORS
330
E95
102
}
330
E95
100
AcDbXrecord
 90
        0
  0
XRECORD
  5
EA3
102
{ACAD_REACTORS
330
E95
102
}
330
E95
100
AcDbXrecord
1000
DSTYLE
1002
{
1070
   341
340
233
1070
   342
340
233
1070
   343
340
233
1070
   344
340
233
1002
}
  0
XRECORD
  5
EA0
102
{ACAD_REACTORS
330
E95
102
}
330
E95
100
AcDbXrecord
  1

  0
XRECORD
  5
E98
102
{ACAD_REACTORS
330
E95
102
}
330
E95
100
AcDbXrecord
  1

  0
XRECORD
  5
E9E
102
{ACAD_REACTORS
330
E95
102
}
330
E95
100
AcDbXrecord
 90
        1
  0
XRECORD
  5
E9A
102
{ACAD_REACTORS
330
E95
102
}
330
E95
100
AcDbXrecord
340
1A
  0
XRECORD
  5
E9D
102
{ACAD_REACTORS
330
E95
102
}
330
E95
100
AcDbXrecord
 90
    10752
  0
XRECORD
  5
E9B
102
{ACAD_REACTORS
330
E95
102
}
330
E95
100
AcDbXrecord
340
19
  0
XRECORD
  5
E9C
102
{ACAD_REACTORS
330
E95
102
}
330
E95
100
AcDbXrecord
340
E
  0
XRECORD
  5
EA2
102
{ACAD_REACTORS
330
E95
102
}
330
E95
100
AcDbXrecord
 40
0.0
  0
XRECORD
  5
EA6
102
{ACAD_REACTORS
330
E95
102
}
330
E95
100
AcDbXrecord
340
0
  0
XRECORD
  5
EAC
102
{ACAD_REACTORS
330
E95
102
}
330
E95
100
AcDbXrecord
 10
0.0
 20
0.0
 30
0.0
  0
XRECORD
  5
EA8
102
{ACAD_REACTORS
330
E95
102
}
330
E95
100
AcDbXrecord
 10
0.0
 20
0.0
 30
0.0
  0
XRECORD
  5
EAB
102
{ACAD_REACTORS
330
E95
102
}
330
E95
100
AcDbXrecord
 10
0.0
 20
0.0
 30
0.0
  0
XRECORD
  5
EA9
102
{ACAD_REACTORS
330
E95
102
}
330
E95
100
AcDbXrecord
 10
0.0
 20
0.0
 30
0.0
  0
XRECORD
  5
EAA
102
{ACAD_REACTORS
330
E95
102
}
330
E95
100
AcDbXrecord
 10
0.0
 20
0.0
 30
0.0
  0
XRECORD
  5
EA7
102
{ACAD_REACTORS
330
E95
102
}
330
E95
100
AcDbXrecord
 10
0.0
 20
0.0
 30
0.0
  0
XRECORD
  5
EA4
102
{ACAD_REACTORS
330
E95
102
}
330
E95
100
AcDbXrecord
340
0
  0
XRECORD
  5
EA5
102
{ACAD_REACTORS
330
E95
102
}
330
E95
100
AcDbXrecord
 70
     0
  0
XRECORD
  5
E99
102
{ACAD_REACTORS
330
E95
102
}
330
E95
100
AcDbXrecord
  1

  0
XRECORD
  5
E96
102
{ACAD_REACTORS
330
E95
102
}
330
E95
100
AcDbXrecord
 90
        1
  0
XRECORD
  5
E97
102
{ACAD_REACTORS
330
E95
102
}
330
E95
100
AcDbXrecord
 90
       70
  0
XRECORD
  5
EAF
102
{ACAD_REACTORS
330
E95
102
}
330
E95
100
AcDbXrecord
340
0
  0
XRECORD
  5
EB5
102
{ACAD_REACTORS
330
E95
102
}
330
E95
100
AcDbXrecord
 10
0.0
 20
0.0
 30
0.0
  0
XRECORD
  5
EB1
102
{ACAD_REACTORS
330
E95
102
}
330
E95
100
AcDbXrecord
 10
0.0
 20
0.0
 30
0.0
  0
XRECORD
  5
EB4
102
{ACAD_REACTORS
330
E95
102
}
330
E95
100
AcDbXrecord
 10
0.0
 20
0.0
 30
0.0
  0
XRECORD
  5
EB2
102
{ACAD_REACTORS
330
E95
102
}
330
E95
100
AcDbXrecord
 10
0.0
 20
0.0
 30
0.0
  0
XRECORD
  5
EB3
102
{ACAD_REACTORS
330
E95
102
}
330
E95
100
AcDbXrecord
 10
0.0
 20
0.0
 30
0.0
  0
XRECORD
  5
EB0
102
{ACAD_REACTORS
330
E95
102
}
330
E95
100
AcDbXrecord
 10
0.0
 20
0.0
 30
0.0
  0
XRECORD
  5
EAD
102
{ACAD_REACTORS
330
E95
102
}
330
E95
100
AcDbXrecord
340
0
  0
XRECORD
  5
EAE
102
{ACAD_REACTORS
330
E95
102
}
330
E95
100
AcDbXrecord
 70
     0
  0
XRECORD
  5
EA1
102
{ACAD_REACTORS
330
E95
102
}
330
E95
100
AcDbXrecord
  1
{168531E5-9F74-4155-8743-6FF40D40A34D}
  0
DICTIONARYVAR
  5
C2C
102
{ACAD_REACTORS
330
C2B
102
}
330
C2B
100
DictionaryVariables
280
     0
  1
96
  0
XRECORD
  5
BEC
102
{ACAD_REACTORS
330
BEA
102
}
330
BEA
100
AcDbXrecord
330
C15
330
C16
330
C23
330
C24
  0
ENDSEC
  0
EOF
