  0
SECTION
  2
HEADER
  9
$ACADVER
  1
AC1014
  9
$ACADMAINTVER
 70
     9
  9
$DWGCODEPAGE
  3
ANSI_1252
  9
$INSBASE
 10
47.95454033000502
 20
95.58252980365038
 30
0.0
  9
$EXTMIN
 10
14.95454033000501
 20
-2.405107554331692
 30
0.0
  9
$EXTMAX
 10
163.373868618005
 20
115.9778623214883
 30
0.0
  9
$LIMMIN
 10
0.0
 20
0.0
  9
$LIMMAX
 10
17.0
 20
11.0
  9
$ORTHOMODE
 70
     1
  9
$REGENMODE
 70
     1
  9
$FILLMODE
 70
     1
  9
$QTEXTMODE
 70
     0
  9
$MIRRTEXT
 70
     1
  9
$DRAGMODE
 70
     2
  9
$LTSCALE
 40
0.9350000000000001
  9
$OSMODE
 70
  3071
  9
$ATTMODE
 70
     1
  9
$TEXTSIZE
 40
0.2
  9
$TRACEWID
 40
0.05
  9
$TEXTSTYLE
  7
STANDARD
  9
$CLAYER
  8
0
  9
$CELTYPE
  6
BYLAYER
  9
$CECOLOR
 62
   256
  9
$CELTSCALE
 40
1.0
  9
$DELOBJ
 70
     1
  9
$DISPSILH
 70
     0
  9
$DIMSCALE
 40
1.0
  9
$DIMASZ
 40
0.1875
  9
$DIMEXO
 40
0.0625
  9
$DIMDLI
 40
0.38
  9
$DIMRND
 40
0.0
  9
$DIMDLE
 40
0.0
  9
$DIMEXE
 40
0.18
  9
$DIMTP
 40
0.00001
  9
$DIMTM
 40
0.00001
  9
$DIMTXT
 40
0.125
  9
$DIMCEN
 40
0.09
  9
$DIMTSZ
 40
0.0
  9
$DIMTOL
 70
     0
  9
$DIMLIM
 70
     0
  9
$DIMTIH
 70
     1
  9
$DIMTOH
 70
     1
  9
$DIMSE1
 70
     0
  9
$DIMSE2
 70
     0
  9
$DIMTAD
 70
     0
  9
$DIMZIN
 70
     4
  9
$DIMBLK
  1
_FILLED
  9
$DIMASO
 70
     1
  9
$DIMSHO
 70
     1
  9
$DIMPOST
  1

  9
$DIMAPOST
  1

  9
$DIMALT
 70
     0
  9
$DIMALTD
 70
     2
  9
$DIMALTF
 40
25.4
  9
$DIMLFAC
 40
1.0
  9
$DIMTOFL
 70
     0
  9
$DIMTVP
 40
0.0
  9
$DIMTIX
 70
     0
  9
$DIMSOXD
 70
     0
  9
$DIMSAH
 70
     0
  9
$DIMBLK1
  1
_FILLED
  9
$DIMBLK2
  1
_FILLED
  9
$DIMSTYLE
  2
STANDARD
  9
$DIMCLRD
 70
     0
  9
$DIMCLRE
 70
     0
  9
$DIMCLRT
 70
     0
  9
$DIMTFAC
 40
1.0
  9
$DIMGAP
 40
0.09
  9
$DIMJUST
 70
     0
  9
$DIMSD1
 70
     0
  9
$DIMSD2
 70
     0
  9
$DIMTOLJ
 70
     1
  9
$DIMTZIN
 70
     4
  9
$DIMALTZ
 70
     0
  9
$DIMALTTZ
 70
     0
  9
$DIMFIT
 70
     3
  9
$DIMUPT
 70
     0
  9
$DIMUNIT
 70
     2
  9
$DIMDEC
 70
     5
  9
$DIMTDEC
 70
     5
  9
$DIMALTU
 70
     2
  9
$DIMALTTD
 70
     2
  9
$DIMTXSTY
  7
STANDARD
  9
$DIMAUNIT
 70
     0
  9
$LUNITS
 70
     2
  9
$LUPREC
 70
     4
  9
$SKETCHINC
 40
0.1
  9
$FILLETRAD
 40
0.5
  9
$AUNITS
 70
     0
  9
$AUPREC
 70
     0
  9
$MENU
  1
acad
  9
$ELEVATION
 40
0.0
  9
$PELEVATION
 40
0.0
  9
$THICKNESS
 40
0.0
  9
$LIMCHECK
 70
     0
  9
$BLIPMODE
 70
     0
  9
$CHAMFERA
 40
0.0
  9
$CHAMFERB
 40
0.0
  9
$CHAMFERC
 40
0.0
  9
$CHAMFERD
 40
0.0
  9
$SKPOLY
 70
     0
  9
$TDCREATE
 40
2453887.623736400
  9
$TDUPDATE
 40
2453887.679851944
  9
$TDINDWG
 40
0.0561197106
  9
$TDUSRTIMER
 40
0.0561197106
  9
$USRTIMER
 70
     1
  9
$ANGBASE
 50
0.0
  9
$ANGDIR
 70
     0
  9
$PDMODE
 70
     3
  9
$PDSIZE
 40
0.015625
  9
$PLINEWID
 40
0.0
  9
$COORDS
 70
     1
  9
$SPLFRAME
 70
     0
  9
$SPLINETYPE
 70
     6
  9
$SPLINESEGS
 70
     8
  9
$ATTDIA
 70
     0
  9
$ATTREQ
 70
     1
  9
$HANDLING
 70
-16383
  9
$HANDSEED
  5
F1E
  9
$SURFTAB1
 70
     6
  9
$SURFTAB2
 70
     6
  9
$SURFTYPE
 70
     6
  9
$SURFU
 70
     6
  9
$SURFV
 70
     6
  9
$UCSNAME
  2

  9
$UCSORG
 10
0.0
 20
0.0
 30
0.0
  9
$UCSXDIR
 10
1.0
 20
0.0
 30
0.0
  9
$UCSYDIR
 10
0.0
 20
1.0
 30
0.0
  9
$PUCSNAME
  2

  9
$PUCSORG
 10
0.0
 20
0.0
 30
0.0
  9
$PUCSXDIR
 10
1.0
 20
0.0
 30
0.0
  9
$PUCSYDIR
 10
0.0
 20
1.0
 30
0.0
  9
$USERI1
 70
     0
  9
$USERI2
 70
     0
  9
$USERI3
 70
     0
  9
$USERI4
 70
     0
  9
$USERI5
 70
     0
  9
$USERR1
 40
0.0
  9
$USERR2
 40
0.0
  9
$USERR3
 40
0.0
  9
$USERR4
 40
0.0
  9
$USERR5
 40
0.0
  9
$WORLDVIEW
 70
     1
  9
$SHADEDGE
 70
     3
  9
$SHADEDIF
 70
    70
  9
$TILEMODE
 70
     1
  9
$MAXACTVP
 70
    16
  9
$PINSBASE
 10
0.0
 20
0.0
 30
0.0
  9
$PLIMCHECK
 70
     0
  9
$PEXTMIN
 10
31.45603069405575
 20
20.49090612880826
 30
0.0
  9
$PEXTMAX
 10
310.8560453806402
 20
188.1309110497677
 30
0.0
  9
$PLIMMIN
 10
-6.643958934736053
 20
-3.639094438627948
  9
$PLIMMAX
 10
348.9560471687795
 20
212.2609147166454
  9
$UNITMODE
 70
     0
  9
$VISRETAIN
 70
     0
  9
$PLINEGEN
 70
     1
  9
$PSLTSCALE
 70
     0
  9
$TREEDEPTH
 70
  3020
  9
$PICKSTYLE
 70
     1
  9
$CMLSTYLE
  2
STANDARD
  9
$CMLJUST
 70
     0
  9
$CMLSCALE
 40
1.0
  9
$PROXYGRAPHICS
 70
     0
  9
$MEASUREMENT
 70
     0
  0
ENDSEC
  0
SECTION
  2
CLASSES
  0
CLASS
  1
ACDBDICTIONARYWDFLT
  2
AcDbDictionaryWithDefault
  3
AutoCAD 2000
 90
        0
280
     0
281
     0
  0
CLASS
  1
ACDBPLACEHOLDER
  2
AcDbPlaceHolder
  3
AutoCAD 2000
 90
        0
280
     0
281
     0
  0
CLASS
  1
LAYOUT
  2
AcDbLayout
  3
AutoCAD 2000
 90
        0
280
     0
281
     0
  0
CLASS
  1
LWPOLYLINE
  2
AcDbPolyline
  3
AutoCAD 2000
 90
        0
280
     0
281
     1
  0
CLASS
  1
IMAGE
  2
AcDbRasterImage
  3
ISM
 90
      127
280
     0
281
     1
  0
CLASS
  1
OLE2FRAME
  2
AcDbOle2Frame
  3
AutoCAD 2000
 90
        0
280
     0
281
     1
  0
CLASS
  1
HATCH
  2
AcDbHatch
  3
AutoCAD 2000
 90
        0
280
     0
281
     1
  0
CLASS
  1
DICTIONARYVAR
  2
AcDbDictionaryVar
  3
AutoCAD 2000
 90
        0
280
     0
281
     0
  0
CLASS
  1
RASTERVARIABLES
  2
AcDbRasterVariables
  3
ISM
 90
        0
280
     0
281
     0
  0
CLASS
  1
IMAGEDEF
  2
AcDbRasterImageDef
  3
ISM
 90
        0
280
     0
281
     0
  0
CLASS
  1
IMAGEDEF_REACTOR
  2
AcDbRasterImageDefReactor
  3
ISM
 90
        1
280
     0
281
     0
  0
CLASS
  1
IDBUFFER
  2
AcDbIdBuffer
  3
AutoCAD 2000
 90
        0
280
     0
281
     0
  0
CLASS
  1
SPATIAL_FILTER
  2
AcDbSpatialFilter
  3
AutoCAD 2000
 90
        0
280
     0
281
     0
  0
CLASS
  1
XRECORD
  2
AcDbXrecord
  3
AutoCAD 2000
 90
        0
280
     0
281
     0
  0
CLASS
  1
SORTENTSTABLE
  2
AcDbSortentsTable
  3
AutoCAD 2000
 90
        0
280
     0
281
     0
  0
CLASS
  1
LAYER_INDEX
  2
AcDbLayerIndex
  3
AutoCAD 2000
 90
        0
280
     0
281
     0
  0
CLASS
  1
SPATIAL_INDEX
  2
AcDbSpatialIndex
  3
AutoCAD 2000
 90
        0
280
     0
281
     0
  0
CLASS
  1
OBJECT_PTR
  2
CAseDLPNTableRecord
  3
ASE-LPNTableRecord
 90
        1
280
     0
281
     0
  0
CLASS
  1
PLOTSETTINGS
  2
AcDbPlotSettings
  3
AutoCAD 2000
 90
        0
280
     0
281
     0
  0
CLASS
  1
VBA_PROJECT
  2
AcDbVbaProject
  3
acadvba
 90
        0
280
     0
281
     0
  0
CLASS
  1
WIPEOUT
  2
AcDbWipeout
  3
WipeOut|AutoCAD Express Tool|expresstools@autodesk.com
 90
      127
280
     0
281
     1
  0
CLASS
  1
WIPEOUTVARIABLES
  2
AcDbWipeoutVariables
  3
WipeOut|AutoCAD Express Tool|expresstools@autodesk.com
 90
        0
280
     0
281
     0
  0
CLASS
  1
RTEXT
  2
RText
  3
RText|AutoCAD Express Tool|expresstools@autodesk.com
 90
        0
280
     0
281
     1
  0
CLASS
  1
ARCALIGNEDTEXT
  2
AcDbArcAlignedText
  3
ATEXT|AutoCAD Express Tool|expresstools@autodesk.com
 90
        0
280
     0
281
     1
  0
CLASS
  1
LONG_TRANSACTION
  2
AcDbLongTransaction
  3
AutoCAD 2000
 90
        0
280
     0
281
     0
  0
CLASS
  1
LWPOLYLINE
  2
AcDbPolyline
  3
AutoCAD 2000
 90
        0
280
     0
281
     1
  0
CLASS
  1
HATCH
  2
AcDbHatch
  3
AutoCAD 2000
 90
        0
280
     0
281
     1
  0
CLASS
  1
XRECORD
  2
AcDbXrecord
  3
AutoCAD 2000
 90
        0
280
     0
281
     0
  0
ENDSEC
  0
SECTION
  2
TABLES
  0
TABLE
  2
VPORT
  5
8
330
0
100
AcDbSymbolTable
 70
    17
  0
VPORT
  5
EF8
330
8
100
AcDbSymbolTableRecord
100
AcDbViewportTableRecord
  2
*ACTIVE
 70
     0
 10
0.0
 20
0.0
 11
1.0
 21
1.0
 12
156.5756725604466
 22
16.16486182181854
 13
0.0
 23
0.0
 14
1.0
 24
1.0
 15
0.0
 25
0.0
 16
0.0
 26
0.0
 36
1.0
 17
0.0
 27
0.0
 37
0.0
 40
49.12940599193635
 41
1.877227722772277
 42
50.0
 43
0.0
 44
0.0
 50
0.0
 51
0.0
 71
     0
 72
   100
 73
     1
 74
     1
 75
     0
 76
     0
 77
     0
 78
     0
  0
ENDTAB
  0
TABLE
  2
LTYPE
  5
5
330
0
100
AcDbSymbolTable
 70
     7
  0
LTYPE
  5
14
330
5
100
AcDbSymbolTableRecord
100
AcDbLinetypeTableRecord
  2
BYBLOCK
 70
     0
  3

 72
    65
 73
     0
 40
0.0
  0
LTYPE
  5
15
330
5
100
AcDbSymbolTableRecord
100
AcDbLinetypeTableRecord
  2
BYLAYER
 70
     0
  3

 72
    65
 73
     0
 40
0.0
  0
LTYPE
  5
16
330
5
100
AcDbSymbolTableRecord
100
AcDbLinetypeTableRecord
  2
CONTINUOUS
 70
     0
  3
Solid line
 72
    65
 73
     0
 40
0.0
  0
LTYPE
  5
1F5
330
5
100
AcDbSymbolTableRecord
100
AcDbLinetypeTableRecord
  2
CENTER
 70
     0
  3
____ _ ____ _ ____ _ ____ _ ____ _ ____ _ ____
 72
    65
 73
     4
 40
0.6
 49
0.375
 74
     0
 49
-0.075
 74
     0
 49
0.075
 74
     0
 49
-0.075
 74
     0
  0
LTYPE
  5
1F6
330
5
100
AcDbSymbolTableRecord
100
AcDbLinetypeTableRecord
  2
HIDDEN
 70
     0
  3
- - - - - - - - - - - - - - - - - - - -
 72
    65
 73
     2
 40
0.2
 49
0.1
 74
     0
 49
-0.1
 74
     0
  0
LTYPE
  5
1F9
330
5
100
AcDbSymbolTableRecord
100
AcDbLinetypeTableRecord
  2
DASHED
 70
     0
  3
- - - - - - - - - - - - - - - - - - - -
 72
    65
 73
     2
 40
0.2
 49
0.1
 74
     0
 49
-0.1
 74
     0
  0
LTYPE
  5
DA6
330
5
100
AcDbSymbolTableRecord
100
AcDbLinetypeTableRecord
  2
CENTERX2
 70
     0
  3
Center (2x) ________  __  ________  __  _____
 72
    65
 73
     4
 40
4.0
 49
2.5
 74
     0
 49
-0.5
 74
     0
 49
0.5
 74
     0
 49
-0.5
 74
     0
  0
ENDTAB
  0
TABLE
  2
LAYER
  5
2
330
0
100
AcDbSymbolTable
 70
    53
  0
LAYER
  5
10
330
2
100
AcDbSymbolTableRecord
100
AcDbLayerTableRecord
  2
0
 70
     0
 62
     7
  6
CONTINUOUS
  0
LAYER
  5
C0F
330
2
100
AcDbSymbolTableRecord
100
AcDbLayerTableRecord
  2
DEFPOINTS
 70
     0
 62
     7
  6
CONTINUOUS
  0
LAYER
  5
DA7
330
2
100
AcDbSymbolTableRecord
100
AcDbLayerTableRecord
  2
CENTER
 70
     0
 62
     1
  6
CENTERX2
  0
ENDTAB
  0
TABLE
  2
STYLE
  5
3
330
0
100
AcDbSymbolTable
 70
     7
  0
STYLE
  5
11
330
3
100
AcDbSymbolTableRecord
100
AcDbTextStyleTableRecord
  2
STANDARD
 70
     0
 40
0.0
 41
0.8
 50
0.0
 71
     0
 42
0.2
  3
txt
  4

  0
STYLE
  5
DA5
330
3
100
AcDbSymbolTableRecord
100
AcDbTextStyleTableRecord
  2

 70
     1
 40
0.0
 41
1.0
 50
0.0
 71
     0
 42
0.2
  3
ltypeshp.shx
  4

  0
ENDTAB
  0
TABLE
  2
VIEW
  5
6
330
0
100
AcDbSymbolTable
 70
     0
  0
ENDTAB
  0
TABLE
  2
UCS
  5
7
330
0
100
AcDbSymbolTable
 70
     0
  0
ENDTAB
  0
TABLE
  2
APPID
  5
9
330
0
100
AcDbSymbolTable
 70
     2
  0
APPID
  5
232
330
9
100
AcDbSymbolTableRecord
100
AcDbRegAppTableRecord
  2
ACAD
 70
     0
  0
APPID
  5
BEB
330
9
100
AcDbSymbolTableRecord
100
AcDbRegAppTableRecord
  2
DCO15
 70
     0
  0
ENDTAB
  0
TABLE
  2
DIMSTYLE
  5
A
330
0
100
AcDbSymbolTable
 70
     5
  0
DIMSTYLE
105
259
330
A
100
AcDbSymbolTableRecord
100
AcDbDimStyleTableRecord
  2
STANDARD
 70
     0
  3

  4

  5
_FILLED
  6
_FILLED
  7
_FILLED
 40
1.0
 41
0.1875
 42
0.0625
 43
0.38
 44
0.18
 45
0.0
 46
0.0
 47
0.00001
 48
0.00001
140
0.125
141
0.09
142
0.0
143
25.4
144
1.0
145
0.0
146
1.0
147
0.09
 71
     0
 72
     0
 73
     1
 74
     1
 75
     0
 76
     0
 77
     0
 78
     4
170
     0
171
     2
172
     0
173
     0
174
     0
175
     0
176
     0
177
     0
178
     0
270
     2
271
     5
272
     5
273
     2
274
     2
340
11
275
     0
280
     0
281
     0
282
     0
283
     1
284
     4
285
     0
286
     0
287
     3
288
     0
  0
ENDTAB
  0
TABLE
  2
BLOCK_RECORD
  5
1
330
0
100
AcDbSymbolTable
 70
    40
  0
BLOCK_RECORD
  5
1F
102
{ACAD_XDICTIONARY
360
F1C
102
}
330
1
100
AcDbSymbolTableRecord
100
AcDbBlockTableRecord
  2
*MODEL_SPACE
  0
BLOCK_RECORD
  5
1B
102
{ACAD_XDICTIONARY
360
F1A
102
}
330
1
100
AcDbSymbolTableRecord
100
AcDbBlockTableRecord
  2
*PAPER_SPACE
  0
BLOCK_RECORD
  5
233
330
1
100
AcDbSymbolTableRecord
100
AcDbBlockTableRecord
  2
_FILLED
  0
ENDTAB
  0
ENDSEC
  0
SECTION
  2
BLOCKS
  0
BLOCK
  5
20
330
1F
100
AcDbEntity
  8
0
100
AcDbBlockBegin
  2
*MODEL_SPACE
 70
     0
 10
0.0
 20
0.0
 30
0.0
  3
*MODEL_SPACE
  1

  0
ENDBLK
  5
21
330
1F
100
AcDbEntity
  8
0
100
AcDbBlockEnd
  0
BLOCK
  5
1C
330
1B
100
AcDbEntity
 67
     1
  8
0
100
AcDbBlockBegin
  2
*PAPER_SPACE
 70
     0
 10
0.0
 20
0.0
 30
0.0
  3
*PAPER_SPACE
  1

  0
ENDBLK
  5
1D
330
1B
100
AcDbEntity
 67
     1
  8
0
100
AcDbBlockEnd
  0
BLOCK
  5
49B
330
233
100
AcDbEntity
  8
0
100
AcDbBlockBegin
  2
_FILLED
 70
     0
 10
0.0
 20
0.0
 30
0.0
  3
_FILLED
  1

  0
SOLID
  5
49C
330
233
100
AcDbEntity
  8
0
  6
BYBLOCK
 62
     0
100
AcDbTrace
 10
0.0
 20
0.0
 30
0.0
 11
-1.0
 21
0.1666666667
 31
0.0
 12
-1.0
 22
-0.1666666667
 32
0.0
 13
-1.0
 23
-0.1666666667
 33
0.0
  0
ENDBLK
  5
49D
330
233
100
AcDbEntity
  8
0
  6
BYBLOCK
 62
     0
100
AcDbBlockEnd
  0
ENDSEC
  0
SECTION
  2
ENTITIES
  0
LINE
  5
568
330
1F
100
AcDbEntity
  8
0
  6
DASHED
 62
     8
100
AcDbLine
 10
139.901065717205
 20
8.019489086850363
 30
0.0
 11
139.9097119316049
 21
8.021915808450359
 31
0.0
  0
LINE
  5
56A
330
1F
100
AcDbEntity
  8
0
  6
DASHED
 62
     8
100
AcDbLine
 10
139.8924281908049
 20
8.017112584450359
 30
0.0
 11
139.901065717205
 21
8.019489086850363
 31
0.0
  0
LINE
  5
56B
330
1F
100
AcDbEntity
  8
0
  6
DASHED
 62
     8
100
AcDbLine
 10
139.8837992980049
 20
8.014786158850363
 30
0.0
 11
139.8924281908049
 21
8.017112584450359
 31
0.0
  0
LINE
  5
56C
330
1F
100
AcDbEntity
  8
0
  6
DASHED
 62
     8
100
AcDbLine
 10
139.875178971605
 20
8.012509622850359
 30
0.0
 11
139.8837992980049
 21
8.014786158850363
 31
0.0
  0
LINE
  5
56D
330
1F
100
AcDbEntity
  8
0
  6
DASHED
 62
     8
100
AcDbLine
 10
139.866567138005
 20
8.010282766850359
 30
0.0
 11
139.875178971605
 21
8.012509622850359
 31
0.0
  0
LINE
  5
56E
330
1F
100
AcDbEntity
  8
0
  6
DASHED
 62
     8
100
AcDbLine
 10
139.8579637236049
 20
8.00810538445036
 30
0.0
 11
139.866567138005
 21
8.010282766850359
 31
0.0
  0
LINE
  5
56F
330
1F
100
AcDbEntity
  8
0
  6
DASHED
 62
     8
100
AcDbLine
 10
139.849368613205
 20
8.00597728685036
 30
0.0
 11
139.8579637236049
 21
8.00810538445036
 31
0.0
  0
LINE
  5
570
330
1F
100
AcDbEntity
  8
0
  6
DASHED
 62
     8
100
AcDbLine
 10
139.8407816820049
 20
8.003898293250358
 30
0.0
 11
139.849368613205
 21
8.00597728685036
 31
0.0
  0
LINE
  5
571
330
1F
100
AcDbEntity
  8
0
  6
DASHED
 62
     8
100
AcDbLine
 10
139.832202806805
 20
8.001868221250362
 30
0.0
 11
139.8407816820049
 21
8.003898293250358
 31
0.0
  0
LINE
  5
573
330
1F
100
AcDbEntity
  8
0
  6
DASHED
 62
     8
100
AcDbLine
 10
139.823631846805
 20
7.999886901250363
 30
0.0
 11
139.832202806805
 21
8.001868221250362
 31
0.0
  0
LINE
  5
574
330
1F
100
AcDbEntity
  8
0
  6
DASHED
 62
     8
100
AcDbLine
 10
139.815068584405
 20
7.997954187650364
 30
0.0
 11
139.823631846805
 21
7.999886901250363
 31
0.0
  0
LINE
  5
575
330
1F
100
AcDbEntity
  8
0
  6
DASHED
 62
     8
100
AcDbLine
 10
139.8065128084049
 20
7.99606992845036
 30
0.0
 11
139.815068584405
 21
7.997954187650364
 31
0.0
  0
LINE
  5
577
330
1F
100
AcDbEntity
  8
0
  6
DASHED
 62
     8
100
AcDbLine
 10
139.7979643412049
 20
7.994233973250359
 30
0.0
 11
139.8065128084049
 21
7.99606992845036
 31
0.0
  0
LINE
  5
579
330
1F
100
AcDbEntity
  8
0
  6
DASHED
 62
     8
100
AcDbLine
 10
139.789422923605
 20
7.992446189250358
 30
0.0
 11
139.7979643412049
 21
7.994233973250359
 31
0.0
  0
LINE
  5
57A
330
1F
100
AcDbEntity
  8
0
  6
DASHED
 62
     8
100
AcDbLine
 10
139.780888227605
 20
7.990706456450361
 30
0.0
 11
139.789422923605
 21
7.992446189250358
 31
0.0
  0
LINE
  5
57B
330
1F
100
AcDbEntity
  8
0
  6
DASHED
 62
     8
100
AcDbLine
 10
139.772359931605
 20
7.989014654850357
 30
0.0
 11
139.780888227605
 21
7.990706456450361
 31
0.0
  0
LINE
  5
57C
330
1F
100
AcDbEntity
  8
0
  6
DASHED
 62
     8
100
AcDbLine
 10
139.763837646805
 20
7.98737067725036
 30
0.0
 11
139.772359931605
 21
7.989014654850357
 31
0.0
  0
LINE
  5
57D
330
1F
100
AcDbEntity
  8
0
  6
DASHED
 62
     8
100
AcDbLine
 10
139.755320859605
 20
7.985774376450358
 30
0.0
 11
139.763837646805
 21
7.98737067725036
 31
0.0
  0
LINE
  5
57F
330
1F
100
AcDbEntity
  8
0
  6
DASHED
 62
     8
100
AcDbLine
 10
139.746809038805
 20
7.984225515650358
 30
0.0
 11
139.755320859605
 21
7.985774376450358
 31
0.0
  0
LINE
  5
582
330
1F
100
AcDbEntity
  8
0
  6
DASHED
 62
     8
100
AcDbLine
 10
139.738301565205
 20
7.982723872450364
 30
0.0
 11
139.746809038805
 21
7.984225515650358
 31
0.0
  0
LINE
  5
583
330
1F
100
AcDbEntity
  8
0
  6
DASHED
 62
     8
100
AcDbLine
 10
139.729797646805
 20
7.981269267650361
 30
0.0
 11
139.738301565205
 21
7.982723872450364
 31
0.0
  0
LINE
  5
584
330
1F
100
AcDbEntity
  8
0
  6
DASHED
 62
     8
100
AcDbLine
 10
139.7212964740049
 20
7.979861518850363
 30
0.0
 11
139.729797646805
 21
7.981269267650361
 31
0.0
  0
LINE
  5
585
330
1F
100
AcDbEntity
  8
0
  6
DASHED
 62
     8
100
AcDbLine
 10
139.712797038805
 20
7.978500478850364
 30
0.0
 11
139.7212964740049
 21
7.979861518850363
 31
0.0
  0
LINE
  5
589
330
1F
100
AcDbEntity
  8
0
  6
DASHED
 62
     8
100
AcDbLine
 10
139.704298138005
 20
7.977186021250361
 30
0.0
 11
139.712797038805
 21
7.978500478850364
 31
0.0
  0
LINE
  5
58A
330
1F
100
AcDbEntity
  8
0
  6
DASHED
 62
     8
100
AcDbLine
 10
139.6957984724049
 20
7.975918019650357
 30
0.0
 11
139.704298138005
 21
7.977186021250361
 31
0.0
  0
LINE
  5
58B
330
1F
100
AcDbEntity
  8
0
  6
DASHED
 62
     8
100
AcDbLine
 10
139.687296350805
 20
7.974696416450363
 30
0.0
 11
139.6957984724049
 21
7.975918019650357
 31
0.0
  0
LINE
  5
58C
330
1F
100
AcDbEntity
  8
0
  6
DASHED
 62
     8
100
AcDbLine
 10
139.678789944405
 20
7.973521176450361
 30
0.0
 11
139.687296350805
 21
7.974696416450363
 31
0.0
  0
LINE
  5
58E
330
1F
100
AcDbEntity
  8
0
  6
DASHED
 62
     8
100
AcDbLine
 10
139.670276922005
 20
7.972392334850361
 30
0.0
 11
139.678789944405
 21
7.973521176450361
 31
0.0
  0
LINE
  5
58F
330
1F
100
AcDbEntity
  8
0
  6
DASHED
 62
     8
100
AcDbLine
 10
139.661754595605
 20
7.97130993165036
 30
0.0
 11
139.670276922005
 21
7.972392334850361
 31
0.0
  0
LINE
  5
591
330
1F
100
AcDbEntity
  8
0
  6
DASHED
 62
     8
100
AcDbLine
 10
139.653219589205
 20
7.970273984450358
 30
0.0
 11
139.661754595605
 21
7.97130993165036
 31
0.0
  0
LINE
  5
592
330
1F
100
AcDbEntity
  8
0
  6
DASHED
 62
     8
100
AcDbLine
 10
139.644667850005
 20
7.96928437485036
 30
0.0
 11
139.653219589205
 21
7.970273984450358
 31
0.0
  0
LINE
  5
593
330
1F
100
AcDbEntity
  8
0
  6
DASHED
 62
     8
100
AcDbLine
 10
139.6360942340049
 20
7.968340691650361
 30
0.0
 11
139.644667850005
 21
7.96928437485036
 31
0.0
  0
LINE
  5
594
330
1F
100
AcDbEntity
  8
0
  6
DASHED
 62
     8
100
AcDbLine
 10
139.627492547605
 20
7.967441539650359
 30
0.0
 11
139.6360942340049
 21
7.968340691650361
 31
0.0
  0
LINE
  5
596
330
1F
100
AcDbEntity
  8
0
  6
DASHED
 62
     8
100
AcDbLine
 10
139.6188548276049
 20
7.96658580045036
 30
0.0
 11
139.627492547605
 21
7.967441539650359
 31
0.0
  0
LINE
  5
597
330
1F
100
AcDbEntity
  8
0
  6
DASHED
 62
     8
100
AcDbLine
 10
139.610171307605
 20
7.965773029250364
 30
0.0
 11
139.6188548276049
 21
7.96658580045036
 31
0.0
  0
LINE
  5
598
330
1F
100
AcDbEntity
  8
0
  6
DASHED
 62
     8
100
AcDbLine
 10
139.601429070805
 20
7.965003141250363
 30
0.0
 11
139.610171307605
 21
7.965773029250364
 31
0.0
  0
LINE
  5
599
330
1F
100
AcDbEntity
  8
0
  6
DASHED
 62
     8
100
AcDbLine
 10
139.592611091605
 20
7.964276173250361
 30
0.0
 11
139.601429070805
 21
7.965003141250363
 31
0.0
  0
LWPOLYLINE
  5
59A
330
1F
100
AcDbEntity
  8
0
  6
DASHED
 62
     8
100
AcDbPolyline
 90
        3
 70
     0
 43
0.0
 10
139.579190408405
 20
7.963266245250359
 10
139.583694810005
 20
7.96359215405036
 10
139.592611091605
 20
7.964276173250361
  0
LWPOLYLINE
  5
5A1
330
1F
100
AcDbEntity
  8
0
  6
CONTINUOUS
 62
     7
100
AcDbPolyline
 90
       23
 70
     0
 43
0.0
 10
134.010788347605
 20
20.40881028685036
 10
134.063920026005
 20
20.42376176845036
 10
134.117500840405
 20
20.43705395885036
 10
134.178768797205
 20
20.45055095405036
 10
134.240327917205
 20
20.46263712205036
 10
134.308293880405
 20
20.47461446285036
 10
134.3764531508049
 20
20.48544460845036
 10
134.450296760405
 20
20.49609160525036
 10
134.524270237205
 20
20.50579250445036
 10
134.6035396260049
 20
20.51527521645036
 10
134.682901163605
 20
20.52395525485036
 10
134.767213546005
 20
20.53241444205036
 10
134.8515919332049
 20
20.54018689805035
 10
135.029862070805
 20
20.55467554925036
 10
135.2174637828049
 20
20.56760216365036
 10
135.4140611844049
 20
20.57907139565036
 10
135.6210688132049
 20
20.58925835405035
 10
135.847057883605
 20
20.59859777325036
 10
136.100986757205
 20
20.60734488365036
 10
136.385712171605
 20
20.61544410125036
 10
136.7033971364049
 20
20.62281825485035
 10
137.055231214805
 20
20.62930905005035
 10
137.442747059605
 20
20.63474851085036
  0
LINE
  5
5A7
330
1F
100
AcDbEntity
  8
0
  6
DASHED
 62
     8
100
AcDbLine
 10
139.570063912405
 20
7.96264537325036
 30
0.0
 11
139.579190408405
 21
7.963266245250359
 31
0.0
  0
LWPOLYLINE
  5
5AE
330
1F
100
AcDbEntity
  8
0
  6
DASHED
 62
     8
100
AcDbPolyline
 90
        3
 70
     0
 43
0.0
 10
139.555972122005
 20
7.961793022850358
 10
139.5607346100049
 20
7.96206201165036
 10
139.570063912405
 20
7.96264537325036
  0
LINE
  5
5B5
330
1F
100
AcDbEntity
  8
0
  6
DASHED
 62
     8
100
AcDbLine
 10
139.541118410005
 20
7.961056038850358
 30
0.0
 11
139.555972122005
 21
7.961793022850358
 31
0.0
  0
LWPOLYLINE
  5
5C6
330
1F
100
AcDbEntity
  8
0
  6
DASHED
 62
     8
100
AcDbPolyline
 90
        4
 70
     0
 43
0.0
 10
138.7081446964049
 20
7.944680859650361
 10
138.940290408405
 20
7.949603835650364
 10
139.2008417780049
 20
7.954588627650359
 10
139.498274608405
 20
7.95971399085036
  0
LWPOLYLINE
  5
5C9
330
1F
100
AcDbEntity
  8
0
  6
DASHED
 62
     8
100
AcDbPolyline
 90
        8
 70
     0
 43
0.0
 10
145.373092600405
 20
8.002514744450358
 10
144.361190346005
 20
7.999397485250362
 10
143.239143085205
 20
7.994194629250358
 10
142.1484590340049
 20
7.987031877250359
 10
141.133216776405
 20
7.978431782850364
 10
140.243808330005
 20
7.969110227650361
 10
139.874392230805
 20
7.965480333250361
 10
139.505007288405
 20
7.95990463085036
  0
LWPOLYLINE
  5
5CA
330
1F
100
AcDbEntity
  8
0
  6
DASHED
 62
     8
100
AcDbPolyline
 90
       10
 70
     0
 43
0.0
 10
145.373868618005
 20
7.570861526850357
 10
144.317119549205
 20
7.570324680450362
 10
143.267892293205
 20
7.568721966850361
 10
142.2575225540049
 20
7.566149826050363
 10
141.333608610005
 20
7.56288426605036
 10
140.5068362532049
 20
7.559189294850362
 10
139.7574244324049
 20
7.555176749250364
 10
139.066621402005
 20
7.550886944450361
 10
138.422551187605
 20
7.54634484845036
 10
137.814852678805
 20
7.541545995650359
  0
LWPOLYLINE
  5
5F5
330
1F
100
AcDbEntity
  8
0
  6
DASHED
 62
     8
100
AcDbPolyline
 90
       60
 70
     0
 43
0.0
 10
145.373868618005
 20
21.56418261485036
 10
145.3210266868049
 20
21.55895968845035
 10
145.268410034005
 20
21.55176165805035
 10
145.216901162005
 20
21.54270696845036
 10
145.165780078805
 20
21.53168197005036
 10
145.115505474005
 20
21.51878163085036
 10
145.065768581205
 20
21.50393952205035
 10
145.016911717205
 20
21.48726239245036
 10
144.968749694805
 20
21.46867532365035
 10
144.921517019605
 20
21.44824798445036
 10
144.8751414148049
 20
21.42594328525036
 10
144.8288859220049
 20
21.40133710125036
 10
144.7836642228049
 20
21.37487735405036
 10
144.738284338005
 20
21.34579266765036
 10
144.694126326805
 20
21.31488390445036
 10
144.650155486805
 20
21.28134438925036
 10
144.607600413205
 20
21.24602543405035
 10
144.565945691605
 20
21.20845366765036
 10
144.525880043605
 20
21.16919045645035
 10
144.487775099605
 20
21.12862189805036
 10
144.451422522005
 20
21.08647846765035
 10
144.4185092084049
 20
21.04486417165035
 10
144.387395586005
 20
21.00188602925036
 10
144.360889992405
 20
20.96182445325035
 10
144.3361841492049
 20
20.92063257165035
 10
144.316468166805
 20
20.88405820685036
 10
144.298516080405
 20
20.84658977485035
 10
144.283708397205
 20
20.81125089645035
 10
144.270672504405
 20
20.77522321165036
 10
144.258695910805
 20
20.73597844525036
 10
144.248548886805
 20
20.69621546125036
 10
144.238862538005
 20
20.65051987245035
 10
144.230775194005
 20
20.60451321325036
 10
144.216706506005
 20
20.50053831245036
 10
144.205222741205
 20
20.38509333805035
 10
144.194539781205
 20
20.25876104845035
 10
144.183664723605
 20
20.12125577645036
 10
144.172401018005
 20
19.97169722605035
 10
144.160425030805
 20
19.80899608685036
 10
144.147219146005
 20
19.63182051245036
 10
144.131981882005
 20
19.43844877165036
 10
144.113651838805
 20
19.22688589165036
 10
144.091416734805
 20
18.99506457645036
 10
144.064458915605
 20
18.74069634125036
 10
144.031771221205
 20
18.46113994445035
 10
143.992160875605
 20
18.15340423245036
 10
143.944268888405
 20
17.81353458765035
 10
143.886115550805
 20
17.43509267085036
 10
143.815002061205
 20
17.01024727725036
 10
143.774516618005
 20
16.78318717005036
 10
143.732406944405
 20
16.55642253165036
 10
143.647309248405
 20
16.12261703885036
 10
143.5670657668049
 20
15.73861079725036
 10
143.492220066005
 20
15.39884807245036
 10
143.421732008405
 20
15.09277915245036
 10
143.356246018005
 20
14.81909720045035
 10
143.295931478805
 20
14.57534316365036
 10
143.238948051605
 20
14.35190093965036
 10
143.1825498756049
 20
14.13692804045036
 10
143.124314592405
 20
13.92130176525036
  0
LWPOLYLINE
  5
607
330
1F
100
AcDbEntity
  8
0
  6
CONTINUOUS
 62
     7
100
AcDbPolyline
 90
       58
 70
     0
 43
0.0
 10
145.373868618005
 20
21.38226744845036
 10
145.3417372468049
 20
21.38269798445036
 10
145.309623166805
 20
21.38398903085036
 10
145.2775536132049
 20
21.38613974925036
 10
145.245341038805
 20
21.38917204045036
 10
145.213223477205
 20
21.39307206445035
 10
145.1812232164049
 20
21.39783718765035
 10
145.1491814580049
 20
21.40349904045036
 10
145.117304762005
 20
21.41002872525036
 10
145.0856170084049
 20
21.41742174925036
 10
145.053894402005
 20
21.42574184365036
 10
145.022411702805
 20
21.43492790925036
 10
144.9911926228049
 20
21.44497345645036
 10
144.960135237205
 20
21.45591788685035
 10
144.929391109205
 20
21.46771382605036
 10
144.898983819605
 20
21.48035281325036
 10
144.8688334612049
 20
21.49387414925036
 10
144.839069154005
 20
21.50822539245036
 10
144.809714034005
 20
21.52339607725036
 10
144.7807589268049
 20
21.53939378605036
 10
144.7522595076049
 20
21.55618988205036
 10
144.724238176405
 20
21.57377196205036
 10
144.6967720692049
 20
21.59208957805036
 10
144.669825691605
 20
21.61116350285035
 10
144.643420298005
 20
21.63097957805036
 10
144.6175820676049
 20
21.65151916685036
 10
144.5923259764049
 20
21.67277050445036
 10
144.567672146005
 20
21.69471764045036
 10
144.543693749205
 20
21.71729276205036
 10
144.520353603605
 20
21.74052715725036
 10
144.497670371605
 20
21.76440330605036
 10
144.475646632405
 20
21.78892155405036
 10
144.454316717205
 20
21.81404575405036
 10
144.433697883605
 20
21.83975671565036
 10
144.413836938005
 20
21.86599443405036
 10
144.3947176516049
 20
21.89277741165036
 10
144.376355571605
 20
21.92008507245036
 10
144.3587820404049
 20
21.94787035565036
 10
144.341993558805
 20
21.97613690925036
 10
144.326003874005
 20
22.00486284685035
 10
144.3108943716049
 20
22.03389091565036
 10
144.296601627605
 20
22.06332969005035
 10
144.2831373172049
 20
22.09315640045036
 10
144.270626466005
 20
22.12306528685036
 10
144.258949558805
 20
22.15330944525036
 10
144.248116008405
 20
22.18386575245035
 10
144.238211939605
 20
22.21446117005036
 10
144.2291541652049
 20
22.24531771405036
 10
144.2209499092049
 20
22.27641212205035
 10
144.2136745652049
 20
22.30740986765036
 10
144.207248029205
 20
22.33859448685036
 10
144.201675338005
 20
22.36994248205036
 10
144.196989846805
 20
22.40121959245036
 10
144.193154758805
 20
22.43261270605036
 10
144.190173038805
 20
22.46409981485036
 10
144.188060109205
 20
22.49542058925035
 10
144.186791650005
 20
22.52678536365036
 10
144.186368618005
 20
22.55816722765036
  0
LWPOLYLINE
  5
63E
330
1F
100
AcDbEntity
  8
0
  6
DASHED
 62
     8
100
AcDbPolyline
 90
       35
 70
     0
 43
0.0
 10
143.306684758805
 20
7.997084094850357
 10
143.333685920405
 20
7.99215594765036
 10
143.358681906005
 20
7.99057599885036
 10
143.3817757284049
 20
7.992083166850363
 10
143.4030704036049
 20
7.996416373250362
 10
143.422668944405
 20
8.003314538050361
 10
143.440674363605
 20
8.012516579650359
 10
143.457189677205
 20
8.023761418050362
 10
143.4723178996049
 20
8.036787976450362
 10
143.4861620420049
 20
8.051335171650357
 10
143.498825122005
 20
8.067141925250361
 10
143.512502699605
 20
8.087239072450358
 10
143.524826315605
 20
8.108310758850358
 10
143.542235067605
 20
8.143442326850362
 10
143.557119664405
 20
8.179692419650358
 10
143.570016835605
 20
8.216794349250363
 10
143.581463314005
 20
8.254481427650361
 10
143.591995829205
 20
8.292486966850361
 10
143.620052710805
 20
8.40237051405036
 10
143.645480026005
 20
8.512617557250358
 10
143.6687783444049
 20
8.623161992450363
 10
143.690448227605
 20
8.733937715650363
 10
143.710990243605
 20
8.844878621250359
 10
143.7309049572049
 20
8.95591860365036
 10
143.7506929348049
 20
9.066991558850361
 10
143.8144954820049
 20
9.414442342850364
 10
143.8802929396049
 20
9.761755667650362
 10
143.946419101205
 20
10.10911855565036
 10
144.026878994005
 20
10.54023490125035
 10
144.105039027605
 20
10.97173909965036
 10
144.180656771605
 20
11.40365506925036
 10
144.253489790805
 20
11.83600673005036
 10
144.323295656405
 20
12.26881800045036
 10
144.389831936405
 20
12.70211279725035
 10
144.452856198805
 20
13.13591504045036
  0
LWPOLYLINE
  5
650
330
1F
100
AcDbEntity
  8
0
  6
DASHED
 62
     8
100
AcDbPolyline
 90
       61
 70
     0
 43
0.0
 10
137.814852678805
 20
7.541545995650359
 10
137.7518132436049
 20
7.558936672450364
 10
137.688625179605
 20
7.575785818050363
 10
137.625324978005
 20
7.592253707650364
 10
137.537858141205
 20
7.614658450050363
 10
137.450454157205
 20
7.637093261250363
 10
137.375073986005
 20
7.656832947650357
 10
137.299670851605
 20
7.677112250050363
 10
137.269999696405
 20
7.68530625805036
 10
137.240443901205
 20
7.69382835885036
 10
137.211157072405
 20
7.702895370050363
 10
137.182292806805
 20
7.712724112450359
 10
137.156211187605
 20
7.722550917250359
 10
137.130209267605
 20
7.733055938050362
 10
137.103881181205
 20
7.744092722050361
 10
137.097343704405
 20
7.746888803650364
 10
137.090884842005
 20
7.749840362050363
 10
137.084627312405
 20
7.753079650050359
 10
137.078693838805
 20
7.75673893005036
 10
137.0732071380049
 20
7.760950458050359
 10
137.068289934805
 20
7.765846491650364
 10
137.064064949205
 20
7.771559291650362
 10
137.061573826005
 20
7.776138523650359
 10
137.059645674005
 20
7.78100761965036
 10
137.0584336820049
 20
7.785979242050359
 10
137.0580910388049
 20
7.790866050050361
 10
137.058770936405
 20
7.795480706050362
 10
137.060362154005
 20
7.799312346050363
 10
137.0627780740049
 20
7.802798035650361
 10
137.0658710916049
 20
7.805971811650358
 10
137.069493606805
 20
7.808867714050364
 10
137.073498013205
 20
7.811519782850361
 10
137.077736709205
 20
7.813962054850364
 10
137.082062091605
 20
7.816228573250363
 10
137.093918162005
 20
7.821828138050364
 10
137.105484395605
 20
7.826540874050358
 10
137.116946030805
 20
7.83058514445036
 10
137.128488307605
 20
7.83417932045036
 10
137.149776997205
 20
7.84000481805036
 10
137.171610714005
 20
7.845190120450361
 10
137.1936769620049
 20
7.849842403650363
 10
137.220052118805
 20
7.85484654285036
 10
137.246383830805
 20
7.859348618050361
 10
137.2727431684049
 20
7.863456379650358
 10
137.3167390356049
 20
7.869642622850363
 10
137.3608813300049
 20
7.875167293250363
 10
137.4076378740049
 20
7.88042794765036
 10
137.4544307348049
 20
7.885190406850362
 10
137.5043217764049
 20
7.88981558765036
 10
137.5542523044049
 20
7.894052613250359
 10
137.607355877205
 20
7.898200826050363
 10
137.660481669205
 20
7.902033798850361
 10
137.771482446805
 20
7.909201512450358
 10
137.886379494805
 20
7.915651506050359
 10
138.004360194005
 20
7.921456843650361
 10
138.124805909205
 20
7.926681955650359
 10
138.246791859605
 20
7.931366560450364
 10
138.367509622805
 20
7.935481502850358
 10
138.484939645205
 20
7.939034222850359
 10
138.5985805012049
 20
7.94208206605036
 10
138.7081446964049
 20
7.944680859650361
  0
LWPOLYLINE
  5
691
330
1F
100
AcDbEntity
  8
0
  6
DASHED
 62
     8
100
AcDbPolyline
 90
       29
 70
     0
 43
0.0
 10
136.133417685205
 20
7.938763790850359
 10
136.171552587605
 20
7.919354198850363
 10
136.209979082005
 20
7.900872854850362
 10
136.248681085205
 20
7.883267630850362
 10
136.2876425092049
 20
7.866486403650363
 10
136.3268472708049
 20
7.850477046850357
 10
136.366279283605
 20
7.835187435650361
 10
136.405922462805
 20
7.820565443650359
 10
136.4457607220049
 20
7.806558947650358
 10
136.485777976405
 20
7.79311581965036
 10
136.525958141205
 20
7.780183936450363
 10
136.566285131605
 20
7.767711171650361
 10
136.6067428596049
 20
7.755645400450362
 10
136.6473152420049
 20
7.743934496450364
 10
136.7148331652049
 20
7.72514894125036
 10
136.782548923605
 20
7.706958595650363
 10
136.850389077205
 20
7.689125464450363
 10
136.918280181205
 20
7.671411558850358
 10
136.986148797205
 20
7.653578882050361
 10
137.051557997205
 20
7.636123877250362
 10
137.116947208405
 20
7.618631173250363
 10
137.182385730005
 20
7.601395134850363
 10
137.247942859605
 20
7.58471012045036
 10
137.3136878996049
 20
7.568870493250358
 10
137.360761824405
 20
7.558245906050359
 10
137.407991946005
 20
7.548308832450359
 10
137.455403453205
 20
7.539166270850358
 10
137.503021536405
 20
7.530925221250363
 10
137.550871387605
 20
7.52369268685036
  0
LWPOLYLINE
  5
75D
330
1F
100
AcDbEntity
  8
0
  6
DASHED
 62
     8
100
AcDbPolyline
 90
       41
 70
     0
 43
0.0
 10
136.122025386005
 20
8.693120619650358
 10
136.140642354005
 20
8.651218014850364
 10
136.1604061092049
 20
8.610034696450362
 10
136.181288189205
 20
8.569569190850359
 10
136.203260134805
 20
8.529820024450359
 10
136.226293488405
 20
8.490785723650361
 10
136.250359787605
 20
8.452464814850358
 10
136.275430573205
 20
8.414855827650363
 10
136.301477387605
 20
8.37795728525036
 10
136.328471770005
 20
8.341767715650362
 10
136.3563852612049
 20
8.306285645250362
 10
136.390329922005
 20
8.265484194050358
 10
136.425458763605
 20
8.225655693250359
 10
136.461725576405
 20
8.186797749250359
 10
136.499084147605
 20
8.148907971650359
 10
136.537488270805
 20
8.11198396685036
 10
136.576891734805
 20
8.076023344450362
 10
136.6172483300049
 20
8.04102370925036
 10
136.658511846805
 20
8.006982672450362
 10
136.702881422805
 20
7.972185661250364
 10
136.748165779605
 20
7.938474632450358
 10
136.794325875605
 20
7.905875928450363
 10
136.841322672405
 20
7.874415893250358
 10
136.889117131605
 20
7.84412086925036
 10
136.937670214805
 20
7.815017195650362
 10
136.9869428820049
 20
7.787131218050362
 10
137.036896093205
 20
7.760489277250364
 10
137.087490810005
 20
7.73511771565036
 10
137.138687992405
 20
7.711042874050363
 10
137.190448603605
 20
7.688291098050363
 10
137.242733603605
 20
7.666888728450359
 10
137.2955039524049
 20
7.646862107650363
 10
137.348720611605
 20
7.628237576450359
 10
137.4023445428049
 20
7.61104148045036
 10
137.456336704405
 20
7.595300158850363
 10
137.510658059605
 20
7.581039954050361
 10
137.565269570005
 20
7.568287210050364
 10
137.607329099605
 20
7.559534955650363
 10
137.649527786005
 20
7.551642080450363
 10
137.6918570676049
 20
7.544565698050362
 10
137.734308381205
 20
7.538262922050364
  0
LINE
  5
75E
330
1F
100
AcDbEntity
  8
0
  6
DASHED
 62
     8
100
AcDbLine
 10
131.454560758805
 20
25.50010338765036
 30
0.0
 11
131.539628192405
 21
24.55838990925036
 31
0.0
  0
LWPOLYLINE
  5
78A
330
1F
100
AcDbEntity
  8
0
  6
CONTINUOUS
 62
     7
100
AcDbPolyline
 90
       44
 70
     0
 43
0.0
 10
133.820139470805
 20
20.26541833805036
 10
133.821482826005
 20
20.27445296845036
 10
133.822210221205
 20
20.27898381165036
 10
133.822872418005
 20
20.28272251245036
 10
133.823605509205
 20
20.28645265325036
 10
133.8244214116049
 20
20.29016393325036
 10
133.8253320404049
 20
20.29384605325036
 10
133.8263493156049
 20
20.29748871085036
 10
133.827485149205
 20
20.30108160365036
 10
133.828751461205
 20
20.30461443405036
 10
133.830160165205
 20
20.30807689805036
 10
133.831723179605
 20
20.31145869645035
 10
133.833452419605
 20
20.31474952685036
 10
133.835439786005
 20
20.31807356365035
 10
133.8376072420049
 20
20.32129069965036
 10
133.839941411605
 20
20.32440401165036
 10
133.842428912405
 20
20.32741658125036
 10
133.845056365205
 20
20.33033148685036
 10
133.847810390805
 20
20.33315180845036
 10
133.850677608405
 20
20.33588062605036
 10
133.853644640405
 20
20.33852101965035
 10
133.856698104405
 20
20.34107606925036
 10
133.859824622805
 20
20.34354885485036
 10
133.8630108132049
 20
20.34594245485036
 10
133.866243298005
 20
20.34825995085036
 10
133.871395742805
 20
20.35175780365035
 10
133.8766242068049
 20
20.35508697965036
 10
133.881923312405
 20
20.35825938765036
 10
133.887287685205
 20
20.36128693645036
 10
133.892711949205
 20
20.36418153805036
 10
133.898190730005
 20
20.36695509805036
 10
133.9037186516049
 20
20.36961952685036
 10
133.909290338005
 20
20.37218673485035
 10
133.914900414805
 20
20.37466863085036
 10
133.920543504405
 20
20.37707712205035
 10
133.9262142340049
 20
20.37942412045036
 10
133.936601410005
 20
20.38356989165035
 10
133.947055413205
 20
20.38756098125035
 10
133.957569200405
 20
20.39140722765036
 10
133.968135725205
 20
20.39511847405036
 10
133.9787479460049
 20
20.39870456205036
 10
133.9893988180049
 20
20.40217533325036
 10
134.000081299605
 20
20.40554062765036
 10
134.010788347605
 20
20.40881028685036
  0
LWPOLYLINE
  5
78B
330
1F
100
AcDbEntity
  8
0
  6
CONTINUOUS
 62
     7
100
AcDbPolyline
 90
       50
 70
     0
 43
0.0
 10
132.799702622805
 20
17.66233891565035
 10
132.794342680405
 20
17.63013430285035
 10
132.7900894980049
 20
17.59775507405036
 10
132.786786477205
 20
17.56524369165036
 10
132.7842770164049
 20
17.53264261805036
 10
132.782404518805
 20
17.49999431565036
 10
132.7806039204049
 20
17.45316982125036
 10
132.779841904405
 20
17.40634573805036
 10
132.780169675605
 20
17.35953228045036
 10
132.781638435605
 20
17.31273965805036
 10
132.784113275605
 20
17.26870177965036
 10
132.787701725205
 20
17.22473021325036
 10
132.792459848405
 20
17.18086373485036
 10
132.798443704405
 20
17.13714111405035
 10
132.8057093604049
 20
17.09360112205035
 10
132.814277382805
 20
17.05042432205036
 10
132.824195570005
 20
17.00752753805036
 10
132.835484774805
 20
16.96497080365036
 10
132.848165845205
 20
16.92281414925036
 10
132.862259632405
 20
16.88111760205035
 10
132.8777869860049
 20
16.83994119565036
 10
132.893581434005
 20
16.80202248845036
 10
132.9105914068049
 20
16.76462654445035
 10
132.9287651716049
 20
16.72777061805036
 10
132.948050998805
 20
16.69147196045036
 10
132.968397160405
 20
16.65574782765036
 10
132.9897519252049
 20
16.62061547245036
 10
133.012063562005
 20
16.58609214925036
 10
133.0401582692049
 20
16.54530852205036
 10
133.069499704405
 20
16.50542988525035
 10
133.100019603605
 20
16.46645136045036
 10
133.131649699605
 20
16.42836806925036
 10
133.1643217300049
 20
16.39117513325036
 10
133.197967430805
 20
16.35486767725036
 10
133.2338496772049
 20
16.31811091405035
 10
133.270649741205
 20
16.28228031405036
 10
133.308310013205
 20
16.24735333485036
 10
133.3467728884049
 20
16.21330744045036
 10
133.385980757205
 20
16.18012009005036
 10
133.425876014805
 20
16.14776874605036
 10
133.4766882404049
 20
16.10842743245036
 10
133.528418387605
 20
16.07031285645036
 10
133.580998152405
 20
16.03337789485036
 10
133.634359238805
 20
15.99757542125036
 10
133.6884333444049
 20
15.96285830765036
 10
133.746039115605
 20
15.92744527405036
 10
133.8043072516049
 20
15.89313913325035
 10
133.8631860964049
 20
15.85989694925036
 10
133.922623989205
 20
15.82767577805036
 10
133.9825692756049
 20
15.79643268205035
  0
LWPOLYLINE
  5
78C
330
1F
100
AcDbEntity
  8
0
  6
CONTINUOUS
 62
     7
100
AcDbPolyline
 90
       31
 70
     0
 43
0.0
 10
132.799702589205
 20
17.66233876685036
 10
132.8260429028049
 20
17.79658550605036
 10
132.853945146005
 20
17.93052049325036
 10
132.883544738005
 20
18.06409209165035
 10
132.912734986005
 20
18.18801857805036
 10
132.943630816405
 20
18.31152928845035
 10
132.976350630805
 20
18.43456785645036
 10
133.004432616405
 20
18.53440715085036
 10
133.033855024405
 20
18.63385907245036
 10
133.064669333205
 20
18.73288695565036
 10
133.103298773205
 20
18.85040048045036
 10
133.143973142805
 20
18.96722111085036
 10
133.179583811605
 20
19.06442221325036
 10
133.2166523940049
 20
19.16107641005036
 10
133.253070933205
 20
19.25188826445036
 10
133.290931379605
 20
19.34210802765036
 10
133.328728962005
 20
19.42807211725035
 10
133.3680613396049
 20
19.51334485005036
 10
133.407269542805
 20
19.59428458765036
 10
133.448098155605
 20
19.67441874445036
 10
133.488742342805
 20
19.75015109325036
 10
133.531098170005
 20
19.82493956045036
 10
133.558979718805
 20
19.87194897325036
 10
133.587642322005
 20
19.91848591405036
 10
133.6171245156049
 20
19.96450740685036
 10
133.645998818005
 20
20.00781308525036
 10
133.6756919028049
 20
20.05056198925036
 10
133.706244336405
 20
20.09270376525036
 10
133.736145774805
 20
20.13218295885036
 10
133.7668967140049
 20
20.17100128045036
 10
133.798532133205
 20
20.20909294285036
  0
LWPOLYLINE
  5
78D
330
1F
100
AcDbEntity
  8
0
  6
CONTINUOUS
 62
     7
100
AcDbPolyline
 90
       30
 70
     0
 43
0.0
 10
130.765482101205
 20
26.05838990925036
 10
130.863798990805
 20
26.11560870605035
 10
130.964429056405
 20
26.16628877805036
 10
131.067100525205
 20
26.21119349645036
 10
131.171541622805
 20
26.25108623565036
 10
131.277480576405
 20
26.28673036365036
 10
131.437088030805
 20
26.33348805965036
 10
131.598511102805
 20
26.37505463725036
 10
131.7608580196049
 20
26.41393495405036
 10
132.467891944405
 20
26.57897489485036
 10
133.175607888405
 20
26.73989669485036
 10
133.884081338005
 20
26.89601286285036
 10
134.5933877796049
 20
27.04663590925036
 10
135.303602701205
 20
27.19107834445036
 10
136.014801592405
 20
27.32865267725036
 10
136.727059939605
 20
27.45867141965035
 10
137.4404532292049
 20
27.58044708045036
 10
138.155056950805
 20
27.69329216845036
 10
138.750690326805
 20
27.77989340845036
 10
139.3472576644049
 20
27.85943826125036
 10
139.944802459605
 20
27.93153057005035
 10
140.543368214805
 20
27.99577417645036
 10
141.142998426005
 20
28.05177292205036
 10
141.7437365940049
 20
28.09913064845035
 10
142.345626218005
 20
28.13745119725036
 10
142.948710794005
 20
28.16633841005035
 10
143.5530338228049
 20
28.18539613005036
 10
144.1586388052049
 20
28.19422819725037
 10
144.765569237205
 20
28.19243845485036
 10
145.373868618005
 20
28.17963074445036
  0
LINE
  5
7A5
330
1F
100
AcDbEntity
  8
0
  6
DASHED
 62
     8
100
AcDbLine
 10
144.9013647444049
 20
17.97178657485036
 30
0.0
 11
144.905098832405
 21
18.03186793165036
 31
0.0
  0
LINE
  5
7A6
330
1F
100
AcDbEntity
  8
0
  6
DASHED
 62
     8
100
AcDbLine
 10
144.905098832405
 20
18.03186793165036
 30
0.0
 11
144.9162281908049
 21
18.21047884045036
 31
0.0
  0
LINE
  5
7A7
330
1F
100
AcDbEntity
  8
0
  6
DASHED
 62
     8
100
AcDbLine
 10
144.890029512405
 20
17.79028631725036
 30
0.0
 11
144.9013647444049
 21
17.97178657485036
 31
0.0
  0
LWPOLYLINE
  5
7A8
330
1F
100
AcDbEntity
  8
0
  6
DASHED
 62
     8
100
AcDbPolyline
 90
       20
 70
     0
 43
0.0
 10
144.9162281908049
 20
18.21047884045036
 10
144.923628054805
 20
18.32790732365035
 10
144.927333997205
 20
18.38604795245036
 10
144.9310490836049
 20
18.44377269165035
 10
144.934777045205
 20
18.50105477005035
 10
144.9385215396049
 20
18.55786675085036
 10
144.942286168405
 20
18.61418241485036
 10
144.946074491605
 20
18.66997675245036
 10
144.949890024405
 20
18.72522593965036
 10
144.953736237205
 20
18.77990729645036
 10
144.957616571605
 20
18.83399925965036
 10
144.961534426005
 20
18.88748134445036
 10
144.965493171605
 20
18.94033411725035
 10
144.969496150805
 20
18.99253916045036
 10
144.973546675605
 20
19.04407904045036
 10
144.977648037205
 20
19.09493727885036
 10
144.981803504405
 20
19.14509831885036
 10
144.986016325205
 20
19.19454749325036
 10
144.990289730005
 20
19.24327100045036
 10
144.994626936405
 20
19.29125586925036
  0
LINE
  5
7A9
330
1F
100
AcDbEntity
  8
0
  6
DASHED
 62
     8
100
AcDbLine
 10
145.0210823764049
 20
19.55350963245036
 30
0.0
 11
144.994631195605
 21
19.29125651085035
 31
0.0
  0
LWPOLYLINE
  5
7AA
330
1F
100
AcDbEntity
  8
0
  6
DASHED
 62
     8
100
AcDbPolyline
 90
       17
 70
     0
 43
0.0
 10
145.021102046805
 20
19.55350582285036
 10
145.025707765205
 20
19.59404795885036
 10
145.0303948628049
 20
19.63385561485036
 10
145.035166794005
 20
19.67292068685036
 10
145.040027013205
 20
19.71123518925035
 10
145.0449789860049
 20
19.74879126445036
 10
145.050026184405
 20
19.78558116365036
 10
145.055172088405
 20
19.82159725645036
 10
145.0604201924049
 20
19.85683201965036
 10
145.0657740036049
 20
19.89127803725035
 10
145.071237062805
 20
19.92492795725036
 10
145.0768129124049
 20
19.95777454925035
 10
145.0825051124049
 20
19.98981069645036
 10
145.088317242005
 20
20.02102937325036
 10
145.094252904405
 20
20.05142410925036
 10
145.100315725205
 20
20.08098925005036
 10
145.106509357205
 20
20.10971910925036
  0
LWPOLYLINE
  5
7AB
330
1F
100
AcDbEntity
  8
0
  6
DASHED
 62
     8
100
AcDbPolyline
 90
       59
 70
     0
 43
0.0
 10
144.4495897764049
 20
13.12999682765036
 10
144.473064608405
 20
13.31059776685036
 10
144.484658206805
 20
13.40089273165036
 10
144.496097237205
 20
13.49114848685036
 10
144.5073803108049
 20
13.58133290285036
 10
144.5185061460049
 20
13.67141477645036
 10
144.5294735636049
 20
13.76136381965036
 10
144.540281491605
 20
13.85115064205036
 10
144.550928957205
 20
13.94074674125035
 10
144.5614150852049
 20
14.03012448845036
 10
144.5717390996049
 20
14.11925711085036
 10
144.5819003172049
 20
14.20811868365036
 10
144.591898150805
 20
14.29668411085036
 10
144.6017320996049
 20
14.38492911565036
 10
144.611401752405
 20
14.47283022605036
 10
144.620906786005
 20
14.56036476045036
 10
144.630246962005
 20
14.64751081805036
 10
144.6394221220049
 20
14.73424671565036
 10
144.648432200405
 20
14.82054690605036
 10
144.6572772116049
 20
14.90638446445036
 10
144.6659572484049
 20
14.99173348045036
 10
144.674472474005
 20
15.07656906765036
 10
144.682823125205
 20
15.16086733965035
 10
144.691009509205
 20
15.24460539725036
 10
144.699031998805
 20
15.32776130285036
 10
144.706891034005
 20
15.41031407405036
 10
144.7145871204049
 20
15.49224365005036
 10
144.722120824405
 20
15.57353089005036
 10
144.729492757205
 20
15.65415652365036
 10
144.7367035044049
 20
15.73409569485036
 10
144.743753675605
 20
15.81332219085036
 10
144.750643946005
 20
15.89181108365036
 10
144.757375048405
 20
15.96953871245036
 10
144.7639477716049
 20
16.04648265485035
 10
144.770362965205
 20
16.12262170445036
 10
144.776621528405
 20
16.19793584525036
 10
144.782724413205
 20
16.27240622445036
 10
144.788672624405
 20
16.34601513165036
 10
144.794467211605
 20
16.41874597165036
 10
144.800109277205
 20
16.49058323725036
 10
144.8056008676049
 20
16.56152093485036
 10
144.810948070805
 20
16.63159570605036
 10
144.816158293205
 20
16.70085542925036
 10
144.821238680405
 20
16.76934581805036
 10
144.826196190805
 20
16.83711041645036
 10
144.831037597205
 20
16.90419061805036
 10
144.8357694884049
 20
16.97062569485036
 10
144.840398288405
 20
17.03645283885036
 10
144.8449302468049
 20
17.10170718925036
 10
144.849371456405
 20
17.16642186925036
 10
144.8537278532049
 20
17.23062802285036
 10
144.858005224405
 20
17.29435485325036
 10
144.862209214805
 20
17.35762966605036
 10
144.866345328405
 20
17.42047790125035
 10
144.870418938005
 20
17.48292518765035
 10
144.874435307605
 20
17.54500487565036
 10
144.878399584405
 20
17.60675077165036
 10
144.882316790805
 20
17.66819416045036
 10
144.890029512405
 20
17.79028631725036
  0
LWPOLYLINE
  5
7AC
330
1F
100
AcDbEntity
  8
0
  6
DASHED
 62
     8
100
AcDbPolyline
 90
       12
 70
     0
 43
0.0
 10
145.106509357205
 20
20.10971910925036
 10
145.108873638805
 20
20.12034426125036
 10
145.1112806324049
 20
20.13095985325036
 10
145.1137370468049
 20
20.14156406605036
 10
145.116055981205
 20
20.15135577325036
 10
145.118418213205
 20
20.16113716525036
 10
145.120819075605
 20
20.17090920845036
 10
145.123072400405
 20
20.17993987085036
 10
145.125364835605
 20
20.18896062605036
 10
145.127706430805
 20
20.19796873645036
 10
145.129919101205
 20
20.20626957965036
 10
145.1321848052049
 20
20.21455611405035
  0
LWPOLYLINE
  5
7AD
330
1F
100
AcDbEntity
  8
0
  6
DASHED
 62
     8
100
AcDbPolyline
 90
       51
 70
     0
 43
0.0
 10
145.1321848052049
 20
20.21455611405035
 10
145.138045307605
 20
20.23535253805036
 10
145.141684253205
 20
20.24784940525036
 10
145.145304096405
 20
20.25990991245036
 10
145.1490273476049
 20
20.27193886765036
 10
145.1527294756049
 20
20.28353117965036
 10
145.1565396932049
 20
20.29508841485036
 10
145.1603262868049
 20
20.30620915085036
 10
145.1642256180049
 20
20.31729085005036
 10
145.168098744405
 20
20.32793664205036
 10
145.1720894884049
 20
20.33853889645035
 10
145.176051285205
 20
20.34870637005036
 10
145.180135714005
 20
20.35882519405036
 10
145.1841883460049
 20
20.36851098925036
 10
145.188368749205
 20
20.37814231565036
 10
145.192514434005
 20
20.38734309005036
 10
145.196793096405
 20
20.39648276685036
 10
145.201034104405
 20
20.40519520685035
 10
145.205413299605
 20
20.41383899725035
 10
145.209751979605
 20
20.42205982445036
 10
145.214233947605
 20
20.43020339725035
 10
145.218672741205
 20
20.43792938285036
 10
145.2232596756049
 20
20.44556831885036
 10
145.227801142805
 20
20.45279627405036
 10
145.232495165205
 20
20.45992606765036
 10
145.2371420180049
 20
20.46665284845035
 10
145.241945139605
 20
20.47326891565036
 10
145.246700274005
 20
20.47949141005036
 10
145.251614366805
 20
20.48558910445036
 10
145.256480907605
 20
20.49130420525036
 10
145.2615076564049
 20
20.49687885645036
 10
145.2664889908049
 20
20.50208340525036
 10
145.2716298580049
 20
20.50713036845036
 10
145.276729669205
 20
20.51182109965036
 10
145.281985853205
 20
20.51633583245036
 10
145.287208123605
 20
20.52050925965036
 10
145.292580558805
 20
20.52448742445036
 10
145.297929539605
 20
20.52813973805036
 10
145.303418917205
 20
20.53157732525036
 10
145.308899038805
 20
20.53470426125036
 10
145.3145058948049
 20
20.53759770765036
 10
145.320121624405
 20
20.54019446605035
 10
145.325846480405
 20
20.54254075245036
 10
145.331602085205
 20
20.54460195245036
 10
145.337445669205
 20
20.54639865165036
 10
145.3433450980049
 20
20.54791842445035
 10
145.349308437205
 20
20.54916360525036
 10
145.355354930005
 20
20.55013569165036
 10
145.361440184405
 20
20.55082787085036
 10
145.367648653205
 20
20.55124674125035
 10
145.373868474005
 20
20.55138469325036
  0
LWPOLYLINE
  5
7AF
330
1F
100
AcDbEntity
  8
0
  6
CONTINUOUS
 62
     7
100
AcDbPolyline
 90
       15
 70
     0
 43
0.0
 10
133.798532133205
 20
20.20909291565036
 10
133.801014267605
 20
20.21254571565036
 10
133.8033691028049
 20
20.21610318925036
 10
133.805589608405
 20
20.21975675885035
 10
133.807668757205
 20
20.22349784205036
 10
133.809599518805
 20
20.22731786285036
 10
133.811374867605
 20
20.23120823885036
 10
133.812987773205
 20
20.23516039245035
 10
133.814431208405
 20
20.23916574285036
 10
133.815698144405
 20
20.24321571245036
 10
133.816858715605
 20
20.24759297805036
 10
133.817845998805
 20
20.25200671885035
 10
133.818697128405
 20
20.25645208845035
 10
133.819449242005
 20
20.26092424365035
 10
133.820139470805
 20
20.26541833805036
  0
LWPOLYLINE
  5
7C4
330
1F
100
AcDbEntity
  8
0
  6
DASHED
 62
     8
100
AcDbPolyline
 90
       18
 70
     0
 43
0.0
 10
141.858414450005
 20
10.21185442445035
 10
141.884421069205
 20
10.27361692845035
 10
141.935588986005
 20
10.39791561325036
 10
142.0105590628049
 20
10.58609949645035
 10
142.084073166805
 20
10.77649664365036
 10
142.156194514005
 20
10.96742861165036
 10
142.228097002005
 20
11.16044118765036
 10
142.299197989205
 20
11.35374869645036
 10
142.3702744580049
 20
11.54964356525036
 10
142.4403793396049
 20
11.74588984845036
 10
142.533923994005
 20
12.01329213485036
 10
142.625266507605
 20
12.28145615245036
 10
142.714224886805
 20
12.55042008205035
 10
142.8015536388049
 20
12.82309086605036
 10
142.886255133205
 20
13.09659001965036
 10
142.968323229205
 20
13.37088986125036
 10
143.047685430805
 20
13.64572872045036
 10
143.124406443605
 20
13.92131166125036
  0
LWPOLYLINE
  5
7C5
330
1F
100
AcDbEntity
  8
0
  6
DASHED
 62
     8
100
AcDbPolyline
 90
        9
 70
     0
 43
0.0
 10
141.733487030805
 20
9.929456104450359
 10
141.753997731605
 20
9.974531298050358
 10
141.774314440405
 20
10.01969445325036
 10
141.788276213205
 20
10.05100299565036
 10
141.8021509748049
 20
10.08235012525036
 10
141.8159314852049
 20
10.11373876525036
 10
141.8301460980049
 20
10.14640085325036
 10
141.844259707605
 20
10.17910675885036
 10
141.858280891605
 20
10.21185232685036
  0
LINE
  5
7C6
330
1F
100
AcDbEntity
  8
0
  6
DASHED
 62
     8
100
AcDbLine
 10
141.7189310916049
 20
9.89814197005036
 30
0.0
 11
141.733487030805
 21
9.929456104450359
 31
0.0
  0
LINE
  5
7C7
330
1F
100
AcDbEntity
  8
0
  6
DASHED
 62
     8
100
AcDbLine
 10
141.7079490164049
 20
9.874725306050358
 30
0.0
 11
141.7189310916049
 21
9.89814197005036
 31
0.0
  0
LINE
  5
7C8
330
1F
100
AcDbEntity
  8
0
  6
DASHED
 62
     8
100
AcDbLine
 10
141.6969090116049
 20
9.851384406850364
 30
0.0
 11
141.7079490164049
 21
9.874725306050358
 31
0.0
  0
LINE
  5
7C9
330
1F
100
AcDbEntity
  8
0
  6
DASHED
 62
     8
100
AcDbLine
 10
141.685814387605
 20
9.828128461250358
 30
0.0
 11
141.6969090116049
 21
9.851384406850364
 31
0.0
  0
LINE
  5
7CA
330
1F
100
AcDbEntity
  8
0
  6
DASHED
 62
     8
100
AcDbLine
 10
141.6746694804049
 20
9.804966982850359
 30
0.0
 11
141.685814387605
 21
9.828128461250358
 31
0.0
  0
LINE
  5
7CB
330
1F
100
AcDbEntity
  8
0
  6
DASHED
 62
     8
100
AcDbLine
 10
141.663477696405
 20
9.781907659650357
 30
0.0
 11
141.6746694804049
 21
9.804966982850359
 31
0.0
  0
LINE
  5
7CC
330
1F
100
AcDbEntity
  8
0
  6
DASHED
 62
     8
100
AcDbLine
 10
141.6522398244049
 20
9.758954554050362
 30
0.0
 11
141.663477696405
 21
9.781907659650357
 31
0.0
  0
LINE
  5
7CD
330
1F
100
AcDbEntity
  8
0
  6
DASHED
 62
     8
100
AcDbLine
 10
141.640956206805
 20
9.736110813250363
 30
0.0
 11
141.6522398244049
 21
9.758954554050362
 31
0.0
  0
LINE
  5
7CE
330
1F
100
AcDbEntity
  8
0
  6
DASHED
 62
     8
100
AcDbLine
 10
141.629627045205
 20
9.713379222850363
 30
0.0
 11
141.640956206805
 21
9.736110813250363
 31
0.0
  0
LINE
  5
7CF
330
1F
100
AcDbEntity
  8
0
  6
DASHED
 62
     8
100
AcDbLine
 10
141.618252459605
 20
9.690762432450362
 30
0.0
 11
141.629627045205
 21
9.713379222850363
 31
0.0
  0
LINE
  5
7D0
330
1F
100
AcDbEntity
  8
0
  6
DASHED
 62
     8
100
AcDbLine
 10
141.6068325060049
 20
9.668262958850363
 30
0.0
 11
141.618252459605
 21
9.690762432450362
 31
0.0
  0
LINE
  5
7D1
330
1F
100
AcDbEntity
  8
0
  6
DASHED
 62
     8
100
AcDbLine
 10
141.595367184405
 20
9.645883195650363
 30
0.0
 11
141.6068325060049
 21
9.668262958850363
 31
0.0
  0
LINE
  5
7D2
330
1F
100
AcDbEntity
  8
0
  6
DASHED
 62
     8
100
AcDbLine
 10
141.583856464405
 20
9.623625410050358
 30
0.0
 11
141.595367184405
 21
9.645883195650363
 31
0.0
  0
LINE
  5
7D3
330
1F
100
AcDbEntity
  8
0
  6
DASHED
 62
     8
100
AcDbLine
 10
141.572300376405
 20
9.601491770050358
 30
0.0
 11
141.583856464405
 21
9.623625410050358
 31
0.0
  0
LINE
  5
7D4
330
1F
100
AcDbEntity
  8
0
  6
DASHED
 62
     8
100
AcDbLine
 10
141.560699026005
 20
9.57948438285036
 30
0.0
 11
141.572300376405
 21
9.601491770050358
 31
0.0
  0
LINE
  5
7D5
330
1F
100
AcDbEntity
  8
0
  6
DASHED
 62
     8
100
AcDbLine
 10
141.549052510805
 20
9.557605266050359
 30
0.0
 11
141.560699026005
 21
9.57948438285036
 31
0.0
  0
LINE
  5
7D6
330
1F
100
AcDbEntity
  8
0
  6
DASHED
 62
     8
100
AcDbLine
 10
141.537360906005
 20
9.535856347650359
 30
0.0
 11
141.549052510805
 21
9.557605266050359
 31
0.0
  0
LINE
  5
7D7
330
1F
100
AcDbEntity
  8
0
  6
DASHED
 62
     8
100
AcDbLine
 10
141.525624261205
 20
9.514239469250362
 30
0.0
 11
141.537360906005
 21
9.535856347650359
 31
0.0
  0
LINE
  5
7D8
330
1F
100
AcDbEntity
  8
0
  6
DASHED
 62
     8
100
AcDbLine
 10
141.513842602005
 20
9.49275640205036
 30
0.0
 11
141.525624261205
 21
9.514239469250362
 31
0.0
  0
LINE
  5
7D9
330
1F
100
AcDbEntity
  8
0
  6
DASHED
 62
     8
100
AcDbLine
 10
141.502015930005
 20
9.471408848450359
 30
0.0
 11
141.513842602005
 21
9.49275640205036
 31
0.0
  0
LINE
  5
7DA
330
1F
100
AcDbEntity
  8
0
  6
DASHED
 62
     8
100
AcDbLine
 10
141.490144246805
 20
9.450198403650361
 30
0.0
 11
141.502015930005
 21
9.471408848450359
 31
0.0
  0
LINE
  5
7DB
330
1F
100
AcDbEntity
  8
0
  6
DASHED
 62
     8
100
AcDbLine
 10
141.4782275796049
 20
9.429126515650359
 30
0.0
 11
141.490144246805
 21
9.450198403650361
 31
0.0
  0
LINE
  5
7DC
330
1F
100
AcDbEntity
  8
0
  6
DASHED
 62
     8
100
AcDbLine
 10
141.466266038805
 20
9.408194712450359
 30
0.0
 11
141.4782275796049
 21
9.429126515650359
 31
0.0
  0
LINE
  5
7DD
330
1F
100
AcDbEntity
  8
0
  6
DASHED
 62
     8
100
AcDbLine
 10
141.454259950805
 20
9.38740478605036
 30
0.0
 11
141.466266038805
 21
9.408194712450359
 31
0.0
  0
LINE
  5
7DE
330
1F
100
AcDbEntity
  8
0
  6
DASHED
 62
     8
100
AcDbLine
 10
141.442209683605
 20
9.366758523650361
 30
0.0
 11
141.454259950805
 21
9.38740478605036
 31
0.0
  0
LINE
  5
7DF
330
1F
100
AcDbEntity
  8
0
  6
DASHED
 62
     8
100
AcDbLine
 10
141.430115614805
 20
9.346257674050363
 30
0.0
 11
141.442209683605
 21
9.366758523650361
 31
0.0
  0
LINE
  5
7E0
330
1F
100
AcDbEntity
  8
0
  6
DASHED
 62
     8
100
AcDbLine
 10
141.417978133205
 20
9.32590394765036
 30
0.0
 11
141.430115614805
 21
9.346257674050363
 31
0.0
  0
LINE
  5
7E1
330
1F
100
AcDbEntity
  8
0
  6
DASHED
 62
     8
100
AcDbLine
 10
141.405797701205
 20
9.305698987650359
 30
0.0
 11
141.417978133205
 21
9.32590394765036
 31
0.0
  0
LINE
  5
7E2
330
1F
100
AcDbEntity
  8
0
  6
DASHED
 62
     8
100
AcDbLine
 10
141.393574925205
 20
9.285644350850361
 30
0.0
 11
141.405797701205
 21
9.305698987650359
 31
0.0
  0
LINE
  5
7E3
330
1F
100
AcDbEntity
  8
0
  6
DASHED
 62
     8
100
AcDbLine
 10
141.3813104468049
 20
9.265741544450364
 30
0.0
 11
141.393574925205
 21
9.285644350850361
 31
0.0
  0
LINE
  5
7E4
330
1F
100
AcDbEntity
  8
0
  6
DASHED
 62
     8
100
AcDbLine
 10
141.3690049156049
 20
9.24599203565036
 30
0.0
 11
141.3813104468049
 21
9.265741544450364
 31
0.0
  0
LINE
  5
7E5
330
1F
100
AcDbEntity
  8
0
  6
DASHED
 62
     8
100
AcDbLine
 10
141.356658997205
 20
9.226397254850361
 30
0.0
 11
141.3690049156049
 21
9.24599203565036
 31
0.0
  0
LINE
  5
7E6
330
1F
100
AcDbEntity
  8
0
  6
DASHED
 62
     8
100
AcDbLine
 10
141.344273368405
 20
9.206958590850362
 30
0.0
 11
141.356658997205
 21
9.226397254850361
 31
0.0
  0
LINE
  5
7E7
330
1F
100
AcDbEntity
  8
0
  6
DASHED
 62
     8
100
AcDbLine
 10
141.331848723605
 20
9.18767739085036
 30
0.0
 11
141.344273368405
 21
9.206958590850362
 31
0.0
  0
LINE
  5
7E8
330
1F
100
AcDbEntity
  8
0
  6
DASHED
 62
     8
100
AcDbLine
 10
141.319385704405
 20
9.168554941250363
 30
0.0
 11
141.331848723605
 21
9.18767739085036
 31
0.0
  0
LINE
  5
7E9
330
1F
100
AcDbEntity
  8
0
  6
DASHED
 62
     8
100
AcDbLine
 10
141.3068846804049
 20
9.149592358850362
 30
0.0
 11
141.319385704405
 21
9.168554941250363
 31
0.0
  0
LINE
  5
7EA
330
1F
100
AcDbEntity
  8
0
  6
DASHED
 62
     8
100
AcDbLine
 10
141.294345952405
 20
9.130790690050361
 30
0.0
 11
141.3068846804049
 21
9.149592358850362
 31
0.0
  0
LINE
  5
7EB
330
1F
100
AcDbEntity
  8
0
  6
DASHED
 62
     8
100
AcDbLine
 10
141.281769845205
 20
9.112150947650363
 30
0.0
 11
141.294345952405
 21
9.130790690050361
 31
0.0
  0
LINE
  5
7EC
330
1F
100
AcDbEntity
  8
0
  6
DASHED
 62
     8
100
AcDbLine
 10
141.269156990805
 20
9.093674158850362
 30
0.0
 11
141.281769845205
 21
9.112150947650363
 31
0.0
  0
LINE
  5
7ED
330
1F
100
AcDbEntity
  8
0
  6
DASHED
 62
     8
100
AcDbLine
 10
141.256508486805
 20
9.07536138125036
 30
0.0
 11
141.269156990805
 21
9.093674158850362
 31
0.0
  0
LINE
  5
7EE
330
1F
100
AcDbEntity
  8
0
  6
DASHED
 62
     8
100
AcDbLine
 10
141.248056885205
 20
9.063244459650363
 30
0.0
 11
141.256508486805
 21
9.07536138125036
 31
0.0
  0
LINE
  5
7EF
330
1F
100
AcDbEntity
  8
0
  6
DASHED
 62
     8
100
AcDbLine
 10
141.239590178005
 20
9.051201048450359
 30
0.0
 11
141.248056885205
 21
9.063244459650363
 31
0.0
  0
LINE
  5
7F0
330
1F
100
AcDbEntity
  8
0
  6
DASHED
 62
     8
100
AcDbLine
 10
141.231108611605
 20
9.039231320450362
 30
0.0
 11
141.239590178005
 21
9.051201048450359
 31
0.0
  0
LINE
  5
7F1
330
1F
100
AcDbEntity
  8
0
  6
DASHED
 62
     8
100
AcDbLine
 10
141.222612374805
 20
9.027335402050361
 30
0.0
 11
141.231108611605
 21
9.039231320450362
 31
0.0
  0
LINE
  5
7F2
330
1F
100
AcDbEntity
  8
0
  6
DASHED
 62
     8
100
AcDbLine
 10
141.2141016164049
 20
9.015513387650358
 30
0.0
 11
141.222612374805
 21
9.027335402050361
 31
0.0
  0
LINE
  5
7F3
330
1F
100
AcDbEntity
  8
0
  6
DASHED
 62
     8
100
AcDbLine
 10
141.205576482005
 20
9.003765365250359
 30
0.0
 11
141.2141016164049
 21
9.015513387650358
 31
0.0
  0
LINE
  5
7F4
330
1F
100
AcDbEntity
  8
0
  6
DASHED
 62
     8
100
AcDbLine
 10
141.197037114005
 20
8.992091413250363
 30
0.0
 11
141.205576482005
 21
9.003765365250359
 31
0.0
  0
LINE
  5
7F5
330
1F
100
AcDbEntity
  8
0
  6
DASHED
 62
     8
100
AcDbLine
 10
141.188483659605
 20
8.980491598850363
 30
0.0
 11
141.197037114005
 21
8.992091413250363
 31
0.0
  0
LINE
  5
7F6
330
1F
100
AcDbEntity
  8
0
  6
DASHED
 62
     8
100
AcDbLine
 10
141.179916256405
 20
8.968965989250364
 30
0.0
 11
141.188483659605
 21
8.980491598850363
 31
0.0
  0
LINE
  5
7F7
330
1F
100
AcDbEntity
  8
0
  6
DASHED
 62
     8
100
AcDbLine
 10
141.171335045205
 20
8.957514637250362
 30
0.0
 11
141.179916256405
 21
8.968965989250364
 31
0.0
  0
LINE
  5
7F8
330
1F
100
AcDbEntity
  8
0
  6
DASHED
 62
     8
100
AcDbLine
 10
141.162740165205
 20
8.946137592450362
 30
0.0
 11
141.171335045205
 21
8.957514637250362
 31
0.0
  0
LINE
  5
7F9
330
1F
100
AcDbEntity
  8
0
  6
DASHED
 62
     8
100
AcDbLine
 10
141.154131747605
 20
8.934834894850361
 30
0.0
 11
141.162740165205
 21
8.946137592450362
 31
0.0
  0
LINE
  5
7FA
330
1F
100
AcDbEntity
  8
0
  6
DASHED
 62
     8
100
AcDbLine
 10
141.145509926805
 20
8.923606581250361
 30
0.0
 11
141.154131747605
 21
8.934834894850361
 31
0.0
  0
LINE
  5
7FB
330
1F
100
AcDbEntity
  8
0
  6
DASHED
 62
     8
100
AcDbLine
 10
141.136874832405
 20
8.912452677250364
 30
0.0
 11
141.145509926805
 21
8.923606581250361
 31
0.0
  0
LINE
  5
7FC
330
1F
100
AcDbEntity
  8
0
  6
DASHED
 62
     8
100
AcDbLine
 10
141.1282265924049
 20
8.901373200450358
 30
0.0
 11
141.136874832405
 21
8.912452677250364
 31
0.0
  0
LINE
  5
7FD
330
1F
100
AcDbEntity
  8
0
  6
DASHED
 62
     8
100
AcDbLine
 10
141.119565347605
 20
8.890368138050362
 30
0.0
 11
141.1282265924049
 21
8.901373200450358
 31
0.0
  0
LINE
  5
7FE
330
1F
100
AcDbEntity
  8
0
  6
DASHED
 62
     8
100
AcDbLine
 10
141.110891245205
 20
8.879437459650361
 30
0.0
 11
141.119565347605
 21
8.890368138050362
 31
0.0
  0
LINE
  5
7FF
330
1F
100
AcDbEntity
  8
0
  6
DASHED
 62
     8
100
AcDbLine
 10
141.102204422805
 20
8.868581125250358
 30
0.0
 11
141.110891245205
 21
8.879437459650361
 31
0.0
  0
LINE
  5
800
330
1F
100
AcDbEntity
  8
0
  6
DASHED
 62
     8
100
AcDbLine
 10
141.093505019605
 20
8.857799094850363
 30
0.0
 11
141.102204422805
 21
8.868581125250358
 31
0.0
  0
LINE
  5
801
330
1F
100
AcDbEntity
  8
0
  6
DASHED
 62
     8
100
AcDbLine
 10
141.084793166805
 20
8.84709132205036
 30
0.0
 11
141.093505019605
 21
8.857799094850363
 31
0.0
  0
LINE
  5
802
330
1F
100
AcDbEntity
  8
0
  6
DASHED
 62
     8
100
AcDbLine
 10
141.076068995605
 20
8.836457754050364
 30
0.0
 11
141.084793166805
 21
8.84709132205036
 31
0.0
  0
LINE
  5
803
330
1F
100
AcDbEntity
  8
0
  6
DASHED
 62
     8
100
AcDbLine
 10
141.067332627605
 20
8.825898333250364
 30
0.0
 11
141.076068995605
 21
8.836457754050364
 31
0.0
  0
LINE
  5
804
330
1F
100
AcDbEntity
  8
0
  6
DASHED
 62
     8
100
AcDbLine
 10
141.0585841844049
 20
8.815412998850362
 30
0.0
 11
141.067332627605
 21
8.825898333250364
 31
0.0
  0
LINE
  5
805
330
1F
100
AcDbEntity
  8
0
  6
DASHED
 62
     8
100
AcDbLine
 10
141.049823778005
 20
8.80500168685036
 30
0.0
 11
141.0585841844049
 21
8.815412998850362
 31
0.0
  0
LINE
  5
806
330
1F
100
AcDbEntity
  8
0
  6
DASHED
 62
     8
100
AcDbLine
 10
141.041051517205
 20
8.794664323650358
 30
0.0
 11
141.049823778005
 21
8.80500168685036
 31
0.0
  0
LINE
  5
807
330
1F
100
AcDbEntity
  8
0
  6
DASHED
 62
     8
100
AcDbLine
 10
141.032267507605
 20
8.784400840450359
 30
0.0
 11
141.041051517205
 21
8.794664323650358
 31
0.0
  0
LINE
  5
808
330
1F
100
AcDbEntity
  8
0
  6
DASHED
 62
     8
100
AcDbLine
 10
141.0234718548049
 20
8.774211155650363
 30
0.0
 11
141.032267507605
 21
8.784400840450359
 31
0.0
  0
LINE
  5
809
330
1F
100
AcDbEntity
  8
0
  6
DASHED
 62
     8
100
AcDbLine
 10
141.014664893205
 20
8.764095174850361
 30
0.0
 11
141.0234718548049
 21
8.774211155650363
 31
0.0
  0
LINE
  5
80A
330
1F
100
AcDbEntity
  8
0
  6
DASHED
 62
     8
100
AcDbLine
 10
141.0058472372049
 20
8.75405280685036
 30
0.0
 11
141.014664893205
 21
8.764095174850361
 31
0.0
  0
LINE
  5
80B
330
1F
100
AcDbEntity
  8
0
  6
DASHED
 62
     8
100
AcDbLine
 10
140.997019318805
 20
8.744083973250361
 30
0.0
 11
141.0058472372049
 21
8.75405280685036
 31
0.0
  0
LINE
  5
80C
330
1F
100
AcDbEntity
  8
0
  6
DASHED
 62
     8
100
AcDbLine
 10
140.988181293205
 20
8.734188590850358
 30
0.0
 11
140.997019318805
 21
8.744083973250361
 31
0.0
  0
LINE
  5
80D
330
1F
100
AcDbEntity
  8
0
  6
DASHED
 62
     8
100
AcDbLine
 10
140.9793332964049
 20
8.724366570050364
 30
0.0
 11
140.988181293205
 21
8.734188590850358
 31
0.0
  0
LINE
  5
80E
330
1F
100
AcDbEntity
  8
0
  6
DASHED
 62
     8
100
AcDbLine
 10
140.970475459605
 20
8.714617821250364
 30
0.0
 11
140.9793332964049
 21
8.724366570050364
 31
0.0
  0
LINE
  5
80F
330
1F
100
AcDbEntity
  8
0
  6
DASHED
 62
     8
100
AcDbLine
 10
140.961607914005
 20
8.704942245250364
 30
0.0
 11
140.970475459605
 21
8.714617821250364
 31
0.0
  0
LINE
  5
810
330
1F
100
AcDbEntity
  8
0
  6
DASHED
 62
     8
100
AcDbLine
 10
140.952730795605
 20
8.695339742850357
 30
0.0
 11
140.961607914005
 21
8.704942245250364
 31
0.0
  0
LINE
  5
811
330
1F
100
AcDbEntity
  8
0
  6
DASHED
 62
     8
100
AcDbLine
 10
140.943844238805
 20
8.685810208450362
 30
0.0
 11
140.952730795605
 21
8.695339742850357
 31
0.0
  0
LINE
  5
812
330
1F
100
AcDbEntity
  8
0
  6
DASHED
 62
     8
100
AcDbLine
 10
140.9349483780049
 20
8.676353531650363
 30
0.0
 11
140.943844238805
 21
8.685810208450362
 31
0.0
  0
LINE
  5
813
330
1F
100
AcDbEntity
  8
0
  6
DASHED
 62
     8
100
AcDbLine
 10
140.9260433540049
 20
8.666969602050357
 30
0.0
 11
140.9349483780049
 21
8.676353531650363
 31
0.0
  0
LINE
  5
814
330
1F
100
AcDbEntity
  8
0
  6
DASHED
 62
     8
100
AcDbLine
 10
140.917129307605
 20
8.657658301250364
 30
0.0
 11
140.9260433540049
 21
8.666969602050357
 31
0.0
  0
LINE
  5
815
330
1F
100
AcDbEntity
  8
0
  6
DASHED
 62
     8
100
AcDbLine
 10
140.9082063844049
 20
8.648419507650359
 30
0.0
 11
140.917129307605
 21
8.657658301250364
 31
0.0
  0
LINE
  5
816
330
1F
100
AcDbEntity
  8
0
  6
DASHED
 62
     8
100
AcDbLine
 10
140.899274774805
 20
8.639253074050358
 30
0.0
 11
140.9082063844049
 21
8.648419507650359
 31
0.0
  0
LINE
  5
817
330
1F
100
AcDbEntity
  8
0
  6
DASHED
 62
     8
100
AcDbLine
 10
140.890334710805
 20
8.630158822850361
 30
0.0
 11
140.899274774805
 21
8.639253074050358
 31
0.0
  0
LINE
  5
818
330
1F
100
AcDbEntity
  8
0
  6
DASHED
 62
     8
100
AcDbLine
 10
140.881386430805
 20
8.621136578050361
 30
0.0
 11
140.890334710805
 21
8.630158822850361
 31
0.0
  0
LINE
  5
819
330
1F
100
AcDbEntity
  8
0
  6
DASHED
 62
     8
100
AcDbLine
 10
140.872430182805
 20
8.612186155650363
 30
0.0
 11
140.881386430805
 21
8.621136578050361
 31
0.0
  0
LINE
  5
81A
330
1F
100
AcDbEntity
  8
0
  6
DASHED
 62
     8
100
AcDbLine
 10
140.8634662148049
 20
8.603307368450359
 30
0.0
 11
140.872430182805
 21
8.612186155650363
 31
0.0
  0
LINE
  5
81B
330
1F
100
AcDbEntity
  8
0
  6
DASHED
 62
     8
100
AcDbLine
 10
140.854494778005
 20
8.594500029250362
 30
0.0
 11
140.8634662148049
 21
8.603307368450359
 31
0.0
  0
LINE
  5
81C
330
1F
100
AcDbEntity
  8
0
  6
DASHED
 62
     8
100
AcDbLine
 10
140.845516130005
 20
8.585763942850363
 30
0.0
 11
140.854494778005
 21
8.594500029250362
 31
0.0
  0
LINE
  5
81D
330
1F
100
AcDbEntity
  8
0
  6
DASHED
 62
     8
100
AcDbLine
 10
140.836530531605
 20
8.577098909250359
 30
0.0
 11
140.845516130005
 21
8.585763942850363
 31
0.0
  0
LINE
  5
81E
330
1F
100
AcDbEntity
  8
0
  6
DASHED
 62
     8
100
AcDbLine
 10
140.827538248405
 20
8.568504723650363
 30
0.0
 11
140.836530531605
 21
8.577098909250359
 31
0.0
  0
LINE
  5
81F
330
1F
100
AcDbEntity
  8
0
  6
DASHED
 62
     8
100
AcDbLine
 10
140.8185395476049
 20
8.559981176450364
 30
0.0
 11
140.827538248405
 21
8.568504723650363
 31
0.0
  0
LINE
  5
820
330
1F
100
AcDbEntity
  8
0
  6
DASHED
 62
     8
100
AcDbLine
 10
140.8095347044049
 20
8.551528054850358
 30
0.0
 11
140.8185395476049
 21
8.559981176450364
 31
0.0
  0
LINE
  5
821
330
1F
100
AcDbEntity
  8
0
  6
DASHED
 62
     8
100
AcDbLine
 10
140.800523998805
 20
8.543145136450362
 30
0.0
 11
140.8095347044049
 21
8.551528054850358
 31
0.0
  0
LINE
  5
822
330
1F
100
AcDbEntity
  8
0
  6
DASHED
 62
     8
100
AcDbLine
 10
140.791507725205
 20
8.53483220045036
 30
0.0
 11
140.800523998805
 21
8.543145136450362
 31
0.0
  0
LINE
  5
823
330
1F
100
AcDbEntity
  8
0
  6
DASHED
 62
     8
100
AcDbLine
 10
140.782486170005
 20
8.526589021250359
 30
0.0
 11
140.791507725205
 21
8.53483220045036
 31
0.0
  0
LINE
  5
824
330
1F
100
AcDbEntity
  8
0
  6
DASHED
 62
     8
100
AcDbLine
 10
140.773459482005
 20
8.518415349250361
 30
0.0
 11
140.782486170005
 21
8.526589021250359
 31
0.0
  0
LINE
  5
825
330
1F
100
AcDbEntity
  8
0
  6
DASHED
 62
     8
100
AcDbLine
 10
140.764427731605
 20
8.510310917250357
 30
0.0
 11
140.773459482005
 21
8.518415349250361
 31
0.0
  0
LINE
  5
826
330
1F
100
AcDbEntity
  8
0
  6
DASHED
 62
     8
100
AcDbLine
 10
140.7553910164049
 20
8.502275485250358
 30
0.0
 11
140.764427731605
 21
8.510310917250357
 31
0.0
  0
LINE
  5
827
330
1F
100
AcDbEntity
  8
0
  6
DASHED
 62
     8
100
AcDbLine
 10
140.746349467605
 20
8.494308830850364
 30
0.0
 11
140.7553910164049
 21
8.502275485250358
 31
0.0
  0
LINE
  5
828
330
1F
100
AcDbEntity
  8
0
  6
DASHED
 62
     8
100
AcDbLine
 10
140.737303232405
 20
8.486410730050359
 30
0.0
 11
140.746349467605
 21
8.494308830850364
 31
0.0
  0
LINE
  5
829
330
1F
100
AcDbEntity
  8
0
  6
DASHED
 62
     8
100
AcDbLine
 10
140.728252459605
 20
8.478580960450358
 30
0.0
 11
140.737303232405
 21
8.486410730050359
 31
0.0
  0
LINE
  5
82A
330
1F
100
AcDbEntity
  8
0
  6
DASHED
 62
     8
100
AcDbLine
 10
140.719197379605
 20
8.470819283650364
 30
0.0
 11
140.728252459605
 21
8.478580960450358
 31
0.0
  0
LINE
  5
82B
330
1F
100
AcDbEntity
  8
0
  6
DASHED
 62
     8
100
AcDbLine
 10
140.710138384405
 20
8.463125442050362
 30
0.0
 11
140.719197379605
 21
8.470819283650364
 31
0.0
  0
LINE
  5
82C
330
1F
100
AcDbEntity
  8
0
  6
DASHED
 62
     8
100
AcDbLine
 10
140.701075893205
 20
8.455499168450359
 30
0.0
 11
140.710138384405
 21
8.463125442050362
 31
0.0
  0
LINE
  5
82D
330
1F
100
AcDbEntity
  8
0
  6
DASHED
 62
     8
100
AcDbLine
 10
140.692010323605
 20
8.447940198850361
 30
0.0
 11
140.701075893205
 21
8.455499168450359
 31
0.0
  0
LINE
  5
82E
330
1F
100
AcDbEntity
  8
0
  6
DASHED
 62
     8
100
AcDbLine
 10
140.682942085205
 20
8.44044826445036
 30
0.0
 11
140.692010323605
 21
8.447940198850361
 31
0.0
  0
LINE
  5
82F
330
1F
100
AcDbEntity
  8
0
  6
DASHED
 62
     8
100
AcDbLine
 10
140.6738715876049
 20
8.433023091650362
 30
0.0
 11
140.682942085205
 21
8.44044826445036
 31
0.0
  0
LINE
  5
830
330
1F
100
AcDbEntity
  8
0
  6
DASHED
 62
     8
100
AcDbLine
 10
140.6647992372049
 20
8.425664411650359
 30
0.0
 11
140.6738715876049
 21
8.433023091650362
 31
0.0
  0
LINE
  5
831
330
1F
100
AcDbEntity
  8
0
  6
DASHED
 62
     8
100
AcDbLine
 10
140.655725426005
 20
8.418371950850364
 30
0.0
 11
140.6647992372049
 21
8.425664411650359
 31
0.0
  0
LINE
  5
832
330
1F
100
AcDbEntity
  8
0
  6
DASHED
 62
     8
100
AcDbLine
 10
140.646650445205
 20
8.411145464450363
 30
0.0
 11
140.655725426005
 21
8.418371950850364
 31
0.0
  0
LINE
  5
833
330
1F
100
AcDbEntity
  8
0
  6
DASHED
 62
     8
100
AcDbLine
 10
140.6375744916049
 20
8.403984733250361
 30
0.0
 11
140.646650445205
 21
8.411145464450363
 31
0.0
  0
LINE
  5
834
330
1F
100
AcDbEntity
  8
0
  6
DASHED
 62
     8
100
AcDbLine
 10
140.6284977556049
 20
8.396889533250359
 30
0.0
 11
140.6375744916049
 21
8.403984733250361
 31
0.0
  0
LINE
  5
835
330
1F
100
AcDbEntity
  8
0
  6
DASHED
 62
     8
100
AcDbLine
 10
140.619420429205
 20
8.389859645250361
 30
0.0
 11
140.6284977556049
 21
8.396889533250359
 31
0.0
  0
LINE
  5
836
330
1F
100
AcDbEntity
  8
0
  6
DASHED
 62
     8
100
AcDbLine
 10
140.6103426932049
 20
8.382894840450362
 30
0.0
 11
140.619420429205
 21
8.389859645250361
 31
0.0
  0
LINE
  5
837
330
1F
100
AcDbEntity
  8
0
  6
DASHED
 62
     8
100
AcDbLine
 10
140.6012647316049
 20
8.375994896450357
 30
0.0
 11
140.6103426932049
 21
8.382894840450362
 31
0.0
  0
LINE
  5
838
330
1F
100
AcDbEntity
  8
0
  6
DASHED
 62
     8
100
AcDbLine
 10
140.592186720405
 20
8.369159582850357
 30
0.0
 11
140.6012647316049
 21
8.375994896450357
 31
0.0
  0
LINE
  5
839
330
1F
100
AcDbEntity
  8
0
  6
DASHED
 62
     8
100
AcDbLine
 10
140.583108834005
 20
8.362388670850364
 30
0.0
 11
140.592186720405
 21
8.369159582850357
 31
0.0
  0
LINE
  5
83A
330
1F
100
AcDbEntity
  8
0
  6
DASHED
 62
     8
100
AcDbLine
 10
140.574031243605
 20
8.355681930050359
 30
0.0
 11
140.583108834005
 21
8.362388670850364
 31
0.0
  0
LINE
  5
83B
330
1F
100
AcDbEntity
  8
0
  6
DASHED
 62
     8
100
AcDbLine
 10
140.564954114005
 20
8.349039130050364
 30
0.0
 11
140.574031243605
 21
8.355681930050359
 31
0.0
  0
LINE
  5
83C
330
1F
100
AcDbEntity
  8
0
  6
DASHED
 62
     8
100
AcDbLine
 10
140.555877606805
 20
8.342460034050361
 30
0.0
 11
140.564954114005
 21
8.349039130050364
 31
0.0
  0
LINE
  5
83D
330
1F
100
AcDbEntity
  8
0
  6
DASHED
 62
     8
100
AcDbLine
 10
140.546801882005
 20
8.335944406850359
 30
0.0
 11
140.555877606805
 21
8.342460034050361
 31
0.0
  0
LINE
  5
83E
330
1F
100
AcDbEntity
  8
0
  6
DASHED
 62
     8
100
AcDbLine
 10
140.537727096405
 20
8.329492016450359
 30
0.0
 11
140.546801882005
 21
8.335944406850359
 31
0.0
  0
LINE
  5
83F
330
1F
100
AcDbEntity
  8
0
  6
DASHED
 62
     8
100
AcDbLine
 10
140.528653432405
 20
8.323102626050363
 30
0.0
 11
140.537727096405
 21
8.329492016450359
 31
0.0
  0
LINE
  5
840
330
1F
100
AcDbEntity
  8
0
  6
DASHED
 62
     8
100
AcDbLine
 10
140.519581082005
 20
8.316776006850361
 30
0.0
 11
140.528653432405
 21
8.323102626050363
 31
0.0
  0
LINE
  5
841
330
1F
100
AcDbEntity
  8
0
  6
DASHED
 62
     8
100
AcDbLine
 10
140.510510230805
 20
8.310511923650359
 30
0.0
 11
140.519581082005
 21
8.316776006850361
 31
0.0
  0
LINE
  5
842
330
1F
100
AcDbEntity
  8
0
  6
DASHED
 62
     8
100
AcDbLine
 10
140.501441064405
 20
8.304310144450361
 30
0.0
 11
140.510510230805
 21
8.310511923650359
 31
0.0
  0
LINE
  5
843
330
1F
100
AcDbEntity
  8
0
  6
DASHED
 62
     8
100
AcDbLine
 10
140.4923737716049
 20
8.298170450050363
 30
0.0
 11
140.501441064405
 21
8.304310144450361
 31
0.0
  0
LINE
  5
844
330
1F
100
AcDbEntity
  8
0
  6
DASHED
 62
     8
100
AcDbLine
 10
140.483308550805
 20
8.292092634050362
 30
0.0
 11
140.4923737716049
 21
8.298170450050363
 31
0.0
  0
LINE
  5
845
330
1F
100
AcDbEntity
  8
0
  6
DASHED
 62
     8
100
AcDbLine
 10
140.474245592405
 20
8.286076483650361
 30
0.0
 11
140.483308550805
 21
8.292092634050362
 31
0.0
  0
LINE
  5
846
330
1F
100
AcDbEntity
  8
0
  6
DASHED
 62
     8
100
AcDbLine
 10
140.465185085205
 20
8.280121797250359
 30
0.0
 11
140.474245592405
 21
8.286076483650361
 31
0.0
  0
LINE
  5
847
330
1F
100
AcDbEntity
  8
0
  6
DASHED
 62
     8
100
AcDbLine
 10
140.456127211605
 20
8.274228363650358
 30
0.0
 11
140.465185085205
 21
8.280121797250359
 31
0.0
  0
LINE
  5
848
330
1F
100
AcDbEntity
  8
0
  6
DASHED
 62
     8
100
AcDbLine
 10
140.447072150805
 20
8.268395976450364
 30
0.0
 11
140.456127211605
 21
8.274228363650358
 31
0.0
  0
LINE
  5
849
330
1F
100
AcDbEntity
  8
0
  6
DASHED
 62
     8
100
AcDbLine
 10
140.438020077205
 20
8.262624434050358
 30
0.0
 11
140.447072150805
 21
8.268395976450364
 31
0.0
  0
LINE
  5
84A
330
1F
100
AcDbEntity
  8
0
  6
DASHED
 62
     8
100
AcDbLine
 10
140.428971170005
 20
8.256913538050362
 30
0.0
 11
140.438020077205
 21
8.262624434050358
 31
0.0
  0
LINE
  5
84B
330
1F
100
AcDbEntity
  8
0
  6
DASHED
 62
     8
100
AcDbLine
 10
140.419925590805
 20
8.251263101250359
 30
0.0
 11
140.428971170005
 21
8.256913538050362
 31
0.0
  0
LINE
  5
84C
330
1F
100
AcDbEntity
  8
0
  6
DASHED
 62
     8
100
AcDbLine
 10
140.410883486805
 20
8.245672930050361
 30
0.0
 11
140.419925590805
 21
8.251263101250359
 31
0.0
  0
LINE
  5
84D
330
1F
100
AcDbEntity
  8
0
  6
DASHED
 62
     8
100
AcDbLine
 10
140.4018450068049
 20
8.240142832450359
 30
0.0
 11
140.410883486805
 21
8.245672930050361
 31
0.0
  0
LINE
  5
84E
330
1F
100
AcDbEntity
  8
0
  6
DASHED
 62
     8
100
AcDbLine
 10
140.392810301205
 20
8.23467261645036
 30
0.0
 11
140.4018450068049
 21
8.240142832450359
 31
0.0
  0
LINE
  5
84F
330
1F
100
AcDbEntity
  8
0
  6
DASHED
 62
     8
100
AcDbLine
 10
140.383779523605
 20
8.229262085250361
 30
0.0
 11
140.392810301205
 21
8.23467261645036
 31
0.0
  0
LINE
  5
850
330
1F
100
AcDbEntity
  8
0
  6
DASHED
 62
     8
100
AcDbLine
 10
140.374752829205
 20
8.22391104525036
 30
0.0
 11
140.383779523605
 21
8.229262085250361
 31
0.0
  0
LINE
  5
851
330
1F
100
AcDbEntity
  8
0
  6
DASHED
 62
     8
100
AcDbLine
 10
140.365730376405
 20
8.218619304450363
 30
0.0
 11
140.374752829205
 21
8.22391104525036
 31
0.0
  0
LINE
  5
852
330
1F
100
AcDbEntity
  8
0
  6
DASHED
 62
     8
100
AcDbLine
 10
140.356712322005
 20
8.213386664450361
 30
0.0
 11
140.365730376405
 21
8.218619304450363
 31
0.0
  0
LINE
  5
853
330
1F
100
AcDbEntity
  8
0
  6
DASHED
 62
     8
100
AcDbLine
 10
140.347698826005
 20
8.208212934850358
 30
0.0
 11
140.356712322005
 21
8.213386664450361
 31
0.0
  0
LINE
  5
854
330
1F
100
AcDbEntity
  8
0
  6
DASHED
 62
     8
100
AcDbLine
 10
140.338690026005
 20
8.203097928450361
 30
0.0
 11
140.347698826005
 21
8.208212934850358
 31
0.0
  0
LINE
  5
855
330
1F
100
AcDbEntity
  8
0
  6
DASHED
 62
     8
100
AcDbLine
 10
140.3296860484049
 20
8.198041464450362
 30
0.0
 11
140.338690026005
 21
8.203097928450361
 31
0.0
  0
LINE
  5
856
330
1F
100
AcDbEntity
  8
0
  6
DASHED
 62
     8
100
AcDbLine
 10
140.320687026005
 20
8.19304336045036
 30
0.0
 11
140.3296860484049
 21
8.198041464450362
 31
0.0
  0
LINE
  5
857
330
1F
100
AcDbEntity
  8
0
  6
DASHED
 62
     8
100
AcDbLine
 10
140.311693090005
 20
8.188103437250362
 30
0.0
 11
140.320687026005
 21
8.19304336045036
 31
0.0
  0
LINE
  5
858
330
1F
100
AcDbEntity
  8
0
  6
DASHED
 62
     8
100
AcDbLine
 10
140.302704376405
 20
8.183221509250358
 30
0.0
 11
140.311693090005
 21
8.188103437250362
 31
0.0
  0
LINE
  5
859
330
1F
100
AcDbEntity
  8
0
  6
DASHED
 62
     8
100
AcDbLine
 10
140.2937210244049
 20
8.178397394050364
 30
0.0
 11
140.302704376405
 21
8.183221509250358
 31
0.0
  0
LINE
  5
85A
330
1F
100
AcDbEntity
  8
0
  6
DASHED
 62
     8
100
AcDbLine
 10
140.2847431748049
 20
8.173630907650363
 30
0.0
 11
140.2937210244049
 21
8.178397394050364
 31
0.0
  0
LINE
  5
85B
330
1F
100
AcDbEntity
  8
0
  6
DASHED
 62
     8
100
AcDbLine
 10
140.275770970005
 20
8.168921869250361
 30
0.0
 11
140.2847431748049
 21
8.173630907650363
 31
0.0
  0
LINE
  5
85C
330
1F
100
AcDbEntity
  8
0
  6
DASHED
 62
     8
100
AcDbLine
 10
140.266804547605
 20
8.164270096450358
 30
0.0
 11
140.275770970005
 21
8.168921869250361
 31
0.0
  0
LINE
  5
85D
330
1F
100
AcDbEntity
  8
0
  6
DASHED
 62
     8
100
AcDbLine
 10
140.257844024405
 20
8.159675414850362
 30
0.0
 11
140.266804547605
 21
8.164270096450358
 31
0.0
  0
LINE
  5
85E
330
1F
100
AcDbEntity
  8
0
  6
DASHED
 62
     8
100
AcDbLine
 10
140.248889506005
 20
8.155137650050363
 30
0.0
 11
140.257844024405
 21
8.159675414850362
 31
0.0
  0
LINE
  5
85F
330
1F
100
AcDbEntity
  8
0
  6
DASHED
 62
     8
100
AcDbLine
 10
140.2399411028049
 20
8.150656619650362
 30
0.0
 11
140.248889506005
 21
8.155137650050363
 31
0.0
  0
LINE
  5
860
330
1F
100
AcDbEntity
  8
0
  6
DASHED
 62
     8
100
AcDbLine
 10
140.230998923605
 20
8.146232138050358
 30
0.0
 11
140.2399411028049
 21
8.150656619650362
 31
0.0
  0
LINE
  5
861
330
1F
100
AcDbEntity
  8
0
  6
DASHED
 62
     8
100
AcDbLine
 10
140.222063086805
 20
8.141864021250363
 30
0.0
 11
140.230998923605
 21
8.146232138050358
 31
0.0
  0
LINE
  5
862
330
1F
100
AcDbEntity
  8
0
  6
DASHED
 62
     8
100
AcDbLine
 10
140.213133707605
 20
8.137552085250362
 30
0.0
 11
140.222063086805
 21
8.141864021250363
 31
0.0
  0
LINE
  5
863
330
1F
100
AcDbEntity
  8
0
  6
DASHED
 62
     8
100
AcDbLine
 10
140.204210907605
 20
8.133296146050362
 30
0.0
 11
140.213133707605
 21
8.137552085250362
 31
0.0
  0
LINE
  5
864
330
1F
100
AcDbEntity
  8
0
  6
DASHED
 62
     8
100
AcDbLine
 10
140.195294803605
 20
8.129096019650361
 30
0.0
 11
140.204210907605
 21
8.133296146050362
 31
0.0
  0
LINE
  5
865
330
1F
100
AcDbEntity
  8
0
  6
DASHED
 62
     8
100
AcDbLine
 10
140.1863854852049
 20
8.12495153165036
 30
0.0
 11
140.195294803605
 21
8.129096019650361
 31
0.0
  0
LINE
  5
866
330
1F
100
AcDbEntity
  8
0
  6
DASHED
 62
     8
100
AcDbLine
 10
140.177483048405
 20
8.120862507650357
 30
0.0
 11
140.1863854852049
 21
8.12495153165036
 31
0.0
  0
LINE
  5
867
330
1F
100
AcDbEntity
  8
0
  6
DASHED
 62
     8
100
AcDbLine
 10
140.168587587605
 20
8.116828771650361
 30
0.0
 11
140.177483048405
 21
8.120862507650357
 31
0.0
  0
LINE
  5
868
330
1F
100
AcDbEntity
  8
0
  6
DASHED
 62
     8
100
AcDbLine
 10
140.159699205205
 20
8.112850149250363
 30
0.0
 11
140.168587587605
 21
8.116828771650361
 31
0.0
  0
LINE
  5
869
330
1F
100
AcDbEntity
  8
0
  6
DASHED
 62
     8
100
AcDbLine
 10
140.150818003605
 20
8.108926464450362
 30
0.0
 11
140.159699205205
 21
8.112850149250363
 31
0.0
  0
LINE
  5
86A
330
1F
100
AcDbEntity
  8
0
  6
DASHED
 62
     8
100
AcDbLine
 10
140.141944090005
 20
8.10505754125036
 30
0.0
 11
140.150818003605
 21
8.108926464450362
 31
0.0
  0
LINE
  5
86B
330
1F
100
AcDbEntity
  8
0
  6
DASHED
 62
     8
100
AcDbLine
 10
140.133077573205
 20
8.101243203650362
 30
0.0
 11
140.141944090005
 21
8.10505754125036
 31
0.0
  0
LINE
  5
86D
330
1F
100
AcDbEntity
  8
0
  6
DASHED
 62
     8
100
AcDbLine
 10
140.124218534805
 20
8.097483283650362
 30
0.0
 11
140.133077573205
 21
8.101243203650362
 31
0.0
  0
LINE
  5
86E
330
1F
100
AcDbEntity
  8
0
  6
DASHED
 62
     8
100
AcDbLine
 10
140.115367056405
 20
8.09377761645036
 30
0.0
 11
140.124218534805
 21
8.097483283650362
 31
0.0
  0
LINE
  5
86F
330
1F
100
AcDbEntity
  8
0
  6
DASHED
 62
     8
100
AcDbLine
 10
140.106523222805
 20
8.090126032450363
 30
0.0
 11
140.115367056405
 21
8.09377761645036
 31
0.0
  0
LINE
  5
870
330
1F
100
AcDbEntity
  8
0
  6
DASHED
 62
     8
100
AcDbLine
 10
140.097687122005
 20
8.086528366850359
 30
0.0
 11
140.106523222805
 21
8.090126032450363
 31
0.0
  0
LINE
  5
871
330
1F
100
AcDbEntity
  8
0
  6
DASHED
 62
     8
100
AcDbLine
 10
140.088858838805
 20
8.082984453250361
 30
0.0
 11
140.097687122005
 21
8.086528366850359
 31
0.0
  0
LINE
  5
872
330
1F
100
AcDbEntity
  8
0
  6
DASHED
 62
     8
100
AcDbLine
 10
140.080038469205
 20
8.079494125250363
 30
0.0
 11
140.088858838805
 21
8.082984453250361
 31
0.0
  0
LINE
  5
873
330
1F
100
AcDbEntity
  8
0
  6
DASHED
 62
     8
100
AcDbLine
 10
140.0712260932049
 20
8.076057218050358
 30
0.0
 11
140.080038469205
 21
8.079494125250363
 31
0.0
  0
LINE
  5
874
330
1F
100
AcDbEntity
  8
0
  6
DASHED
 62
     8
100
AcDbLine
 10
140.0624217780049
 20
8.072673574850362
 30
0.0
 11
140.0712260932049
 21
8.076057218050358
 31
0.0
  0
LINE
  5
875
330
1F
100
AcDbEntity
  8
0
  6
DASHED
 62
     8
100
AcDbLine
 10
140.053625594005
 20
8.069343037250362
 30
0.0
 11
140.0624217780049
 21
8.072673574850362
 31
0.0
  0
LINE
  5
876
330
1F
100
AcDbEntity
  8
0
  6
DASHED
 62
     8
100
AcDbLine
 10
140.044837606805
 20
8.066065446850359
 30
0.0
 11
140.053625594005
 21
8.069343037250362
 31
0.0
  0
LINE
  5
877
330
1F
100
AcDbEntity
  8
0
  6
DASHED
 62
     8
100
AcDbLine
 10
140.036057888405
 20
8.062840648450361
 30
0.0
 11
140.044837606805
 21
8.066065446850359
 31
0.0
  0
LINE
  5
878
330
1F
100
AcDbEntity
  8
0
  6
DASHED
 62
     8
100
AcDbLine
 10
140.0272865124049
 20
8.059668480450362
 30
0.0
 11
140.036057888405
 21
8.062840648450361
 31
0.0
  0
LINE
  5
879
330
1F
100
AcDbEntity
  8
0
  6
DASHED
 62
     8
100
AcDbLine
 10
140.0185235460049
 20
8.056548790850364
 30
0.0
 11
140.0272865124049
 21
8.059668480450362
 31
0.0
  0
LINE
  5
87A
330
1F
100
AcDbEntity
  8
0
  6
DASHED
 62
     8
100
AcDbLine
 10
140.009769032405
 20
8.053481429250361
 30
0.0
 11
140.0185235460049
 21
8.056548790850364
 31
0.0
  0
LINE
  5
87B
330
1F
100
AcDbEntity
  8
0
  6
DASHED
 62
     8
100
AcDbLine
 10
140.001023021205
 20
8.050466240450361
 30
0.0
 11
140.009769032405
 21
8.053481429250361
 31
0.0
  0
LINE
  5
87C
330
1F
100
AcDbEntity
  8
0
  6
DASHED
 62
     8
100
AcDbLine
 10
139.992285554005
 20
8.047503056450359
 30
0.0
 11
140.001023021205
 21
8.050466240450361
 31
0.0
  0
LINE
  5
87D
330
1F
100
AcDbEntity
  8
0
  6
DASHED
 62
     8
100
AcDbLine
 10
139.983556678805
 20
8.044591714050362
 30
0.0
 11
139.992285554005
 21
8.047503056450359
 31
0.0
  0
LINE
  5
87E
330
1F
100
AcDbEntity
  8
0
  6
DASHED
 62
     8
100
AcDbLine
 10
139.974836440405
 20
8.041732045250363
 30
0.0
 11
139.983556678805
 21
8.044591714050362
 31
0.0
  0
LINE
  5
87F
330
1F
100
AcDbEntity
  8
0
  6
DASHED
 62
     8
100
AcDbLine
 10
139.966124866005
 20
8.038923891650362
 30
0.0
 11
139.974836440405
 21
8.041732045250363
 31
0.0
  0
LINE
  5
880
330
1F
100
AcDbEntity
  8
0
  6
DASHED
 62
     8
100
AcDbLine
 10
139.9574219700049
 20
8.036167098050363
 30
0.0
 11
139.966124866005
 21
8.038923891650362
 31
0.0
  0
LINE
  5
881
330
1F
100
AcDbEntity
  8
0
  6
DASHED
 62
     8
100
AcDbLine
 10
139.948727774805
 20
8.033461506050358
 30
0.0
 11
139.9574219700049
 21
8.036167098050363
 31
0.0
  0
LINE
  5
882
330
1F
100
AcDbEntity
  8
0
  6
DASHED
 62
     8
100
AcDbLine
 10
139.940042304405
 20
8.030806958850362
 30
0.0
 11
139.948727774805
 21
8.033461506050358
 31
0.0
  0
LINE
  5
883
330
1F
100
AcDbEntity
  8
0
  6
DASHED
 62
     8
100
AcDbLine
 10
139.931365573205
 20
8.028203298050364
 30
0.0
 11
139.940042304405
 21
8.030806958850362
 31
0.0
  0
LINE
  5
884
330
1F
100
AcDbEntity
  8
0
  6
DASHED
 62
     8
100
AcDbLine
 10
139.9226975780049
 20
8.025650378050357
 30
0.0
 11
139.931365573205
 21
8.028203298050364
 31
0.0
  0
LWPOLYLINE
  5
885
330
1F
100
AcDbEntity
  8
0
  6
DASHED
 62
     8
100
AcDbPolyline
 90
        3
 70
     0
 43
0.0
 10
139.9097119316049
 20
8.021915808450359
 10
139.914038302805
 20
8.023148048450359
 10
139.9226975780049
 20
8.025650378050357
  0
LINE
  5
A02
330
1F
100
AcDbEntity
  8
0
  6
CONTINUOUS
 62
     7
100
AcDbLine
 10
127.373868618005
 20
24.52187957325036
 30
0.0
 11
127.485135731605
 21
25.79366850925036
 31
0.0
  0
LINE
  5
A03
330
1F
100
AcDbEntity
  8
0
  6
CONTINUOUS
 62
     7
100
AcDbLine
 10
127.871965966805
 20
24.52187957325036
 30
0.0
 11
127.871965966805
 21
24.52051776365036
 31
0.0
  0
LWPOLYLINE
  5
A04
330
1F
100
AcDbEntity
  8
0
  6
HIDDEN
 62
     8
100
AcDbPolyline
 90
       22
 70
     0
 43
0.0
 10
132.7641570820049
 20
23.62901838445036
 10
132.762828923605
 20
23.62672591085036
 10
132.761652398805
 20
23.62251317005036
 10
132.7606389124049
 20
23.61634061645035
 10
132.759796306005
 20
23.60815298285036
 10
132.759135538005
 20
23.59791854765036
 10
132.758665587605
 20
23.58558158445036
 10
132.758397283605
 20
23.57112691405036
 10
132.758340258005
 20
23.55452654285036
 10
132.758503496405
 20
23.53581496685035
 10
132.758894634005
 20
23.51500453325036
 10
132.759519414805
 20
23.49216376845036
 10
132.760378960405
 20
23.46744717805036
 10
132.761469931605
 20
23.44104785805036
 10
132.762790970005
 20
23.41306630445036
 10
132.764334274005
 20
23.38372147565036
 10
132.766080923605
 20
23.35338439565036
 10
132.768005694805
 20
23.32245740205036
 10
132.770091210005
 20
23.29116743245035
 10
132.7723206660049
 20
23.25972071885036
 10
132.774669488405
 20
23.22841541325036
 10
132.777111102805
 20
23.19754577165036
  0
LWPOLYLINE
  5
A05
330
1F
100
AcDbEntity
  8
0
  6
HIDDEN
 62
     8
100
AcDbPolyline
 90
       29
 70
     0
 43
0.0
 10
132.265560901205
 20
23.14850827565036
 10
132.263352240405
 20
23.14499556685036
 10
132.2614501860049
 20
23.13911478285036
 10
132.2598448980049
 20
23.13101482285035
 10
132.258522712405
 20
23.12081477485036
 10
132.257473838805
 20
23.10863477325035
 10
132.2566879172049
 20
23.09456585325035
 10
132.256157506005
 20
23.07872245805036
 10
132.255874173205
 20
23.06116575405036
 10
132.255831656405
 20
23.04198784685036
 10
132.256023987605
 20
23.02125508845036
 10
132.256446565205
 20
22.99901008205036
 10
132.257094677205
 20
22.97533806605036
 10
132.2579662628049
 20
22.95024555885036
 10
132.259057555605
 20
22.92381521805036
 10
132.260367368405
 20
22.89606904845036
 10
132.2618946596049
 20
22.86704302605035
 10
132.263636486805
 20
22.83681286605035
 10
132.265595083605
 20
22.80536972845035
 10
132.267766757205
 20
22.77280900205036
 10
132.270153610005
 20
22.73913884205036
 10
132.2727538420049
 20
22.70443025005036
 10
132.275564917205
 20
22.66876278605035
 10
132.278588653205
 20
22.63216330925036
 10
132.281818866005
 20
22.59475817645036
 10
132.285256978005
 20
22.55658423565036
 10
132.288894896405
 20
22.51778617645036
 10
132.292732118805
 20
22.47842539405036
 10
132.296760083605
 20
22.43864785325035
  0
LWPOLYLINE
  5
A06
330
1F
100
AcDbEntity
  8
0
  6
CONTINUOUS
 62
     7
100
AcDbPolyline
 90
        5
 70
     0
 43
0.0
 10
130.745416734805
 20
26.03648065005036
 10
130.741385226005
 20
26.03443235725036
 10
130.7238889044049
 20
26.02751173165036
 10
130.705552035605
 20
26.02329562925036
 10
130.686790136405
 20
26.02187957325035
  0
LWPOLYLINE
  5
A07
330
1F
100
AcDbEntity
  8
0
  6
HIDDEN
 62
     8
100
AcDbPolyline
 90
       21
 70
     0
 43
0.0
 10
132.3106770660049
 20
22.30407432045036
 10
132.313595272405
 20
22.27651285965035
 10
132.3166580116049
 20
22.24877392685036
 10
132.3198531860049
 20
22.22102438125035
 10
132.323173147605
 20
22.19338858125035
 10
132.3265982068049
 20
22.16608693005036
 10
132.3301161092049
 20
22.13927176365036
 10
132.333703958805
 20
22.11317065805036
 10
132.337343221205
 20
22.08796841165035
 10
132.341002915605
 20
22.06392384205036
 10
132.3446631284049
 20
22.04120681645036
 10
132.348294054805
 20
22.02003773005036
 10
132.351860909205
 20
22.00064303405036
 10
132.3553307108049
 20
21.98321103885036
 10
132.358689866005
 20
21.96781605805036
 10
132.361913176405
 20
21.95458093165036
 10
132.364969606805
 20
21.94362812365036
 10
132.367831917205
 20
21.93503125965035
 10
132.370484658005
 20
21.92880021165036
 10
132.372905203605
 20
21.92493513005036
 10
132.374914037205
 20
21.92342203405036
  0
LINE
  5
A08
330
1F
100
AcDbEntity
  8
0
  6
HIDDEN
 62
     8
100
AcDbLine
 10
132.3106770660049
 20
22.30407432045036
 30
0.0
 11
132.296760083605
 21
22.43864785325035
 31
0.0
  0
LWPOLYLINE
  5
A09
330
1F
100
AcDbEntity
  8
0
  6
CONTINUOUS
 62
     7
100
AcDbPolyline
 90
        5
 70
     0
 43
0.0
 10
131.524428094805
 20
24.52051776365036
 10
131.6274375572049
 20
23.40399786765036
 10
131.837044387605
 20
21.10647327885036
 10
132.056429949205
 20
18.67429547725036
 10
132.144097408405
 20
17.69369119725036
  0
LWPOLYLINE
  5
A0B
330
1F
100
AcDbEntity
  8
0
  6
HIDDEN
 62
     8
100
AcDbPolyline
 90
        2
 70
     0
 43
0.0
 10
132.7848261566563
 20
23.10158224559081
 10
132.777111102805
 20
23.19754577165036
  0
LINE
  5
A0E
330
1F
100
AcDbEntity
  8
0
  6
HIDDEN
 62
     8
100
AcDbLine
 10
132.819786408405
 20
23.68262981325035
 30
0.0
 11
132.7641570820049
 21
23.62901838445036
 31
0.0
  0
LINE
  5
A0F
330
1F
100
AcDbEntity
  8
0
  6
HIDDEN
 62
     8
100
AcDbLine
 10
132.3557656740049
 20
23.23544096205036
 30
0.0
 11
132.265560901205
 21
23.14850827565036
 31
0.0
  0
LWPOLYLINE
  5
A18
330
1F
100
AcDbEntity
  8
0
  6
CONTINUOUS
 62
     7
100
AcDbPolyline
 90
       11
 70
     0
 43
0.0
 10
132.144067230805
 20
17.69409488685036
 10
132.167059080405
 20
17.52017579405036
 10
132.2172140980049
 20
17.31047392045036
 10
132.2937389956049
 20
17.10279489965036
 10
132.398648771605
 20
16.89709254765036
 10
132.5297455988049
 20
16.69950464045036
 10
132.6817048260049
 20
16.51578109005036
 10
132.849993195605
 20
16.34756336205035
 10
133.033212738005
 20
16.19284214925036
 10
133.230959702805
 20
16.04961087405035
 10
133.4431246676049
 20
15.91628141805036
  0
LWPOLYLINE
  5
A19
330
1F
100
AcDbEntity
  8
0
  6
CONTINUOUS
 62
     7
100
AcDbPolyline
 90
        6
 70
     0
 43
0.0
 10
134.2654123108049
 20
16.05477704845036
 10
134.3907889588049
 20
14.65574884365036
 10
134.531606584405
 20
13.10793276845036
 10
134.6748162948049
 20
11.66130904685036
 10
134.833158746005
 20
10.31762123885036
 10
134.935188658005
 20
9.589461389250359
  0
LWPOLYLINE
  5
A1A
330
1F
100
AcDbEntity
  8
0
  6
HIDDEN
 62
     8
100
AcDbPolyline
 90
       10
 70
     0
 43
0.0
 10
134.927904280405
 20
21.86623616205036
 10
134.939706376405
 20
21.90467950605036
 10
134.949447688405
 20
21.94546500525036
 10
134.956518162005
 20
21.98669803885036
 10
134.9609040548049
 20
22.02812253805036
 10
134.962625045205
 20
22.06948174605036
 10
134.961735018005
 20
22.11050631405036
 10
134.958326131605
 20
22.15092123885035
 10
134.952528875605
 20
22.19046582445036
 10
134.9450562628049
 20
22.22659991405036
  0
LINE
  5
A1B
330
1F
100
AcDbEntity
  8
0
  6
HIDDEN
 62
     8
100
AcDbLine
 10
134.887617963605
 20
21.74820342925035
 30
0.0
 11
134.927904416405
 21
21.86623661645036
 31
0.0
  0
LWPOLYLINE
  5
A3B
330
1F
100
AcDbEntity
  8
0
  6
CONTINUOUS
 62
     7
100
AcDbPolyline
 90
        4
 70
     0
 43
0.0
 10
145.268240827605
 20
6.006949560450358
 10
145.308560973205
 20
6.00731816205036
 10
145.342650938005
 20
6.007497093250364
 10
145.3739050164049
 20
6.007548510850362
  0
LWPOLYLINE
  5
A3D
330
1F
100
AcDbEntity
  8
0
  6
CONTINUOUS
 62
     7
100
AcDbPolyline
 90
        4
 70
     0
 43
0.0
 10
145.0334015652049
 20
6.004605290050363
 10
145.104048506005
 20
6.005140626050362
 10
145.1660955796049
 20
6.00572043085036
 10
145.268240827605
 20
6.006949560450358
  0
LWPOLYLINE
  5
A44
330
1F
100
AcDbEntity
  8
0
  6
CONTINUOUS
 62
     7
100
AcDbPolyline
 90
        5
 70
     0
 43
0.0
 10
144.430922133205
 20
6.001079112450362
 10
144.518336261205
 20
6.001436642050364
 10
144.624453219605
 20
6.001951011650362
 10
144.747063869205
 20
6.002657765250361
 10
145.0334015652049
 20
6.004605290050363
  0
LINE
  5
A4A
330
1F
100
AcDbEntity
  8
0
  6
CONTINUOUS
 62
     7
100
AcDbLine
 10
144.2956258100049
 20
6.000654395650364
 30
0.0
 11
144.430922133205
 21
6.001079112450362
 31
0.0
  0
LINE
  5
A4C
330
1F
100
AcDbEntity
  8
0
  6
CONTINUOUS
 62
     7
100
AcDbLine
 10
144.158378528405
 20
6.000396658050362
 30
0.0
 11
144.2956258100049
 21
6.000654395650364
 31
0.0
  0
LINE
  5
A4F
330
1F
100
AcDbEntity
  8
0
  6
CONTINUOUS
 62
     7
100
AcDbLine
 10
144.009048691605
 20
6.000314083650359
 30
0.0
 11
144.158378528405
 21
6.000396658050362
 31
0.0
  0
LINE
  5
A51
330
1F
100
AcDbEntity
  8
0
  6
CONTINUOUS
 62
     7
100
AcDbLine
 10
143.853306613205
 20
6.000413675650364
 30
0.0
 11
144.009048691605
 21
6.000314083650359
 31
0.0
  0
LINE
  5
A54
330
1F
100
AcDbEntity
  8
0
  6
CONTINUOUS
 62
     7
100
AcDbLine
 10
143.566987394005
 20
6.001091480450362
 30
0.0
 11
143.851563904405
 21
6.000415462850362
 31
0.0
  0
LINE
  5
A57
330
1F
100
AcDbEntity
  8
0
  6
CONTINUOUS
 62
     7
100
AcDbLine
 10
141.665652496405
 20
6.018373130050363
 30
0.0
 11
143.567103293205
 21
6.001091032450361
 31
0.0
  0
LINE
  5
A59
330
1F
100
AcDbEntity
  8
0
  6
CONTINUOUS
 62
     7
100
AcDbLine
 10
141.459658890005
 20
6.021464917250362
 30
0.0
 11
141.665652496405
 21
6.018373130050363
 31
0.0
  0
LINE
  5
A5A
330
1F
100
AcDbEntity
  8
0
  6
CONTINUOUS
 62
     7
100
AcDbLine
 10
141.262905709205
 20
6.02465948845036
 30
0.0
 11
141.459658890005
 21
6.021464917250362
 31
0.0
  0
LINE
  5
A5B
330
1F
100
AcDbEntity
  8
0
  6
CONTINUOUS
 62
     7
100
AcDbLine
 10
141.059318594005
 20
6.028211632450364
 30
0.0
 11
141.262905709205
 21
6.02465948845036
 31
0.0
  0
LINE
  5
A5C
330
1F
100
AcDbEntity
  8
0
  6
CONTINUOUS
 62
     7
100
AcDbLine
 10
140.8764291156049
 20
6.031609982850362
 30
0.0
 11
141.059318594005
 21
6.028211632450364
 31
0.0
  0
LINE
  5
A5D
330
1F
100
AcDbEntity
  8
0
  6
CONTINUOUS
 62
     7
100
AcDbLine
 10
140.649304930005
 20
6.036090760450363
 30
0.0
 11
140.8764291156049
 21
6.031609982850362
 31
0.0
  0
LINE
  5
A5E
330
1F
100
AcDbEntity
  8
0
  6
CONTINUOUS
 62
     7
100
AcDbLine
 10
140.452300261205
 20
6.040202925250362
 30
0.0
 11
140.649304930005
 21
6.036090760450363
 31
0.0
  0
LINE
  5
A5F
330
1F
100
AcDbEntity
  8
0
  6
CONTINUOUS
 62
     7
100
AcDbLine
 10
140.306742549205
 20
6.043384235650364
 30
0.0
 11
140.452300261205
 21
6.040202925250362
 31
0.0
  0
LINE
  5
A60
330
1F
100
AcDbEntity
  8
0
  6
CONTINUOUS
 62
     7
100
AcDbLine
 10
140.188839419605
 20
6.046053592450363
 30
0.0
 11
140.306742549205
 21
6.043384235650364
 31
0.0
  0
LINE
  5
A61
330
1F
100
AcDbEntity
  8
0
  6
CONTINUOUS
 62
     7
100
AcDbLine
 10
139.971819072405
 20
6.051181467650359
 30
0.0
 11
140.188839419605
 21
6.046053592450363
 31
0.0
  0
LINE
  5
A62
330
1F
100
AcDbEntity
  8
0
  6
CONTINUOUS
 62
     7
100
AcDbLine
 10
139.7783077428049
 20
6.055983461250363
 30
0.0
 11
139.971819072405
 21
6.051181467650359
 31
0.0
  0
LINE
  5
A64
330
1F
100
AcDbEntity
  8
0
  6
CONTINUOUS
 62
     7
100
AcDbLine
 10
139.569227797205
 20
6.06140744845036
 30
0.0
 11
139.7783077428049
 21
6.055983461250363
 31
0.0
  0
LINE
  5
A65
330
1F
100
AcDbEntity
  8
0
  6
CONTINUOUS
 62
     7
100
AcDbLine
 10
139.357151779605
 20
6.067150061250359
 30
0.0
 11
139.569227797205
 21
6.06140744845036
 31
0.0
  0
LINE
  5
A67
330
1F
100
AcDbEntity
  8
0
  6
CONTINUOUS
 62
     7
100
AcDbLine
 10
139.079672474005
 20
6.075074307650361
 30
0.0
 11
139.357151779605
 21
6.067150061250359
 31
0.0
  0
LWPOLYLINE
  5
A6B
330
1F
100
AcDbEntity
  8
0
  6
CONTINUOUS
 62
     7
100
AcDbPolyline
 90
       11
 70
     0
 43
0.0
 10
143.4423359508049
 20
6.001614325250358
 10
143.450887731605
 20
5.999717533250361
 10
143.462141155605
 20
5.996672456450362
 10
143.474882090005
 20
5.992476232450364
 10
143.488524899605
 20
5.98705283885036
 10
143.502548874005
 20
5.98039924045036
 10
143.516619173205
 20
5.97251692685036
 10
143.530449510805
 20
5.96344711725036
 10
143.543777782805
 20
5.953282178050358
 10
143.556367645205
 20
5.942168507650357
 10
143.5607884388049
 20
5.937862667650364
  0
LWPOLYLINE
  5
A6D
330
1F
100
AcDbEntity
  8
0
  6
CONTINUOUS
 62
     7
100
AcDbPolyline
 90
       19
 70
     0
 43
0.0
 10
136.085656242005
 20
8.776876221250361
 10
136.087390310805
 20
8.771473582850362
 10
136.091059856405
 20
8.759579650050362
 10
136.096531171605
 20
8.741156826050364
 10
136.103691659605
 20
8.716178040450358
 10
136.1124405572049
 20
8.684645760450358
 10
136.122684688405
 20
8.646603397250359
 10
136.1343517268049
 20
8.602079234050364
 10
136.147385584405
 20
8.551090862850358
 10
136.161752891605
 20
8.493609789250363
 10
136.177485997205
 20
8.42937393805036
 10
136.194643339605
 20
8.358028544450363
 10
136.2133018372049
 20
8.279151118850364
 10
136.233506165205
 20
8.192466910850363
 10
136.2552512132049
 20
8.097938598850362
 10
136.278524582805
 20
7.995590850050362
 10
136.3033162452049
 20
7.88546561485036
 10
136.329624410005
 20
7.767589390850361
 10
136.3574408948049
 20
7.642034304450362
  0
LWPOLYLINE
  5
A6E
330
1F
100
AcDbEntity
  8
0
  6
CONTINUOUS
 62
     7
100
AcDbPolyline
 90
        6
 70
     0
 43
0.0
 10
136.374512520405
 20
7.564662019650363
 10
136.406730533205
 20
7.444425907650362
 10
136.4451966708049
 20
7.338260971650363
 10
136.4919009268049
 20
7.235941234050358
 10
136.546457430805
 20
7.137984997250363
 10
136.5851566372049
 20
7.079953019650361
  0
LINE
  5
A70
330
1F
100
AcDbEntity
  8
0
  6
CONTINUOUS
 62
     7
100
AcDbLine
 10
136.3574408948049
 20
7.642034304450362
 30
0.0
 11
136.374488072405
 21
7.564702154050358
 31
0.0
  0
LWPOLYLINE
  5
A71
330
1F
100
AcDbEntity
  8
0
  6
CONTINUOUS
 62
     7
100
AcDbPolyline
 90
       20
 70
     0
 43
0.0
 10
134.935188813205
 20
9.589419899650359
 10
134.962936350805
 20
9.440288386050362
 10
135.005402144405
 20
9.279218670850362
 10
135.059863584405
 20
9.122687270850363
 10
135.125327915605
 20
8.972547029250364
 10
135.200384562005
 20
8.830550005250358
 10
135.283247331605
 20
8.698222475650361
 10
135.371847672405
 20
8.576748530050359
 10
135.4637297444049
 20
8.467152659650359
 10
135.556193110805
 20
8.370120363650357
 10
135.646767334805
 20
8.285650358850361
 10
135.734524032405
 20
8.212283002050362
 10
135.8195808708049
 20
8.148109878850362
 10
135.902235077205
 20
8.09156707725036
 10
135.982419083605
 20
8.04166125645036
 10
136.059692114005
 20
7.997776563650361
 10
136.133642456405
 20
7.959341213250361
 10
136.203875037205
 20
7.925825504450358
 10
136.270110798805
 20
7.896694830850364
 10
136.3038778852049
 20
7.882949126850363
  0
LWPOLYLINE
  5
A72
330
1F
100
AcDbEntity
  8
0
  6
CONTINUOUS
 62
     7
100
AcDbPolyline
 90
        8
 70
     0
 43
0.0
 10
134.349485387605
 20
19.78235071725036
 10
134.462663528405
 20
19.13269710125036
 10
134.586294826005
 20
18.41647150605036
 10
134.707558910805
 20
17.70667897645036
 10
134.826265368405
 20
17.00447558125036
 10
134.942256786005
 20
16.31098103245036
 10
135.055346840405
 20
15.62732348845035
 10
135.165497458005
 20
14.95487339405036
  0
LWPOLYLINE
  5
A73
330
1F
100
AcDbEntity
  8
0
  6
CONTINUOUS
 62
     7
100
AcDbPolyline
 90
       14
 70
     0
 43
0.0
 10
135.165497458005
 20
14.95487339405036
 10
135.378165454805
 20
13.64914521965036
 10
135.481397573205
 20
13.01854231085036
 10
135.582942790805
 20
12.40436551885036
 10
135.682975141205
 20
11.80785048845036
 10
135.781821944405
 20
11.22906731885036
 10
135.879893301205
 20
10.66719428365036
 10
135.977138237205
 20
10.12232545485036
 10
136.0731899220049
 20
9.595024389250362
 10
136.167471875605
 20
9.086370576450363
 10
136.259369730005
 20
8.597745947650359
 10
136.348275128405
 20
8.130676840450362
 10
136.4334202500049
 20
7.687690758850358
 10
136.4941563732049
 20
7.373836120450363
  0
LINE
  5
A75
330
1F
100
AcDbEntity
  8
0
  6
CONTINUOUS
 62
     7
100
AcDbLine
 10
143.9145967700049
 20
5.584054334850364
 30
0.0
 11
143.560788552405
 21
5.937862550850361
 31
0.0
  0
LINE
  5
A77
330
1F
100
AcDbEntity
  8
0
  6
HIDDEN
 62
     8
100
AcDbLine
 10
132.374914037205
 20
21.92342203405036
 30
0.0
 11
132.377004653205
 21
21.92403929805036
 31
0.0
  0
LWPOLYLINE
  5
A7A
330
1F
100
AcDbEntity
  8
0
  6
HIDDEN
 62
     8
100
AcDbPolyline
 90
        7
 70
     0
 43
0.0
 10
134.9450544052049
 20
22.22660778765035
 10
134.924226270805
 20
22.30241760365036
 10
134.897100592405
 20
22.37938270125036
 10
134.863091902805
 20
22.45821197805036
 10
134.821336262805
 20
22.53972972205036
 10
134.770801688405
 20
22.62464738765036
 10
134.710699570005
 20
22.71308344845036
  0
LWPOLYLINE
  5
A7C
330
1F
100
AcDbEntity
  8
0
  6
CONTINUOUS
 62
     7
100
AcDbPolyline
 90
        8
 70
     0
 43
0.0
 10
133.655822581205
 20
15.79889438285036
 10
133.741761405205
 20
15.75650317165036
 10
133.8365949428049
 20
15.71293570925035
 10
133.937142392405
 20
15.66816482925035
 10
134.043995358805
 20
15.62082970925035
 10
134.159590274005
 20
15.56950896365036
 10
134.286673643605
 20
15.51279201005036
 10
134.315140189205
 20
15.49988340365035
  0
LINE
  5
A7D
330
1F
100
AcDbEntity
  8
0
  6
CONTINUOUS
 62
     7
100
AcDbLine
 10
133.4431246676049
 20
15.91628141805036
 30
0.0
 11
133.656091955605
 21
15.79879419405036
 31
0.0
  0
LWPOLYLINE
  5
A7E
330
1F
100
AcDbEntity
  8
0
  6
CONTINUOUS
 62
     7
100
AcDbPolyline
 90
       18
 70
     0
 43
0.0
 10
134.2555990628049
 20
20.01477394445036
 10
134.2554632692049
 20
20.01493214125036
 10
134.256242067605
 20
20.01399621805036
 10
134.2584894324049
 20
20.01119879885036
 10
134.262066787605
 20
20.00653915245035
 10
134.266817603605
 20
20.00001237965036
 10
134.272552210005
 20
19.99163857965036
 10
134.2789271012049
 20
19.98167650285036
 10
134.2856213156049
 20
19.97042231725036
 10
134.292553765205
 20
19.95782194605036
 10
134.2997498356049
 20
19.94359091405036
 10
134.3071824388049
 20
19.92746596205036
 10
134.314747181205
 20
19.90927838285036
 10
134.322349232405
 20
19.88877191725036
 10
134.3299100324049
 20
19.86552569005036
 10
134.3373450644049
 20
19.83890970925036
 10
134.3445579636049
 20
19.80790507085036
 10
134.349472088405
 20
19.78231011725036
  0
LWPOLYLINE
  5
A80
330
1F
100
AcDbEntity
  8
0
  6
HIDDEN
 62
     8
100
AcDbPolyline
 90
       29
 70
     0
 43
0.0
 10
134.710699570005
 20
22.71308344845036
 10
134.691597267605
 20
22.73835382765036
 10
134.672004891605
 20
22.76209716365035
 10
134.6506025604049
 20
22.78594509005036
 10
134.628457035605
 20
22.80869878125036
 10
134.604961125205
 20
22.83104462925036
 10
134.579190680405
 20
22.85376995725036
 10
134.550650789205
 20
22.87712506925036
 10
134.518759275605
 20
22.90137473005036
 10
134.482750000405
 20
22.92686895245036
 10
134.4416319060049
 20
22.95405450925036
 10
134.3938953284049
 20
22.98363504685036
 10
134.337629749205
 20
23.01644341645036
 10
134.2697458692049
 20
23.05383767405036
 10
134.189328122005
 20
23.09587494925036
 10
134.106620086805
 20
23.13722314445036
 10
134.021791275605
 20
23.17812633325036
 10
133.933918182805
 20
23.21923604045036
 10
133.842530000405
 20
23.26089131725036
 10
133.7473973412049
 20
23.30327135725036
 10
133.6484117060049
 20
23.34647434925036
 10
133.545545133205
 20
23.39054720845036
 10
133.438822347605
 20
23.43550433325036
 10
133.328308530005
 20
23.48133675085036
 10
133.214098458005
 20
23.52801915565036
 10
133.096307978005
 20
23.57551499885035
 10
132.975071016405
 20
23.62377873325036
 10
132.850536429205
 20
23.67275780845036
 10
132.823095326805
 20
23.68347405165036
  0
LWPOLYLINE
  5
A84
330
1F
100
AcDbEntity
  8
0
  6
CONTINUOUS
 62
     7
100
AcDbPolyline
 90
       20
 70
     0
 43
0.0
 10
144.186368618005
 20
22.51975255885036
 10
144.190007072405
 20
22.61174985805035
 10
144.201057395605
 20
22.70416854765036
 10
144.219673346005
 20
22.79634665805036
 10
144.2460749860049
 20
22.88800206765036
 10
144.280349736405
 20
22.97833562285036
 10
144.322596120405
 20
23.06673774445036
 10
144.3725334084049
 20
23.15201715245036
 10
144.429622053205
 20
23.23301046765036
 10
144.493495574805
 20
23.30911473005035
 10
144.563508067605
 20
23.37954825005036
 10
144.639327470805
 20
23.44397985805036
 10
144.720235475605
 20
23.50180222285036
 10
144.805802827605
 20
23.55271986445035
 10
144.895429088405
 20
23.59635983245035
 10
144.9884475348049
 20
23.63238848685035
 10
145.0840405588049
 20
23.66050799725036
 10
145.180826757205
 20
23.68044313165036
 10
145.277874835605
 20
23.69224592205036
 10
145.373868618005
 20
23.69609753485036
  0
LINE
  5
A88
330
1F
100
AcDbEntity
  8
CENTER
100
AcDbLine
 10
145.3568906188068
 20
25.21507835211543
 30
0.0
 11
145.3568906188068
 21
19.91982638900504
 31
0.0
  0
LWPOLYLINE
  5
A8C
330
1F
100
AcDbEntity
  8
0
  6
HIDDEN
 62
     8
100
AcDbPolyline
 90
       52
 70
     0
 43
0.0
 10
132.374914133205
 20
21.92342091405035
 10
132.437328747605
 20
21.90509652045036
 10
132.563304518805
 20
21.86850983085036
 10
132.688466232405
 20
21.83271602765036
 10
132.813208283605
 20
21.79763350445035
 10
132.9362095236049
 20
21.76366441965036
 10
133.053955893205
 20
21.73177745805035
 10
133.163437493205
 20
21.70273401005036
 10
133.264330098005
 20
21.67653581005036
 10
133.3577241796049
 20
21.65281768205036
 10
133.444636517205
 20
21.63125307245036
 10
133.525991622805
 20
21.61155717005036
 10
133.602482274005
 20
21.59351772365036
 10
133.674377331605
 20
21.57703237005036
 10
133.741882762005
 20
21.56201615405036
 10
133.805205555605
 20
21.54838593485036
 10
133.8645528532049
 20
21.53606065805035
 10
133.920143738005
 20
21.52495915885036
 10
133.972252046805
 20
21.51499281805036
 10
134.021156704405
 20
21.50607716045036
 10
134.067123464405
 20
21.49813580045036
 10
134.110406138005
 20
21.49110038765036
 10
134.1512487348049
 20
21.48491057165036
 10
134.1898778484049
 20
21.47951547885035
 10
134.2264449892049
 20
21.47488072845035
 10
134.261080290005
 20
21.47097859885036
 10
134.293929374805
 20
21.46778363885036
 10
134.325153810005
 20
21.46527434445036
 10
134.354931363605
 20
21.46343531085036
 10
134.3834560964049
 20
21.46225994285035
 10
134.410927178005
 20
21.46175391885036
 10
134.437500210005
 20
21.46193697645036
 10
134.463322752405
 20
21.46284085645036
 10
134.488555019605
 20
21.46451142765036
 10
134.513431222805
 20
21.46702022605035
 10
134.538203907605
 20
21.47047365805036
 10
134.563102074005
 20
21.47501627725036
 10
134.588263573205
 20
21.48081900045036
 10
134.613676405205
 20
21.48804917965036
 10
134.639233040405
 20
21.49685712845035
 10
134.664796808405
 20
21.50738015725035
 10
134.690186218005
 20
21.51972752045036
 10
134.715175155605
 20
21.53396599725036
 10
134.739576904405
 20
21.55016098285036
 10
134.763221342805
 20
21.56837889485036
 10
134.7859305604049
 20
21.58867986765036
 10
134.8074575284049
 20
21.61105472685036
 10
134.827518387605
 20
21.63541798605036
 10
134.845844630805
 20
21.66164152525035
 10
134.862200003605
 20
21.68957643085036
 10
134.876377432405
 20
21.71905784205036
 10
134.887618043605
 20
21.74820361325036
  0
LWPOLYLINE
  5
A8D
330
1F
100
AcDbEntity
  8
0
  6
HIDDEN
 62
     8
100
AcDbPolyline
 90
       29
 70
     0
 43
0.0
 10
132.357336072405
 20
23.23588457965036
 10
132.458877344405
 20
23.20342166765036
 10
132.5665802580049
 20
23.16935805805036
 10
132.672586914005
 20
23.13621746125036
 10
132.776676510805
 20
23.10406765325036
 10
132.878626942805
 20
23.07297570285036
 10
132.978221834005
 20
23.04300573325036
 10
133.075245902805
 20
23.01422026125035
 10
133.169484003605
 20
22.98668033485036
 10
133.260728658005
 20
22.96044318125036
 10
133.348768211605
 20
22.93556545645036
 10
133.433394910805
 20
22.91210061805036
 10
133.514406197205
 20
22.89009828365036
 10
133.5915911300049
 20
22.86960745965036
 10
133.664747435605
 20
22.85067128045036
 10
133.733665512405
 20
22.83333043725036
 10
133.798133942805
 20
22.81762048045036
 10
133.857944888405
 20
22.80356900205036
 10
133.912875434005
 20
22.79119790605036
 10
133.9627208788049
 20
22.78051290765036
 10
134.007260355605
 20
22.77150759405036
 10
134.046314475605
 20
22.76414687565036
 10
134.079722283605
 20
22.75836727085036
 10
134.107408262805
 20
22.75406058285036
 10
134.129408899605
 20
22.75106939245036
 10
134.145909949205
 20
22.74918624205036
 10
134.157278654805
 20
22.74816207565036
 10
134.1640434836049
 20
22.74772838765036
 10
134.165815000405
 20
22.74765319245036
  0
LINE
  5
A8E
330
1F
100
AcDbEntity
  8
0
  6
CONTINUOUS
 62
     7
100
AcDbLine
 10
143.435069685205
 20
5.59499181965036
 30
0.0
 11
143.440510058005
 21
5.608926907650364
 31
0.0
  0
LINE
  5
A90
330
1F
100
AcDbEntity
  8
0
  6
CONTINUOUS
 62
     7
100
AcDbLine
 10
143.440510058005
 20
5.608926907650364
 30
0.0
 11
143.453805478805
 21
5.637590523650359
 31
0.0
  0
LWPOLYLINE
  5
A92
330
1F
100
AcDbEntity
  8
0
  6
CONTINUOUS
 62
     7
100
AcDbPolyline
 90
       20
 70
     0
 43
0.0
 10
145.373868618005
 20
21.34385261325036
 10
145.2775468996049
 20
21.34772545005036
 10
145.181210083605
 20
21.35942447405036
 10
145.085599670805
 20
21.37901117645036
 10
144.991173488405
 20
21.40656502445036
 10
144.898966016405
 20
21.44194561165036
 10
144.809698824405
 20
21.48498931405036
 10
144.724226819605
 20
21.53536442285036
 10
144.643412061205
 20
21.59257106925036
 10
144.5676667012049
 20
21.65630777965036
 10
144.497667622805
 20
21.72599147085036
 10
144.4336974708049
 20
21.80134247245035
 10
144.376356541205
 20
21.88166884685036
 10
144.326004800405
 20
21.96644641805036
 10
144.283137749205
 20
22.05474072045036
 10
144.248115731605
 20
22.14545189325036
 10
144.2209491828049
 20
22.23800037165035
 10
144.201674651605
 20
22.33153201165035
 10
144.190172730005
 20
22.42568896045035
 10
144.186368618005
 20
22.51975255885036
  0
LINE
  5
A94
330
1F
100
AcDbEntity
  8
0
  6
CONTINUOUS
 62
     7
100
AcDbLine
 10
143.453805478805
 20
5.637590523650359
 30
0.0
 11
143.497292688405
 21
5.703658571650358
 31
0.0
  0
LWPOLYLINE
  5
A9C
330
1F
100
AcDbEntity
  8
0
  6
CONTINUOUS
 62
     7
100
AcDbPolyline
 90
       16
 70
     0
 43
0.0
 10
127.871965966805
 20
24.52051776365036
 10
127.821772936405
 20
24.52464672845036
 10
127.772105288405
 20
24.52827420365036
 10
127.723558693205
 20
24.53135694925036
 10
127.6765725268049
 20
24.53386686605036
 10
127.631766258005
 20
24.53577105005036
 10
127.589502776405
 20
24.53705396205036
 10
127.550368446805
 20
24.53769790285036
 10
127.514661984405
 20
24.53769790445036
 10
127.482887904405
 20
24.53705396685036
 10
127.455287875605
 20
24.53577104045036
 10
127.432246446805
 20
24.53386684205035
 10
127.413948970005
 20
24.53135694765036
 10
127.400638384405
 20
24.52827421805036
 10
127.3924329300049
 20
24.52464673165036
 10
127.389434160405
 20
24.52051776365036
  0
LWPOLYLINE
  5
A9D
330
1F
100
AcDbEntity
  8
0
  6
CONTINUOUS
 62
     7
100
AcDbPolyline
 90
       13
 70
     0
 43
0.0
 10
127.871965966805
 20
24.52187957325036
 10
127.820153099605
 20
24.52614178285036
 10
127.768883725205
 20
24.52988623725036
 10
127.718714715605
 20
24.53307172525036
 10
127.670192104405
 20
24.53566301165036
 10
127.623955701205
 20
24.53762717645036
 10
127.580412774805
 20
24.53894868205036
 10
127.540009267605
 20
24.53961377965036
 10
127.503186883605
 20
24.53961439565036
 10
127.470349483605
 20
24.53894960525035
 10
127.441858757205
 20
24.53762565325035
 10
127.418043011605
 20
24.53565724365036
 10
127.399188176405
 20
24.53307087565036
  0
LINE
  5
A9E
330
1F
100
AcDbEntity
  8
0
  6
CONTINUOUS
 62
     7
100
AcDbLine
 10
127.373868618005
 20
24.52187957325036
 30
0.0
 11
127.389434160405
 21
24.52051776365036
 31
0.0
  0
LINE
  5
AA1
330
1F
100
AcDbEntity
  8
0
  6
CONTINUOUS
 62
     7
100
AcDbLine
 10
143.497292688405
 20
5.703658571650358
 30
0.0
 11
143.551196122005
 21
5.75714675085036
 31
0.0
  0
LINE
  5
AA9
330
1F
100
AcDbEntity
  8
0
  6
CONTINUOUS
 62
     7
100
AcDbLine
 10
143.551196122005
 20
5.75714675085036
 30
0.0
 11
143.610787320405
 21
5.796581342850359
 31
0.0
  0
LWPOLYLINE
  5
AB5
330
1F
100
AcDbEntity
  8
0
  6
CONTINUOUS
 62
     7
100
AcDbPolyline
 90
        3
 70
     0
 43
0.0
 10
143.610787320405
 20
5.796581342850359
 10
143.670627506005
 20
5.822032898050359
 10
143.675416438805
 20
5.82323466445036
  0
LWPOLYLINE
  5
ABC
330
1F
100
AcDbEntity
  8
0
  6
CONTINUOUS
 62
     7
100
AcDbPolyline
 90
        4
 70
     0
 43
0.0
 10
127.399188176405
 20
24.53307087565036
 10
127.385444446805
 20
24.52988940685036
 10
127.376970179605
 20
24.52614592525036
 10
127.373868618005
 20
24.52187957325036
  0
ARC
  5
BC6
330
1F
100
AcDbEntity
  8
0
  6
DASHED
 62
     8
100
AcDbCircle
 10
130.841855883605
 20
25.44303285165035
 30
0.0
 40
0.6153570576
100
AcDbArc
 50
5.321474211399999
 51
90.0
  0
ARC
  5
BDC
330
1F
100
AcDbEntity
  8
0
  6
CONTINUOUS
 62
     7
100
AcDbCircle
 10
140.0027970612049
 20
5.896879573250359
 30
0.0
 40
0.875
100
AcDbArc
 50
196.6838486157
 51
270.0
  0
ARC
  5
BDF
330
1F
100
AcDbEntity
  8
0
  6
CONTINUOUS
 62
     7
100
AcDbCircle
 10
142.613802806805
 20
5.896879573250359
 30
0.0
 40
0.875
100
AcDbArc
 50
270.0008927292
 51
340.1491570607
  0
ARC
  5
BE0
330
1F
100
AcDbEntity
  8
0
  6
CONTINUOUS
 62
     7
100
AcDbCircle
 10
127.7341844900049
 20
25.77187957325036
 30
0.0
 40
0.25
100
AcDbArc
 50
90.00001915410001
 51
175.0
  0
ARC
  5
BE3
330
1F
100
AcDbEntity
  8
0
  6
CONTINUOUS
 62
     7
100
AcDbCircle
 10
144.102422008405
 20
5.771879573250359
 30
0.0
 40
0.265625
100
AcDbArc
 50
225.0
 51
270.0
  0
LINE
  5
BF1
330
1F
100
AcDbEntity
  8
0
100
AcDbLine
 10
139.1646315317502
 20
5.645675382931251
 30
0.0
 11
139.0355192143955
 21
6.076470388806234
 31
0.0
  0
LINE
  5
BF2
330
1F
100
AcDbEntity
  8
0
  6
CONTINUOUS
 62
     7
100
AcDbLine
 10
136.494163688405
 20
7.373824301250358
 30
0.0
 11
136.518821174805
 21
7.267729629250361
 31
0.0
  0
LINE
  5
BF3
330
1F
100
AcDbEntity
  8
0
  6
CONTINUOUS
 62
     7
100
AcDbLine
 10
136.518821174805
 20
7.267729629250361
 30
0.0
 11
136.567575221205
 21
7.119424850050364
 31
0.0
  0
LINE
  5
BF4
330
1F
100
AcDbEntity
  8
0
  6
CONTINUOUS
 62
     7
100
AcDbLine
 10
136.567575221205
 20
7.119424850050364
 30
0.0
 11
136.627001526805
 21
6.986007552450359
 31
0.0
  0
LINE
  5
BF5
330
1F
100
AcDbEntity
  8
0
  6
CONTINUOUS
 62
     7
100
AcDbLine
 10
136.627001526805
 20
6.986007552450359
 30
0.0
 11
136.695411616405
 21
6.864939320450361
 31
0.0
  0
LINE
  5
BF6
330
1F
100
AcDbEntity
  8
0
  6
CONTINUOUS
 62
     7
100
AcDbLine
 10
136.695411616405
 20
6.864939320450361
 30
0.0
 11
136.767936746005
 21
6.759646334850359
 31
0.0
  0
LINE
  5
BF7
330
1F
100
AcDbEntity
  8
0
  6
CONTINUOUS
 62
     7
100
AcDbLine
 10
136.767936746005
 20
6.759646334850359
 30
0.0
 11
136.848870578005
 21
6.661150251650362
 31
0.0
  0
LINE
  5
BF8
330
1F
100
AcDbEntity
  8
0
  6
CONTINUOUS
 62
     7
100
AcDbLine
 10
136.848870578005
 20
6.661150251650362
 30
0.0
 11
136.9472961268049
 21
6.561033814850361
 31
0.0
  0
LINE
  5
BF9
330
1F
100
AcDbEntity
  8
0
  6
CONTINUOUS
 62
     7
100
AcDbLine
 10
136.9472961268049
 20
6.561033814850361
 30
0.0
 11
137.059799683605
 21
6.466592856450361
 31
0.0
  0
LINE
  5
BFA
330
1F
100
AcDbEntity
  8
0
  6
CONTINUOUS
 62
     7
100
AcDbLine
 10
137.059799683605
 20
6.466592856450361
 30
0.0
 11
137.181853109205
 21
6.382848053250363
 31
0.0
  0
LINE
  5
BFB
330
1F
100
AcDbEntity
  8
0
  6
CONTINUOUS
 62
     7
100
AcDbLine
 10
137.181853109205
 20
6.382848053250363
 30
0.0
 11
137.3050405076049
 21
6.314273243650362
 31
0.0
  0
LINE
  5
BFC
330
1F
100
AcDbEntity
  8
0
  6
CONTINUOUS
 62
     7
100
AcDbLine
 10
137.3050405076049
 20
6.314273243650362
 30
0.0
 11
137.422457109205
 21
6.261510675650363
 31
0.0
  0
LINE
  5
BFD
330
1F
100
AcDbEntity
  8
0
  6
CONTINUOUS
 62
     7
100
AcDbLine
 10
137.422457109205
 20
6.261510675650363
 30
0.0
 11
137.533273189205
 21
6.221546406850357
 31
0.0
  0
LINE
  5
BFE
330
1F
100
AcDbEntity
  8
0
  6
CONTINUOUS
 62
     7
100
AcDbLine
 10
137.533273189205
 20
6.221546406850357
 30
0.0
 11
137.635416656405
 21
6.192114040450363
 31
0.0
  0
LINE
  5
BFF
330
1F
100
AcDbEntity
  8
0
  6
CONTINUOUS
 62
     7
100
AcDbLine
 10
137.635416656405
 20
6.192114040450363
 30
0.0
 11
137.728586910805
 21
6.170665430850363
 31
0.0
  0
LINE
  5
C00
330
1F
100
AcDbEntity
  8
0
  6
CONTINUOUS
 62
     7
100
AcDbLine
 10
137.728586910805
 20
6.170665430850363
 30
0.0
 11
137.816361930005
 21
6.154483534850363
 31
0.0
  0
LINE
  5
C01
330
1F
100
AcDbEntity
  8
0
  6
CONTINUOUS
 62
     7
100
AcDbLine
 10
137.816361930005
 20
6.154483534850363
 30
0.0
 11
137.904056624405
 21
6.141523698050363
 31
0.0
  0
LINE
  5
C02
330
1F
100
AcDbEntity
  8
0
  6
CONTINUOUS
 62
     7
100
AcDbLine
 10
137.904056624405
 20
6.141523698050363
 30
0.0
 11
137.996533699605
 21
6.130572147650362
 31
0.0
  0
LINE
  5
C03
330
1F
100
AcDbEntity
  8
0
  6
CONTINUOUS
 62
     7
100
AcDbLine
 10
137.996533699605
 20
6.130572147650362
 30
0.0
 11
138.096774768405
 21
6.121048474050361
 31
0.0
  0
LINE
  5
C04
330
1F
100
AcDbEntity
  8
0
  6
CONTINUOUS
 62
     7
100
AcDbLine
 10
138.096774768405
 20
6.121048474050361
 30
0.0
 11
138.2057123652049
 21
6.112688302850358
 31
0.0
  0
LINE
  5
C05
330
1F
100
AcDbEntity
  8
0
  6
CONTINUOUS
 62
     7
100
AcDbLine
 10
138.2057123652049
 20
6.112688302850358
 30
0.0
 11
138.323972691605
 21
6.105254398850362
 31
0.0
  0
LINE
  5
C06
330
1F
100
AcDbEntity
  8
0
  6
CONTINUOUS
 62
     7
100
AcDbLine
 10
138.323972691605
 20
6.105254398850362
 30
0.0
 11
138.452909304405
 21
6.098472523650357
 31
0.0
  0
LINE
  5
C07
330
1F
100
AcDbEntity
  8
0
  6
CONTINUOUS
 62
     7
100
AcDbLine
 10
138.452909304405
 20
6.098472523650357
 30
0.0
 11
138.593361835605
 21
6.09215154925036
 31
0.0
  0
LINE
  5
C08
330
1F
100
AcDbEntity
  8
0
  6
CONTINUOUS
 62
     7
100
AcDbLine
 10
138.593361835605
 20
6.09215154925036
 30
0.0
 11
138.745500808405
 21
6.086178142850364
 31
0.0
  0
LINE
  5
C09
330
1F
100
AcDbEntity
  8
0
  6
CONTINUOUS
 62
     7
100
AcDbLine
 10
138.745500808405
 20
6.086178142850364
 30
0.0
 11
138.909514539605
 21
6.08045452845036
 31
0.0
  0
LINE
  5
C0A
330
1F
100
AcDbEntity
  8
0
  6
CONTINUOUS
 62
     7
100
AcDbLine
 10
138.909514539605
 20
6.08045452845036
 30
0.0
 11
139.079672474005
 21
6.075074307650361
 31
0.0
  0
LINE
  5
C39
330
1F
100
AcDbEntity
  8
DEFPOINTS
100
AcDbLine
 10
127.7341844900049
 20
26.02187957325035
 30
0.0
 11
145.373868618005
 21
26.02187957325035
 31
0.0
  0
LINE
  5
C3A
330
1F
100
AcDbEntity
  8
DEFPOINTS
100
AcDbLine
 10
127.871965966805
 20
24.52051776365036
 30
0.0
 11
145.373868618005
 21
24.52051776365036
 31
0.0
  0
LINE
  5
C3B
330
1F
100
AcDbEntity
  8
DEFPOINTS
100
AcDbLine
 10
162.875771269205
 20
24.52051776365036
 30
0.0
 11
145.373868618005
 21
24.52051776365036
 31
0.0
  0
LINE
  5
C3C
330
1F
100
AcDbEntity
  8
DEFPOINTS
100
AcDbLine
 10
163.013552746005
 20
26.02187957325035
 30
0.0
 11
145.373868618005
 21
26.02187957325035
 31
0.0
  0
LWPOLYLINE
  5
C3D
330
1F
100
AcDbEntity
  8
0
  6
CONTINUOUS
 62
     7
100
AcDbPolyline
 90
       30
 70
     0
 43
0.0
 10
159.982255134805
 20
26.05838990925036
 10
159.883938245205
 20
26.11560870605035
 10
159.7833081796049
 20
26.16628877805036
 10
159.680636710805
 20
26.21119349645036
 10
159.576195613205
 20
26.25108623565036
 10
159.470256659605
 20
26.28673036365036
 10
159.310649205205
 20
26.33348805965036
 10
159.149226133205
 20
26.37505463725036
 10
158.986879216405
 20
26.41393495405036
 10
158.2798452916049
 20
26.57897489485036
 10
157.572129347605
 20
26.73989669485036
 10
156.863655898005
 20
26.89601286285036
 10
156.154349456405
 20
27.04663590925036
 10
155.444134534805
 20
27.19107834445036
 10
154.7329356436049
 20
27.32865267725036
 10
154.020677296405
 20
27.45867141965035
 10
153.307284006805
 20
27.58044708045036
 10
152.592680285205
 20
27.69329216845036
 10
151.997046909205
 20
27.77989340845036
 10
151.400479571605
 20
27.85943826125036
 10
150.802934776405
 20
27.93153057005035
 10
150.204369021205
 20
27.99577417645036
 10
149.604738810005
 20
28.05177292205036
 10
149.004000642005
 20
28.09913064845035
 10
148.402111018005
 20
28.13745119725036
 10
147.799026442005
 20
28.16633841005035
 10
147.194703413205
 20
28.18539613005036
 10
146.589098430805
 20
28.19422819725037
 10
145.982167998805
 20
28.19243845485036
 10
145.373868618005
 20
28.17963074445036
  0
LWPOLYLINE
  5
C3E
330
1F
100
AcDbEntity
  8
0
  6
HIDDEN
 62
     8
100
AcDbPolyline
 90
       29
 70
     0
 43
0.0
 10
158.390401163605
 20
23.23588457965036
 10
158.2888598916049
 20
23.20342166765036
 10
158.181156978005
 20
23.16935805805036
 10
158.075150322005
 20
23.13621746125036
 10
157.971060725205
 20
23.10406765325036
 10
157.869110293205
 20
23.07297570285036
 10
157.769515402005
 20
23.04300573325036
 10
157.672491333205
 20
23.01422026125035
 10
157.578253232405
 20
22.98668033485036
 10
157.487008578005
 20
22.96044318125036
 10
157.3989690244049
 20
22.93556545645036
 10
157.314342325205
 20
22.91210061805036
 10
157.233331038805
 20
22.89009828365036
 10
157.156146106005
 20
22.86960745965036
 10
157.082989800405
 20
22.85067128045036
 10
157.014071723605
 20
22.83333043725036
 10
156.949603293205
 20
22.81762048045036
 10
156.889792347605
 20
22.80356900205036
 10
156.834861802005
 20
22.79119790605036
 10
156.785016357205
 20
22.78051290765036
 10
156.740476880405
 20
22.77150759405036
 10
156.701422760405
 20
22.76414687565036
 10
156.668014952405
 20
22.75836727085036
 10
156.640328973205
 20
22.75406058285036
 10
156.618328336405
 20
22.75106939245036
 10
156.601827286805
 20
22.74918624205036
 10
156.590458581205
 20
22.74816207565036
 10
156.583693752405
 20
22.74772838765036
 10
156.581922235605
 20
22.74765319245036
  0
LWPOLYLINE
  5
C3F
330
1F
100
AcDbEntity
  8
0
  6
HIDDEN
 62
     8
100
AcDbPolyline
 90
       52
 70
     0
 43
0.0
 10
158.372823102805
 20
21.92342091405035
 10
158.310408488405
 20
21.90509652045036
 10
158.184432717205
 20
21.86850983085036
 10
158.059271003605
 20
21.83271602765036
 10
157.934528952405
 20
21.79763350445035
 10
157.811527712405
 20
21.76366441965036
 10
157.693781342805
 20
21.73177745805035
 10
157.584299742805
 20
21.70273401005036
 10
157.483407138005
 20
21.67653581005036
 10
157.390013056405
 20
21.65281768205036
 10
157.303100718805
 20
21.63125307245036
 10
157.221745613205
 20
21.61155717005036
 10
157.145254962005
 20
21.59351772365036
 10
157.073359904405
 20
21.57703237005036
 10
157.005854474005
 20
21.56201615405036
 10
156.942531680405
 20
21.54838593485036
 10
156.883184382805
 20
21.53606065805035
 10
156.827593498005
 20
21.52495915885036
 10
156.775485189205
 20
21.51499281805036
 10
156.726580531605
 20
21.50607716045036
 10
156.6806137716049
 20
21.49813580045036
 10
156.637331098005
 20
21.49110038765036
 10
156.596488501205
 20
21.48491057165036
 10
156.557859387605
 20
21.47951547885035
 10
156.521292246805
 20
21.47488072845035
 10
156.486656946005
 20
21.47097859885036
 10
156.453807861205
 20
21.46778363885036
 10
156.422583426005
 20
21.46527434445036
 10
156.392805872405
 20
21.46343531085036
 10
156.364281139605
 20
21.46225994285035
 10
156.336810058005
 20
21.46175391885036
 10
156.310237026005
 20
21.46193697645036
 10
156.284414483605
 20
21.46284085645036
 10
156.259182216405
 20
21.46451142765036
 10
156.234306013205
 20
21.46702022605035
 10
156.209533328405
 20
21.47047365805036
 10
156.184635162005
 20
21.47501627725036
 10
156.159473662805
 20
21.48081900045036
 10
156.134060830805
 20
21.48804917965036
 10
156.108504195605
 20
21.49685712845035
 10
156.082940427605
 20
21.50738015725035
 10
156.057551018005
 20
21.51972752045036
 10
156.032562080405
 20
21.53396599725036
 10
156.008160331605
 20
21.55016098285036
 10
155.984515893205
 20
21.56837889485036
 10
155.961806675605
 20
21.58867986765036
 10
155.940279707605
 20
21.61105472685036
 10
155.920218848405
 20
21.63541798605036
 10
155.901892605205
 20
21.66164152525035
 10
155.885537232405
 20
21.68957643085036
 10
155.871359803605
 20
21.71905784205036
 10
155.860119192405
 20
21.74820361325036
  0
LWPOLYLINE
  5
C40
330
1F
100
AcDbEntity
  8
0
  6
CONTINUOUS
 62
     7
100
AcDbPolyline
 90
       11
 70
     0
 43
0.0
 10
158.603670005205
 20
17.69409488685036
 10
158.580678155605
 20
17.52017579405036
 10
158.530523138005
 20
17.31047392045036
 10
158.453998240405
 20
17.10279489965036
 10
158.349088464405
 20
16.89709254765036
 10
158.217991637205
 20
16.69950464045036
 10
158.066032410005
 20
16.51578109005036
 10
157.897744040405
 20
16.34756336205035
 10
157.714524498005
 20
16.19284214925036
 10
157.516777533205
 20
16.04961087405035
 10
157.304612568405
 20
15.91628141805036
  0
LWPOLYLINE
  5
C41
330
1F
100
AcDbEntity
  8
0
  6
CONTINUOUS
 62
     7
100
AcDbPolyline
 90
        5
 70
     0
 43
0.0
 10
159.223309141205
 20
24.52051776365036
 10
159.120299678805
 20
23.40399786765036
 10
158.9106928484049
 20
21.10647327885036
 10
158.691307286805
 20
18.67429547725036
 10
158.603639827605
 20
17.69369119725036
  0
LINE
  5
C42
330
1F
100
AcDbEntity
  8
0
  6
CONTINUOUS
 62
     7
100
AcDbLine
 10
163.373868618005
 20
24.52187957325036
 30
0.0
 11
163.262601504405
 21
25.79366850925036
 31
0.0
  0
ARC
  5
C43
330
1F
100
AcDbEntity
  8
0
  6
DASHED
 62
     8
100
AcDbCircle
 10
159.905881352405
 20
25.44303285165035
 30
0.0
 40
0.6153570576
100
AcDbArc
 50
90.0
 51
174.6785257886
  0
LWPOLYLINE
  5
C44
330
1F
100
AcDbEntity
  8
0
  6
CONTINUOUS
 62
     7
100
AcDbPolyline
 90
        4
 70
     0
 43
0.0
 10
163.348549059605
 20
24.53307087565036
 10
163.362292789205
 20
24.52988940685036
 10
163.370767056405
 20
24.52614592525036
 10
163.373868618005
 20
24.52187957325036
  0
LINE
  5
C45
330
1F
100
AcDbEntity
  8
0
  6
CONTINUOUS
 62
     7
100
AcDbLine
 10
163.373868618005
 20
24.52187957325036
 30
0.0
 11
163.358303075605
 21
24.52051776365036
 31
0.0
  0
LWPOLYLINE
  5
C46
330
1F
100
AcDbEntity
  8
0
  6
CONTINUOUS
 62
     7
100
AcDbPolyline
 90
       13
 70
     0
 43
0.0
 10
162.875771269205
 20
24.52187957325036
 10
162.927584136405
 20
24.52614178285036
 10
162.978853510805
 20
24.52988623725036
 10
163.029022520405
 20
24.53307172525036
 10
163.077545131605
 20
24.53566301165036
 10
163.123781534805
 20
24.53762717645036
 10
163.167324461205
 20
24.53894868205036
 10
163.207727968405
 20
24.53961377965036
 10
163.244550352405
 20
24.53961439565036
 10
163.277387752405
 20
24.53894960525035
 10
163.305878478805
 20
24.53762565325035
 10
163.329694224405
 20
24.53565724365036
 10
163.348549059605
 20
24.53307087565036
  0
LWPOLYLINE
  5
C47
330
1F
100
AcDbEntity
  8
0
  6
CONTINUOUS
 62
     7
100
AcDbPolyline
 90
       16
 70
     0
 43
0.0
 10
162.875771269205
 20
24.52051776365036
 10
162.925964299605
 20
24.52464672845036
 10
162.975631947605
 20
24.52827420365036
 10
163.024178542805
 20
24.53135694925036
 10
163.071164709205
 20
24.53386686605036
 10
163.115970978005
 20
24.53577105005036
 10
163.158234459605
 20
24.53705396205036
 10
163.197368789205
 20
24.53769790285036
 10
163.233075251605
 20
24.53769790445036
 10
163.264849331605
 20
24.53705396685036
 10
163.292449360405
 20
24.53577104045036
 10
163.3154907892049
 20
24.53386684205035
 10
163.3337882660049
 20
24.53135694765036
 10
163.347098851605
 20
24.52827421805036
 10
163.355304306005
 20
24.52464673165036
 10
163.358303075605
 20
24.52051776365036
  0
LINE
  5
C48
330
1F
100
AcDbEntity
  8
0
  6
CONTINUOUS
 62
     7
100
AcDbLine
 10
162.875771269205
 20
24.52187957325036
 30
0.0
 11
162.875771269205
 21
24.52051776365036
 31
0.0
  0
LINE
  5
C49
330
1F
100
AcDbEntity
  8
0
  6
HIDDEN
 62
     8
100
AcDbLine
 10
158.372823198805
 20
21.92342203405036
 30
0.0
 11
158.370732582805
 21
21.92403929805036
 31
0.0
  0
LINE
  5
C4A
330
1F
100
AcDbEntity
  8
0
  6
HIDDEN
 62
     8
100
AcDbLine
 10
158.391971562005
 20
23.23544096205036
 30
0.0
 11
158.482176334805
 21
23.14850827565036
 31
0.0
  0
LINE
  5
C4B
330
1F
100
AcDbEntity
  8
0
  6
HIDDEN
 62
     8
100
AcDbLine
 10
158.437060170005
 20
22.30407432045036
 30
0.0
 11
158.450977152405
 21
22.43864785325035
 31
0.0
  0
LWPOLYLINE
  5
C4C
330
1F
100
AcDbEntity
  8
0
  6
HIDDEN
 62
     8
100
AcDbPolyline
 90
       21
 70
     0
 43
0.0
 10
158.437060170005
 20
22.30407432045036
 10
158.434141963605
 20
22.27651285965035
 10
158.431079224405
 20
22.24877392685036
 10
158.427884050005
 20
22.22102438125035
 10
158.424564088405
 20
22.19338858125035
 10
158.421139029205
 20
22.16608693005036
 10
158.417621126805
 20
22.13927176365036
 10
158.414033277205
 20
22.11317065805036
 10
158.410394014805
 20
22.08796841165035
 10
158.406734320405
 20
22.06392384205036
 10
158.403074107605
 20
22.04120681645036
 10
158.399443181205
 20
22.02003773005036
 10
158.395876326805
 20
22.00064303405036
 10
158.392406525205
 20
21.98321103885036
 10
158.389047370005
 20
21.96781605805036
 10
158.3858240596049
 20
21.95458093165036
 10
158.382767629205
 20
21.94362812365036
 10
158.379905318805
 20
21.93503125965035
 10
158.377252578005
 20
21.92880021165036
 10
158.374832032405
 20
21.92493513005036
 10
158.372823198805
 20
21.92342203405036
  0
LWPOLYLINE
  5
C4D
330
1F
100
AcDbEntity
  8
0
  6
HIDDEN
 62
     8
100
AcDbPolyline
 90
       29
 70
     0
 43
0.0
 10
158.482176334805
 20
23.14850827565036
 10
158.484384995605
 20
23.14499556685036
 10
158.486287050005
 20
23.13911478285036
 10
158.487892338005
 20
23.13101482285035
 10
158.489214523605
 20
23.12081477485036
 10
158.490263397205
 20
23.10863477325035
 10
158.491049318805
 20
23.09456585325035
 10
158.491579730005
 20
23.07872245805036
 10
158.491863062805
 20
23.06116575405036
 10
158.491905579605
 20
23.04198784685036
 10
158.491713248405
 20
23.02125508845036
 10
158.491290670805
 20
22.99901008205036
 10
158.490642558805
 20
22.97533806605036
 10
158.489770973205
 20
22.95024555885036
 10
158.488679680405
 20
22.92381521805036
 10
158.487369867605
 20
22.89606904845036
 10
158.485842576405
 20
22.86704302605035
 10
158.484100749205
 20
22.83681286605035
 10
158.482142152405
 20
22.80536972845035
 10
158.4799704788049
 20
22.77280900205036
 10
158.477583626005
 20
22.73913884205036
 10
158.474983394005
 20
22.70443025005036
 10
158.472172318805
 20
22.66876278605035
 10
158.469148582805
 20
22.63216330925036
 10
158.465918370005
 20
22.59475817645036
 10
158.462480258005
 20
22.55658423565036
 10
158.458842339605
 20
22.51778617645036
 10
158.455005117205
 20
22.47842539405036
 10
158.450977152405
 20
22.43864785325035
  0
LINE
  5
C4E
330
1F
100
AcDbEntity
  8
0
  6
DASHED
 62
     8
100
AcDbLine
 10
159.293176477205
 20
25.50010338765036
 30
0.0
 11
159.208109043605
 21
24.55838990925036
 31
0.0
  0
ARC
  5
C4F
330
1F
100
AcDbEntity
  8
0
  6
CONTINUOUS
 62
     7
100
AcDbCircle
 10
163.013552746005
 20
25.77187957325036
 30
0.0
 40
0.25
100
AcDbArc
 50
5.0
 51
89.9999808459
  0
LWPOLYLINE
  5
C50
330
1F
100
AcDbEntity
  8
0
  6
CONTINUOUS
 62
     7
100
AcDbPolyline
 90
        5
 70
     0
 43
0.0
 10
160.002320501205
 20
26.03648065005036
 10
160.006352010005
 20
26.03443235725036
 10
160.023848331605
 20
26.02751173165036
 10
160.042185200405
 20
26.02329562925036
 10
160.060947099605
 20
26.02187957325035
  0
LWPOLYLINE
  5
C51
330
1F
100
AcDbEntity
  8
0
  6
DASHED
 62
     8
100
AcDbPolyline
 90
       60
 70
     0
 43
0.0
 10
145.373868618005
 20
21.56418261485036
 10
145.426710549205
 20
21.55895968845035
 10
145.479327202005
 20
21.55176165805035
 10
145.530836074005
 20
21.54270696845036
 10
145.581957157205
 20
21.53168197005036
 10
145.632231762005
 20
21.51878163085036
 10
145.681968654805
 20
21.50393952205035
 10
145.730825518805
 20
21.48726239245036
 10
145.778987541205
 20
21.46867532365035
 10
145.826220216405
 20
21.44824798445036
 10
145.872595821205
 20
21.42594328525036
 10
145.918851314005
 20
21.40133710125036
 10
145.964073013205
 20
21.37487735405036
 10
146.009452898005
 20
21.34579266765036
 10
146.053610909205
 20
21.31488390445036
 10
146.097581749205
 20
21.28134438925036
 10
146.140136822805
 20
21.24602543405035
 10
146.181791544405
 20
21.20845366765036
 10
146.221857192405
 20
21.16919045645035
 10
146.259962136405
 20
21.12862189805036
 10
146.296314714005
 20
21.08647846765035
 10
146.329228027605
 20
21.04486417165035
 10
146.360341650005
 20
21.00188602925036
 10
146.386847243605
 20
20.96182445325035
 10
146.411553086805
 20
20.92063257165035
 10
146.431269069205
 20
20.88405820685036
 10
146.449221155605
 20
20.84658977485035
 10
146.464028838805
 20
20.81125089645035
 10
146.477064731605
 20
20.77522321165036
 10
146.489041325205
 20
20.73597844525036
 10
146.499188349205
 20
20.69621546125036
 10
146.5088746980049
 20
20.65051987245035
 10
146.516962042005
 20
20.60451321325036
 10
146.5310307300049
 20
20.50053831245036
 10
146.5425144948049
 20
20.38509333805035
 10
146.5531974548049
 20
20.25876104845035
 10
146.564072512405
 20
20.12125577645036
 10
146.575336218005
 20
19.97169722605035
 10
146.587312205205
 20
19.80899608685036
 10
146.600518090005
 20
19.63182051245036
 10
146.615755354005
 20
19.43844877165036
 10
146.634085397205
 20
19.22688589165036
 10
146.656320501205
 20
18.99506457645036
 10
146.683278320405
 20
18.74069634125036
 10
146.715966014805
 20
18.46113994445035
 10
146.755576360405
 20
18.15340423245036
 10
146.803468347605
 20
17.81353458765035
 10
146.861621685205
 20
17.43509267085036
 10
146.932735174805
 20
17.01024727725036
 10
146.973220618005
 20
16.78318717005036
 10
147.015330291605
 20
16.55642253165036
 10
147.100427987605
 20
16.12261703885036
 10
147.180671469205
 20
15.73861079725036
 10
147.255517170005
 20
15.39884807245036
 10
147.326005227605
 20
15.09277915245036
 10
147.391491218005
 20
14.81909720045035
 10
147.451805757205
 20
14.57534316365036
 10
147.508789184405
 20
14.35190093965036
 10
147.565187360405
 20
14.13692804045036
 10
147.623422643605
 20
13.92130176525036
  0
LWPOLYLINE
  5
C52
330
1F
100
AcDbEntity
  8
0
  6
DASHED
 62
     8
100
AcDbPolyline
 90
       18
 70
     0
 43
0.0
 10
148.889322786005
 20
10.21185442445035
 10
148.863316166805
 20
10.27361692845035
 10
148.812148250005
 20
10.39791561325036
 10
148.737178173205
 20
10.58609949645035
 10
148.663664069205
 20
10.77649664365036
 10
148.591542722005
 20
10.96742861165036
 10
148.519640234005
 20
11.16044118765036
 10
148.448539246805
 20
11.35374869645036
 10
148.377462778005
 20
11.54964356525036
 10
148.307357896405
 20
11.74588984845036
 10
148.213813242005
 20
12.01329213485036
 10
148.122470728405
 20
12.28145615245036
 10
148.033512349205
 20
12.55042008205035
 10
147.946183597205
 20
12.82309086605036
 10
147.861482102805
 20
13.09659001965036
 10
147.779414006805
 20
13.37088986125036
 10
147.700051805205
 20
13.64572872045036
 10
147.6233307924049
 20
13.92131166125036
  0
LWPOLYLINE
  5
C53
330
1F
100
AcDbEntity
  8
0
  6
DASHED
 62
     8
100
AcDbPolyline
 90
       35
 70
     0
 43
0.0
 10
147.441052477205
 20
7.997084094850357
 10
147.414051315605
 20
7.99215594765036
 10
147.389055330005
 20
7.99057599885036
 10
147.365961507605
 20
7.992083166850363
 10
147.344666832405
 20
7.996416373250362
 10
147.325068291605
 20
8.003314538050361
 10
147.307062872405
 20
8.012516579650359
 10
147.290547558805
 20
8.023761418050362
 10
147.275419336405
 20
8.036787976450362
 10
147.261575194005
 20
8.051335171650357
 10
147.248912114005
 20
8.067141925250361
 10
147.235234536405
 20
8.087239072450358
 10
147.222910920405
 20
8.108310758850358
 10
147.205502168405
 20
8.143442326850362
 10
147.190617571605
 20
8.179692419650358
 10
147.177720400405
 20
8.216794349250363
 10
147.166273922005
 20
8.254481427650361
 10
147.155741406805
 20
8.292486966850361
 10
147.127684525205
 20
8.40237051405036
 10
147.102257210005
 20
8.512617557250358
 10
147.078958891605
 20
8.623161992450363
 10
147.0572890084049
 20
8.733937715650363
 10
147.036746992405
 20
8.844878621250359
 10
147.016832278805
 20
8.95591860365036
 10
146.997044301205
 20
9.066991558850361
 10
146.933241754005
 20
9.414442342850364
 10
146.867444296405
 20
9.761755667650362
 10
146.801318134805
 20
10.10911855565036
 10
146.720858242005
 20
10.54023490125035
 10
146.642698208405
 20
10.97173909965036
 10
146.567080464405
 20
11.40365506925036
 10
146.494247445205
 20
11.83600673005036
 10
146.424441579605
 20
12.26881800045036
 10
146.357905299605
 20
12.70211279725035
 10
146.294881037205
 20
13.13591504045036
  0
LWPOLYLINE
  5
C54
330
1F
100
AcDbEntity
  8
0
  6
CONTINUOUS
 62
     7
100
AcDbPolyline
 90
       14
 70
     0
 43
0.0
 10
155.582239778005
 20
14.95487339405036
 10
155.369571781205
 20
13.64914521965036
 10
155.266339662805
 20
13.01854231085036
 10
155.164794445205
 20
12.40436551885036
 10
155.064762094805
 20
11.80785048845036
 10
154.965915291605
 20
11.22906731885036
 10
154.867843934805
 20
10.66719428365036
 10
154.770598998805
 20
10.12232545485036
 10
154.674547314005
 20
9.595024389250362
 10
154.580265360405
 20
9.086370576450363
 10
154.488367506005
 20
8.597745947650359
 10
154.399462107605
 20
8.130676840450362
 10
154.314316986005
 20
7.687690758850358
 10
154.253580862805
 20
7.373836120450363
  0
LWPOLYLINE
  5
C55
330
1F
100
AcDbEntity
  8
0
  6
CONTINUOUS
 62
     7
100
AcDbPolyline
 90
        6
 70
     0
 43
0.0
 10
156.482324925205
 20
16.05477704845036
 10
156.356948277205
 20
14.65574884365036
 10
156.216130651605
 20
13.10793276845036
 10
156.072920941205
 20
11.66130904685036
 10
155.914578490005
 20
10.31762123885036
 10
155.812548578005
 20
9.589461389250359
  0
LWPOLYLINE
  5
C56
330
1F
100
AcDbEntity
  8
0
  6
DASHED
 62
     8
100
AcDbPolyline
 90
       10
 70
     0
 43
0.0
 10
145.373868618005
 20
7.570861526850357
 10
146.430617686805
 20
7.570324680450362
 10
147.479844942805
 20
7.568721966850361
 10
148.490214682005
 20
7.566149826050363
 10
149.414128626005
 20
7.56288426605036
 10
150.240900982805
 20
7.559189294850362
 10
150.990312803605
 20
7.555176749250364
 10
151.681115834005
 20
7.550886944450361
 10
152.325186048405
 20
7.54634484845036
 10
152.9328845572049
 20
7.541545995650359
  0
LWPOLYLINE
  5
C57
330
1F
100
AcDbEntity
  8
0
  6
DASHED
 62
     8
100
AcDbPolyline
 90
        4
 70
     0
 43
0.0
 10
152.039592539605
 20
7.944680859650361
 10
151.807446827605
 20
7.949603835650364
 10
151.546895458005
 20
7.954588627650359
 10
151.2494626276049
 20
7.95971399085036
  0
LINE
  5
C58
330
1F
100
AcDbEntity
  8
0
  6
CONTINUOUS
 62
     7
100
AcDbLine
 10
151.668064762005
 20
6.075074307650361
 30
0.0
 11
151.390585456405
 21
6.067150061250359
 31
0.0
  0
LINE
  5
C59
330
1F
100
AcDbEntity
  8
0
100
AcDbLine
 10
151.5831057042597
 20
5.645675382931251
 30
0.0
 11
151.7122180216145
 21
6.076470388806234
 31
0.0
  0
ARC
  5
C5A
330
1F
100
AcDbEntity
  8
0
  6
CONTINUOUS
 62
     7
100
AcDbCircle
 10
150.744940174805
 20
5.896879573250359
 30
0.0
 40
0.875
100
AcDbArc
 50
270.0
 51
343.3161513842999
  0
LWPOLYLINE
  5
C5B
330
1F
100
AcDbEntity
  8
0
  6
DASHED
 62
     8
100
AcDbPolyline
 90
       41
 70
     0
 43
0.0
 10
154.625711850005
 20
8.693120619650358
 10
154.607094882005
 20
8.651218014850364
 10
154.587331126805
 20
8.610034696450362
 10
154.566449046805
 20
8.569569190850359
 10
154.544477101205
 20
8.529820024450359
 10
154.521443747605
 20
8.490785723650361
 10
154.497377448405
 20
8.452464814850358
 10
154.472306662805
 20
8.414855827650363
 10
154.446259848405
 20
8.37795728525036
 10
154.419265466005
 20
8.341767715650362
 10
154.391351974805
 20
8.306285645250362
 10
154.357407314005
 20
8.265484194050358
 10
154.322278472405
 20
8.225655693250359
 10
154.286011659605
 20
8.186797749250359
 10
154.248653088405
 20
8.148907971650359
 10
154.210248965205
 20
8.11198396685036
 10
154.170845501205
 20
8.076023344450362
 10
154.130488906005
 20
8.04102370925036
 10
154.089225389205
 20
8.006982672450362
 10
154.044855813205
 20
7.972185661250364
 10
153.999571456405
 20
7.938474632450358
 10
153.953411360405
 20
7.905875928450363
 10
153.906414563605
 20
7.874415893250358
 10
153.858620104405
 20
7.84412086925036
 10
153.810067021205
 20
7.815017195650362
 10
153.760794354005
 20
7.787131218050362
 10
153.710841142805
 20
7.760489277250364
 10
153.660246426005
 20
7.73511771565036
 10
153.609049243605
 20
7.711042874050363
 10
153.557288632405
 20
7.688291098050363
 10
153.505003632405
 20
7.666888728450359
 10
153.452233283605
 20
7.646862107650363
 10
153.399016624405
 20
7.628237576450359
 10
153.345392693205
 20
7.61104148045036
 10
153.291400531605
 20
7.595300158850363
 10
153.237079176405
 20
7.581039954050361
 10
153.182467666005
 20
7.568287210050364
 10
153.140408136405
 20
7.559534955650363
 10
153.098209450005
 20
7.551642080450363
 10
153.055880168405
 20
7.544565698050362
 10
153.0134288548049
 20
7.538262922050364
  0
LWPOLYLINE
  5
C5C
330
1F
100
AcDbEntity
  8
0
  6
CONTINUOUS
 62
     7
100
AcDbPolyline
 90
       20
 70
     0
 43
0.0
 10
155.812548422805
 20
9.589419899650359
 10
155.784800885205
 20
9.440288386050362
 10
155.742335091605
 20
9.279218670850362
 10
155.687873651605
 20
9.122687270850363
 10
155.622409320405
 20
8.972547029250364
 10
155.547352674005
 20
8.830550005250358
 10
155.464489904405
 20
8.698222475650361
 10
155.375889563605
 20
8.576748530050359
 10
155.284007491605
 20
8.467152659650359
 10
155.191544125205
 20
8.370120363650357
 10
155.100969901205
 20
8.285650358850361
 10
155.013213203605
 20
8.212283002050362
 10
154.928156365205
 20
8.148109878850362
 10
154.845502158805
 20
8.09156707725036
 10
154.765318152405
 20
8.04166125645036
 10
154.688045122005
 20
7.997776563650361
 10
154.614094779605
 20
7.959341213250361
 10
154.543862198805
 20
7.925825504450358
 10
154.477626437205
 20
7.896694830850364
 10
154.443859350805
 20
7.882949126850363
  0
LWPOLYLINE
  5
C5D
330
1F
100
AcDbEntity
  8
0
  6
CONTINUOUS
 62
     7
100
AcDbPolyline
 90
       19
 70
     0
 43
0.0
 10
154.662080994005
 20
8.776876221250361
 10
154.660346925205
 20
8.771473582850362
 10
154.656677379605
 20
8.759579650050362
 10
154.651206064405
 20
8.741156826050364
 10
154.644045576405
 20
8.716178040450358
 10
154.635296678805
 20
8.684645760450358
 10
154.625052547605
 20
8.646603397250359
 10
154.613385509205
 20
8.602079234050364
 10
154.600351651605
 20
8.551090862850358
 10
154.5859843444049
 20
8.493609789250363
 10
154.570251238805
 20
8.42937393805036
 10
154.553093896405
 20
8.358028544450363
 10
154.534435398805
 20
8.279151118850364
 10
154.514231070805
 20
8.192466910850363
 10
154.492486022805
 20
8.097938598850362
 10
154.469212653205
 20
7.995590850050362
 10
154.444420990805
 20
7.88546561485036
 10
154.418112826005
 20
7.767589390850361
 10
154.390296341205
 20
7.642034304450362
  0
LWPOLYLINE
  5
C5E
330
1F
100
AcDbEntity
  8
0
  6
DASHED
 62
     8
100
AcDbPolyline
 90
       29
 70
     0
 43
0.0
 10
154.614319550805
 20
7.938763790850359
 10
154.576184648405
 20
7.919354198850363
 10
154.537758154005
 20
7.900872854850362
 10
154.499056150805
 20
7.883267630850362
 10
154.460094726805
 20
7.866486403650363
 10
154.420889965205
 20
7.850477046850357
 10
154.381457952405
 20
7.835187435650361
 10
154.341814773205
 20
7.820565443650359
 10
154.301976514005
 20
7.806558947650358
 10
154.261959259605
 20
7.79311581965036
 10
154.221779094805
 20
7.780183936450363
 10
154.181452104405
 20
7.767711171650361
 10
154.140994376405
 20
7.755645400450362
 10
154.100421994005
 20
7.743934496450364
 10
154.032904070805
 20
7.72514894125036
 10
153.965188312405
 20
7.706958595650363
 10
153.897348158805
 20
7.689125464450363
 10
153.829457054805
 20
7.671411558850358
 10
153.761588438805
 20
7.653578882050361
 10
153.696179238805
 20
7.636123877250362
 10
153.630790027605
 20
7.618631173250363
 10
153.565351506005
 20
7.601395134850363
 10
153.499794376405
 20
7.58471012045036
 10
153.434049336405
 20
7.568870493250358
 10
153.386975411605
 20
7.558245906050359
 10
153.3397452900049
 20
7.548308832450359
 10
153.292333782805
 20
7.539166270850358
 10
153.244715699605
 20
7.530925221250363
 10
153.196865848405
 20
7.52369268685036
  0
LWPOLYLINE
  5
C5F
330
1F
100
AcDbEntity
  8
0
  6
DASHED
 62
     8
100
AcDbPolyline
 90
       61
 70
     0
 43
0.0
 10
152.9328845572049
 20
7.541545995650359
 10
152.995923992405
 20
7.558936672450364
 10
153.059112056405
 20
7.575785818050363
 10
153.122412258005
 20
7.592253707650364
 10
153.209879094805
 20
7.614658450050363
 10
153.297283078805
 20
7.637093261250363
 10
153.372663250005
 20
7.656832947650357
 10
153.448066384405
 20
7.677112250050363
 10
153.477737539605
 20
7.68530625805036
 10
153.507293334805
 20
7.69382835885036
 10
153.536580163605
 20
7.702895370050363
 10
153.565444429205
 20
7.712724112450359
 10
153.591526048405
 20
7.722550917250359
 10
153.617527968405
 20
7.733055938050362
 10
153.643856054805
 20
7.744092722050361
 10
153.650393531605
 20
7.746888803650364
 10
153.6568523940049
 20
7.749840362050363
 10
153.663109923605
 20
7.753079650050359
 10
153.669043397205
 20
7.75673893005036
 10
153.674530098005
 20
7.760950458050359
 10
153.679447301205
 20
7.765846491650364
 10
153.683672286805
 20
7.771559291650362
 10
153.686163410005
 20
7.776138523650359
 10
153.688091562005
 20
7.78100761965036
 10
153.689303554005
 20
7.785979242050359
 10
153.689646197205
 20
7.790866050050361
 10
153.688966299605
 20
7.795480706050362
 10
153.687375082005
 20
7.799312346050363
 10
153.684959162005
 20
7.802798035650361
 10
153.681866144405
 20
7.805971811650358
 10
153.678243629205
 20
7.808867714050364
 10
153.674239222805
 20
7.811519782850361
 10
153.670000526805
 20
7.813962054850364
 10
153.665675144405
 20
7.816228573250363
 10
153.653819074005
 20
7.821828138050364
 10
153.642252840405
 20
7.826540874050358
 10
153.630791205205
 20
7.83058514445036
 10
153.6192489284049
 20
7.83417932045036
 10
153.597960238805
 20
7.84000481805036
 10
153.576126522005
 20
7.845190120450361
 10
153.554060274005
 20
7.849842403650363
 10
153.5276851172049
 20
7.85484654285036
 10
153.501353405205
 20
7.859348618050361
 10
153.474994067605
 20
7.863456379650358
 10
153.430998200405
 20
7.869642622850363
 10
153.386855906005
 20
7.875167293250363
 10
153.340099362005
 20
7.88042794765036
 10
153.293306501205
 20
7.885190406850362
 10
153.243415459605
 20
7.88981558765036
 10
153.193484931605
 20
7.894052613250359
 10
153.140381358805
 20
7.898200826050363
 10
153.087255566805
 20
7.902033798850361
 10
152.976254789205
 20
7.909201512450358
 10
152.861357741205
 20
7.915651506050359
 10
152.743377042005
 20
7.921456843650361
 10
152.622931326805
 20
7.926681955650359
 10
152.500945376405
 20
7.931366560450364
 10
152.380227613205
 20
7.935481502850358
 10
152.262797590805
 20
7.939034222850359
 10
152.149156734805
 20
7.94208206605036
 10
152.039592539605
 20
7.944680859650361
  0
LINE
  5
C60
330
1F
100
AcDbEntity
  8
0
  6
CONTINUOUS
 62
     7
100
AcDbLine
 10
153.325280126805
 20
6.261510675650363
 30
0.0
 11
153.214464046805
 21
6.221546406850357
 31
0.0
  0
LINE
  5
C61
330
1F
100
AcDbEntity
  8
0
  6
CONTINUOUS
 62
     7
100
AcDbLine
 10
154.390296341205
 20
7.642034304450362
 30
0.0
 11
154.373249163605
 21
7.564702154050358
 31
0.0
  0
LWPOLYLINE
  5
C62
330
1F
100
AcDbEntity
  8
0
  6
CONTINUOUS
 62
     7
100
AcDbPolyline
 90
        6
 70
     0
 43
0.0
 10
154.373224715605
 20
7.564662019650363
 10
154.341006702805
 20
7.444425907650362
 10
154.302540565205
 20
7.338260971650363
 10
154.255836309205
 20
7.235941234050358
 10
154.201279805205
 20
7.137984997250363
 10
154.162580598805
 20
7.079953019650361
  0
LINE
  5
C63
330
1F
100
AcDbEntity
  8
0
  6
CONTINUOUS
 62
     7
100
AcDbLine
 10
153.442696728405
 20
6.314273243650362
 30
0.0
 11
153.325280126805
 21
6.261510675650363
 31
0.0
  0
LINE
  5
C64
330
1F
100
AcDbEntity
  8
0
  6
CONTINUOUS
 62
     7
100
AcDbLine
 10
153.565884126805
 20
6.382848053250363
 30
0.0
 11
153.442696728405
 21
6.314273243650362
 31
0.0
  0
LINE
  5
C65
330
1F
100
AcDbEntity
  8
0
  6
CONTINUOUS
 62
     7
100
AcDbLine
 10
153.6879375524049
 20
6.466592856450361
 30
0.0
 11
153.565884126805
 21
6.382848053250363
 31
0.0
  0
LINE
  5
C66
330
1F
100
AcDbEntity
  8
0
  6
CONTINUOUS
 62
     7
100
AcDbLine
 10
153.800441109205
 20
6.561033814850361
 30
0.0
 11
153.6879375524049
 21
6.466592856450361
 31
0.0
  0
LINE
  5
C67
330
1F
100
AcDbEntity
  8
0
  6
CONTINUOUS
 62
     7
100
AcDbLine
 10
153.898866658005
 20
6.661150251650362
 30
0.0
 11
153.800441109205
 21
6.561033814850361
 31
0.0
  0
LINE
  5
C68
330
1F
100
AcDbEntity
  8
0
  6
CONTINUOUS
 62
     7
100
AcDbLine
 10
153.979800490005
 20
6.759646334850359
 30
0.0
 11
153.898866658005
 21
6.661150251650362
 31
0.0
  0
LINE
  5
C69
330
1F
100
AcDbEntity
  8
0
  6
CONTINUOUS
 62
     7
100
AcDbLine
 10
154.052325619605
 20
6.864939320450361
 30
0.0
 11
153.979800490005
 21
6.759646334850359
 31
0.0
  0
LINE
  5
C6A
330
1F
100
AcDbEntity
  8
0
  6
CONTINUOUS
 62
     7
100
AcDbLine
 10
154.120735709205
 20
6.986007552450359
 30
0.0
 11
154.052325619605
 21
6.864939320450361
 31
0.0
  0
LINE
  5
C6B
330
1F
100
AcDbEntity
  8
0
  6
CONTINUOUS
 62
     7
100
AcDbLine
 10
154.180162014805
 20
7.119424850050364
 30
0.0
 11
154.120735709205
 21
6.986007552450359
 31
0.0
  0
LINE
  5
C6C
330
1F
100
AcDbEntity
  8
0
  6
CONTINUOUS
 62
     7
100
AcDbLine
 10
154.228916061205
 20
7.267729629250361
 30
0.0
 11
154.180162014805
 21
7.119424850050364
 31
0.0
  0
LINE
  5
C6D
330
1F
100
AcDbEntity
  8
0
  6
CONTINUOUS
 62
     7
100
AcDbLine
 10
154.253573547605
 20
7.373824301250358
 30
0.0
 11
154.228916061205
 21
7.267729629250361
 31
0.0
  0
LINE
  5
C6E
330
1F
100
AcDbEntity
  8
0
  6
CONTINUOUS
 62
     7
100
AcDbLine
 10
151.838222696405
 20
6.08045452845036
 30
0.0
 11
151.668064762005
 21
6.075074307650361
 31
0.0
  0
LINE
  5
C6F
330
1F
100
AcDbEntity
  8
0
  6
CONTINUOUS
 62
     7
100
AcDbLine
 10
152.002236427605
 20
6.086178142850364
 30
0.0
 11
151.838222696405
 21
6.08045452845036
 31
0.0
  0
LINE
  5
C70
330
1F
100
AcDbEntity
  8
0
  6
CONTINUOUS
 62
     7
100
AcDbLine
 10
152.1543754004049
 20
6.09215154925036
 30
0.0
 11
152.002236427605
 21
6.086178142850364
 31
0.0
  0
LINE
  5
C71
330
1F
100
AcDbEntity
  8
0
  6
CONTINUOUS
 62
     7
100
AcDbLine
 10
152.294827931605
 20
6.098472523650357
 30
0.0
 11
152.1543754004049
 21
6.09215154925036
 31
0.0
  0
LINE
  5
C72
330
1F
100
AcDbEntity
  8
0
  6
CONTINUOUS
 62
     7
100
AcDbLine
 10
152.423764544405
 20
6.105254398850362
 30
0.0
 11
152.294827931605
 21
6.098472523650357
 31
0.0
  0
LINE
  5
C73
330
1F
100
AcDbEntity
  8
0
  6
CONTINUOUS
 62
     7
100
AcDbLine
 10
152.542024870805
 20
6.112688302850358
 30
0.0
 11
152.423764544405
 21
6.105254398850362
 31
0.0
  0
LINE
  5
C74
330
1F
100
AcDbEntity
  8
0
  6
CONTINUOUS
 62
     7
100
AcDbLine
 10
152.650962467605
 20
6.121048474050361
 30
0.0
 11
152.542024870805
 21
6.112688302850358
 31
0.0
  0
LINE
  5
C75
330
1F
100
AcDbEntity
  8
0
  6
CONTINUOUS
 62
     7
100
AcDbLine
 10
152.751203536405
 20
6.130572147650362
 30
0.0
 11
152.650962467605
 21
6.121048474050361
 31
0.0
  0
LINE
  5
C76
330
1F
100
AcDbEntity
  8
0
  6
CONTINUOUS
 62
     7
100
AcDbLine
 10
152.843680611605
 20
6.141523698050363
 30
0.0
 11
152.751203536405
 21
6.130572147650362
 31
0.0
  0
LINE
  5
C77
330
1F
100
AcDbEntity
  8
0
  6
CONTINUOUS
 62
     7
100
AcDbLine
 10
152.931375306005
 20
6.154483534850363
 30
0.0
 11
152.843680611605
 21
6.141523698050363
 31
0.0
  0
LINE
  5
C78
330
1F
100
AcDbEntity
  8
0
  6
CONTINUOUS
 62
     7
100
AcDbLine
 10
153.019150325205
 20
6.170665430850363
 30
0.0
 11
152.931375306005
 21
6.154483534850363
 31
0.0
  0
LINE
  5
C79
330
1F
100
AcDbEntity
  8
0
  6
CONTINUOUS
 62
     7
100
AcDbLine
 10
153.112320579605
 20
6.192114040450363
 30
0.0
 11
153.019150325205
 21
6.170665430850363
 31
0.0
  0
LINE
  5
C7A
330
1F
100
AcDbEntity
  8
0
  6
CONTINUOUS
 62
     7
100
AcDbLine
 10
153.214464046805
 20
6.221546406850357
 30
0.0
 11
153.112320579605
 21
6.192114040450363
 31
0.0
  0
LWPOLYLINE
  5
C7B
330
1F
100
AcDbEntity
  8
0
  6
DASHED
 62
     8
100
AcDbPolyline
 90
        8
 70
     0
 43
0.0
 10
145.374644635605
 20
8.002514744450358
 10
146.386546890005
 20
7.999397485250362
 10
147.508594150805
 20
7.994194629250358
 10
148.599278202005
 20
7.987031877250359
 10
149.614520459605
 20
7.978431782850364
 10
150.503928906005
 20
7.969110227650361
 10
150.873345005205
 20
7.965480333250361
 10
151.242729947605
 20
7.95990463085036
  0
LINE
  5
C7C
330
1F
100
AcDbEntity
  8
0
  6
DASHED
 62
     8
100
AcDbLine
 10
150.992416376405
 20
7.985774376450358
 30
0.0
 11
150.983899589205
 21
7.98737067725036
 31
0.0
  0
LINE
  5
C7D
330
1F
100
AcDbEntity
  8
0
  6
CONTINUOUS
 62
     7
100
AcDbLine
 10
149.082084739605
 20
6.018373130050363
 30
0.0
 11
147.180633942805
 21
6.001091032450361
 31
0.0
  0
LINE
  5
C7E
330
1F
100
AcDbEntity
  8
0
  6
CONTINUOUS
 62
     7
100
AcDbLine
 10
150.098432306005
 20
6.036090760450363
 30
0.0
 11
149.871308120405
 21
6.031609982850362
 31
0.0
  0
LINE
  5
C7F
330
1F
100
AcDbEntity
  8
0
  6
DASHED
 62
     8
100
AcDbLine
 10
151.206618826005
 20
7.961056038850358
 30
0.0
 11
151.191765114005
 21
7.961793022850358
 31
0.0
  0
LWPOLYLINE
  5
C80
330
1F
100
AcDbEntity
  8
0
  6
DASHED
 62
     8
100
AcDbPolyline
 90
        3
 70
     0
 43
0.0
 10
151.191765114005
 20
7.961793022850358
 10
151.187002626005
 20
7.96206201165036
 10
151.177673323605
 20
7.96264537325036
  0
LINE
  5
C81
330
1F
100
AcDbEntity
  8
0
  6
DASHED
 62
     8
100
AcDbLine
 10
151.177673323605
 20
7.96264537325036
 30
0.0
 11
151.168546827605
 21
7.963266245250359
 31
0.0
  0
LWPOLYLINE
  5
C82
330
1F
100
AcDbEntity
  8
0
  6
DASHED
 62
     8
100
AcDbPolyline
 90
        3
 70
     0
 43
0.0
 10
151.168546827605
 20
7.963266245250359
 10
151.164042426005
 20
7.96359215405036
 10
151.155126144405
 20
7.964276173250361
  0
LINE
  5
C83
330
1F
100
AcDbEntity
  8
0
  6
DASHED
 62
     8
100
AcDbLine
 10
151.155126144405
 20
7.964276173250361
 30
0.0
 11
151.146308165205
 21
7.965003141250363
 31
0.0
  0
LINE
  5
C84
330
1F
100
AcDbEntity
  8
0
  6
DASHED
 62
     8
100
AcDbLine
 10
151.146308165205
 20
7.965003141250363
 30
0.0
 11
151.137565928405
 21
7.965773029250364
 31
0.0
  0
LINE
  5
C85
330
1F
100
AcDbEntity
  8
0
  6
DASHED
 62
     8
100
AcDbLine
 10
151.137565928405
 20
7.965773029250364
 30
0.0
 11
151.128882408405
 21
7.96658580045036
 31
0.0
  0
LINE
  5
C86
330
1F
100
AcDbEntity
  8
0
  6
DASHED
 62
     8
100
AcDbLine
 10
151.128882408405
 20
7.96658580045036
 30
0.0
 11
151.120244688405
 21
7.967441539650359
 31
0.0
  0
LINE
  5
C87
330
1F
100
AcDbEntity
  8
0
  6
DASHED
 62
     8
100
AcDbLine
 10
151.120244688405
 20
7.967441539650359
 30
0.0
 11
151.111643002005
 21
7.968340691650361
 31
0.0
  0
LINE
  5
C88
330
1F
100
AcDbEntity
  8
0
  6
DASHED
 62
     8
100
AcDbLine
 10
151.111643002005
 20
7.968340691650361
 30
0.0
 11
151.103069386005
 21
7.96928437485036
 31
0.0
  0
LINE
  5
C89
330
1F
100
AcDbEntity
  8
0
  6
DASHED
 62
     8
100
AcDbLine
 10
151.103069386005
 20
7.96928437485036
 30
0.0
 11
151.094517646805
 21
7.970273984450358
 31
0.0
  0
LINE
  5
C8A
330
1F
100
AcDbEntity
  8
0
  6
DASHED
 62
     8
100
AcDbLine
 10
151.094517646805
 20
7.970273984450358
 30
0.0
 11
151.085982640405
 21
7.97130993165036
 31
0.0
  0
LINE
  5
C8B
330
1F
100
AcDbEntity
  8
0
  6
DASHED
 62
     8
100
AcDbLine
 10
151.085982640405
 20
7.97130993165036
 30
0.0
 11
151.077460314005
 21
7.972392334850361
 31
0.0
  0
LINE
  5
C8C
330
1F
100
AcDbEntity
  8
0
  6
DASHED
 62
     8
100
AcDbLine
 10
151.077460314005
 20
7.972392334850361
 30
0.0
 11
151.068947291605
 21
7.973521176450361
 31
0.0
  0
LINE
  5
C8D
330
1F
100
AcDbEntity
  8
0
  6
DASHED
 62
     8
100
AcDbLine
 10
151.068947291605
 20
7.973521176450361
 30
0.0
 11
151.060440885205
 21
7.974696416450363
 31
0.0
  0
LINE
  5
C8E
330
1F
100
AcDbEntity
  8
0
  6
DASHED
 62
     8
100
AcDbLine
 10
151.060440885205
 20
7.974696416450363
 30
0.0
 11
151.051938763605
 21
7.975918019650357
 31
0.0
  0
LINE
  5
C8F
330
1F
100
AcDbEntity
  8
0
  6
DASHED
 62
     8
100
AcDbLine
 10
151.051938763605
 20
7.975918019650357
 30
0.0
 11
151.043439098005
 21
7.977186021250361
 31
0.0
  0
LINE
  5
C90
330
1F
100
AcDbEntity
  8
0
  6
DASHED
 62
     8
100
AcDbLine
 10
151.043439098005
 20
7.977186021250361
 30
0.0
 11
151.034940197205
 21
7.978500478850364
 31
0.0
  0
LINE
  5
C91
330
1F
100
AcDbEntity
  8
0
  6
DASHED
 62
     8
100
AcDbLine
 10
151.034940197205
 20
7.978500478850364
 30
0.0
 11
151.026440762005
 21
7.979861518850363
 31
0.0
  0
LINE
  5
C92
330
1F
100
AcDbEntity
  8
0
  6
DASHED
 62
     8
100
AcDbLine
 10
151.026440762005
 20
7.979861518850363
 30
0.0
 11
151.017939589205
 21
7.981269267650361
 31
0.0
  0
LINE
  5
C93
330
1F
100
AcDbEntity
  8
0
  6
DASHED
 62
     8
100
AcDbLine
 10
151.017939589205
 20
7.981269267650361
 30
0.0
 11
151.009435670805
 21
7.982723872450364
 31
0.0
  0
LINE
  5
C94
330
1F
100
AcDbEntity
  8
0
  6
DASHED
 62
     8
100
AcDbLine
 10
151.009435670805
 20
7.982723872450364
 30
0.0
 11
151.000928197205
 21
7.984225515650358
 31
0.0
  0
LINE
  5
C95
330
1F
100
AcDbEntity
  8
0
  6
DASHED
 62
     8
100
AcDbLine
 10
151.000928197205
 20
7.984225515650358
 30
0.0
 11
150.992416376405
 21
7.985774376450358
 31
0.0
  0
LINE
  5
C96
330
1F
100
AcDbEntity
  8
0
  6
CONTINUOUS
 62
     7
100
AcDbLine
 10
151.390585456405
 20
6.067150061250359
 30
0.0
 11
151.178509438805
 21
6.06140744845036
 31
0.0
  0
LINE
  5
C97
330
1F
100
AcDbEntity
  8
0
  6
CONTINUOUS
 62
     7
100
AcDbLine
 10
151.178509438805
 20
6.06140744845036
 30
0.0
 11
150.969429493205
 21
6.055983461250363
 31
0.0
  0
LINE
  5
C98
330
1F
100
AcDbEntity
  8
0
  6
CONTINUOUS
 62
     7
100
AcDbLine
 10
150.969429493205
 20
6.055983461250363
 30
0.0
 11
150.775918163605
 21
6.051181467650359
 31
0.0
  0
LINE
  5
C99
330
1F
100
AcDbEntity
  8
0
  6
CONTINUOUS
 62
     7
100
AcDbLine
 10
150.775918163605
 20
6.051181467650359
 30
0.0
 11
150.558897816405
 21
6.046053592450363
 31
0.0
  0
LINE
  5
C9A
330
1F
100
AcDbEntity
  8
0
  6
CONTINUOUS
 62
     7
100
AcDbLine
 10
150.558897816405
 20
6.046053592450363
 30
0.0
 11
150.440994686805
 21
6.043384235650364
 31
0.0
  0
LINE
  5
C9B
330
1F
100
AcDbEntity
  8
0
  6
CONTINUOUS
 62
     7
100
AcDbLine
 10
150.440994686805
 20
6.043384235650364
 30
0.0
 11
150.295436974805
 21
6.040202925250362
 31
0.0
  0
LINE
  5
C9C
330
1F
100
AcDbEntity
  8
0
  6
CONTINUOUS
 62
     7
100
AcDbLine
 10
150.295436974805
 20
6.040202925250362
 30
0.0
 11
150.098432306005
 21
6.036090760450363
 31
0.0
  0
LINE
  5
C9D
330
1F
100
AcDbEntity
  8
0
  6
CONTINUOUS
 62
     7
100
AcDbLine
 10
149.871308120405
 20
6.031609982850362
 30
0.0
 11
149.688418642005
 21
6.028211632450364
 31
0.0
  0
LINE
  5
C9E
330
1F
100
AcDbEntity
  8
0
  6
CONTINUOUS
 62
     7
100
AcDbLine
 10
149.688418642005
 20
6.028211632450364
 30
0.0
 11
149.484831526805
 21
6.02465948845036
 31
0.0
  0
LINE
  5
C9F
330
1F
100
AcDbEntity
  8
0
  6
CONTINUOUS
 62
     7
100
AcDbLine
 10
149.484831526805
 20
6.02465948845036
 30
0.0
 11
149.288078346005
 21
6.021464917250362
 31
0.0
  0
LINE
  5
CA0
330
1F
100
AcDbEntity
  8
0
  6
CONTINUOUS
 62
     7
100
AcDbLine
 10
149.288078346005
 20
6.021464917250362
 30
0.0
 11
149.082084739605
 21
6.018373130050363
 31
0.0
  0
LINE
  5
CA1
330
1F
100
AcDbEntity
  8
0
  6
CONTINUOUS
 62
     7
100
AcDbLine
 10
147.196541114005
 20
5.75714675085036
 30
0.0
 11
147.136949915605
 21
5.796581342850359
 31
0.0
  0
LINE
  5
CA2
330
1F
100
AcDbEntity
  8
0
  6
CONTINUOUS
 62
     7
100
AcDbLine
 10
146.833140466005
 20
5.584054334850364
 30
0.0
 11
147.186948683605
 21
5.937862550850361
 31
0.0
  0
ARC
  5
CA3
330
1F
100
AcDbEntity
  8
0
  6
CONTINUOUS
 62
     7
100
AcDbCircle
 10
146.645315227605
 20
5.771879573250359
 30
0.0
 40
0.265625
100
AcDbArc
 50
270.0
 51
315.0
  0
LINE
  5
CA4
330
1F
100
AcDbEntity
  8
0
  6
CONTINUOUS
 62
     7
100
AcDbLine
 10
147.250444547605
 20
5.703658571650358
 30
0.0
 11
147.196541114005
 21
5.75714675085036
 31
0.0
  0
LINE
  5
CA5
330
1F
100
AcDbEntity
  8
0
  6
CONTINUOUS
 62
     7
100
AcDbLine
 10
147.293931757205
 20
5.637590523650359
 30
0.0
 11
147.250444547605
 21
5.703658571650358
 31
0.0
  0
LINE
  5
CA6
330
1F
100
AcDbEntity
  8
0
  6
CONTINUOUS
 62
     7
100
AcDbLine
 10
147.307227178005
 20
5.608926907650364
 30
0.0
 11
147.293931757205
 21
5.637590523650359
 31
0.0
  0
LINE
  5
CA7
330
1F
100
AcDbEntity
  8
0
  6
CONTINUOUS
 62
     7
100
AcDbLine
 10
147.312667550805
 20
5.59499181965036
 30
0.0
 11
147.307227178005
 21
5.608926907650364
 31
0.0
  0
ARC
  5
CA8
330
1F
100
AcDbEntity
  8
0
  6
CONTINUOUS
 62
     7
100
AcDbCircle
 10
148.1339344292049
 20
5.896879573250359
 30
0.0
 40
0.875
100
AcDbArc
 50
199.8508429393
 51
269.9991072707999
  0
LINE
  5
CA9
330
1F
100
AcDbEntity
  8
0
  6
CONTINUOUS
 62
     7
100
AcDbLine
 10
146.894430622805
 20
6.000413675650364
 30
0.0
 11
146.738688544405
 21
6.000314083650359
 31
0.0
  0
LWPOLYLINE
  5
CAA
330
1F
100
AcDbEntity
  8
0
  6
CONTINUOUS
 62
     7
100
AcDbPolyline
 90
        3
 70
     0
 43
0.0
 10
147.136949915605
 20
5.796581342850359
 10
147.077109730005
 20
5.822032898050359
 10
147.0723207972049
 20
5.82323466445036
  0
LWPOLYLINE
  5
CAB
330
1F
100
AcDbEntity
  8
0
  6
CONTINUOUS
 62
     7
100
AcDbPolyline
 90
       11
 70
     0
 43
0.0
 10
147.305401285205
 20
6.001614325250358
 10
147.296849504405
 20
5.999717533250361
 10
147.285596080405
 20
5.996672456450362
 10
147.272855146005
 20
5.992476232450364
 10
147.259212336405
 20
5.98705283885036
 10
147.245188362005
 20
5.98039924045036
 10
147.231118062805
 20
5.97251692685036
 10
147.217287725205
 20
5.96344711725036
 10
147.203959453205
 20
5.953282178050358
 10
147.191369590805
 20
5.942168507650357
 10
147.186948797205
 20
5.937862667650364
  0
LINE
  5
CAC
330
1F
100
AcDbEntity
  8
0
  6
CONTINUOUS
 62
     7
100
AcDbLine
 10
147.180749842005
 20
6.001091480450362
 30
0.0
 11
146.896173331605
 21
6.000415462850362
 31
0.0
  0
LINE
  5
CAD
330
1F
100
AcDbEntity
  8
0
  6
CONTINUOUS
 62
     7
100
AcDbLine
 10
146.738688544405
 20
6.000314083650359
 30
0.0
 11
146.589358707605
 21
6.000396658050362
 31
0.0
  0
LINE
  5
CAE
330
1F
100
AcDbEntity
  8
0
  6
CONTINUOUS
 62
     7
100
AcDbLine
 10
146.589358707605
 20
6.000396658050362
 30
0.0
 11
146.452111426005
 21
6.000654395650364
 31
0.0
  0
LINE
  5
CAF
330
1F
100
AcDbEntity
  8
0
  6
CONTINUOUS
 62
     7
100
AcDbLine
 10
146.452111426005
 20
6.000654395650364
 30
0.0
 11
146.316815102805
 21
6.001079112450362
 31
0.0
  0
LWPOLYLINE
  5
CB0
330
1F
100
AcDbEntity
  8
0
  6
CONTINUOUS
 62
     7
100
AcDbPolyline
 90
        5
 70
     0
 43
0.0
 10
146.316815102805
 20
6.001079112450362
 10
146.229400974805
 20
6.001436642050364
 10
146.123284016405
 20
6.001951011650362
 10
146.000673366805
 20
6.002657765250361
 10
145.714335670805
 20
6.004605290050363
  0
LWPOLYLINE
  5
CB1
330
1F
100
AcDbEntity
  8
0
  6
CONTINUOUS
 62
     7
100
AcDbPolyline
 90
        4
 70
     0
 43
0.0
 10
145.714335670805
 20
6.004605290050363
 10
145.643688730005
 20
6.005140626050362
 10
145.581641656405
 20
6.00572043085036
 10
145.479496408405
 20
6.006949560450358
  0
LWPOLYLINE
  5
CB2
330
1F
100
AcDbEntity
  8
0
  6
CONTINUOUS
 62
     7
100
AcDbPolyline
 90
        4
 70
     0
 43
0.0
 10
145.479496408405
 20
6.006949560450358
 10
145.4391762628049
 20
6.00731816205036
 10
145.405086298005
 20
6.007497093250364
 10
145.373832219605
 20
6.007548510850362
  0
LWPOLYLINE
  5
CB3
330
1F
100
AcDbEntity
  8
0
  6
DASHED
 62
     8
100
AcDbPolyline
 90
        9
 70
     0
 43
0.0
 10
149.014250205205
 20
9.929456104450359
 10
148.993739504405
 20
9.974531298050358
 10
148.973422795605
 20
10.01969445325036
 10
148.959461022805
 20
10.05100299565036
 10
148.945586261205
 20
10.08235012525036
 10
148.931805750805
 20
10.11373876525036
 10
148.917591138005
 20
10.14640085325036
 10
148.903477528405
 20
10.17910675885036
 10
148.8894563444049
 20
10.21185232685036
  0
LINE
  5
CB4
330
1F
100
AcDbEntity
  8
0
  6
DASHED
 62
     8
100
AcDbLine
 10
150.037598851605
 20
8.463125442050362
 30
0.0
 11
150.028539856405
 21
8.470819283650364
 31
0.0
  0
LWPOLYLINE
  5
CB5
330
1F
100
AcDbEntity
  8
0
  6
DASHED
 62
     8
100
AcDbPolyline
 90
        3
 70
     0
 43
0.0
 10
150.838025304405
 20
8.021915808450359
 10
150.833698933205
 20
8.023148048450359
 10
150.825039658005
 20
8.025650378050357
  0
LINE
  5
CB6
330
1F
100
AcDbEntity
  8
0
  6
DASHED
 62
     8
100
AcDbLine
 10
150.825039658005
 20
8.025650378050357
 30
0.0
 11
150.816371662805
 21
8.028203298050364
 31
0.0
  0
LINE
  5
CB7
330
1F
100
AcDbEntity
  8
0
  6
DASHED
 62
     8
100
AcDbLine
 10
150.816371662805
 20
8.028203298050364
 30
0.0
 11
150.8076949316049
 21
8.030806958850362
 31
0.0
  0
LINE
  5
CB8
330
1F
100
AcDbEntity
  8
0
  6
DASHED
 62
     8
100
AcDbLine
 10
150.8076949316049
 20
8.030806958850362
 30
0.0
 11
150.799009461205
 21
8.033461506050358
 31
0.0
  0
LINE
  5
CB9
330
1F
100
AcDbEntity
  8
0
  6
DASHED
 62
     8
100
AcDbLine
 10
150.799009461205
 20
8.033461506050358
 30
0.0
 11
150.790315266005
 21
8.036167098050363
 31
0.0
  0
LINE
  5
CBA
330
1F
100
AcDbEntity
  8
0
  6
DASHED
 62
     8
100
AcDbLine
 10
150.790315266005
 20
8.036167098050363
 30
0.0
 11
150.781612370005
 21
8.038923891650362
 31
0.0
  0
LINE
  5
CBB
330
1F
100
AcDbEntity
  8
0
  6
DASHED
 62
     8
100
AcDbLine
 10
150.781612370005
 20
8.038923891650362
 30
0.0
 11
150.772900795605
 21
8.041732045250363
 31
0.0
  0
LINE
  5
CBC
330
1F
100
AcDbEntity
  8
0
  6
DASHED
 62
     8
100
AcDbLine
 10
150.772900795605
 20
8.041732045250363
 30
0.0
 11
150.764180557205
 21
8.044591714050362
 31
0.0
  0
LINE
  5
CBD
330
1F
100
AcDbEntity
  8
0
  6
DASHED
 62
     8
100
AcDbLine
 10
150.764180557205
 20
8.044591714050362
 30
0.0
 11
150.755451682005
 21
8.047503056450359
 31
0.0
  0
LINE
  5
CBE
330
1F
100
AcDbEntity
  8
0
  6
DASHED
 62
     8
100
AcDbLine
 10
150.755451682005
 20
8.047503056450359
 30
0.0
 11
150.746714214805
 21
8.050466240450361
 31
0.0
  0
LINE
  5
CBF
330
1F
100
AcDbEntity
  8
0
  6
DASHED
 62
     8
100
AcDbLine
 10
150.746714214805
 20
8.050466240450361
 30
0.0
 11
150.737968203605
 21
8.053481429250361
 31
0.0
  0
LINE
  5
CC0
330
1F
100
AcDbEntity
  8
0
  6
DASHED
 62
     8
100
AcDbLine
 10
150.737968203605
 20
8.053481429250361
 30
0.0
 11
150.729213690005
 21
8.056548790850364
 31
0.0
  0
LINE
  5
CC1
330
1F
100
AcDbEntity
  8
0
  6
DASHED
 62
     8
100
AcDbLine
 10
150.729213690005
 20
8.056548790850364
 30
0.0
 11
150.720450723605
 21
8.059668480450362
 31
0.0
  0
LINE
  5
CC2
330
1F
100
AcDbEntity
  8
0
  6
DASHED
 62
     8
100
AcDbLine
 10
150.720450723605
 20
8.059668480450362
 30
0.0
 11
150.711679347605
 21
8.062840648450361
 31
0.0
  0
LINE
  5
CC3
330
1F
100
AcDbEntity
  8
0
  6
DASHED
 62
     8
100
AcDbLine
 10
150.711679347605
 20
8.062840648450361
 30
0.0
 11
150.702899629205
 21
8.066065446850359
 31
0.0
  0
LINE
  5
CC4
330
1F
100
AcDbEntity
  8
0
  6
DASHED
 62
     8
100
AcDbLine
 10
150.702899629205
 20
8.066065446850359
 30
0.0
 11
150.6941116420049
 21
8.069343037250362
 31
0.0
  0
LINE
  5
CC5
330
1F
100
AcDbEntity
  8
0
  6
DASHED
 62
     8
100
AcDbLine
 10
150.6941116420049
 20
8.069343037250362
 30
0.0
 11
150.685315458005
 21
8.072673574850362
 31
0.0
  0
LINE
  5
CC6
330
1F
100
AcDbEntity
  8
0
  6
DASHED
 62
     8
100
AcDbLine
 10
150.685315458005
 20
8.072673574850362
 30
0.0
 11
150.676511142805
 21
8.076057218050358
 31
0.0
  0
LINE
  5
CC7
330
1F
100
AcDbEntity
  8
0
  6
DASHED
 62
     8
100
AcDbLine
 10
150.676511142805
 20
8.076057218050358
 30
0.0
 11
150.667698766805
 21
8.079494125250363
 31
0.0
  0
LINE
  5
CC8
330
1F
100
AcDbEntity
  8
0
  6
DASHED
 62
     8
100
AcDbLine
 10
150.667698766805
 20
8.079494125250363
 30
0.0
 11
150.6588783972049
 21
8.082984453250361
 31
0.0
  0
LINE
  5
CC9
330
1F
100
AcDbEntity
  8
0
  6
DASHED
 62
     8
100
AcDbLine
 10
150.6588783972049
 20
8.082984453250361
 30
0.0
 11
150.650050114005
 21
8.086528366850359
 31
0.0
  0
LINE
  5
CCA
330
1F
100
AcDbEntity
  8
0
  6
DASHED
 62
     8
100
AcDbLine
 10
150.650050114005
 20
8.086528366850359
 30
0.0
 11
150.641214013205
 21
8.090126032450363
 31
0.0
  0
LINE
  5
CCB
330
1F
100
AcDbEntity
  8
0
  6
DASHED
 62
     8
100
AcDbLine
 10
150.641214013205
 20
8.090126032450363
 30
0.0
 11
150.6323701796049
 21
8.09377761645036
 31
0.0
  0
LINE
  5
CCC
330
1F
100
AcDbEntity
  8
0
  6
DASHED
 62
     8
100
AcDbLine
 10
150.6323701796049
 20
8.09377761645036
 30
0.0
 11
150.623518701205
 21
8.097483283650362
 31
0.0
  0
LINE
  5
CCD
330
1F
100
AcDbEntity
  8
0
  6
DASHED
 62
     8
100
AcDbLine
 10
150.623518701205
 20
8.097483283650362
 30
0.0
 11
150.614659662805
 21
8.101243203650362
 31
0.0
  0
LINE
  5
CCE
330
1F
100
AcDbEntity
  8
0
  6
DASHED
 62
     8
100
AcDbLine
 10
150.614659662805
 20
8.101243203650362
 30
0.0
 11
150.6057931460049
 21
8.10505754125036
 31
0.0
  0
LINE
  5
CCF
330
1F
100
AcDbEntity
  8
0
  6
DASHED
 62
     8
100
AcDbLine
 10
150.6057931460049
 20
8.10505754125036
 30
0.0
 11
150.596919232405
 21
8.108926464450362
 31
0.0
  0
LINE
  5
CD0
330
1F
100
AcDbEntity
  8
0
  6
DASHED
 62
     8
100
AcDbLine
 10
150.596919232405
 20
8.108926464450362
 30
0.0
 11
150.588038030805
 21
8.112850149250363
 31
0.0
  0
LINE
  5
CD1
330
1F
100
AcDbEntity
  8
0
  6
DASHED
 62
     8
100
AcDbLine
 10
150.588038030805
 20
8.112850149250363
 30
0.0
 11
150.579149648405
 21
8.116828771650361
 31
0.0
  0
LINE
  5
CD2
330
1F
100
AcDbEntity
  8
0
  6
DASHED
 62
     8
100
AcDbLine
 10
150.579149648405
 20
8.116828771650361
 30
0.0
 11
150.570254187605
 21
8.120862507650357
 31
0.0
  0
LINE
  5
CD3
330
1F
100
AcDbEntity
  8
0
  6
DASHED
 62
     8
100
AcDbLine
 10
150.570254187605
 20
8.120862507650357
 30
0.0
 11
150.561351750805
 21
8.12495153165036
 31
0.0
  0
LINE
  5
CD4
330
1F
100
AcDbEntity
  8
0
  6
DASHED
 62
     8
100
AcDbLine
 10
150.561351750805
 20
8.12495153165036
 30
0.0
 11
150.552442432405
 21
8.129096019650361
 31
0.0
  0
LINE
  5
CD5
330
1F
100
AcDbEntity
  8
0
  6
DASHED
 62
     8
100
AcDbLine
 10
150.552442432405
 20
8.129096019650361
 30
0.0
 11
150.543526328405
 21
8.133296146050362
 31
0.0
  0
LINE
  5
CD6
330
1F
100
AcDbEntity
  8
0
  6
DASHED
 62
     8
100
AcDbLine
 10
150.543526328405
 20
8.133296146050362
 30
0.0
 11
150.5346035284049
 21
8.137552085250362
 31
0.0
  0
LINE
  5
CD7
330
1F
100
AcDbEntity
  8
0
  6
DASHED
 62
     8
100
AcDbLine
 10
150.5346035284049
 20
8.137552085250362
 30
0.0
 11
150.525674149205
 21
8.141864021250363
 31
0.0
  0
LINE
  5
CD8
330
1F
100
AcDbEntity
  8
0
  6
DASHED
 62
     8
100
AcDbLine
 10
150.525674149205
 20
8.141864021250363
 30
0.0
 11
150.516738312405
 21
8.146232138050358
 31
0.0
  0
LINE
  5
CD9
330
1F
100
AcDbEntity
  8
0
  6
DASHED
 62
     8
100
AcDbLine
 10
150.516738312405
 20
8.146232138050358
 30
0.0
 11
150.507796133205
 21
8.150656619650362
 31
0.0
  0
LINE
  5
CDA
330
1F
100
AcDbEntity
  8
0
  6
DASHED
 62
     8
100
AcDbLine
 10
150.507796133205
 20
8.150656619650362
 30
0.0
 11
150.498847730005
 21
8.155137650050363
 31
0.0
  0
LINE
  5
CDB
330
1F
100
AcDbEntity
  8
0
  6
DASHED
 62
     8
100
AcDbLine
 10
150.498847730005
 20
8.155137650050363
 30
0.0
 11
150.489893211605
 21
8.159675414850362
 31
0.0
  0
LINE
  5
CDC
330
1F
100
AcDbEntity
  8
0
  6
DASHED
 62
     8
100
AcDbLine
 10
150.489893211605
 20
8.159675414850362
 30
0.0
 11
150.480932688405
 21
8.164270096450358
 31
0.0
  0
LINE
  5
CDD
330
1F
100
AcDbEntity
  8
0
  6
DASHED
 62
     8
100
AcDbLine
 10
150.480932688405
 20
8.164270096450358
 30
0.0
 11
150.471966266005
 21
8.168921869250361
 31
0.0
  0
LINE
  5
CDE
330
1F
100
AcDbEntity
  8
0
  6
DASHED
 62
     8
100
AcDbLine
 10
150.471966266005
 20
8.168921869250361
 30
0.0
 11
150.462994061205
 21
8.173630907650363
 31
0.0
  0
LINE
  5
CDF
330
1F
100
AcDbEntity
  8
0
  6
DASHED
 62
     8
100
AcDbLine
 10
150.462994061205
 20
8.173630907650363
 30
0.0
 11
150.454016211605
 21
8.178397394050364
 31
0.0
  0
LINE
  5
CE0
330
1F
100
AcDbEntity
  8
0
  6
DASHED
 62
     8
100
AcDbLine
 10
150.454016211605
 20
8.178397394050364
 30
0.0
 11
150.445032859605
 21
8.183221509250358
 31
0.0
  0
LINE
  5
CE1
330
1F
100
AcDbEntity
  8
0
  6
DASHED
 62
     8
100
AcDbLine
 10
150.445032859605
 20
8.183221509250358
 30
0.0
 11
150.436044146005
 21
8.188103437250362
 31
0.0
  0
LINE
  5
CE2
330
1F
100
AcDbEntity
  8
0
  6
DASHED
 62
     8
100
AcDbLine
 10
150.436044146005
 20
8.188103437250362
 30
0.0
 11
150.427050210005
 21
8.19304336045036
 31
0.0
  0
LINE
  5
CE3
330
1F
100
AcDbEntity
  8
0
  6
DASHED
 62
     8
100
AcDbLine
 10
150.427050210005
 20
8.19304336045036
 30
0.0
 11
150.418051187605
 21
8.198041464450362
 31
0.0
  0
LINE
  5
CE4
330
1F
100
AcDbEntity
  8
0
  6
DASHED
 62
     8
100
AcDbLine
 10
150.418051187605
 20
8.198041464450362
 30
0.0
 11
150.409047210005
 21
8.203097928450361
 31
0.0
  0
LINE
  5
CE5
330
1F
100
AcDbEntity
  8
0
  6
DASHED
 62
     8
100
AcDbLine
 10
150.409047210005
 20
8.203097928450361
 30
0.0
 11
150.400038410005
 21
8.208212934850358
 31
0.0
  0
LINE
  5
CE6
330
1F
100
AcDbEntity
  8
0
  6
DASHED
 62
     8
100
AcDbLine
 10
150.400038410005
 20
8.208212934850358
 30
0.0
 11
150.391024914005
 21
8.213386664450361
 31
0.0
  0
LINE
  5
CE7
330
1F
100
AcDbEntity
  8
0
  6
DASHED
 62
     8
100
AcDbLine
 10
150.391024914005
 20
8.213386664450361
 30
0.0
 11
150.382006859605
 21
8.218619304450363
 31
0.0
  0
LINE
  5
CE8
330
1F
100
AcDbEntity
  8
0
  6
DASHED
 62
     8
100
AcDbLine
 10
150.382006859605
 20
8.218619304450363
 30
0.0
 11
150.372984406805
 21
8.22391104525036
 31
0.0
  0
LINE
  5
CE9
330
1F
100
AcDbEntity
  8
0
  6
DASHED
 62
     8
100
AcDbLine
 10
150.372984406805
 20
8.22391104525036
 30
0.0
 11
150.363957712405
 21
8.229262085250361
 31
0.0
  0
LINE
  5
CEA
330
1F
100
AcDbEntity
  8
0
  6
DASHED
 62
     8
100
AcDbLine
 10
150.363957712405
 20
8.229262085250361
 30
0.0
 11
150.354926934805
 21
8.23467261645036
 31
0.0
  0
LINE
  5
CEB
330
1F
100
AcDbEntity
  8
0
  6
DASHED
 62
     8
100
AcDbLine
 10
150.354926934805
 20
8.23467261645036
 30
0.0
 11
150.345892229205
 21
8.240142832450359
 31
0.0
  0
LINE
  5
CEC
330
1F
100
AcDbEntity
  8
0
  6
DASHED
 62
     8
100
AcDbLine
 10
150.345892229205
 20
8.240142832450359
 30
0.0
 11
150.336853749205
 21
8.245672930050361
 31
0.0
  0
LINE
  5
CED
330
1F
100
AcDbEntity
  8
0
  6
DASHED
 62
     8
100
AcDbLine
 10
150.336853749205
 20
8.245672930050361
 30
0.0
 11
150.327811645205
 21
8.251263101250359
 31
0.0
  0
LINE
  5
CEE
330
1F
100
AcDbEntity
  8
0
  6
DASHED
 62
     8
100
AcDbLine
 10
150.327811645205
 20
8.251263101250359
 30
0.0
 11
150.318766066005
 21
8.256913538050362
 31
0.0
  0
LINE
  5
CEF
330
1F
100
AcDbEntity
  8
0
  6
DASHED
 62
     8
100
AcDbLine
 10
150.318766066005
 20
8.256913538050362
 30
0.0
 11
150.309717158805
 21
8.262624434050358
 31
0.0
  0
LINE
  5
CF0
330
1F
100
AcDbEntity
  8
0
  6
DASHED
 62
     8
100
AcDbLine
 10
150.309717158805
 20
8.262624434050358
 30
0.0
 11
150.300665085205
 21
8.268395976450364
 31
0.0
  0
LINE
  5
CF1
330
1F
100
AcDbEntity
  8
0
  6
DASHED
 62
     8
100
AcDbLine
 10
150.300665085205
 20
8.268395976450364
 30
0.0
 11
150.291610024405
 21
8.274228363650358
 31
0.0
  0
LINE
  5
CF2
330
1F
100
AcDbEntity
  8
0
  6
DASHED
 62
     8
100
AcDbLine
 10
150.291610024405
 20
8.274228363650358
 30
0.0
 11
150.282552150805
 21
8.280121797250359
 31
0.0
  0
LINE
  5
CF3
330
1F
100
AcDbEntity
  8
0
  6
DASHED
 62
     8
100
AcDbLine
 10
150.282552150805
 20
8.280121797250359
 30
0.0
 11
150.273491643605
 21
8.286076483650361
 31
0.0
  0
LINE
  5
CF4
330
1F
100
AcDbEntity
  8
0
  6
DASHED
 62
     8
100
AcDbLine
 10
150.273491643605
 20
8.286076483650361
 30
0.0
 11
150.264428685205
 21
8.292092634050362
 31
0.0
  0
LINE
  5
CF5
330
1F
100
AcDbEntity
  8
0
  6
DASHED
 62
     8
100
AcDbLine
 10
150.264428685205
 20
8.292092634050362
 30
0.0
 11
150.255363464405
 21
8.298170450050363
 31
0.0
  0
LINE
  5
CF6
330
1F
100
AcDbEntity
  8
0
  6
DASHED
 62
     8
100
AcDbLine
 10
150.255363464405
 20
8.298170450050363
 30
0.0
 11
150.246296171605
 21
8.304310144450361
 31
0.0
  0
LINE
  5
CF7
330
1F
100
AcDbEntity
  8
0
  6
DASHED
 62
     8
100
AcDbLine
 10
150.246296171605
 20
8.304310144450361
 30
0.0
 11
150.237227005205
 21
8.310511923650359
 31
0.0
  0
LINE
  5
CF8
330
1F
100
AcDbEntity
  8
0
  6
DASHED
 62
     8
100
AcDbLine
 10
150.237227005205
 20
8.310511923650359
 30
0.0
 11
150.228156154005
 21
8.316776006850361
 31
0.0
  0
LINE
  5
CF9
330
1F
100
AcDbEntity
  8
0
  6
DASHED
 62
     8
100
AcDbLine
 10
150.228156154005
 20
8.316776006850361
 30
0.0
 11
150.219083803605
 21
8.323102626050363
 31
0.0
  0
LINE
  5
CFA
330
1F
100
AcDbEntity
  8
0
  6
DASHED
 62
     8
100
AcDbLine
 10
150.219083803605
 20
8.323102626050363
 30
0.0
 11
150.210010139605
 21
8.329492016450359
 31
0.0
  0
LINE
  5
CFB
330
1F
100
AcDbEntity
  8
0
  6
DASHED
 62
     8
100
AcDbLine
 10
150.210010139605
 20
8.329492016450359
 30
0.0
 11
150.200935354005
 21
8.335944406850359
 31
0.0
  0
LINE
  5
CFC
330
1F
100
AcDbEntity
  8
0
  6
DASHED
 62
     8
100
AcDbLine
 10
150.200935354005
 20
8.335944406850359
 30
0.0
 11
150.191859629205
 21
8.342460034050361
 31
0.0
  0
LINE
  5
CFD
330
1F
100
AcDbEntity
  8
0
  6
DASHED
 62
     8
100
AcDbLine
 10
150.191859629205
 20
8.342460034050361
 30
0.0
 11
150.182783122005
 21
8.349039130050364
 31
0.0
  0
LINE
  5
CFE
330
1F
100
AcDbEntity
  8
0
  6
DASHED
 62
     8
100
AcDbLine
 10
150.182783122005
 20
8.349039130050364
 30
0.0
 11
150.173705992405
 21
8.355681930050359
 31
0.0
  0
LINE
  5
CFF
330
1F
100
AcDbEntity
  8
0
  6
DASHED
 62
     8
100
AcDbLine
 10
150.173705992405
 20
8.355681930050359
 30
0.0
 11
150.164628402005
 21
8.362388670850364
 31
0.0
  0
LINE
  5
D00
330
1F
100
AcDbEntity
  8
0
  6
DASHED
 62
     8
100
AcDbLine
 10
150.164628402005
 20
8.362388670850364
 30
0.0
 11
150.155550515605
 21
8.369159582850357
 31
0.0
  0
LINE
  5
D01
330
1F
100
AcDbEntity
  8
0
  6
DASHED
 62
     8
100
AcDbLine
 10
150.155550515605
 20
8.369159582850357
 30
0.0
 11
150.146472504405
 21
8.375994896450357
 31
0.0
  0
LINE
  5
D02
330
1F
100
AcDbEntity
  8
0
  6
DASHED
 62
     8
100
AcDbLine
 10
150.146472504405
 20
8.375994896450357
 30
0.0
 11
150.137394542805
 21
8.382894840450362
 31
0.0
  0
LINE
  5
D03
330
1F
100
AcDbEntity
  8
0
  6
DASHED
 62
     8
100
AcDbLine
 10
150.137394542805
 20
8.382894840450362
 30
0.0
 11
150.128316806805
 21
8.389859645250361
 31
0.0
  0
LINE
  5
D04
330
1F
100
AcDbEntity
  8
0
  6
DASHED
 62
     8
100
AcDbLine
 10
150.128316806805
 20
8.389859645250361
 30
0.0
 11
150.119239480405
 21
8.396889533250359
 31
0.0
  0
LINE
  5
D05
330
1F
100
AcDbEntity
  8
0
  6
DASHED
 62
     8
100
AcDbLine
 10
150.119239480405
 20
8.396889533250359
 30
0.0
 11
150.110162744405
 21
8.403984733250361
 31
0.0
  0
LINE
  5
D06
330
1F
100
AcDbEntity
  8
0
  6
DASHED
 62
     8
100
AcDbLine
 10
150.110162744405
 20
8.403984733250361
 30
0.0
 11
150.101086790805
 21
8.411145464450363
 31
0.0
  0
LINE
  5
D07
330
1F
100
AcDbEntity
  8
0
  6
DASHED
 62
     8
100
AcDbLine
 10
150.101086790805
 20
8.411145464450363
 30
0.0
 11
150.092011810005
 21
8.418371950850364
 31
0.0
  0
LINE
  5
D08
330
1F
100
AcDbEntity
  8
0
  6
DASHED
 62
     8
100
AcDbLine
 10
150.092011810005
 20
8.418371950850364
 30
0.0
 11
150.082937998805
 21
8.425664411650359
 31
0.0
  0
LINE
  5
D09
330
1F
100
AcDbEntity
  8
0
  6
DASHED
 62
     8
100
AcDbLine
 10
150.082937998805
 20
8.425664411650359
 30
0.0
 11
150.073865648405
 21
8.433023091650362
 31
0.0
  0
LINE
  5
D0A
330
1F
100
AcDbEntity
  8
0
  6
DASHED
 62
     8
100
AcDbLine
 10
150.073865648405
 20
8.433023091650362
 30
0.0
 11
150.064795150805
 21
8.44044826445036
 31
0.0
  0
LINE
  5
D0B
330
1F
100
AcDbEntity
  8
0
  6
DASHED
 62
     8
100
AcDbLine
 10
150.064795150805
 20
8.44044826445036
 30
0.0
 11
150.055726912405
 21
8.447940198850361
 31
0.0
  0
LINE
  5
D0C
330
1F
100
AcDbEntity
  8
0
  6
DASHED
 62
     8
100
AcDbLine
 10
150.055726912405
 20
8.447940198850361
 30
0.0
 11
150.046661342805
 21
8.455499168450359
 31
0.0
  0
LINE
  5
D0D
330
1F
100
AcDbEntity
  8
0
  6
DASHED
 62
     8
100
AcDbLine
 10
150.046661342805
 20
8.455499168450359
 30
0.0
 11
150.037598851605
 21
8.463125442050362
 31
0.0
  0
LINE
  5
D0E
330
1F
100
AcDbEntity
  8
0
  6
DASHED
 62
     8
100
AcDbLine
 10
150.983899589205
 20
7.98737067725036
 30
0.0
 11
150.975377304405
 21
7.989014654850357
 31
0.0
  0
LINE
  5
D0F
330
1F
100
AcDbEntity
  8
0
  6
DASHED
 62
     8
100
AcDbLine
 10
150.975377304405
 20
7.989014654850357
 30
0.0
 11
150.966849008405
 21
7.990706456450361
 31
0.0
  0
LINE
  5
D10
330
1F
100
AcDbEntity
  8
0
  6
DASHED
 62
     8
100
AcDbLine
 10
150.966849008405
 20
7.990706456450361
 30
0.0
 11
150.958314312405
 21
7.992446189250358
 31
0.0
  0
LINE
  5
D11
330
1F
100
AcDbEntity
  8
0
  6
DASHED
 62
     8
100
AcDbLine
 10
150.958314312405
 20
7.992446189250358
 30
0.0
 11
150.949772894805
 21
7.994233973250359
 31
0.0
  0
LINE
  5
D12
330
1F
100
AcDbEntity
  8
0
  6
DASHED
 62
     8
100
AcDbLine
 10
150.949772894805
 20
7.994233973250359
 30
0.0
 11
150.941224427605
 21
7.99606992845036
 31
0.0
  0
LINE
  5
D13
330
1F
100
AcDbEntity
  8
0
  6
DASHED
 62
     8
100
AcDbLine
 10
150.941224427605
 20
7.99606992845036
 30
0.0
 11
150.932668651605
 21
7.997954187650364
 31
0.0
  0
LINE
  5
D14
330
1F
100
AcDbEntity
  8
0
  6
DASHED
 62
     8
100
AcDbLine
 10
150.932668651605
 20
7.997954187650364
 30
0.0
 11
150.924105389205
 21
7.999886901250363
 31
0.0
  0
LINE
  5
D15
330
1F
100
AcDbEntity
  8
0
  6
DASHED
 62
     8
100
AcDbLine
 10
150.924105389205
 20
7.999886901250363
 30
0.0
 11
150.915534429205
 21
8.001868221250362
 31
0.0
  0
LINE
  5
D16
330
1F
100
AcDbEntity
  8
0
  6
DASHED
 62
     8
100
AcDbLine
 10
150.915534429205
 20
8.001868221250362
 30
0.0
 11
150.906955554005
 21
8.003898293250358
 31
0.0
  0
LINE
  5
D17
330
1F
100
AcDbEntity
  8
0
  6
DASHED
 62
     8
100
AcDbLine
 10
150.906955554005
 20
8.003898293250358
 30
0.0
 11
150.898368622805
 21
8.00597728685036
 31
0.0
  0
LINE
  5
D18
330
1F
100
AcDbEntity
  8
0
  6
DASHED
 62
     8
100
AcDbLine
 10
150.898368622805
 20
8.00597728685036
 30
0.0
 11
150.889773512405
 21
8.00810538445036
 31
0.0
  0
LINE
  5
D19
330
1F
100
AcDbEntity
  8
0
  6
DASHED
 62
     8
100
AcDbLine
 10
150.889773512405
 20
8.00810538445036
 30
0.0
 11
150.881170098005
 21
8.010282766850359
 31
0.0
  0
LINE
  5
D1A
330
1F
100
AcDbEntity
  8
0
  6
DASHED
 62
     8
100
AcDbLine
 10
150.881170098005
 20
8.010282766850359
 30
0.0
 11
150.872558264405
 21
8.012509622850359
 31
0.0
  0
LINE
  5
D1B
330
1F
100
AcDbEntity
  8
0
  6
DASHED
 62
     8
100
AcDbLine
 10
150.872558264405
 20
8.012509622850359
 30
0.0
 11
150.863937938005
 21
8.014786158850363
 31
0.0
  0
LINE
  5
D1C
330
1F
100
AcDbEntity
  8
0
  6
DASHED
 62
     8
100
AcDbLine
 10
150.863937938005
 20
8.014786158850363
 30
0.0
 11
150.855309045205
 21
8.017112584450359
 31
0.0
  0
LINE
  5
D1D
330
1F
100
AcDbEntity
  8
0
  6
DASHED
 62
     8
100
AcDbLine
 10
150.855309045205
 20
8.017112584450359
 30
0.0
 11
150.846671518805
 21
8.019489086850363
 31
0.0
  0
LINE
  5
D1E
330
1F
100
AcDbEntity
  8
0
  6
DASHED
 62
     8
100
AcDbLine
 10
150.846671518805
 20
8.019489086850363
 30
0.0
 11
150.838025304405
 21
8.021915808450359
 31
0.0
  0
LINE
  5
D1F
330
1F
100
AcDbEntity
  8
0
  6
DASHED
 62
     8
100
AcDbLine
 10
150.019484776405
 20
8.478580960450358
 30
0.0
 11
150.010434003605
 21
8.486410730050359
 31
0.0
  0
LINE
  5
D20
330
1F
100
AcDbEntity
  8
0
  6
DASHED
 62
     8
100
AcDbLine
 10
150.010434003605
 20
8.486410730050359
 30
0.0
 11
150.001387768405
 21
8.494308830850364
 31
0.0
  0
LINE
  5
D21
330
1F
100
AcDbEntity
  8
0
  6
DASHED
 62
     8
100
AcDbLine
 10
150.001387768405
 20
8.494308830850364
 30
0.0
 11
149.992346219605
 21
8.502275485250358
 31
0.0
  0
LINE
  5
D22
330
1F
100
AcDbEntity
  8
0
  6
DASHED
 62
     8
100
AcDbLine
 10
149.992346219605
 20
8.502275485250358
 30
0.0
 11
149.983309504405
 21
8.510310917250357
 31
0.0
  0
LINE
  5
D23
330
1F
100
AcDbEntity
  8
0
  6
DASHED
 62
     8
100
AcDbLine
 10
149.983309504405
 20
8.510310917250357
 30
0.0
 11
149.974277754005
 21
8.518415349250361
 31
0.0
  0
LINE
  5
D24
330
1F
100
AcDbEntity
  8
0
  6
DASHED
 62
     8
100
AcDbLine
 10
149.974277754005
 20
8.518415349250361
 30
0.0
 11
149.965251066005
 21
8.526589021250359
 31
0.0
  0
LINE
  5
D25
330
1F
100
AcDbEntity
  8
0
  6
DASHED
 62
     8
100
AcDbLine
 10
149.965251066005
 20
8.526589021250359
 30
0.0
 11
149.956229510805
 21
8.53483220045036
 31
0.0
  0
LINE
  5
D26
330
1F
100
AcDbEntity
  8
0
  6
DASHED
 62
     8
100
AcDbLine
 10
149.956229510805
 20
8.53483220045036
 30
0.0
 11
149.947213237205
 21
8.543145136450362
 31
0.0
  0
LINE
  5
D27
330
1F
100
AcDbEntity
  8
0
  6
DASHED
 62
     8
100
AcDbLine
 10
149.947213237205
 20
8.543145136450362
 30
0.0
 11
149.938202531605
 21
8.551528054850358
 31
0.0
  0
LINE
  5
D28
330
1F
100
AcDbEntity
  8
0
  6
DASHED
 62
     8
100
AcDbLine
 10
149.938202531605
 20
8.551528054850358
 30
0.0
 11
149.929197688405
 21
8.559981176450364
 31
0.0
  0
LINE
  5
D29
330
1F
100
AcDbEntity
  8
0
  6
DASHED
 62
     8
100
AcDbLine
 10
149.929197688405
 20
8.559981176450364
 30
0.0
 11
149.920198987605
 21
8.568504723650363
 31
0.0
  0
LINE
  5
D2A
330
1F
100
AcDbEntity
  8
0
  6
DASHED
 62
     8
100
AcDbLine
 10
149.920198987605
 20
8.568504723650363
 30
0.0
 11
149.911206704405
 21
8.577098909250359
 31
0.0
  0
LINE
  5
D2B
330
1F
100
AcDbEntity
  8
0
  6
DASHED
 62
     8
100
AcDbLine
 10
149.911206704405
 20
8.577098909250359
 30
0.0
 11
149.902221106005
 21
8.585763942850363
 31
0.0
  0
LINE
  5
D2C
330
1F
100
AcDbEntity
  8
0
  6
DASHED
 62
     8
100
AcDbLine
 10
149.902221106005
 20
8.585763942850363
 30
0.0
 11
149.893242458005
 21
8.594500029250362
 31
0.0
  0
LINE
  5
D2D
330
1F
100
AcDbEntity
  8
0
  6
DASHED
 62
     8
100
AcDbLine
 10
149.893242458005
 20
8.594500029250362
 30
0.0
 11
149.884271021205
 21
8.603307368450359
 31
0.0
  0
LINE
  5
D2E
330
1F
100
AcDbEntity
  8
0
  6
DASHED
 62
     8
100
AcDbLine
 10
149.884271021205
 20
8.603307368450359
 30
0.0
 11
149.875307053205
 21
8.612186155650363
 31
0.0
  0
LINE
  5
D2F
330
1F
100
AcDbEntity
  8
0
  6
DASHED
 62
     8
100
AcDbLine
 10
149.875307053205
 20
8.612186155650363
 30
0.0
 11
149.866350805205
 21
8.621136578050361
 31
0.0
  0
LINE
  5
D30
330
1F
100
AcDbEntity
  8
0
  6
DASHED
 62
     8
100
AcDbLine
 10
149.866350805205
 20
8.621136578050361
 30
0.0
 11
149.857402525205
 21
8.630158822850361
 31
0.0
  0
LINE
  5
D31
330
1F
100
AcDbEntity
  8
0
  6
DASHED
 62
     8
100
AcDbLine
 10
149.857402525205
 20
8.630158822850361
 30
0.0
 11
149.848462461205
 21
8.639253074050358
 31
0.0
  0
LINE
  5
D32
330
1F
100
AcDbEntity
  8
0
  6
DASHED
 62
     8
100
AcDbLine
 10
149.848462461205
 20
8.639253074050358
 30
0.0
 11
149.839530851605
 21
8.648419507650359
 31
0.0
  0
LINE
  5
D33
330
1F
100
AcDbEntity
  8
0
  6
DASHED
 62
     8
100
AcDbLine
 10
149.839530851605
 20
8.648419507650359
 30
0.0
 11
149.830607928405
 21
8.657658301250364
 31
0.0
  0
LINE
  5
D34
330
1F
100
AcDbEntity
  8
0
  6
DASHED
 62
     8
100
AcDbLine
 10
149.830607928405
 20
8.657658301250364
 30
0.0
 11
149.821693882005
 21
8.666969602050357
 31
0.0
  0
LINE
  5
D35
330
1F
100
AcDbEntity
  8
0
  6
DASHED
 62
     8
100
AcDbLine
 10
149.821693882005
 20
8.666969602050357
 30
0.0
 11
149.812788858005
 21
8.676353531650363
 31
0.0
  0
LINE
  5
D36
330
1F
100
AcDbEntity
  8
0
  6
DASHED
 62
     8
100
AcDbLine
 10
149.812788858005
 20
8.676353531650363
 30
0.0
 11
149.803892997205
 21
8.685810208450362
 31
0.0
  0
LINE
  5
D37
330
1F
100
AcDbEntity
  8
0
  6
DASHED
 62
     8
100
AcDbLine
 10
149.803892997205
 20
8.685810208450362
 30
0.0
 11
149.795006440405
 21
8.695339742850357
 31
0.0
  0
LINE
  5
D38
330
1F
100
AcDbEntity
  8
0
  6
DASHED
 62
     8
100
AcDbLine
 10
149.795006440405
 20
8.695339742850357
 30
0.0
 11
149.786129322005
 21
8.704942245250364
 31
0.0
  0
LINE
  5
D39
330
1F
100
AcDbEntity
  8
0
  6
DASHED
 62
     8
100
AcDbLine
 10
149.786129322005
 20
8.704942245250364
 30
0.0
 11
149.777261776405
 21
8.714617821250364
 31
0.0
  0
LINE
  5
D3A
330
1F
100
AcDbEntity
  8
0
  6
DASHED
 62
     8
100
AcDbLine
 10
149.777261776405
 20
8.714617821250364
 30
0.0
 11
149.768403939605
 21
8.724366570050364
 31
0.0
  0
LINE
  5
D3B
330
1F
100
AcDbEntity
  8
0
  6
DASHED
 62
     8
100
AcDbLine
 10
149.768403939605
 20
8.724366570050364
 30
0.0
 11
149.759555942805
 21
8.734188590850358
 31
0.0
  0
LINE
  5
D3C
330
1F
100
AcDbEntity
  8
0
  6
DASHED
 62
     8
100
AcDbLine
 10
149.759555942805
 20
8.734188590850358
 30
0.0
 11
149.750717917205
 21
8.744083973250361
 31
0.0
  0
LINE
  5
D3D
330
1F
100
AcDbEntity
  8
0
  6
DASHED
 62
     8
100
AcDbLine
 10
149.750717917205
 20
8.744083973250361
 30
0.0
 11
149.741889998805
 21
8.75405280685036
 31
0.0
  0
LINE
  5
D3E
330
1F
100
AcDbEntity
  8
0
  6
DASHED
 62
     8
100
AcDbLine
 10
149.741889998805
 20
8.75405280685036
 30
0.0
 11
149.733072342805
 21
8.764095174850361
 31
0.0
  0
LINE
  5
D3F
330
1F
100
AcDbEntity
  8
0
  6
DASHED
 62
     8
100
AcDbLine
 10
149.733072342805
 20
8.764095174850361
 30
0.0
 11
149.724265381205
 21
8.774211155650363
 31
0.0
  0
LINE
  5
D40
330
1F
100
AcDbEntity
  8
0
  6
DASHED
 62
     8
100
AcDbLine
 10
149.724265381205
 20
8.774211155650363
 30
0.0
 11
149.715469728405
 21
8.784400840450359
 31
0.0
  0
LINE
  5
D41
330
1F
100
AcDbEntity
  8
0
  6
DASHED
 62
     8
100
AcDbLine
 10
149.715469728405
 20
8.784400840450359
 30
0.0
 11
149.706685718805
 21
8.794664323650358
 31
0.0
  0
LINE
  5
D42
330
1F
100
AcDbEntity
  8
0
  6
DASHED
 62
     8
100
AcDbLine
 10
149.706685718805
 20
8.794664323650358
 30
0.0
 11
149.697913458005
 21
8.80500168685036
 31
0.0
  0
LINE
  5
D43
330
1F
100
AcDbEntity
  8
0
  6
DASHED
 62
     8
100
AcDbLine
 10
149.697913458005
 20
8.80500168685036
 30
0.0
 11
149.689153051605
 21
8.815412998850362
 31
0.0
  0
LINE
  5
D44
330
1F
100
AcDbEntity
  8
0
  6
DASHED
 62
     8
100
AcDbLine
 10
149.689153051605
 20
8.815412998850362
 30
0.0
 11
149.680404608405
 21
8.825898333250364
 31
0.0
  0
LINE
  5
D45
330
1F
100
AcDbEntity
  8
0
  6
DASHED
 62
     8
100
AcDbLine
 10
149.680404608405
 20
8.825898333250364
 30
0.0
 11
149.671668240405
 21
8.836457754050364
 31
0.0
  0
LINE
  5
D46
330
1F
100
AcDbEntity
  8
0
  6
DASHED
 62
     8
100
AcDbLine
 10
149.671668240405
 20
8.836457754050364
 30
0.0
 11
149.662944069205
 21
8.84709132205036
 31
0.0
  0
LINE
  5
D47
330
1F
100
AcDbEntity
  8
0
  6
DASHED
 62
     8
100
AcDbLine
 10
149.662944069205
 20
8.84709132205036
 30
0.0
 11
149.654232216405
 21
8.857799094850363
 31
0.0
  0
LINE
  5
D48
330
1F
100
AcDbEntity
  8
0
  6
DASHED
 62
     8
100
AcDbLine
 10
149.654232216405
 20
8.857799094850363
 30
0.0
 11
149.645532813205
 21
8.868581125250358
 31
0.0
  0
LINE
  5
D49
330
1F
100
AcDbEntity
  8
0
  6
DASHED
 62
     8
100
AcDbLine
 10
149.645532813205
 20
8.868581125250358
 30
0.0
 11
149.6368459908049
 21
8.879437459650361
 31
0.0
  0
LINE
  5
D4A
330
1F
100
AcDbEntity
  8
0
  6
DASHED
 62
     8
100
AcDbLine
 10
149.6368459908049
 20
8.879437459650361
 30
0.0
 11
149.6281718884049
 21
8.890368138050362
 31
0.0
  0
LINE
  5
D4B
330
1F
100
AcDbEntity
  8
0
  6
DASHED
 62
     8
100
AcDbLine
 10
149.6281718884049
 20
8.890368138050362
 30
0.0
 11
149.619510643605
 21
8.901373200450358
 31
0.0
  0
LINE
  5
D4C
330
1F
100
AcDbEntity
  8
0
  6
DASHED
 62
     8
100
AcDbLine
 10
149.619510643605
 20
8.901373200450358
 30
0.0
 11
149.610862403605
 21
8.912452677250364
 31
0.0
  0
LINE
  5
D4D
330
1F
100
AcDbEntity
  8
0
  6
DASHED
 62
     8
100
AcDbLine
 10
149.610862403605
 20
8.912452677250364
 30
0.0
 11
149.602227309205
 21
8.923606581250361
 31
0.0
  0
LINE
  5
D4E
330
1F
100
AcDbEntity
  8
0
  6
DASHED
 62
     8
100
AcDbLine
 10
149.602227309205
 20
8.923606581250361
 30
0.0
 11
149.593605488405
 21
8.934834894850361
 31
0.0
  0
LINE
  5
D4F
330
1F
100
AcDbEntity
  8
0
  6
DASHED
 62
     8
100
AcDbLine
 10
149.593605488405
 20
8.934834894850361
 30
0.0
 11
149.584997070805
 21
8.946137592450362
 31
0.0
  0
LINE
  5
D50
330
1F
100
AcDbEntity
  8
0
  6
DASHED
 62
     8
100
AcDbLine
 10
149.584997070805
 20
8.946137592450362
 30
0.0
 11
149.576402190805
 21
8.957514637250362
 31
0.0
  0
LINE
  5
D51
330
1F
100
AcDbEntity
  8
0
  6
DASHED
 62
     8
100
AcDbLine
 10
149.576402190805
 20
8.957514637250362
 30
0.0
 11
149.567820979605
 21
8.968965989250364
 31
0.0
  0
LINE
  5
D52
330
1F
100
AcDbEntity
  8
0
  6
DASHED
 62
     8
100
AcDbLine
 10
149.567820979605
 20
8.968965989250364
 30
0.0
 11
149.559253576405
 21
8.980491598850363
 31
0.0
  0
LINE
  5
D53
330
1F
100
AcDbEntity
  8
0
  6
DASHED
 62
     8
100
AcDbLine
 10
149.559253576405
 20
8.980491598850363
 30
0.0
 11
149.550700122005
 21
8.992091413250363
 31
0.0
  0
LINE
  5
D54
330
1F
100
AcDbEntity
  8
0
  6
DASHED
 62
     8
100
AcDbLine
 10
149.550700122005
 20
8.992091413250363
 30
0.0
 11
149.542160754005
 21
9.003765365250359
 31
0.0
  0
LINE
  5
D55
330
1F
100
AcDbEntity
  8
0
  6
DASHED
 62
     8
100
AcDbLine
 10
149.542160754005
 20
9.003765365250359
 30
0.0
 11
149.533635619605
 21
9.015513387650358
 31
0.0
  0
LINE
  5
D56
330
1F
100
AcDbEntity
  8
0
  6
DASHED
 62
     8
100
AcDbLine
 10
149.533635619605
 20
9.015513387650358
 30
0.0
 11
149.525124861205
 21
9.027335402050361
 31
0.0
  0
LINE
  5
D57
330
1F
100
AcDbEntity
  8
0
  6
DASHED
 62
     8
100
AcDbLine
 10
149.525124861205
 20
9.027335402050361
 30
0.0
 11
149.516628624405
 21
9.039231320450362
 31
0.0
  0
LINE
  5
D58
330
1F
100
AcDbEntity
  8
0
  6
DASHED
 62
     8
100
AcDbLine
 10
149.516628624405
 20
9.039231320450362
 30
0.0
 11
149.508147058005
 21
9.051201048450359
 31
0.0
  0
LINE
  5
D59
330
1F
100
AcDbEntity
  8
0
  6
DASHED
 62
     8
100
AcDbLine
 10
149.508147058005
 20
9.051201048450359
 30
0.0
 11
149.499680350805
 21
9.063244459650363
 31
0.0
  0
LINE
  5
D5A
330
1F
100
AcDbEntity
  8
0
  6
DASHED
 62
     8
100
AcDbLine
 10
149.499680350805
 20
9.063244459650363
 30
0.0
 11
149.491228749205
 21
9.07536138125036
 31
0.0
  0
LINE
  5
D5B
330
1F
100
AcDbEntity
  8
0
  6
DASHED
 62
     8
100
AcDbLine
 10
149.491228749205
 20
9.07536138125036
 30
0.0
 11
149.478580245205
 21
9.093674158850362
 31
0.0
  0
LINE
  5
D5C
330
1F
100
AcDbEntity
  8
0
  6
DASHED
 62
     8
100
AcDbLine
 10
149.478580245205
 20
9.093674158850362
 30
0.0
 11
149.465967390805
 21
9.112150947650363
 31
0.0
  0
LINE
  5
D5D
330
1F
100
AcDbEntity
  8
0
  6
DASHED
 62
     8
100
AcDbLine
 10
149.465967390805
 20
9.112150947650363
 30
0.0
 11
149.453391283605
 21
9.130790690050361
 31
0.0
  0
LINE
  5
D5E
330
1F
100
AcDbEntity
  8
0
  6
DASHED
 62
     8
100
AcDbLine
 10
149.453391283605
 20
9.130790690050361
 30
0.0
 11
149.440852555605
 21
9.149592358850362
 31
0.0
  0
LINE
  5
D5F
330
1F
100
AcDbEntity
  8
0
  6
DASHED
 62
     8
100
AcDbLine
 10
149.440852555605
 20
9.149592358850362
 30
0.0
 11
149.428351531605
 21
9.168554941250363
 31
0.0
  0
LINE
  5
D60
330
1F
100
AcDbEntity
  8
0
  6
DASHED
 62
     8
100
AcDbLine
 10
149.428351531605
 20
9.168554941250363
 30
0.0
 11
149.415888512405
 21
9.18767739085036
 31
0.0
  0
LINE
  5
D61
330
1F
100
AcDbEntity
  8
0
  6
DASHED
 62
     8
100
AcDbLine
 10
149.415888512405
 20
9.18767739085036
 30
0.0
 11
149.403463867605
 21
9.206958590850362
 31
0.0
  0
LINE
  5
D62
330
1F
100
AcDbEntity
  8
0
  6
DASHED
 62
     8
100
AcDbLine
 10
149.403463867605
 20
9.206958590850362
 30
0.0
 11
149.391078238805
 21
9.226397254850361
 31
0.0
  0
LINE
  5
D63
330
1F
100
AcDbEntity
  8
0
  6
DASHED
 62
     8
100
AcDbLine
 10
149.391078238805
 20
9.226397254850361
 30
0.0
 11
149.378732320405
 21
9.24599203565036
 31
0.0
  0
LINE
  5
D64
330
1F
100
AcDbEntity
  8
0
  6
DASHED
 62
     8
100
AcDbLine
 10
149.378732320405
 20
9.24599203565036
 30
0.0
 11
149.366426789205
 21
9.265741544450364
 31
0.0
  0
LINE
  5
D65
330
1F
100
AcDbEntity
  8
0
  6
DASHED
 62
     8
100
AcDbLine
 10
149.366426789205
 20
9.265741544450364
 30
0.0
 11
149.354162310805
 21
9.285644350850361
 31
0.0
  0
LINE
  5
D66
330
1F
100
AcDbEntity
  8
0
  6
DASHED
 62
     8
100
AcDbLine
 10
149.354162310805
 20
9.285644350850361
 30
0.0
 11
149.341939534805
 21
9.305698987650359
 31
0.0
  0
LINE
  5
D67
330
1F
100
AcDbEntity
  8
0
  6
DASHED
 62
     8
100
AcDbLine
 10
149.341939534805
 20
9.305698987650359
 30
0.0
 11
149.329759102805
 21
9.32590394765036
 31
0.0
  0
LINE
  5
D68
330
1F
100
AcDbEntity
  8
0
  6
DASHED
 62
     8
100
AcDbLine
 10
149.329759102805
 20
9.32590394765036
 30
0.0
 11
149.317621621205
 21
9.346257674050363
 31
0.0
  0
LINE
  5
D69
330
1F
100
AcDbEntity
  8
0
  6
DASHED
 62
     8
100
AcDbLine
 10
149.317621621205
 20
9.346257674050363
 30
0.0
 11
149.3055275524049
 21
9.366758523650361
 31
0.0
  0
LINE
  5
D6A
330
1F
100
AcDbEntity
  8
0
  6
DASHED
 62
     8
100
AcDbLine
 10
149.3055275524049
 20
9.366758523650361
 30
0.0
 11
149.293477285205
 21
9.38740478605036
 31
0.0
  0
LINE
  5
D6B
330
1F
100
AcDbEntity
  8
0
  6
DASHED
 62
     8
100
AcDbLine
 10
149.293477285205
 20
9.38740478605036
 30
0.0
 11
149.281471197205
 21
9.408194712450359
 31
0.0
  0
LINE
  5
D6C
330
1F
100
AcDbEntity
  8
0
  6
DASHED
 62
     8
100
AcDbLine
 10
149.281471197205
 20
9.408194712450359
 30
0.0
 11
149.269509656405
 21
9.429126515650359
 31
0.0
  0
LINE
  5
D6D
330
1F
100
AcDbEntity
  8
0
  6
DASHED
 62
     8
100
AcDbLine
 10
149.269509656405
 20
9.429126515650359
 30
0.0
 11
149.257592989205
 21
9.450198403650361
 31
0.0
  0
LINE
  5
D6E
330
1F
100
AcDbEntity
  8
0
  6
DASHED
 62
     8
100
AcDbLine
 10
149.257592989205
 20
9.450198403650361
 30
0.0
 11
149.245721306005
 21
9.471408848450359
 31
0.0
  0
LINE
  5
D6F
330
1F
100
AcDbEntity
  8
0
  6
DASHED
 62
     8
100
AcDbLine
 10
149.245721306005
 20
9.471408848450359
 30
0.0
 11
149.233894634005
 21
9.49275640205036
 31
0.0
  0
LINE
  5
D70
330
1F
100
AcDbEntity
  8
0
  6
DASHED
 62
     8
100
AcDbLine
 10
149.233894634005
 20
9.49275640205036
 30
0.0
 11
149.222112974805
 21
9.514239469250362
 31
0.0
  0
LINE
  5
D71
330
1F
100
AcDbEntity
  8
0
  6
DASHED
 62
     8
100
AcDbLine
 10
149.222112974805
 20
9.514239469250362
 30
0.0
 11
149.210376330005
 21
9.535856347650359
 31
0.0
  0
LINE
  5
D72
330
1F
100
AcDbEntity
  8
0
  6
DASHED
 62
     8
100
AcDbLine
 10
149.210376330005
 20
9.535856347650359
 30
0.0
 11
149.198684725205
 21
9.557605266050359
 31
0.0
  0
LINE
  5
D73
330
1F
100
AcDbEntity
  8
0
  6
DASHED
 62
     8
100
AcDbLine
 10
149.198684725205
 20
9.557605266050359
 30
0.0
 11
149.187038210005
 21
9.57948438285036
 31
0.0
  0
LINE
  5
D74
330
1F
100
AcDbEntity
  8
0
  6
DASHED
 62
     8
100
AcDbLine
 10
149.187038210005
 20
9.57948438285036
 30
0.0
 11
149.175436859605
 21
9.601491770050358
 31
0.0
  0
LINE
  5
D75
330
1F
100
AcDbEntity
  8
0
  6
DASHED
 62
     8
100
AcDbLine
 10
149.175436859605
 20
9.601491770050358
 30
0.0
 11
149.163880771605
 21
9.623625410050358
 31
0.0
  0
LINE
  5
D76
330
1F
100
AcDbEntity
  8
0
  6
DASHED
 62
     8
100
AcDbLine
 10
149.163880771605
 20
9.623625410050358
 30
0.0
 11
149.152370051605
 21
9.645883195650363
 31
0.0
  0
LINE
  5
D77
330
1F
100
AcDbEntity
  8
0
  6
DASHED
 62
     8
100
AcDbLine
 10
149.152370051605
 20
9.645883195650363
 30
0.0
 11
149.140904730005
 21
9.668262958850363
 31
0.0
  0
LINE
  5
D78
330
1F
100
AcDbEntity
  8
0
  6
DASHED
 62
     8
100
AcDbLine
 10
149.140904730005
 20
9.668262958850363
 30
0.0
 11
149.129484776405
 21
9.690762432450362
 31
0.0
  0
LINE
  5
D79
330
1F
100
AcDbEntity
  8
0
  6
DASHED
 62
     8
100
AcDbLine
 10
149.129484776405
 20
9.690762432450362
 30
0.0
 11
149.118110190805
 21
9.713379222850363
 31
0.0
  0
LINE
  5
D7A
330
1F
100
AcDbEntity
  8
0
  6
DASHED
 62
     8
100
AcDbLine
 10
149.118110190805
 20
9.713379222850363
 30
0.0
 11
149.106781029205
 21
9.736110813250363
 31
0.0
  0
LINE
  5
D7B
330
1F
100
AcDbEntity
  8
0
  6
DASHED
 62
     8
100
AcDbLine
 10
149.106781029205
 20
9.736110813250363
 30
0.0
 11
149.095497411605
 21
9.758954554050362
 31
0.0
  0
LINE
  5
D7C
330
1F
100
AcDbEntity
  8
0
  6
DASHED
 62
     8
100
AcDbLine
 10
149.095497411605
 20
9.758954554050362
 30
0.0
 11
149.084259539605
 21
9.781907659650357
 31
0.0
  0
LINE
  5
D7D
330
1F
100
AcDbEntity
  8
0
  6
DASHED
 62
     8
100
AcDbLine
 10
149.084259539605
 20
9.781907659650357
 30
0.0
 11
149.073067755605
 21
9.804966982850359
 31
0.0
  0
LINE
  5
D7E
330
1F
100
AcDbEntity
  8
0
  6
DASHED
 62
     8
100
AcDbLine
 10
149.073067755605
 20
9.804966982850359
 30
0.0
 11
149.061922848405
 21
9.828128461250358
 31
0.0
  0
LINE
  5
D7F
330
1F
100
AcDbEntity
  8
0
  6
DASHED
 62
     8
100
AcDbLine
 10
149.061922848405
 20
9.828128461250358
 30
0.0
 11
149.050828224405
 21
9.851384406850364
 31
0.0
  0
LINE
  5
D80
330
1F
100
AcDbEntity
  8
0
  6
DASHED
 62
     8
100
AcDbLine
 10
149.050828224405
 20
9.851384406850364
 30
0.0
 11
149.039788219605
 21
9.874725306050358
 31
0.0
  0
LINE
  5
D81
330
1F
100
AcDbEntity
  8
0
  6
DASHED
 62
     8
100
AcDbLine
 10
149.039788219605
 20
9.874725306050358
 30
0.0
 11
149.028806144405
 21
9.89814197005036
 31
0.0
  0
LINE
  5
D82
330
1F
100
AcDbEntity
  8
0
  6
DASHED
 62
     8
100
AcDbLine
 10
149.028806144405
 20
9.89814197005036
 30
0.0
 11
149.014250205205
 21
9.929456104450359
 31
0.0
  0
LINE
  5
D83
330
1F
100
AcDbEntity
  8
0
  6
DASHED
 62
     8
100
AcDbLine
 10
150.028539856405
 20
8.470819283650364
 30
0.0
 11
150.019484776405
 21
8.478580960450358
 31
0.0
  0
LWPOLYLINE
  5
D84
330
1F
100
AcDbEntity
  8
0
  6
CONTINUOUS
 62
     7
100
AcDbPolyline
 90
       50
 70
     0
 43
0.0
 10
157.948034613205
 20
17.66233891565035
 10
157.953394555605
 20
17.63013430285035
 10
157.957647738005
 20
17.59775507405036
 10
157.960950758805
 20
17.56524369165036
 10
157.963460219605
 20
17.53264261805036
 10
157.965332717205
 20
17.49999431565036
 10
157.967133315605
 20
17.45316982125036
 10
157.967895331605
 20
17.40634573805036
 10
157.967567560405
 20
17.35953228045036
 10
157.966098800405
 20
17.31273965805036
 10
157.963623960405
 20
17.26870177965036
 10
157.960035510805
 20
17.22473021325036
 10
157.955277387605
 20
17.18086373485036
 10
157.949293531605
 20
17.13714111405035
 10
157.942027875605
 20
17.09360112205035
 10
157.933459853205
 20
17.05042432205036
 10
157.923541666005
 20
17.00752753805036
 10
157.912252461205
 20
16.96497080365036
 10
157.899571390805
 20
16.92281414925036
 10
157.885477603605
 20
16.88111760205035
 10
157.869950250005
 20
16.83994119565036
 10
157.854155802005
 20
16.80202248845036
 10
157.837145829205
 20
16.76462654445035
 10
157.818972064405
 20
16.72777061805036
 10
157.799686237205
 20
16.69147196045036
 10
157.779340075605
 20
16.65574782765036
 10
157.757985310805
 20
16.62061547245036
 10
157.735673674005
 20
16.58609214925036
 10
157.707578966805
 20
16.54530852205036
 10
157.678237531605
 20
16.50542988525035
 10
157.647717632405
 20
16.46645136045036
 10
157.616087536405
 20
16.42836806925036
 10
157.583415506005
 20
16.39117513325036
 10
157.549769805205
 20
16.35486767725036
 10
157.513887558805
 20
16.31811091405035
 10
157.477087494805
 20
16.28228031405036
 10
157.439427222805
 20
16.24735333485036
 10
157.400964347605
 20
16.21330744045036
 10
157.361756478805
 20
16.18012009005036
 10
157.321861221205
 20
16.14776874605036
 10
157.271048995605
 20
16.10842743245036
 10
157.219318848405
 20
16.07031285645036
 10
157.166739083605
 20
16.03337789485036
 10
157.113377997205
 20
15.99757542125036
 10
157.059303891605
 20
15.96285830765036
 10
157.001698120405
 20
15.92744527405036
 10
156.943429984405
 20
15.89313913325035
 10
156.884551139605
 20
15.85989694925036
 10
156.825113246805
 20
15.82767577805036
 10
156.765167960405
 20
15.79643268205035
  0
LWPOLYLINE
  5
D85
330
1F
100
AcDbEntity
  8
0
  6
CONTINUOUS
 62
     7
100
AcDbPolyline
 90
        8
 70
     0
 43
0.0
 10
156.398251848405
 20
19.78235071725036
 10
156.285073707605
 20
19.13269710125036
 10
156.1614424100049
 20
18.41647150605036
 10
156.040178325205
 20
17.70667897645036
 10
155.921471867605
 20
17.00447558125036
 10
155.805480450005
 20
16.31098103245036
 10
155.692390395605
 20
15.62732348845035
 10
155.582239778005
 20
14.95487339405036
  0
LINE
  5
D86
330
1F
100
AcDbEntity
  8
0
  6
CONTINUOUS
 62
     7
100
AcDbLine
 10
157.304612568405
 20
15.91628141805036
 30
0.0
 11
157.091645280405
 21
15.79879419405036
 31
0.0
  0
LWPOLYLINE
  5
D87
330
1F
100
AcDbEntity
  8
0
  6
CONTINUOUS
 62
     7
100
AcDbPolyline
 90
        8
 70
     0
 43
0.0
 10
157.091914654805
 20
15.79889438285036
 10
157.005975830805
 20
15.75650317165036
 10
156.911142293205
 20
15.71293570925035
 10
156.810594843605
 20
15.66816482925035
 10
156.703741877205
 20
15.62082970925035
 10
156.588146962005
 20
15.56950896365036
 10
156.461063592405
 20
15.51279201005036
 10
156.432597046805
 20
15.49988340365035
  0
LWPOLYLINE
  5
D88
330
1F
100
AcDbEntity
  8
0
  6
CONTINUOUS
 62
     7
100
AcDbPolyline
 90
       23
 70
     0
 43
0.0
 10
156.736948888405
 20
20.40881028685036
 10
156.683817210005
 20
20.42376176845036
 10
156.630236395605
 20
20.43705395885036
 10
156.568968438805
 20
20.45055095405036
 10
156.507409318805
 20
20.46263712205036
 10
156.439443355605
 20
20.47461446285036
 10
156.371284085205
 20
20.48544460845036
 10
156.297440475605
 20
20.49609160525036
 10
156.223466998805
 20
20.50579250445036
 10
156.144197610005
 20
20.51527521645036
 10
156.064836072405
 20
20.52395525485036
 10
155.980523690005
 20
20.53241444205036
 10
155.896145302805
 20
20.54018689805035
 10
155.717875165205
 20
20.55467554925036
 10
155.530273453205
 20
20.56760216365036
 10
155.333676051605
 20
20.57907139565036
 10
155.126668422805
 20
20.58925835405035
 10
154.900679352405
 20
20.59859777325036
 10
154.646750478805
 20
20.60734488365036
 10
154.362025064405
 20
20.61544410125036
 10
154.044340099605
 20
20.62281825485035
 10
153.692506021205
 20
20.62930905005035
 10
153.304990176405
 20
20.63474851085036
  0
LWPOLYLINE
  5
D89
330
1F
100
AcDbEntity
  8
0
  6
CONTINUOUS
 62
     7
100
AcDbPolyline
 90
       31
 70
     0
 43
0.0
 10
157.948034646805
 20
17.66233876685036
 10
157.921694333205
 20
17.79658550605036
 10
157.893792090005
 20
17.93052049325036
 10
157.864192498005
 20
18.06409209165035
 10
157.835002250005
 20
18.18801857805036
 10
157.804106419605
 20
18.31152928845035
 10
157.771386605205
 20
18.43456785645036
 10
157.7433046196049
 20
18.53440715085036
 10
157.713882211605
 20
18.63385907245036
 10
157.683067902805
 20
18.73288695565036
 10
157.6444384628049
 20
18.85040048045036
 10
157.603764093205
 20
18.96722111085036
 10
157.568153424405
 20
19.06442221325036
 10
157.531084842005
 20
19.16107641005036
 10
157.4946663028049
 20
19.25188826445036
 10
157.456805856405
 20
19.34210802765036
 10
157.419008274005
 20
19.42807211725035
 10
157.379675896405
 20
19.51334485005036
 10
157.340467693205
 20
19.59428458765036
 10
157.299639080405
 20
19.67441874445036
 10
157.258994893205
 20
19.75015109325036
 10
157.216639066005
 20
19.82493956045036
 10
157.188757517205
 20
19.87194897325036
 10
157.160094914005
 20
19.91848591405036
 10
157.130612720405
 20
19.96450740685036
 10
157.101738418005
 20
20.00781308525036
 10
157.072045333205
 20
20.05056198925036
 10
157.041492899605
 20
20.09270376525036
 10
157.011591461205
 20
20.13218295885036
 10
156.980840522005
 20
20.17100128045036
 10
156.949205102805
 20
20.20909294285036
  0
LWPOLYLINE
  5
D8A
330
1F
100
AcDbEntity
  8
0
  6
CONTINUOUS
 62
     7
100
AcDbPolyline
 90
       18
 70
     0
 43
0.0
 10
156.492138173205
 20
20.01477394445036
 10
156.492273966805
 20
20.01493214125036
 10
156.491495168405
 20
20.01399621805036
 10
156.489247803605
 20
20.01119879885036
 10
156.485670448405
 20
20.00653915245035
 10
156.4809196324049
 20
20.00001237965036
 10
156.475185026005
 20
19.99163857965036
 10
156.468810134805
 20
19.98167650285036
 10
156.462115920405
 20
19.97042231725036
 10
156.455183470805
 20
19.95782194605036
 10
156.447987400405
 20
19.94359091405036
 10
156.440554797205
 20
19.92746596205036
 10
156.432990054805
 20
19.90927838285036
 10
156.425388003605
 20
19.88877191725036
 10
156.417827203605
 20
19.86552569005036
 10
156.410392171605
 20
19.83890970925036
 10
156.403179272405
 20
19.80790507085036
 10
156.398265147605
 20
19.78231011725036
  0
LWPOLYLINE
  5
D8B
330
1F
100
AcDbEntity
  8
0
  6
CONTINUOUS
 62
     7
100
AcDbPolyline
 90
       15
 70
     0
 43
0.0
 10
156.949205102805
 20
20.20909291565036
 10
156.946722968405
 20
20.21254571565036
 10
156.944368133205
 20
20.21610318925036
 10
156.942147627605
 20
20.21975675885035
 10
156.940068478805
 20
20.22349784205036
 10
156.938137717205
 20
20.22731786285036
 10
156.936362368405
 20
20.23120823885036
 10
156.934749462805
 20
20.23516039245035
 10
156.933306027605
 20
20.23916574285036
 10
156.932039091605
 20
20.24321571245036
 10
156.930878520405
 20
20.24759297805036
 10
156.929891237205
 20
20.25200671885035
 10
156.929040107605
 20
20.25645208845035
 10
156.928287994005
 20
20.26092424365035
 10
156.927597765205
 20
20.26541833805036
  0
LWPOLYLINE
  5
D8C
330
1F
100
AcDbEntity
  8
0
  6
CONTINUOUS
 62
     7
100
AcDbPolyline
 90
       44
 70
     0
 43
0.0
 10
156.927597765205
 20
20.26541833805036
 10
156.926254410005
 20
20.27445296845036
 10
156.925527014805
 20
20.27898381165036
 10
156.924864818005
 20
20.28272251245036
 10
156.9241317268049
 20
20.28645265325036
 10
156.923315824405
 20
20.29016393325036
 10
156.922405195605
 20
20.29384605325036
 10
156.921387920405
 20
20.29748871085036
 10
156.920252086805
 20
20.30108160365036
 10
156.918985774805
 20
20.30461443405036
 10
156.9175770708049
 20
20.30807689805036
 10
156.916014056405
 20
20.31145869645035
 10
156.914284816405
 20
20.31474952685036
 10
156.912297450005
 20
20.31807356365035
 10
156.910129994005
 20
20.32129069965036
 10
156.907795824405
 20
20.32440401165036
 10
156.905308323605
 20
20.32741658125036
 10
156.902680870805
 20
20.33033148685036
 10
156.899926845205
 20
20.33315180845036
 10
156.897059627605
 20
20.33588062605036
 10
156.894092595605
 20
20.33852101965035
 10
156.891039131605
 20
20.34107606925036
 10
156.887912613205
 20
20.34354885485036
 10
156.884726422805
 20
20.34594245485036
 10
156.881493938005
 20
20.34825995085036
 10
156.876341493205
 20
20.35175780365035
 10
156.871113029205
 20
20.35508697965036
 10
156.865813923605
 20
20.35825938765036
 10
156.860449550805
 20
20.36128693645036
 10
156.855025286805
 20
20.36418153805036
 10
156.849546506005
 20
20.36695509805036
 10
156.844018584405
 20
20.36961952685036
 10
156.838446898005
 20
20.37218673485035
 10
156.832836821205
 20
20.37466863085036
 10
156.827193731605
 20
20.37707712205035
 10
156.821523002005
 20
20.37942412045036
 10
156.811135826005
 20
20.38356989165035
 10
156.800681822805
 20
20.38756098125035
 10
156.790168035605
 20
20.39140722765036
 10
156.779601510805
 20
20.39511847405036
 10
156.768989290005
 20
20.39870456205036
 10
156.758338418005
 20
20.40217533325036
 10
156.747655936405
 20
20.40554062765036
 10
156.736948888405
 20
20.40881028685036
  0
LWPOLYLINE
  5
D8D
330
1F
100
AcDbEntity
  8
0
  6
DASHED
 62
     8
100
AcDbPolyline
 90
       59
 70
     0
 43
0.0
 10
146.298147459605
 20
13.12999682765036
 10
146.274672627605
 20
13.31059776685036
 10
146.263079029205
 20
13.40089273165036
 10
146.251639998805
 20
13.49114848685036
 10
146.240356925205
 20
13.58133290285036
 10
146.229231090005
 20
13.67141477645036
 10
146.218263672405
 20
13.76136381965036
 10
146.207455744405
 20
13.85115064205036
 10
146.196808278805
 20
13.94074674125035
 10
146.186322150805
 20
14.03012448845036
 10
146.175998136405
 20
14.11925711085036
 10
146.165836918805
 20
14.20811868365036
 10
146.1558390852049
 20
14.29668411085036
 10
146.146005136405
 20
14.38492911565036
 10
146.136335483605
 20
14.47283022605036
 10
146.126830450005
 20
14.56036476045036
 10
146.117490274005
 20
14.64751081805036
 10
146.108315114005
 20
14.73424671565036
 10
146.099305035605
 20
14.82054690605036
 10
146.090460024405
 20
14.90638446445036
 10
146.081779987605
 20
14.99173348045036
 10
146.073264762005
 20
15.07656906765036
 10
146.064914110805
 20
15.16086733965035
 10
146.056727726805
 20
15.24460539725036
 10
146.048705237205
 20
15.32776130285036
 10
146.040846202005
 20
15.41031407405036
 10
146.033150115605
 20
15.49224365005036
 10
146.025616411605
 20
15.57353089005036
 10
146.018244478805
 20
15.65415652365036
 10
146.011033731605
 20
15.73409569485036
 10
146.003983560405
 20
15.81332219085036
 10
145.997093290005
 20
15.89181108365036
 10
145.9903621876049
 20
15.96953871245036
 10
145.983789464405
 20
16.04648265485035
 10
145.9773742708049
 20
16.12262170445036
 10
145.971115707605
 20
16.19793584525036
 10
145.965012822805
 20
16.27240622445036
 10
145.959064611605
 20
16.34601513165036
 10
145.953270024405
 20
16.41874597165036
 10
145.947627958805
 20
16.49058323725036
 10
145.942136368405
 20
16.56152093485036
 10
145.936789165205
 20
16.63159570605036
 10
145.931578942805
 20
16.70085542925036
 10
145.926498555605
 20
16.76934581805036
 10
145.921541045205
 20
16.83711041645036
 10
145.916699638805
 20
16.90419061805036
 10
145.911967747605
 20
16.97062569485036
 10
145.907338947605
 20
17.03645283885036
 10
145.902806989205
 20
17.10170718925036
 10
145.8983657796049
 20
17.16642186925036
 10
145.894009382805
 20
17.23062802285036
 10
145.889732011605
 20
17.29435485325036
 10
145.8855280212049
 20
17.35762966605036
 10
145.881391907605
 20
17.42047790125035
 10
145.877318298005
 20
17.48292518765035
 10
145.8733019284049
 20
17.54500487565036
 10
145.869337651605
 20
17.60675077165036
 10
145.865420445205
 20
17.66819416045036
 10
145.857707723605
 20
17.79028631725036
  0
LWPOLYLINE
  5
D8E
330
1F
100
AcDbEntity
  8
0
  6
DASHED
 62
     8
100
AcDbPolyline
 90
       20
 70
     0
 43
0.0
 10
145.831509045205
 20
18.21047884045036
 10
145.824109181205
 20
18.32790732365035
 10
145.820403238805
 20
18.38604795245036
 10
145.816688152405
 20
18.44377269165035
 10
145.812960190805
 20
18.50105477005035
 10
145.809215696405
 20
18.55786675085036
 10
145.805451067605
 20
18.61418241485036
 10
145.801662744405
 20
18.66997675245036
 10
145.797847211605
 20
18.72522593965036
 10
145.794000998805
 20
18.77990729645036
 10
145.790120664405
 20
18.83399925965036
 10
145.786202810005
 20
18.88748134445036
 10
145.782244064405
 20
18.94033411725035
 10
145.778241085205
 20
18.99253916045036
 10
145.774190560405
 20
19.04407904045036
 10
145.770089198805
 20
19.09493727885036
 10
145.765933731605
 20
19.14509831885036
 10
145.761720910805
 20
19.19454749325036
 10
145.757447506005
 20
19.24327100045036
 10
145.753110299605
 20
19.29125586925036
  0
LINE
  5
D8F
330
1F
100
AcDbEntity
  8
0
  6
DASHED
 62
     8
100
AcDbLine
 10
145.857707723605
 20
17.79028631725036
 30
0.0
 11
145.846372491605
 21
17.97178657485036
 31
0.0
  0
LINE
  5
D90
330
1F
100
AcDbEntity
  8
0
  6
DASHED
 62
     8
100
AcDbLine
 10
145.842638403605
 20
18.03186793165036
 30
0.0
 11
145.831509045205
 21
18.21047884045036
 31
0.0
  0
LINE
  5
D91
330
1F
100
AcDbEntity
  8
0
  6
DASHED
 62
     8
100
AcDbLine
 10
145.846372491605
 20
17.97178657485036
 30
0.0
 11
145.842638403605
 21
18.03186793165036
 31
0.0
  0
LWPOLYLINE
  5
D92
330
1F
100
AcDbEntity
  8
0
  6
DASHED
 62
     8
100
AcDbPolyline
 90
       51
 70
     0
 43
0.0
 10
145.615552430805
 20
20.21455611405035
 10
145.609691928405
 20
20.23535253805036
 10
145.606052982805
 20
20.24784940525036
 10
145.602433139605
 20
20.25990991245036
 10
145.598709888405
 20
20.27193886765036
 10
145.595007760405
 20
20.28353117965036
 10
145.591197542805
 20
20.29508841485036
 10
145.587410949205
 20
20.30620915085036
 10
145.583511618005
 20
20.31729085005036
 10
145.579638491605
 20
20.32793664205036
 10
145.575647747605
 20
20.33853889645035
 10
145.571685950805
 20
20.34870637005036
 10
145.567601522005
 20
20.35882519405036
 10
145.563548890005
 20
20.36851098925036
 10
145.5593684868049
 20
20.37814231565036
 10
145.555222802005
 20
20.38734309005036
 10
145.550944139605
 20
20.39648276685036
 10
145.5467031316049
 20
20.40519520685035
 10
145.542323936405
 20
20.41383899725035
 10
145.537985256405
 20
20.42205982445036
 10
145.533503288405
 20
20.43020339725035
 10
145.529064494805
 20
20.43792938285036
 10
145.524477560405
 20
20.44556831885036
 10
145.519936093205
 20
20.45279627405036
 10
145.515242070805
 20
20.45992606765036
 10
145.510595218005
 20
20.46665284845035
 10
145.5057920964049
 20
20.47326891565036
 10
145.5010369620049
 20
20.47949141005036
 10
145.496122869205
 20
20.48558910445036
 10
145.491256328405
 20
20.49130420525036
 10
145.486229579605
 20
20.49687885645036
 10
145.481248245205
 20
20.50208340525036
 10
145.476107378005
 20
20.50713036845036
 10
145.471007566805
 20
20.51182109965036
 10
145.465751382805
 20
20.51633583245036
 10
145.460529112405
 20
20.52050925965036
 10
145.455156677205
 20
20.52448742445036
 10
145.449807696405
 20
20.52813973805036
 10
145.444318318805
 20
20.53157732525036
 10
145.438838197205
 20
20.53470426125036
 10
145.433231341205
 20
20.53759770765036
 10
145.4276156116049
 20
20.54019446605035
 10
145.421890755605
 20
20.54254075245036
 10
145.416135150805
 20
20.54460195245036
 10
145.410291566805
 20
20.54639865165036
 10
145.404392138005
 20
20.54791842445035
 10
145.398428798805
 20
20.54916360525036
 10
145.3923823060049
 20
20.55013569165036
 10
145.386297051605
 20
20.55082787085036
 10
145.380088582805
 20
20.55124674125035
 10
145.373868762005
 20
20.55138469325036
  0
LWPOLYLINE
  5
D93
330
1F
100
AcDbEntity
  8
0
  6
DASHED
 62
     8
100
AcDbPolyline
 90
       12
 70
     0
 43
0.0
 10
145.641227878805
 20
20.10971910925036
 10
145.638863597205
 20
20.12034426125036
 10
145.636456603605
 20
20.13095985325036
 10
145.634000189205
 20
20.14156406605036
 10
145.631681254805
 20
20.15135577325036
 10
145.629319022805
 20
20.16113716525036
 10
145.626918160405
 20
20.17090920845036
 10
145.624664835605
 20
20.17993987085036
 10
145.622372400405
 20
20.18896062605036
 10
145.620030805205
 20
20.19796873645036
 10
145.617818134805
 20
20.20626957965036
 10
145.615552430805
 20
20.21455611405035
  0
LWPOLYLINE
  5
D94
330
1F
100
AcDbEntity
  8
0
  6
DASHED
 62
     8
100
AcDbPolyline
 90
       17
 70
     0
 43
0.0
 10
145.726635189205
 20
19.55350582285036
 10
145.722029470805
 20
19.59404795885036
 10
145.717342373205
 20
19.63385561485036
 10
145.712570442005
 20
19.67292068685036
 10
145.707710222805
 20
19.71123518925035
 10
145.702758250005
 20
19.74879126445036
 10
145.697711051605
 20
19.78558116365036
 10
145.692565147605
 20
19.82159725645036
 10
145.687317043605
 20
19.85683201965036
 10
145.681963232405
 20
19.89127803725035
 10
145.6765001732049
 20
19.92492795725036
 10
145.670924323605
 20
19.95777454925035
 10
145.665232123605
 20
19.98981069645036
 10
145.659419994005
 20
20.02102937325036
 10
145.653484331605
 20
20.05142410925036
 10
145.647421510805
 20
20.08098925005036
 10
145.641227878805
 20
20.10971910925036
  0
LINE
  5
D95
330
1F
100
AcDbEntity
  8
0
  6
DASHED
 62
     8
100
AcDbLine
 10
145.726654859605
 20
19.55350963245036
 30
0.0
 11
145.753106040405
 21
19.29125651085035
 31
0.0
  0
LWPOLYLINE
  5
D96
330
1F
100
AcDbEntity
  8
0
  6
HIDDEN
 62
     8
100
AcDbPolyline
 90
       29
 70
     0
 43
0.0
 10
156.037037666005
 20
22.71308344845036
 10
156.056139968405
 20
22.73835382765036
 10
156.075732344405
 20
22.76209716365035
 10
156.097134675605
 20
22.78594509005036
 10
156.1192802004049
 20
22.80869878125036
 10
156.142776110805
 20
22.83104462925036
 10
156.168546555605
 20
22.85376995725036
 10
156.197086446805
 20
22.87712506925036
 10
156.228977960405
 20
22.90137473005036
 10
156.264987235605
 20
22.92686895245036
 10
156.306105330005
 20
22.95405450925036
 10
156.353841907605
 20
22.98363504685036
 10
156.410107486805
 20
23.01644341645036
 10
156.477991366805
 20
23.05383767405036
 10
156.558409114005
 20
23.09587494925036
 10
156.641117149205
 20
23.13722314445036
 10
156.725945960405
 20
23.17812633325036
 10
156.813819053205
 20
23.21923604045036
 10
156.905207235605
 20
23.26089131725036
 10
157.000339894805
 20
23.30327135725036
 10
157.099325530005
 20
23.34647434925036
 10
157.202192102805
 20
23.39054720845036
 10
157.308914888405
 20
23.43550433325036
 10
157.419428706005
 20
23.48133675085036
 10
157.533638778005
 20
23.52801915565036
 10
157.651429258005
 20
23.57551499885035
 10
157.772666219605
 20
23.62377873325036
 10
157.897200806805
 20
23.67275780845036
 10
157.924641909205
 20
23.68347405165036
  0
LWPOLYLINE
  5
D97
330
1F
100
AcDbEntity
  8
0
  6
HIDDEN
 62
     8
100
AcDbPolyline
 90
       22
 70
     0
 43
0.0
 10
157.983580154005
 20
23.62901838445036
 10
157.984908312405
 20
23.62672591085036
 10
157.9860848372049
 20
23.62251317005036
 10
157.987098323605
 20
23.61634061645035
 10
157.987940930005
 20
23.60815298285036
 10
157.988601698005
 20
23.59791854765036
 10
157.989071648405
 20
23.58558158445036
 10
157.989339952405
 20
23.57112691405036
 10
157.989396978005
 20
23.55452654285036
 10
157.989233739605
 20
23.53581496685035
 10
157.988842602005
 20
23.51500453325036
 10
157.988217821205
 20
23.49216376845036
 10
157.987358275605
 20
23.46744717805036
 10
157.986267304405
 20
23.44104785805036
 10
157.984946266005
 20
23.41306630445036
 10
157.983402962005
 20
23.38372147565036
 10
157.981656312405
 20
23.35338439565036
 10
157.979731541205
 20
23.32245740205036
 10
157.977646026005
 20
23.29116743245035
 10
157.975416570005
 20
23.25972071885036
 10
157.973067747605
 20
23.22841541325036
 10
157.970626133205
 20
23.19754577165036
  0
LWPOLYLINE
  5
D98
330
1F
100
AcDbEntity
  8
0
  6
HIDDEN
 62
     8
100
AcDbPolyline
 90
        2
 70
     0
 43
0.0
 10
157.9629110793537
 20
23.10158224559081
 10
157.970626133205
 20
23.19754577165036
  0
LWPOLYLINE
  5
D99
330
1F
100
AcDbEntity
  8
0
  6
HIDDEN
 62
     8
100
AcDbPolyline
 90
        7
 70
     0
 43
0.0
 10
155.802682830805
 20
22.22660778765035
 10
155.823510965205
 20
22.30241760365036
 10
155.850636643605
 20
22.37938270125036
 10
155.884645333205
 20
22.45821197805036
 10
155.926400973205
 20
22.53972972205036
 10
155.976935547605
 20
22.62464738765036
 10
156.037037666005
 20
22.71308344845036
  0
LINE
  5
D9A
330
1F
100
AcDbEntity
  8
0
  6
HIDDEN
 62
     8
100
AcDbLine
 10
155.860119272405
 20
21.74820342925035
 30
0.0
 11
155.819832819605
 21
21.86623661645036
 31
0.0
  0
LWPOLYLINE
  5
D9B
330
1F
100
AcDbEntity
  8
0
  6
HIDDEN
 62
     8
100
AcDbPolyline
 90
       10
 70
     0
 43
0.0
 10
155.819832955605
 20
21.86623616205036
 10
155.808030859605
 20
21.90467950605036
 10
155.798289547605
 20
21.94546500525036
 10
155.791219074005
 20
21.98669803885036
 10
155.786833181205
 20
22.02812253805036
 10
155.785112190805
 20
22.06948174605036
 10
155.786002218005
 20
22.11050631405036
 10
155.789411104405
 20
22.15092123885035
 10
155.795208360405
 20
22.19046582445036
 10
155.802680973205
 20
22.22659991405036
  0
LINE
  5
D9C
330
1F
100
AcDbEntity
  8
0
  6
HIDDEN
 62
     8
100
AcDbLine
 10
157.927950827605
 20
23.68262981325035
 30
0.0
 11
157.983580154005
 21
23.62901838445036
 31
0.0
  0
LWPOLYLINE
  5
D9D
330
1F
100
AcDbEntity
  8
0
  6
CONTINUOUS
 62
     7
100
AcDbPolyline
 90
       20
 70
     0
 43
0.0
 10
146.561368618005
 20
22.51975255885036
 10
146.557730163605
 20
22.61174985805035
 10
146.546679840405
 20
22.70416854765036
 10
146.528063890005
 20
22.79634665805036
 10
146.501662250005
 20
22.88800206765036
 10
146.467387499605
 20
22.97833562285036
 10
146.425141115605
 20
23.06673774445036
 10
146.375203827605
 20
23.15201715245036
 10
146.318115182805
 20
23.23301046765036
 10
146.254241661205
 20
23.30911473005035
 10
146.184229168405
 20
23.37954825005036
 10
146.108409765205
 20
23.44397985805036
 10
146.027501760405
 20
23.50180222285036
 10
145.941934408405
 20
23.55271986445035
 10
145.852308147605
 20
23.59635983245035
 10
145.759289701205
 20
23.63238848685035
 10
145.663696677205
 20
23.66050799725036
 10
145.566910478805
 20
23.68044313165036
 10
145.469862400405
 20
23.69224592205036
 10
145.373868618005
 20
23.69609753485036
  0
LWPOLYLINE
  5
D9E
330
1F
100
AcDbEntity
  8
0
  6
CONTINUOUS
 62
     7
100
AcDbPolyline
 90
       58
 70
     0
 43
0.0
 10
145.373868618005
 20
21.38226744845036
 10
145.405999989205
 20
21.38269798445036
 10
145.438114069205
 20
21.38398903085036
 10
145.470183622805
 20
21.38613974925036
 10
145.502396197205
 20
21.38917204045036
 10
145.534513758805
 20
21.39307206445035
 10
145.566514019605
 20
21.39783718765035
 10
145.598555778005
 20
21.40349904045036
 10
145.630432474005
 20
21.41002872525036
 10
145.662120227605
 20
21.41742174925036
 10
145.693842834005
 20
21.42574184365036
 10
145.725325533205
 20
21.43492790925036
 10
145.756544613205
 20
21.44497345645036
 10
145.787601998805
 20
21.45591788685035
 10
145.818346126805
 20
21.46771382605036
 10
145.848753416405
 20
21.48035281325036
 10
145.878903774805
 20
21.49387414925036
 10
145.908668082005
 20
21.50822539245036
 10
145.938023202005
 20
21.52339607725036
 10
145.966978309205
 20
21.53939378605036
 10
145.995477728405
 20
21.55618988205036
 10
146.023499059605
 20
21.57377196205036
 10
146.050965166805
 20
21.59208957805036
 10
146.077911544405
 20
21.61116350285035
 10
146.104316938005
 20
21.63097957805036
 10
146.130155168405
 20
21.65151916685036
 10
146.155411259605
 20
21.67277050445036
 10
146.180065090005
 20
21.69471764045036
 10
146.204043486805
 20
21.71729276205036
 10
146.227383632405
 20
21.74052715725036
 10
146.250066864405
 20
21.76440330605036
 10
146.272090603605
 20
21.78892155405036
 10
146.293420518805
 20
21.81404575405036
 10
146.314039352405
 20
21.83975671565036
 10
146.333900298005
 20
21.86599443405036
 10
146.353019584405
 20
21.89277741165036
 10
146.371381664405
 20
21.92008507245036
 10
146.388955195605
 20
21.94787035565036
 10
146.405743677205
 20
21.97613690925036
 10
146.421733362005
 20
22.00486284685035
 10
146.436842864405
 20
22.03389091565036
 10
146.451135608405
 20
22.06332969005035
 10
146.464599918805
 20
22.09315640045036
 10
146.477110770005
 20
22.12306528685036
 10
146.488787677205
 20
22.15330944525036
 10
146.499621227605
 20
22.18386575245035
 10
146.5095252964049
 20
22.21446117005036
 10
146.518583070805
 20
22.24531771405036
 10
146.526787326805
 20
22.27641212205035
 10
146.534062670805
 20
22.30740986765036
 10
146.540489206805
 20
22.33859448685036
 10
146.546061898005
 20
22.36994248205036
 10
146.550747389205
 20
22.40121959245036
 10
146.554582477205
 20
22.43261270605036
 10
146.557564197205
 20
22.46409981485036
 10
146.559677126805
 20
22.49542058925035
 10
146.560945586005
 20
22.52678536365036
 10
146.561368618005
 20
22.55816722765036
  0
LWPOLYLINE
  5
D9F
330
1F
100
AcDbEntity
  8
0
  6
CONTINUOUS
 62
     7
100
AcDbPolyline
 90
       20
 70
     0
 43
0.0
 10
145.373868618005
 20
21.34385261325036
 10
145.470190336405
 20
21.34772545005036
 10
145.566527152405
 20
21.35942447405036
 10
145.662137565205
 20
21.37901117645036
 10
145.756563747605
 20
21.40656502445036
 10
145.848771219605
 20
21.44194561165036
 10
145.938038411605
 20
21.48498931405036
 10
146.023510416405
 20
21.53536442285036
 10
146.104325174805
 20
21.59257106925036
 10
146.180070534805
 20
21.65630777965036
 10
146.250069613205
 20
21.72599147085036
 10
146.314039765205
 20
21.80134247245035
 10
146.371380694805
 20
21.88166884685036
 10
146.421732435605
 20
21.96644641805036
 10
146.464599486805
 20
22.05474072045036
 10
146.499621504405
 20
22.14545189325036
 10
146.526788053205
 20
22.23800037165035
 10
146.546062584405
 20
22.33153201165035
 10
146.557564506005
 20
22.42568896045035
 10
146.561368618005
 20
22.51975255885036
  0
LINE
  5
DA0
330
1F
100
AcDbEntity
  8
DEFPOINTS
100
AcDbLine
 10
144.102422008405
 20
5.506254573250359
 30
0.0
 11
146.645315227605
 21
5.506254573250359
 31
0.0
  0
LINE
  5
DA9
330
1F
100
AcDbEntity
  8
CENTER
100
AcDbLine
 10
145.373868618005
 20
2.978553110380801
 30
0.0
 11
145.373868618005
 21
8.148651141322488
 31
0.0
  0
LINE
  5
DAA
330
1F
100
AcDbEntity
  8
CENTER
100
AcDbLine
 10
147.9584781229412
 20
22.56745237056024
 30
0.0
 11
142.7553031146723
 21
22.56745237056024
 31
0.0
  0
LINE
  5
EBA
330
1F
100
AcDbEntity
  8
0
100
AcDbLine
 10
140.0027970612049
 20
5.021879573250359
 30
0.0
 11
142.6138164402359
 21
5.021879573356571
 31
0.0
  0
LINE
  5
EBB
330
1F
100
AcDbEntity
  8
0
100
AcDbLine
 10
148.1339207957741
 20
5.021879573356571
 30
0.0
 11
150.7449265413608
 21
5.021879573356571
 31
0.0
  0
VIEWPORT
  5
C30
330
1B
100
AcDbEntity
 67
     1
  8
0
100
AcDbViewport
 10
8.142717016024853
 20
5.721456694790698
 30
0.0
 40
23.22337631558431
 41
12.37110236220472
 68
     1
 69
     1
1001
ACAD
1000
MVIEW
1002
{
1070
    16
1010
0.0
1020
0.0
1030
0.0
1010
0.0
1020
0.0
1030
1.0
1040
0.0
1040
12.37110236220472
1040
8.142717016024853
1040
5.721456694790698
1040
50.0
1040
0.0
1040
0.0
1070
     0
1070
   100
1070
     1
1070
     1
1070
     0
1070
     0
1070
     0
1070
     0
1040
0.0
1040
0.0
1040
0.0
1040
10.0
1040
10.0
1040
10.0
1040
10.0
1070
     0
1002
{
1002
}
1002
}
  0
VIEWPORT
  5
C32
330
1B
100
AcDbEntity
 67
     1
  8
0
100
AcDbViewport
 10
171.1560380373479
 20
104.3109085892879
 30
0.0
 40
279.4000146865844
 41
167.6400049209594
 68
    -1
 69
     2
1001
ACAD
1000
MVIEW
1002
{
1070
    16
1010
0.0
1020
0.0
1030
0.0
1010
0.0
1020
0.0
1030
1.0
1040
0.0
1040
260.9583393309306
1040
84.7069317807726
1040
46.51591380262843
1040
50.0
1040
0.0
1040
0.0
1070
     0
1070
   100
1070
     1
1070
     1
1070
     0
1070
     0
1070
     0
1070
     0
1040
0.0
1040
0.0
1040
0.0
1040
1.0
1040
1.0
1040
0.0
1040
0.0
1070
     0
1002
{
1002
}
1002
}
  0
ENDSEC
  0
SECTION
  2
OBJECTS
  0
DICTIONARY
  5
C
330
0
100
AcDbDictionary
  3
ACAD_GROUP
350
D
  3
ACAD_LAYOUT
350
1A
  3
ACAD_MLINESTYLE
350
17
  3
ACAD_PLOTSETTINGS
350
19
  3
ACAD_PLOTSTYLENAME
350
E
  3
ACDBHEADERROUNDTRIPXREC
350
EF9
  3
ACDBVARIABLEDICTIONARY
350
C2B
  3
ASE_INDEX_DICTIONARY
350
BEA
  0
DICTIONARY
  5
F1C
330
1F
100
AcDbDictionary
280
     1
  3
ACAD_LAYOUTSELFREF
360
F1D
  0
DICTIONARY
  5
F1A
330
1B
100
AcDbDictionary
280
     1
  3
ACAD_LAYOUTSELFREF
360
F1B
  0
DICTIONARY
  5
D
102
{ACAD_REACTORS
330
C
102
}
330
C
100
AcDbDictionary
  0
DICTIONARY
  5
1A
102
{ACAD_REACTORS
330
C
102
}
330
C
100
AcDbDictionary
  0
DICTIONARY
  5
17
102
{ACAD_REACTORS
330
C
102
}
330
C
100
AcDbDictionary
  3
STANDARD
350
18
  0
DICTIONARY
  5
19
102
{ACAD_REACTORS
330
C
102
}
330
C
100
AcDbDictionary
  0
ACDBDICTIONARYWDFLT
  5
E
102
{ACAD_REACTORS
330
C
102
}
330
C
100
AcDbDictionary
281
     1
  3
Normal
350
F
100
AcDbDictionaryWithDefault
340
F
  0
DICTIONARY
  5
EF9
102
{ACAD_REACTORS
330
C
102
}
330
C
100
AcDbDictionary
  3
CEPSNTYPE
350
F03
  3
DIMSTYLEDATA
350
F07
  3
FINGERPRINTGUID
350
F04
  3
HYPERLINKBASE
350
EFC
  3
INSUNITS
350
F02
  3
LAYOUTDICT
350
EFE
  3
LWETCUNION
350
F01
  3
PLOTSETDICT
350
EFF
  3
PLOTSTYLNAMDICT
350
F00
  3
PSVPSCALE
350
F06
  3
PUCSBASE
350
F0A
  3
PUCSORGBACK
350
F10
  3
PUCSORGBOTTOM
350
F0C
  3
PUCSORGFRONT
350
F0F
  3
PUCSORGLEFT
350
F0D
  3
PUCSORGRIGHT
350
F0E
  3
PUCSORGTOP
350
F0B
  3
PUCSORTHOREF
350
F08
  3
PUCSORTHOVIEW
350
F09
  3
STYLESHEET
350
EFD
  3
TSTACKALIGN
350
EFA
  3
TSTACKSIZE
350
EFB
  3
UCSBASE
350
F13
  3
UCSORGBACK
350
F19
  3
UCSORGBOTTOM
350
F15
  3
UCSORGFRONT
350
F18
  3
UCSORGLEFT
350
F16
  3
UCSORGRIGHT
350
F17
  3
UCSORGTOP
350
F14
  3
UCSORTHOREF
350
F11
  3
UCSORTHOVIEW
350
F12
  3
VERSIONGUID
350
F05
  0
DICTIONARY
  5
C2B
102
{ACAD_REACTORS
330
C
102
}
330
C
100
AcDbDictionary
  3
SORTENTS
350
C2C
  0
DICTIONARY
  5
BEA
102
{ACAD_REACTORS
330
C
102
}
330
C
100
AcDbDictionary
  3
ASEBLOCKHIERARCHYINDEXRECORD
350
BEC
1001
DCO15
1040
1562496248.509
  0
XRECORD
  5
F1D
102
{ACAD_REACTORS
330
F1C
102
}
330
F1C
100
AcDbXrecord
340
1F
  0
XRECORD
  5
F1B
102
{ACAD_REACTORS
330
F1A
102
}
330
F1A
100
AcDbXrecord
340
1B
  0
MLINESTYLE
  5
18
102
{ACAD_REACTORS
330
17
102
}
330
17
100
AcDbMlineStyle
  2
STANDARD
 70
     0
  3

 62
   256
 51
90.0
 52
90.0
 71
     2
 49
0.5
 62
   256
  6
BYLAYER
 49
-0.5
 62
   256
  6
BYLAYER
  0
ACDBPLACEHOLDER
  5
F
102
{ACAD_REACTORS
330
E
102
}
330
0
100
AcDbPlaceHolder
280
     0
  0
XRECORD
  5
F03
102
{ACAD_REACTORS
330
EF9
102
}
330
EF9
100
AcDbXrecord
 90
        0
  0
XRECORD
  5
F07
102
{ACAD_REACTORS
330
EF9
102
}
330
EF9
100
AcDbXrecord
1000
DSTYLE
1002
{
1070
   341
340
233
1070
   342
340
233
1070
   343
340
233
1070
   344
340
233
1002
}
  0
XRECORD
  5
F04
102
{ACAD_REACTORS
330
EF9
102
}
330
EF9
100
AcDbXrecord
  1

  0
XRECORD
  5
EFC
102
{ACAD_REACTORS
330
EF9
102
}
330
EF9
100
AcDbXrecord
  1

  0
XRECORD
  5
F02
102
{ACAD_REACTORS
330
EF9
102
}
330
EF9
100
AcDbXrecord
 90
        1
  0
XRECORD
  5
EFE
102
{ACAD_REACTORS
330
EF9
102
}
330
EF9
100
AcDbXrecord
340
1A
  0
XRECORD
  5
F01
102
{ACAD_REACTORS
330
EF9
102
}
330
EF9
100
AcDbXrecord
 90
    10752
  0
XRECORD
  5
EFF
102
{ACAD_REACTORS
330
EF9
102
}
330
EF9
100
AcDbXrecord
340
19
  0
XRECORD
  5
F00
102
{ACAD_REACTORS
330
EF9
102
}
330
EF9
100
AcDbXrecord
340
E
  0
XRECORD
  5
F06
102
{ACAD_REACTORS
330
EF9
102
}
330
EF9
100
AcDbXrecord
 40
0.0
  0
XRECORD
  5
F0A
102
{ACAD_REACTORS
330
EF9
102
}
330
EF9
100
AcDbXrecord
340
0
  0
XRECORD
  5
F10
102
{ACAD_REACTORS
330
EF9
102
}
330
EF9
100
AcDbXrecord
 10
0.0
 20
0.0
 30
0.0
  0
XRECORD
  5
F0C
102
{ACAD_REACTORS
330
EF9
102
}
330
EF9
100
AcDbXrecord
 10
0.0
 20
0.0
 30
0.0
  0
XRECORD
  5
F0F
102
{ACAD_REACTORS
330
EF9
102
}
330
EF9
100
AcDbXrecord
 10
0.0
 20
0.0
 30
0.0
  0
XRECORD
  5
F0D
102
{ACAD_REACTORS
330
EF9
102
}
330
EF9
100
AcDbXrecord
 10
0.0
 20
0.0
 30
0.0
  0
XRECORD
  5
F0E
102
{ACAD_REACTORS
330
EF9
102
}
330
EF9
100
AcDbXrecord
 10
0.0
 20
0.0
 30
0.0
  0
XRECORD
  5
F0B
102
{ACAD_REACTORS
330
EF9
102
}
330
EF9
100
AcDbXrecord
 10
0.0
 20
0.0
 30
0.0
  0
XRECORD
  5
F08
102
{ACAD_REACTORS
330
EF9
102
}
330
EF9
100
AcDbXrecord
340
0
  0
XRECORD
  5
F09
102
{ACAD_REACTORS
330
EF9
102
}
330
EF9
100
AcDbXrecord
 70
     0
  0
XRECORD
  5
EFD
102
{ACAD_REACTORS
330
EF9
102
}
330
EF9
100
AcDbXrecord
  1

  0
XRECORD
  5
EFA
102
{ACAD_REACTORS
330
EF9
102
}
330
EF9
100
AcDbXrecord
 90
        1
  0
XRECORD
  5
EFB
102
{ACAD_REACTORS
330
EF9
102
}
330
EF9
100
AcDbXrecord
 90
       70
  0
XRECORD
  5
F13
102
{ACAD_REACTORS
330
EF9
102
}
330
EF9
100
AcDbXrecord
340
0
  0
XRECORD
  5
F19
102
{ACAD_REACTORS
330
EF9
102
}
330
EF9
100
AcDbXrecord
 10
0.0
 20
0.0
 30
0.0
  0
XRECORD
  5
F15
102
{ACAD_REACTORS
330
EF9
102
}
330
EF9
100
AcDbXrecord
 10
0.0
 20
0.0
 30
0.0
  0
XRECORD
  5
F18
102
{ACAD_REACTORS
330
EF9
102
}
330
EF9
100
AcDbXrecord
 10
0.0
 20
0.0
 30
0.0
  0
XRECORD
  5
F16
102
{ACAD_REACTORS
330
EF9
102
}
330
EF9
100
AcDbXrecord
 10
0.0
 20
0.0
 30
0.0
  0
XRECORD
  5
F17
102
{ACAD_REACTORS
330
EF9
102
}
330
EF9
100
AcDbXrecord
 10
0.0
 20
0.0
 30
0.0
  0
XRECORD
  5
F14
102
{ACAD_REACTORS
330
EF9
102
}
330
EF9
100
AcDbXrecord
 10
0.0
 20
0.0
 30
0.0
  0
XRECORD
  5
F11
102
{ACAD_REACTORS
330
EF9
102
}
330
EF9
100
AcDbXrecord
340
0
  0
XRECORD
  5
F12
102
{ACAD_REACTORS
330
EF9
102
}
330
EF9
100
AcDbXrecord
 70
     0
  0
XRECORD
  5
F05
102
{ACAD_REACTORS
330
EF9
102
}
330
EF9
100
AcDbXrecord
  1
{F050B367-843D-4BA9-ABAA-A37ED47B3868}
  0
DICTIONARYVAR
  5
C2C
102
{ACAD_REACTORS
330
C2B
102
}
330
C2B
100
DictionaryVariables
280
     0
  1
96
  0
XRECORD
  5
BEC
102
{ACAD_REACTORS
330
BEA
102
}
330
BEA
100
AcDbXrecord
330
C15
330
C16
330
C23
330
C24
  0
ENDSEC
  0
EOF
