  0
SECTION
  2
HEADER
  9
$ACADVER
  1
AC1014
  9
$ACADMAINTVER
 70
     9
  9
$DWGCODEPAGE
  3
ANSI_1252
  9
$INSBASE
 10
0.0
 20
0.0
 30
0.0
  9
$EXTMIN
 10
16.27476167172074
 20
6.404448606300575
 30
0.0
  9
$EXTMAX
 10
164.1081138380924
 20
65.63005906916692
 30
0.0
  9
$LIMMIN
 10
0.0
 20
0.0
  9
$LIMMAX
 10
17.0
 20
11.0
  9
$ORTHOMODE
 70
     0
  9
$REGENMODE
 70
     1
  9
$FILLMODE
 70
     1
  9
$QTEXTMODE
 70
     0
  9
$MIRRTEXT
 70
     1
  9
$DRAGMODE
 70
     2
  9
$LTSCALE
 40
0.9350000000000001
  9
$OSMODE
 70
  3071
  9
$ATTMODE
 70
     1
  9
$TEXTSIZE
 40
0.2
  9
$TRACEWID
 40
0.05
  9
$TEXTSTYLE
  7
STANDARD
  9
$CLAYER
  8
0
  9
$CELTYPE
  6
BYLAYER
  9
$CECOLOR
 62
   256
  9
$CELTSCALE
 40
1.0
  9
$DELOBJ
 70
     1
  9
$DISPSILH
 70
     0
  9
$DIMSCALE
 40
1.0
  9
$DIMASZ
 40
0.1875
  9
$DIMEXO
 40
0.10625
  9
$DIMDLI
 40
0.646
  9
$DIMRND
 40
0.0
  9
$DIMDLE
 40
0.0
  9
$DIMEXE
 40
0.306
  9
$DIMTP
 40
0.0
  9
$DIMTM
 40
0.0
  9
$DIMTXT
 40
0.125
  9
$DIMCEN
 40
0.153
  9
$DIMTSZ
 40
0.0
  9
$DIMTOL
 70
     0
  9
$DIMLIM
 70
     0
  9
$DIMTIH
 70
     1
  9
$DIMTOH
 70
     1
  9
$DIMSE1
 70
     0
  9
$DIMSE2
 70
     0
  9
$DIMTAD
 70
     0
  9
$DIMZIN
 70
     0
  9
$DIMBLK
  1
_FILLED
  9
$DIMASO
 70
     1
  9
$DIMSHO
 70
     1
  9
$DIMPOST
  1

  9
$DIMAPOST
  1

  9
$DIMALT
 70
     0
  9
$DIMALTD
 70
     2
  9
$DIMALTF
 40
25.4
  9
$DIMLFAC
 40
1.0
  9
$DIMTOFL
 70
     0
  9
$DIMTVP
 40
0.0
  9
$DIMTIX
 70
     0
  9
$DIMSOXD
 70
     0
  9
$DIMSAH
 70
     0
  9
$DIMBLK1
  1

  9
$DIMBLK2
  1

  9
$DIMSTYLE
  2
STANDARD
  9
$DIMCLRD
 70
     0
  9
$DIMCLRE
 70
     0
  9
$DIMCLRT
 70
     0
  9
$DIMTFAC
 40
1.0
  9
$DIMGAP
 40
0.09
  9
$DIMJUST
 70
     0
  9
$DIMSD1
 70
     0
  9
$DIMSD2
 70
     0
  9
$DIMTOLJ
 70
     1
  9
$DIMTZIN
 70
     0
  9
$DIMALTZ
 70
     0
  9
$DIMALTTZ
 70
     0
  9
$DIMFIT
 70
     3
  9
$DIMUPT
 70
     0
  9
$DIMUNIT
 70
     2
  9
$DIMDEC
 70
     4
  9
$DIMTDEC
 70
     4
  9
$DIMALTU
 70
     2
  9
$DIMALTTD
 70
     2
  9
$DIMTXSTY
  7
STANDARD
  9
$DIMAUNIT
 70
     0
  9
$LUNITS
 70
     2
  9
$LUPREC
 70
     4
  9
$SKETCHINC
 40
0.1
  9
$FILLETRAD
 40
0.0
  9
$AUNITS
 70
     0
  9
$AUPREC
 70
     0
  9
$MENU
  1
acad
  9
$ELEVATION
 40
0.0
  9
$PELEVATION
 40
0.0
  9
$THICKNESS
 40
0.0
  9
$LIMCHECK
 70
     0
  9
$BLIPMODE
 70
     0
  9
$CHAMFERA
 40
0.0
  9
$CHAMFERB
 40
0.0
  9
$CHAMFERC
 40
0.0
  9
$CHAMFERD
 40
0.0
  9
$SKPOLY
 70
     0
  9
$TDCREATE
 40
2453899.661560440
  9
$TDUPDATE
 40
2453899.695102465
  9
$TDINDWG
 40
0.0335489005
  9
$TDUSRTIMER
 40
0.0335489005
  9
$USRTIMER
 70
     1
  9
$ANGBASE
 50
0.0
  9
$ANGDIR
 70
     0
  9
$PDMODE
 70
     3
  9
$PDSIZE
 40
0.03125
  9
$PLINEWID
 40
0.0
  9
$COORDS
 70
     1
  9
$SPLFRAME
 70
     0
  9
$SPLINETYPE
 70
     6
  9
$SPLINESEGS
 70
     8
  9
$ATTDIA
 70
     0
  9
$ATTREQ
 70
     1
  9
$HANDLING
 70
-16383
  9
$HANDSEED
  5
128B
  9
$SURFTAB1
 70
     6
  9
$SURFTAB2
 70
     6
  9
$SURFTYPE
 70
     6
  9
$SURFU
 70
     6
  9
$SURFV
 70
     6
  9
$UCSNAME
  2

  9
$UCSORG
 10
0.0
 20
0.0
 30
0.0
  9
$UCSXDIR
 10
1.0
 20
0.0
 30
0.0
  9
$UCSYDIR
 10
0.0
 20
1.0
 30
0.0
  9
$PUCSNAME
  2

  9
$PUCSORG
 10
0.0
 20
0.0
 30
0.0
  9
$PUCSXDIR
 10
1.0
 20
0.0
 30
0.0
  9
$PUCSYDIR
 10
0.0
 20
1.0
 30
0.0
  9
$USERI1
 70
     0
  9
$USERI2
 70
     0
  9
$USERI3
 70
     0
  9
$USERI4
 70
     0
  9
$USERI5
 70
     0
  9
$USERR1
 40
0.0
  9
$USERR2
 40
0.0
  9
$USERR3
 40
0.0
  9
$USERR4
 40
0.0
  9
$USERR5
 40
0.0
  9
$WORLDVIEW
 70
     1
  9
$SHADEDGE
 70
     3
  9
$SHADEDIF
 70
    70
  9
$TILEMODE
 70
     1
  9
$MAXACTVP
 70
    16
  9
$PINSBASE
 10
0.0
 20
0.0
 30
0.0
  9
$PLIMCHECK
 70
     0
  9
$PEXTMIN
 10
1.000000000000000E+20
 20
1.000000000000000E+20
 30
1.000000000000000E+20
  9
$PEXTMAX
 10
-1.000000000000000E+20
 20
-1.000000000000000E+20
 30
-1.000000000000000E+20
  9
$PLIMMIN
 10
0.0
 20
0.0
  9
$PLIMMAX
 10
12.0
 20
9.0
  9
$UNITMODE
 70
     0
  9
$VISRETAIN
 70
     0
  9
$PLINEGEN
 70
     1
  9
$PSLTSCALE
 70
     0
  9
$TREEDEPTH
 70
  3020
  9
$PICKSTYLE
 70
     1
  9
$CMLSTYLE
  2
STANDARD
  9
$CMLJUST
 70
     0
  9
$CMLSCALE
 40
1.0
  9
$PROXYGRAPHICS
 70
     0
  9
$MEASUREMENT
 70
     0
  0
ENDSEC
  0
SECTION
  2
CLASSES
  0
CLASS
  1
ACDBDICTIONARYWDFLT
  2
AcDbDictionaryWithDefault
  3
AutoCAD 2000
 90
        0
280
     0
281
     0
  0
CLASS
  1
ACDBPLACEHOLDER
  2
AcDbPlaceHolder
  3
AutoCAD 2000
 90
        0
280
     0
281
     0
  0
CLASS
  1
LAYOUT
  2
AcDbLayout
  3
AutoCAD 2000
 90
        0
280
     0
281
     0
  0
CLASS
  1
LWPOLYLINE
  2
AcDbPolyline
  3
AutoCAD 2000
 90
        0
280
     0
281
     1
  0
CLASS
  1
IMAGE
  2
AcDbRasterImage
  3
ISM
 90
      127
280
     0
281
     1
  0
CLASS
  1
OLE2FRAME
  2
AcDbOle2Frame
  3
AutoCAD 2000
 90
        0
280
     0
281
     1
  0
CLASS
  1
HATCH
  2
AcDbHatch
  3
AutoCAD 2000
 90
        0
280
     0
281
     1
  0
CLASS
  1
DICTIONARYVAR
  2
AcDbDictionaryVar
  3
AutoCAD 2000
 90
        0
280
     0
281
     0
  0
CLASS
  1
RASTERVARIABLES
  2
AcDbRasterVariables
  3
ISM
 90
        0
280
     0
281
     0
  0
CLASS
  1
IMAGEDEF
  2
AcDbRasterImageDef
  3
ISM
 90
        0
280
     0
281
     0
  0
CLASS
  1
IMAGEDEF_REACTOR
  2
AcDbRasterImageDefReactor
  3
ISM
 90
        1
280
     0
281
     0
  0
CLASS
  1
IDBUFFER
  2
AcDbIdBuffer
  3
AutoCAD 2000
 90
        0
280
     0
281
     0
  0
CLASS
  1
SPATIAL_FILTER
  2
AcDbSpatialFilter
  3
AutoCAD 2000
 90
        0
280
     0
281
     0
  0
CLASS
  1
XRECORD
  2
AcDbXrecord
  3
AutoCAD 2000
 90
        0
280
     0
281
     0
  0
CLASS
  1
SORTENTSTABLE
  2
AcDbSortentsTable
  3
AutoCAD 2000
 90
        0
280
     0
281
     0
  0
CLASS
  1
LAYER_INDEX
  2
AcDbLayerIndex
  3
AutoCAD 2000
 90
        0
280
     0
281
     0
  0
CLASS
  1
SPATIAL_INDEX
  2
AcDbSpatialIndex
  3
AutoCAD 2000
 90
        0
280
     0
281
     0
  0
CLASS
  1
OBJECT_PTR
  2
CAseDLPNTableRecord
  3
ASE-LPNTableRecord
 90
        1
280
     0
281
     0
  0
CLASS
  1
PLOTSETTINGS
  2
AcDbPlotSettings
  3
AutoCAD 2000
 90
        0
280
     0
281
     0
  0
CLASS
  1
VBA_PROJECT
  2
AcDbVbaProject
  3
acadvba
 90
        0
280
     0
281
     0
  0
CLASS
  1
WIPEOUT
  2
AcDbWipeout
  3
WipeOut|AutoCAD Express Tool|expresstools@autodesk.com
 90
      127
280
     0
281
     1
  0
CLASS
  1
WIPEOUTVARIABLES
  2
AcDbWipeoutVariables
  3
WipeOut|AutoCAD Express Tool|expresstools@autodesk.com
 90
        0
280
     0
281
     0
  0
CLASS
  1
RTEXT
  2
RText
  3
RText|AutoCAD Express Tool|expresstools@autodesk.com
 90
        0
280
     0
281
     1
  0
CLASS
  1
ARCALIGNEDTEXT
  2
AcDbArcAlignedText
  3
ATEXT|AutoCAD Express Tool|expresstools@autodesk.com
 90
        0
280
     0
281
     1
  0
CLASS
  1
LONG_TRANSACTION
  2
AcDbLongTransaction
  3
AutoCAD 2000
 90
        0
280
     0
281
     0
  0
CLASS
  1
LWPOLYLINE
  2
AcDbPolyline
  3
AutoCAD 2000
 90
        0
280
     0
281
     1
  0
CLASS
  1
HATCH
  2
AcDbHatch
  3
AutoCAD 2000
 90
        0
280
     0
281
     1
  0
CLASS
  1
XRECORD
  2
AcDbXrecord
  3
AutoCAD 2000
 90
        0
280
     0
281
     0
  0
ENDSEC
  0
SECTION
  2
TABLES
  0
TABLE
  2
VPORT
  5
8
330
0
100
AcDbSymbolTable
 70
     6
  0
VPORT
  5
1265
330
8
100
AcDbSymbolTableRecord
100
AcDbViewportTableRecord
  2
*ACTIVE
 70
     0
 10
0.0
 20
0.0
 11
1.0
 21
1.0
 12
143.0113278484563
 22
50.78840307476956
 13
0.0
 23
0.0
 14
1.0
 24
1.0
 15
0.0
 25
0.0
 16
0.0
 26
0.0
 36
1.0
 17
0.0
 27
0.0
 37
0.0
 40
100.6735645702818
 41
1.877227722772277
 42
50.0
 43
0.0
 44
0.0
 50
0.0
 51
0.0
 71
     0
 72
   100
 73
     1
 74
     1
 75
     0
 76
     0
 77
     0
 78
     0
  0
ENDTAB
  0
TABLE
  2
LTYPE
  5
5
330
0
100
AcDbSymbolTable
 70
     8
  0
LTYPE
  5
14
330
5
100
AcDbSymbolTableRecord
100
AcDbLinetypeTableRecord
  2
BYBLOCK
 70
     0
  3

 72
    65
 73
     0
 40
0.0
  0
LTYPE
  5
15
330
5
100
AcDbSymbolTableRecord
100
AcDbLinetypeTableRecord
  2
BYLAYER
 70
     0
  3

 72
    65
 73
     0
 40
0.0
  0
LTYPE
  5
16
330
5
100
AcDbSymbolTableRecord
100
AcDbLinetypeTableRecord
  2
CONTINUOUS
 70
     0
  3
Solid line
 72
    65
 73
     0
 40
0.0
  0
LTYPE
  5
1205
330
5
100
AcDbSymbolTableRecord
100
AcDbLinetypeTableRecord
  2
CENTERX2
 70
     0
  3
Center (2x) ________  __  ________  __  _____
 72
    65
 73
     4
 40
4.0
 49
2.5
 74
     0
 49
-0.5
 74
     0
 49
0.5
 74
     0
 49
-0.5
 74
     0
  0
LTYPE
  5
1209
330
5
100
AcDbSymbolTableRecord
100
AcDbLinetypeTableRecord
  2
HIDDEN
 70
     0
  3
Hidden __ __ __ __ __ __ __ __ __ __ __ __ __ _
 72
    65
 73
     2
 40
0.375
 49
0.25
 74
     0
 49
-0.125
 74
     0
  0
ENDTAB
  0
TABLE
  2
LAYER
  5
2
330
0
100
AcDbSymbolTable
 70
    25
  0
LAYER
  5
10
330
2
100
AcDbSymbolTableRecord
100
AcDbLayerTableRecord
  2
0
 70
     0
 62
     7
  6
CONTINUOUS
  0
LAYER
  5
11E3
330
2
100
AcDbSymbolTableRecord
100
AcDbLayerTableRecord
  2
DEFPOINTS
 70
     0
 62
     7
  6
CONTINUOUS
  0
LAYER
  5
1206
330
2
100
AcDbSymbolTableRecord
100
AcDbLayerTableRecord
  2
CENTER
 70
     0
 62
     1
  6
CENTERX2
  0
ENDTAB
  0
TABLE
  2
STYLE
  5
3
330
0
100
AcDbSymbolTable
 70
     6
  0
STYLE
  5
11
330
3
100
AcDbSymbolTableRecord
100
AcDbTextStyleTableRecord
  2
STANDARD
 70
     0
 40
0.0
 41
0.8
 50
0.0
 71
     0
 42
0.2
  3
txt
  4

  0
STYLE
  5
210
330
3
100
AcDbSymbolTableRecord
100
AcDbTextStyleTableRecord
  2
TEXTSTYLE_1
 70
     0
 40
0.0
 41
0.8
 50
0.0
 71
     0
 42
0.2
  3
txt
  4

  0
STYLE
  5
1204
330
3
100
AcDbSymbolTableRecord
100
AcDbTextStyleTableRecord
  2

 70
     1
 40
0.0
 41
1.0
 50
0.0
 71
     0
 42
0.2
  3
ltypeshp.shx
  4

  0
ENDTAB
  0
TABLE
  2
VIEW
  5
6
330
0
100
AcDbSymbolTable
 70
     0
  0
ENDTAB
  0
TABLE
  2
UCS
  5
7
330
0
100
AcDbSymbolTable
 70
     0
  0
ENDTAB
  0
TABLE
  2
APPID
  5
9
330
0
100
AcDbSymbolTable
 70
     2
  0
APPID
  5
214
330
9
100
AcDbSymbolTableRecord
100
AcDbRegAppTableRecord
  2
ACAD
 70
     0
  0
APPID
  5
11DA
330
9
100
AcDbSymbolTableRecord
100
AcDbRegAppTableRecord
  2
DCO15
 70
     0
  0
ENDTAB
  0
TABLE
  2
DIMSTYLE
  5
A
330
0
100
AcDbSymbolTable
 70
     5
  0
DIMSTYLE
105
242
330
A
100
AcDbSymbolTableRecord
100
AcDbDimStyleTableRecord
  2
STANDARD
 70
     0
  3

  4

  5
_FILLED
  6
_FILLED
  7
_FILLED
 40
1.0
 41
0.1875
 42
0.0625
 43
0.38
 44
0.18
 45
0.0
 46
0.0
 47
0.00001
 48
0.00001
140
0.125
141
0.09
142
0.0
143
25.4
144
1.0
145
0.0
146
1.0
147
0.09
 71
     0
 72
     0
 73
     1
 74
     1
 75
     0
 76
     0
 77
     0
 78
     4
170
     0
171
     2
172
     0
173
     0
174
     0
175
     0
176
     0
177
     0
178
     0
270
     2
271
     5
272
     5
273
     2
274
     2
340
11
275
     0
280
     0
281
     0
282
     0
283
     1
284
     4
285
     0
286
     0
287
     3
288
     0
  0
ENDTAB
  0
TABLE
  2
BLOCK_RECORD
  5
1
330
0
100
AcDbSymbolTable
 70
    46
  0
BLOCK_RECORD
  5
1F
102
{ACAD_XDICTIONARY
360
1289
102
}
330
1
100
AcDbSymbolTableRecord
100
AcDbBlockTableRecord
  2
*MODEL_SPACE
  0
BLOCK_RECORD
  5
1B
102
{ACAD_XDICTIONARY
360
1287
102
}
330
1
100
AcDbSymbolTableRecord
100
AcDbBlockTableRecord
  2
*PAPER_SPACE
  0
BLOCK_RECORD
  5
215
330
1
100
AcDbSymbolTableRecord
100
AcDbBlockTableRecord
  2
_FILLED
  0
ENDTAB
  0
ENDSEC
  0
SECTION
  2
BLOCKS
  0
BLOCK
  5
20
330
1F
100
AcDbEntity
  8
0
100
AcDbBlockBegin
  2
*MODEL_SPACE
 70
     0
 10
0.0
 20
0.0
 30
0.0
  3
*MODEL_SPACE
  1

  0
ENDBLK
  5
21
330
1F
100
AcDbEntity
  8
0
100
AcDbBlockEnd
  0
BLOCK
  5
1C
330
1B
100
AcDbEntity
 67
     1
  8
0
100
AcDbBlockBegin
  2
*PAPER_SPACE
 70
     0
 10
0.0
 20
0.0
 30
0.0
  3
*PAPER_SPACE
  1

  0
ENDBLK
  5
1D
330
1B
100
AcDbEntity
 67
     1
  8
0
100
AcDbBlockEnd
  0
BLOCK
  5
4B4
330
215
100
AcDbEntity
  8
0
100
AcDbBlockBegin
  2
_FILLED
 70
     0
 10
0.0
 20
0.0
 30
0.0
  3
_FILLED
  1

  0
SOLID
  5
4B5
330
215
100
AcDbEntity
  8
0
  6
BYBLOCK
 62
     0
100
AcDbTrace
 10
0.0
 20
0.0
 30
0.0
 11
-1.0
 21
0.1666666667
 31
0.0
 12
-1.0
 22
-0.1666666667
 32
0.0
 13
-1.0
 23
-0.1666666667
 33
0.0
  0
ENDBLK
  5
4B6
330
215
100
AcDbEntity
  8
0
  6
BYBLOCK
 62
     0
100
AcDbBlockEnd
  0
ENDSEC
  0
SECTION
  2
ENTITIES
  0
MTEXT
  5
54C
330
1F
100
AcDbEntity
  8
0
  6
CONTINUOUS
 62
     2
100
AcDbMText
 10
15.84375
 20
2.3125
 30
0.0
 40
0.09375
 41
0.075
 71
     2
 72
     1
  1
 \P \P 
  7
TEXTSTYLE_1
1001
ACAD
1000
MTEXTBEGIN
1070
    73
1070
     1
1070
    44
1040
1.0
1070
    74
1070
     0
1000
MTEXTEND
  0
LINE
  5
983
330
1F
100
AcDbEntity
  8
0
  6
CONTINUOUS
 62
     7
100
AcDbLine
 10
92.09807613465329
 20
63.39976581074148
 30
0.0
 11
91.94305857626499
 21
61.6279065142768
 31
0.0
  0
LINE
  5
984
330
1F
100
AcDbEntity
  8
0
  6
CONTINUOUS
 62
     7
100
AcDbLine
 10
92.13127479642874
 20
61.62790651866188
 30
0.0
 11
92.27987117195192
 21
63.32637134631813
 31
0.0
  0
LINE
  5
987
330
1F
100
AcDbEntity
  8
0
  6
CONTINUOUS
 62
     7
100
AcDbLine
 10
110.461463892314
 20
43.94408348502664
 30
0.0
 11
109.7671020180529
 21
45.85182691466418
 31
0.0
  0
LINE
  5
988
330
1F
100
AcDbEntity
  8
0
  6
CONTINUOUS
 62
     7
100
AcDbLine
 10
142.407836463305
 20
42.62812453417704
 30
0.0
 11
125.2738618680208
 21
42.6281241252252
 31
0.0
  0
LINE
  5
989
330
1F
100
AcDbEntity
  8
0
  6
CONTINUOUS
 62
     7
100
AcDbLine
 10
147.7206318000854
 20
43.62797820280507
 30
0.0
 11
150.2636540084975
 21
43.62797826347423
 31
0.0
  0
LINE
  5
98A
330
1F
100
AcDbEntity
  8
0
  6
CONTINUOUS
 62
     7
100
AcDbLine
 10
150.2636540035212
 20
43.81547826257579
 30
0.0
 11
147.7206317951091
 21
43.81547820190663
 31
0.0
  0
LINE
  5
98B
330
1F
100
AcDbEntity
  8
0
  6
CONTINUOUS
 62
     7
100
AcDbLine
 10
122.546783244186
 20
44.70447852133751
 30
0.0
 11
147.0130926724606
 21
44.14002019313433
 31
0.0
  0
LINE
  5
98C
330
1F
100
AcDbEntity
  8
0
  6
CONTINUOUS
 62
     7
100
AcDbLine
 10
147.0130926692762
 20
44.32752019361738
 30
0.0
 11
122.5567117692661
 21
44.89178758929628
 31
0.0
  0
LINE
  5
98D
330
1F
100
AcDbEntity
  8
0
  6
CONTINUOUS
 62
     7
100
AcDbLine
 10
121.5731556806128
 20
45.87797757799158
 30
0.0
 11
122.5402091669383
 21
45.87797760150178
 31
0.0
  0
LINE
  5
98E
330
1F
100
AcDbEntity
  8
0
  6
CONTINUOUS
 62
     7
100
AcDbLine
 10
103.741084327767
 20
45.93419138460155
 30
0.0
 11
121.5632687757024
 21
45.69059522398332
 31
0.0
  0
LINE
  5
98F
330
1F
100
AcDbEntity
  8
0
  6
CONTINUOUS
 62
     7
100
AcDbLine
 10
121.5731556806128
 20
45.87797757799158
 30
0.0
 11
103.7437405604283
 21
46.1216725684148
 31
0.0
  0
LINE
  5
990
330
1F
100
AcDbEntity
  8
0
  6
CONTINUOUS
 62
     7
100
AcDbLine
 10
114.220234376815
 20
43.94408357534665
 30
0.0
 11
114.8891151407058
 21
45.78181850851499
 31
0.0
  0
LINE
  5
991
330
1F
100
AcDbEntity
  8
0
  6
HIDDEN
 62
     8
100
AcDbLine
 10
124.3000346276623
 20
60.29826108884681
 30
0.0
 11
124.2813784858784
 21
60.29288372860476
 31
0.0
  0
LINE
  5
992
330
1F
100
AcDbEntity
  8
0
  6
HIDDEN
 62
     8
100
AcDbLine
 10
124.3188483444436
 20
60.30305862556513
 30
0.0
 11
124.3000346276623
 21
60.29826108884681
 31
0.0
  0
LINE
  5
993
330
1F
100
AcDbEntity
  8
0
  6
HIDDEN
 62
     8
100
AcDbLine
 10
124.3383446395638
 20
60.3073951594072
 30
0.0
 11
124.3188483444436
 21
60.30305862556513
 31
0.0
  0
LINE
  5
994
330
1F
100
AcDbEntity
  8
0
  6
HIDDEN
 62
     8
100
AcDbLine
 10
124.3579646146004
 20
60.31113228522356
 30
0.0
 11
124.3383446395638
 21
60.3073951594072
 31
0.0
  0
LINE
  5
995
330
1F
100
AcDbEntity
  8
0
  6
HIDDEN
 62
     8
100
AcDbLine
 10
124.3783106443842
 20
60.31436795368454
 30
0.0
 11
124.3579646146004
 21
60.31113228522356
 31
0.0
  0
LINE
  5
996
330
1F
100
AcDbEntity
  8
0
  6
CONTINUOUS
 62
     7
100
AcDbLine
 10
124.6243428068719
 20
43.00312411056554
 30
0.0
 11
123.6568513843062
 21
44.67886831490682
 31
0.0
  0
LINE
  5
997
330
1F
100
AcDbEntity
  8
0
  6
HIDDEN
 62
     8
100
AcDbLine
 10
123.9158097070305
 20
59.92830270814483
 30
0.0
 11
123.9112559596267
 21
59.91138160283674
 31
0.0
  0
LINE
  5
998
330
1F
100
AcDbEntity
  8
0
  6
HIDDEN
 62
     8
100
AcDbLine
 10
123.9209039640487
 20
59.94506896719577
 30
0.0
 11
123.9158097070305
 21
59.92830270814483
 31
0.0
  0
LINE
  5
999
330
1F
100
AcDbEntity
  8
0
  6
HIDDEN
 62
     8
100
AcDbLine
 10
123.9264602885595
 20
59.96144390869488
 30
0.0
 11
123.9209039640487
 21
59.94506896719577
 31
0.0
  0
LINE
  5
99A
330
1F
100
AcDbEntity
  8
0
  6
HIDDEN
 62
     8
100
AcDbLine
 10
123.9325405387172
 20
59.97763158687364
 30
0.0
 11
123.9264602885595
 21
59.96144390869488
 31
0.0
  0
LINE
  5
99B
330
1F
100
AcDbEntity
  8
0
  6
HIDDEN
 62
     8
100
AcDbLine
 10
123.9390814925359
 20
59.99347318914201
 30
0.0
 11
123.9325405387172
 21
59.97763158687364
 31
0.0
  0
LINE
  5
99C
330
1F
100
AcDbEntity
  8
0
  6
HIDDEN
 62
     8
100
AcDbLine
 10
123.946130949249
 20
60.0090951205283
 30
0.0
 11
123.9390814925359
 21
59.99347318914201
 31
0.0
  0
LINE
  5
99D
330
1F
100
AcDbEntity
  8
0
  6
HIDDEN
 62
     8
100
AcDbLine
 10
123.9536157504014
 20
60.02434515365263
 30
0.0
 11
123.946130949249
 21
60.0090951205283
 31
0.0
  0
LINE
  5
99E
330
1F
100
AcDbEntity
  8
0
  6
HIDDEN
 62
     8
100
AcDbLine
 10
123.9615902224104
 20
60.03934491424832
 30
0.0
 11
123.9536157504014
 21
60.02434515365263
 31
0.0
  0
LINE
  5
99F
330
1F
100
AcDbEntity
  8
0
  6
HIDDEN
 62
     8
100
AcDbLine
 10
123.9700031351505
 20
60.05400202424397
 30
0.0
 11
123.9615902224104
 21
60.03934491424832
 31
0.0
  0
LINE
  5
9A0
330
1F
100
AcDbEntity
  8
0
  6
HIDDEN
 62
     8
100
AcDbLine
 10
123.9788870505448
 20
60.06837851636331
 30
0.0
 11
123.9700031351505
 21
60.05400202424397
 31
0.0
  0
LINE
  5
9A1
330
1F
100
AcDbEntity
  8
0
  6
HIDDEN
 62
     8
100
AcDbLine
 10
123.9881977436952
 20
60.0824058338608
 30
0.0
 11
123.9788870505448
 21
60.06837851636331
 31
0.0
  0
LINE
  5
9A2
330
1F
100
AcDbEntity
  8
0
  6
HIDDEN
 62
     8
100
AcDbLine
 10
123.9979586848149
 20
60.09612364384768
 30
0.0
 11
123.9881977436952
 21
60.0824058338608
 31
0.0
  0
LINE
  5
9A3
330
1F
100
AcDbEntity
  8
0
  6
HIDDEN
 62
     8
100
AcDbLine
 10
124.0081506941229
 20
60.10950521648685
 30
0.0
 11
123.9979586848149
 21
60.09612364384768
 31
0.0
  0
LINE
  5
9A4
330
1F
100
AcDbEntity
  8
0
  6
HIDDEN
 62
     8
100
AcDbLine
 10
124.0187714654613
 20
60.12254909964474
 30
0.0
 11
124.0081506941229
 21
60.10950521648685
 31
0.0
  0
LINE
  5
9A5
330
1F
100
AcDbEntity
  8
0
  6
HIDDEN
 62
     8
100
AcDbLine
 10
124.0298393301981
 20
60.1352749035697
 30
0.0
 11
124.0187714654613
 21
60.12254909964474
 31
0.0
  0
LINE
  5
9A6
330
1F
100
AcDbEntity
  8
0
  6
HIDDEN
 62
     8
100
AcDbLine
 10
124.0413141774105
 20
60.1476349982524
 30
0.0
 11
124.0298393301981
 21
60.1352749035697
 31
0.0
  0
LINE
  5
9A7
330
1F
100
AcDbEntity
  8
0
  6
HIDDEN
 62
     8
100
AcDbLine
 10
124.0532314021793
 20
60.15966460416674
 30
0.0
 11
124.0413141774105
 21
60.1476349982524
 31
0.0
  0
LINE
  5
9A8
330
1F
100
AcDbEntity
  8
0
  6
HIDDEN
 62
     8
100
AcDbLine
 10
124.0655316993145
 20
60.1713022570922
 30
0.0
 11
124.0532314021793
 21
60.15966460416674
 31
0.0
  0
LINE
  5
9A9
330
1F
100
AcDbEntity
  8
0
  6
HIDDEN
 62
     8
100
AcDbLine
 10
124.0783065961577
 20
60.18262842034068
 30
0.0
 11
124.0655316993145
 21
60.1713022570922
 31
0.0
  0
LINE
  5
9AA
330
1F
100
AcDbEntity
  8
0
  6
HIDDEN
 62
     8
100
AcDbLine
 10
124.091440724086
 20
60.19353600849676
 30
0.0
 11
124.0783065961577
 21
60.18262842034068
 31
0.0
  0
LINE
  5
9AB
330
1F
100
AcDbEntity
  8
0
  6
HIDDEN
 62
     8
100
AcDbLine
 10
124.1050388542485
 20
60.20410690631566
 30
0.0
 11
124.091440724086
 21
60.19353600849676
 31
0.0
  0
LINE
  5
9AC
330
1F
100
AcDbEntity
  8
0
  6
HIDDEN
 62
     8
100
AcDbLine
 10
124.1189697948078
 20
60.2142352283243
 30
0.0
 11
124.1050388542485
 21
60.20410690631566
 31
0.0
  0
LINE
  5
9AD
330
1F
100
AcDbEntity
  8
0
  6
HIDDEN
 62
     8
100
AcDbLine
 10
124.1333956598658
 20
60.22403153306703
 30
0.0
 11
124.1189697948078
 21
60.2142352283243
 31
0.0
  0
LINE
  5
9AE
330
1F
100
AcDbEntity
  8
0
  6
HIDDEN
 62
     8
100
AcDbLine
 10
124.1481275234015
 20
60.23336142966574
 30
0.0
 11
124.1333956598658
 21
60.22403153306703
 31
0.0
  0
LINE
  5
9AF
330
1F
100
AcDbEntity
  8
0
  6
HIDDEN
 62
     8
100
AcDbLine
 10
124.1634131267144
 20
60.24237096688011
 30
0.0
 11
124.1481275234015
 21
60.23336142966574
 31
0.0
  0
LINE
  5
9B0
330
1F
100
AcDbEntity
  8
0
  6
HIDDEN
 62
     8
100
AcDbLine
 10
124.178978131111
 20
60.25088882903929
 30
0.0
 11
124.1634131267144
 21
60.24237096688011
 31
0.0
  0
LINE
  5
9B1
330
1F
100
AcDbEntity
  8
0
  6
HIDDEN
 62
     8
100
AcDbLine
 10
124.1950924033782
 20
60.25905276090902
 30
0.0
 11
124.178978131111
 21
60.25088882903929
 31
0.0
  0
LINE
  5
9B2
330
1F
100
AcDbEntity
  8
0
  6
HIDDEN
 62
     8
100
AcDbLine
 10
124.2114570741278
 20
60.26670254648943
 30
0.0
 11
124.1950924033782
 21
60.25905276090902
 31
0.0
  0
LINE
  5
9B3
330
1F
100
AcDbEntity
  8
0
  6
HIDDEN
 62
     8
100
AcDbLine
 10
124.2284172891411
 20
60.27398742366756
 30
0.0
 11
124.2114570741278
 21
60.26670254648943
 31
0.0
  0
LINE
  5
9B4
330
1F
100
AcDbEntity
  8
0
  6
HIDDEN
 62
     8
100
AcDbLine
 10
124.2455982499584
 20
60.28073542216525
 30
0.0
 11
124.2284172891411
 21
60.27398742366756
 31
0.0
  0
LINE
  5
9B5
330
1F
100
AcDbEntity
  8
0
  6
HIDDEN
 62
     8
100
AcDbLine
 10
124.2633936008513
 20
60.28708858473653
 30
0.0
 11
124.2455982499584
 21
60.28073542216525
 31
0.0
  0
LINE
  5
9B6
330
1F
100
AcDbEntity
  8
0
  6
HIDDEN
 62
     8
100
AcDbLine
 10
133.5055757261868
 20
60.78203567748234
 30
0.0
 11
133.4990195229467
 21
60.7798166786754
 31
0.0
  0
LINE
  5
9B7
330
1F
100
AcDbEntity
  8
0
  6
HIDDEN
 62
     8
100
AcDbLine
 10
132.7791423157748
 20
60.40472452058591
 30
0.0
 11
132.880136646575
 21
60.43838624639301
 31
0.0
  0
LINE
  5
9B8
330
1F
100
AcDbEntity
  8
0
  6
HIDDEN
 62
     8
100
AcDbLine
 10
124.2813784858784
 20
60.29288372860476
 30
0.0
 11
124.2633936008513
 21
60.28708858473653
 31
0.0
  0
LINE
  5
9B9
330
1F
100
AcDbEntity
  8
0
  6
HIDDEN
 62
     8
100
AcDbLine
 10
133.5121693844774
 20
60.78414078746539
 30
0.0
 11
133.5055757261868
 21
60.78203567748234
 31
0.0
  0
LINE
  5
9BA
330
1F
100
AcDbEntity
  8
0
  6
HIDDEN
 62
     8
100
AcDbLine
 10
132.6772139822123
 20
60.374080924839
 30
0.0
 11
132.7791423157748
 21
60.40472452058591
 31
0.0
  0
LINE
  5
9BB
330
1F
100
AcDbEntity
  8
0
  6
HIDDEN
 62
     8
100
AcDbLine
 10
133.5187987672504
 20
60.78613047880413
 30
0.0
 11
133.5121693844774
 21
60.78414078746539
 31
0.0
  0
LINE
  5
9BC
330
1F
100
AcDbEntity
  8
0
  6
HIDDEN
 62
     8
100
AcDbLine
 10
133.5254621492584
 20
60.78800321292321
 30
0.0
 11
133.5187987672504
 21
60.78613047880413
 31
0.0
  0
LINE
  5
9BD
330
1F
100
AcDbEntity
  8
0
  6
HIDDEN
 62
     8
100
AcDbLine
 10
132.5744957709579
 20
60.34622069589953
 30
0.0
 11
132.6772139822123
 21
60.374080924839
 31
0.0
  0
LINE
  5
9BE
330
1F
100
AcDbEntity
  8
0
  6
HIDDEN
 62
     8
100
AcDbLine
 10
133.5320063854078
 20
60.78971922241364
 30
0.0
 11
133.5254621492584
 21
60.78800321292321
 31
0.0
  0
LINE
  5
9BF
330
1F
100
AcDbEntity
  8
0
  6
HIDDEN
 62
     8
100
AcDbLine
 10
132.4711318092846
 20
60.32090907506979
 30
0.0
 11
132.5744957709579
 21
60.34622069589953
 31
0.0
  0
LINE
  5
9C0
330
1F
100
AcDbEntity
  8
0
  6
HIDDEN
 62
     8
100
AcDbLine
 10
133.5385795851895
 20
60.79132069109167
 30
0.0
 11
133.5320063854078
 21
60.78971922241364
 31
0.0
  0
LINE
  5
9C1
330
1F
100
AcDbEntity
  8
0
  6
HIDDEN
 62
     8
100
AcDbLine
 10
133.5451798821429
 20
60.7928062857963
 30
0.0
 11
133.5385795851895
 21
60.79132069109167
 31
0.0
  0
LINE
  5
9C2
330
1F
100
AcDbEntity
  8
0
  6
HIDDEN
 62
     8
100
AcDbLine
 10
132.3305536269543
 20
60.29033515899342
 30
0.0
 11
132.4711318092846
 21
60.32090907506979
 31
0.0
  0
LINE
  5
9C3
330
1F
100
AcDbEntity
  8
0
  6
HIDDEN
 62
     8
100
AcDbLine
 10
133.5518054093964
 20
60.79417467019299
 30
0.0
 11
133.5451798821429
 21
60.7928062857963
 31
0.0
  0
LINE
  5
9C4
330
1F
100
AcDbEntity
  8
0
  6
HIDDEN
 62
     8
100
AcDbLine
 10
132.189208441288
 20
60.26351609366831
 30
0.0
 11
132.3305536269543
 21
60.29033515899342
 31
0.0
  0
LINE
  5
9C5
330
1F
100
AcDbEntity
  8
0
  6
HIDDEN
 62
     8
100
AcDbLine
 10
133.5583245959835
 20
60.79540133432321
 30
0.0
 11
133.5518054093964
 21
60.79417467019299
 31
0.0
  0
LINE
  5
9C6
330
1F
100
AcDbEntity
  8
0
  6
HIDDEN
 62
     8
100
AcDbLine
 10
133.5648644116087
 20
60.79651290797855
 30
0.0
 11
133.5583245959835
 21
60.79540133432321
 31
0.0
  0
LINE
  5
9C7
330
1F
100
AcDbEntity
  8
0
  6
HIDDEN
 62
     8
100
AcDbLine
 10
132.0472464939273
 20
60.23997573639957
 30
0.0
 11
132.189208441288
 21
60.26351609366831
 31
0.0
  0
LINE
  5
9C8
330
1F
100
AcDbEntity
  8
0
  6
HIDDEN
 62
     8
100
AcDbLine
 10
132.5496904059022
 20
59.01674271495391
 30
0.0
 11
132.8023534826588
 21
59.05800262959624
 31
0.0
  0
LINE
  5
9C9
330
1F
100
AcDbEntity
  8
0
  6
HIDDEN
 62
     8
100
AcDbLine
 10
133.5714230211071
 20
60.79750827497604
 30
0.0
 11
133.5648644116087
 21
60.79651290797855
 31
0.0
  0
LINE
  5
9CA
330
1F
100
AcDbEntity
  8
0
  6
CONTINUOUS
 62
     7
100
AcDbLine
 10
121.8699391464104
 20
45.4092977817037
 30
0.0
 11
121.878569442224
 21
45.32321420958718
 31
0.0
  0
LINE
  5
9CB
330
1F
100
AcDbEntity
  8
0
  6
CONTINUOUS
 62
     7
100
AcDbLine
 10
122.0651385383237
 20
45.34187498647115
 30
0.0
 11
122.0565005645334
 21
45.42803513161475
 31
0.0
  0
LINE
  5
9CC
330
1F
100
AcDbEntity
  8
0
  6
CONTINUOUS
 62
     7
100
AcDbLine
 10
123.0235540524458
 20
45.42803515491967
 30
0.0
 11
123.0321920262361
 21
45.34187500977606
 31
0.0
  0
LINE
  5
9CD
330
1F
100
AcDbEntity
  8
0
  6
HIDDEN
 62
     8
100
AcDbLine
 10
123.8950189932001
 20
59.80431029049706
 30
0.0
 11
123.8942643842638
 21
59.78560036333239
 31
0.0
  0
LINE
  5
9CE
330
1F
100
AcDbEntity
  8
0
  6
HIDDEN
 62
     8
100
AcDbLine
 10
123.8963389422097
 20
59.82264953980311
 30
0.0
 11
123.8950189932001
 21
59.80431029049706
 31
0.0
  0
LINE
  5
9CF
330
1F
100
AcDbEntity
  8
0
  6
HIDDEN
 62
     8
100
AcDbLine
 10
123.8982381981387
 20
59.84093781577344
 30
0.0
 11
123.8963389422097
 21
59.82264953980311
 31
0.0
  0
LINE
  5
9D0
330
1F
100
AcDbEntity
  8
0
  6
HIDDEN
 62
     8
100
AcDbLine
 10
123.9006722827231
 20
59.85883110665101
 30
0.0
 11
123.8982381981387
 21
59.84093781577344
 31
0.0
  0
LINE
  5
9D1
330
1F
100
AcDbEntity
  8
0
  6
HIDDEN
 62
     8
100
AcDbLine
 10
123.9036737980472
 20
59.87663795230332
 30
0.0
 11
123.9006722827231
 21
59.85883110665101
 31
0.0
  0
LINE
  5
9D2
330
1F
100
AcDbEntity
  8
0
  6
HIDDEN
 62
     8
100
AcDbLine
 10
123.9071872295694
 20
59.89407039125416
 30
0.0
 11
123.9036737980472
 21
59.87663795230332
 31
0.0
  0
LINE
  5
9D3
330
1F
100
AcDbEntity
  8
0
  6
HIDDEN
 62
     8
100
AcDbLine
 10
123.9112559596267
 20
59.91138160283674
 30
0.0
 11
123.9071872295694
 21
59.89407039125416
 31
0.0
  0
LINE
  5
9D4
330
1F
100
AcDbEntity
  8
0
  6
HIDDEN
 62
     8
100
AcDbLine
 10
133.2407288843804
 20
60.60343085618024
 30
0.0
 11
133.2822278786931
 21
60.63256851983358
 31
0.0
  0
LINE
  5
9D5
330
1F
100
AcDbEntity
  8
0
  6
HIDDEN
 62
     8
100
AcDbLine
 10
133.4009640466071
 20
60.73050538299525
 30
0.0
 11
133.3946608974304
 21
60.72619457645775
 31
0.0
  0
LINE
  5
9D6
330
1F
100
AcDbEntity
  8
0
  6
HIDDEN
 62
     8
100
AcDbLine
 10
133.407338350738
 20
60.73471026220019
 30
0.0
 11
133.4009640466071
 21
60.73050538299525
 31
0.0
  0
LINE
  5
9D7
330
1F
100
AcDbEntity
  8
0
  6
HIDDEN
 62
     8
100
AcDbLine
 10
133.4137825779561
 20
60.7388071244456
 30
0.0
 11
133.407338350738
 21
60.73471026220019
 31
0.0
  0
LINE
  5
9D8
330
1F
100
AcDbEntity
  8
0
  6
HIDDEN
 62
     8
100
AcDbLine
 10
133.1977408944042
 20
60.57678556738217
 30
0.0
 11
133.2407288843804
 21
60.60343085618024
 31
0.0
  0
LINE
  5
9D9
330
1F
100
AcDbEntity
  8
0
  6
HIDDEN
 62
     8
100
AcDbLine
 10
133.4202954936315
 20
60.74279388368852
 30
0.0
 11
133.4137825779561
 21
60.7388071244456
 31
0.0
  0
LINE
  5
9DA
330
1F
100
AcDbEntity
  8
0
  6
HIDDEN
 62
     8
100
AcDbLine
 10
133.4267091264878
 20
60.7465721598671
 30
0.0
 11
133.4202954936315
 21
60.74279388368852
 31
0.0
  0
LINE
  5
9DB
330
1F
100
AcDbEntity
  8
0
  6
HIDDEN
 62
     8
100
AcDbLine
 10
133.4331855027442
 20
60.7502418426344
 30
0.0
 11
133.4267091264878
 21
60.7465721598671
 31
0.0
  0
LINE
  5
9DC
330
1F
100
AcDbEntity
  8
0
  6
HIDDEN
 62
     8
100
AcDbLine
 10
133.1534748339822
 20
60.55233664439164
 30
0.0
 11
133.1977408944042
 21
60.57678556738217
 31
0.0
  0
LINE
  5
9DD
330
1F
100
AcDbEntity
  8
0
  6
HIDDEN
 62
     8
100
AcDbLine
 10
133.439723272884
 20
60.75380094308961
 30
0.0
 11
133.4331855027442
 21
60.7502418426344
 31
0.0
  0
LINE
  5
9DE
330
1F
100
AcDbEntity
  8
0
  6
HIDDEN
 62
     8
100
AcDbLine
 10
133.4463210792516
 20
60.75724747177144
 30
0.0
 11
133.439723272884
 21
60.75380094308961
 31
0.0
  0
LINE
  5
9DF
330
1F
100
AcDbEntity
  8
0
  6
HIDDEN
 62
     8
100
AcDbLine
 10
133.4528147487977
 20
60.76049967633638
 30
0.0
 11
133.4463210792516
 21
60.75724747177144
 31
0.0
  0
LINE
  5
9E0
330
1F
100
AcDbEntity
  8
0
  6
HIDDEN
 62
     8
100
AcDbLine
 10
133.0967822283369
 20
60.52446688464399
 30
0.0
 11
133.1534748339822
 21
60.55233664439164
 31
0.0
  0
LINE
  5
9E1
330
1F
100
AcDbEntity
  8
0
  6
HIDDEN
 62
     8
100
AcDbLine
 10
134.7370854771459
 20
59.61669978527577
 30
0.0
 11
134.8530147105131
 21
59.67242081194976
 31
0.0
  0
LINE
  5
9E2
330
1F
100
AcDbEntity
  8
0
  6
HIDDEN
 62
     8
100
AcDbLine
 10
133.4593627929415
 20
60.76364096436066
 30
0.0
 11
133.4528147487977
 21
60.76049967633638
 31
0.0
  0
LINE
  5
9E3
330
1F
100
AcDbEntity
  8
0
  6
HIDDEN
 62
     8
100
AcDbLine
 10
134.8730690828436
 20
59.68113785154932
 30
0.0
 11
134.8846962425
 21
59.68657980298726
 31
0.0
  0
LINE
  5
9E4
330
1F
100
AcDbEntity
  8
0
  6
HIDDEN
 62
     8
100
AcDbLine
 10
133.4659637255861
 20
60.76666947593179
 30
0.0
 11
133.4593627929415
 21
60.76364096436066
 31
0.0
  0
LINE
  5
9E5
330
1F
100
AcDbEntity
  8
0
  6
HIDDEN
 62
     8
100
AcDbLine
 10
134.6197031687445
 20
59.56443602677618
 30
0.0
 11
134.7370854771459
 21
59.61669978527577
 31
0.0
  0
LINE
  5
9E6
330
1F
100
AcDbEntity
  8
0
  6
HIDDEN
 62
     8
100
AcDbLine
 10
134.8630800339296
 20
59.67669158100425
 30
0.0
 11
134.8730690828436
 21
59.68113785154932
 31
0.0
  0
LINE
  5
9E7
330
1F
100
AcDbEntity
  8
0
  6
HIDDEN
 62
     8
100
AcDbLine
 10
133.0388384044732
 20
60.49897983685494
 30
0.0
 11
133.0967822283369
 21
60.52446688464399
 31
0.0
  0
LINE
  5
9E8
330
1F
100
AcDbEntity
  8
0
  6
HIDDEN
 62
     8
100
AcDbLine
 10
133.472616062782
 20
60.76958334279289
 30
0.0
 11
133.4659637255861
 21
60.76666947593179
 31
0.0
  0
LINE
  5
9E9
330
1F
100
AcDbEntity
  8
0
  6
HIDDEN
 62
     8
100
AcDbLine
 10
134.8530147105131
 20
59.67242081194976
 30
0.0
 11
134.8630800339296
 21
59.67669158100425
 31
0.0
  0
LINE
  5
9EA
330
1F
100
AcDbEntity
  8
0
  6
HIDDEN
 62
     8
100
AcDbLine
 10
133.4791497836275
 20
60.7723120654375
 30
0.0
 11
133.472616062782
 21
60.76958334279289
 31
0.0
  0
LINE
  5
9EB
330
1F
100
AcDbEntity
  8
0
  6
HIDDEN
 62
     8
100
AcDbLine
 10
134.501001664792
 20
59.51538487626063
 30
0.0
 11
134.6197031687445
 21
59.56443602677618
 31
0.0
  0
LINE
  5
9EC
330
1F
100
AcDbEntity
  8
0
  6
HIDDEN
 62
     8
100
AcDbLine
 10
132.9800528443717
 20
60.47530086295528
 30
0.0
 11
133.0388384044732
 21
60.49897983685494
 31
0.0
  0
LINE
  5
9ED
330
1F
100
AcDbEntity
  8
0
  6
HIDDEN
 62
     8
100
AcDbLine
 10
133.4857293423694
 20
60.77492833323815
 30
0.0
 11
133.4791497836275
 21
60.7723120654375
 31
0.0
  0
LINE
  5
9EE
330
1F
100
AcDbEntity
  8
0
  6
HIDDEN
 62
     8
100
AcDbLine
 10
134.3287438322932
 20
59.45016154044473
 30
0.0
 11
134.501001664792
 21
59.51538487626063
 31
0.0
  0
LINE
  5
9EF
330
1F
100
AcDbEntity
  8
0
  6
HIDDEN
 62
     8
100
AcDbLine
 10
133.4923531261673
 20
60.77743044142488
 30
0.0
 11
133.4857293423694
 21
60.77492833323815
 31
0.0
  0
LINE
  5
9F0
330
1F
100
AcDbEntity
  8
0
  6
HIDDEN
 62
     8
100
AcDbLine
 10
132.880136646575
 20
60.43838624639301
 30
0.0
 11
132.9800528443717
 21
60.47530086295528
 31
0.0
  0
LINE
  5
9F1
330
1F
100
AcDbEntity
  8
0
  6
HIDDEN
 62
     8
100
AcDbLine
 10
133.4990195229467
 20
60.7798166786754
 30
0.0
 11
133.4923531261673
 21
60.77743044142488
 31
0.0
  0
LINE
  5
9F2
330
1F
100
AcDbEntity
  8
0
  6
HIDDEN
 62
     8
100
AcDbLine
 10
134.1544432418569
 20
59.39032023481169
 30
0.0
 11
134.3287438322932
 21
59.45016154044473
 31
0.0
  0
LINE
  5
9F3
330
1F
100
AcDbEntity
  8
0
  6
HIDDEN
 62
     8
100
AcDbLine
 10
133.9784947131248
 20
59.33513945591262
 30
0.0
 11
134.1544432418569
 21
59.39032023481169
 31
0.0
  0
LINE
  5
9F4
330
1F
100
AcDbEntity
  8
0
  6
HIDDEN
 62
     8
100
AcDbLine
 10
133.8012930639464
 20
59.28389769891715
 30
0.0
 11
133.9784947131248
 21
59.33513945591262
 31
0.0
  0
LINE
  5
9F5
330
1F
100
AcDbEntity
  8
0
  6
HIDDEN
 62
     8
100
AcDbLine
 10
133.5536384805874
 20
59.21821312947329
 30
0.0
 11
133.8012930639464
 21
59.28389769891715
 31
0.0
  0
LINE
  5
9F6
330
1F
100
AcDbEntity
  8
0
  6
HIDDEN
 62
     8
100
AcDbLine
 10
133.3044892200478
 20
59.15869659244549
 30
0.0
 11
133.5536384805874
 21
59.21821312947329
 31
0.0
  0
LINE
  5
9F7
330
1F
100
AcDbEntity
  8
0
  6
HIDDEN
 62
     8
100
AcDbLine
 10
133.0540069877224
 20
59.10530684111799
 30
0.0
 11
133.3044892200478
 21
59.15869659244549
 31
0.0
  0
LINE
  5
9F8
330
1F
100
AcDbEntity
  8
0
  6
HIDDEN
 62
     8
100
AcDbLine
 10
132.8023534826588
 20
59.05800262959624
 30
0.0
 11
133.0540069877224
 21
59.10530684111799
 31
0.0
  0
LINE
  5
9F9
330
1F
100
AcDbEntity
  8
0
  6
HIDDEN
 62
     8
100
AcDbLine
 10
123.9589064194749
 20
59.44843725952066
 30
0.0
 11
123.9622350350938
 21
59.43909376759854
 31
0.0
  0
LINE
  5
9FA
330
1F
100
AcDbEntity
  8
0
  6
HIDDEN
 62
     8
100
AcDbLine
 10
123.9558836809066
 20
59.45757803397538
 30
0.0
 11
123.9589064194749
 21
59.44843725952066
 31
0.0
  0
LINE
  5
9FB
330
1F
100
AcDbEntity
  8
0
  6
HIDDEN
 62
     8
100
AcDbLine
 10
123.9530703634551
 20
59.46678502573121
 30
0.0
 11
123.9558836809066
 21
59.45757803397538
 31
0.0
  0
LINE
  5
9FC
330
1F
100
AcDbEntity
  8
0
  6
HIDDEN
 62
     8
100
AcDbLine
 10
123.9504709839872
 20
59.47605332996778
 30
0.0
 11
123.9530703634551
 21
59.46678502573121
 31
0.0
  0
LINE
  5
9FD
330
1F
100
AcDbEntity
  8
0
  6
HIDDEN
 62
     8
100
AcDbLine
 10
123.9504709839872
 20
59.47605332996778
 30
0.0
 11
123.9237607757223
 21
59.57691089458402
 31
0.0
  0
LINE
  5
9FE
330
1F
100
AcDbEntity
  8
0
  6
HIDDEN
 62
     8
100
AcDbLine
 10
123.9237607757223
 20
59.57691089458402
 30
0.0
 11
123.9149651093391
 21
59.61064412217798
 31
0.0
  0
LINE
  5
9FF
330
1F
100
AcDbEntity
  8
0
  6
HIDDEN
 62
     8
100
AcDbLine
 10
123.9101338633977
 20
59.63047563536536
 30
0.0
 11
123.9149651093391
 21
59.61064412217798
 31
0.0
  0
LINE
  5
A00
330
1F
100
AcDbEntity
  8
0
  6
HIDDEN
 62
     8
100
AcDbLine
 10
123.9059111860472
 20
59.65044755303127
 30
0.0
 11
123.9101338633977
 21
59.63047563536536
 31
0.0
  0
LINE
  5
A01
330
1F
100
AcDbEntity
  8
0
  6
HIDDEN
 62
     8
100
AcDbLine
 10
123.9023845536678
 20
59.67009072750371
 30
0.0
 11
123.9059111860472
 21
59.65044755303127
 31
0.0
  0
LINE
  5
A02
330
1F
100
AcDbEntity
  8
0
  6
HIDDEN
 62
     8
100
AcDbLine
 10
123.8994650584561
 20
59.68983267405438
 30
0.0
 11
123.9023845536678
 21
59.67009072750371
 31
0.0
  0
LINE
  5
A03
330
1F
100
AcDbEntity
  8
0
  6
HIDDEN
 62
     8
100
AcDbLine
 10
123.8972082905114
 20
59.7092192825026
 30
0.0
 11
123.8994650584561
 21
59.68983267405438
 31
0.0
  0
LINE
  5
A04
330
1F
100
AcDbEntity
  8
0
  6
HIDDEN
 62
     8
100
AcDbLine
 10
123.8955539737898
 20
59.72866663152199
 30
0.0
 11
123.8972082905114
 21
59.7092192825026
 31
0.0
  0
LINE
  5
A05
330
1F
100
AcDbEntity
  8
0
  6
HIDDEN
 62
     8
100
AcDbLine
 10
123.8945274243193
 20
59.74775994638072
 30
0.0
 11
123.8955539737898
 21
59.72866663152199
 31
0.0
  0
LINE
  5
A06
330
1F
100
AcDbEntity
  8
0
  6
HIDDEN
 62
     8
100
AcDbLine
 10
123.8940979714848
 20
59.76687591482814
 30
0.0
 11
123.8945274243193
 21
59.74775994638072
 31
0.0
  0
LINE
  5
A07
330
1F
100
AcDbEntity
  8
0
  6
HIDDEN
 62
     8
100
AcDbLine
 10
123.8942643842638
 20
59.78560036333239
 30
0.0
 11
123.8940979714848
 21
59.76687591482814
 31
0.0
  0
LINE
  5
A08
330
1F
100
AcDbEntity
  8
0
  6
HIDDEN
 62
     8
100
AcDbLine
 10
133.3220269467483
 20
60.66449456324552
 30
0.0
 11
133.3599151656806
 21
60.69950498870619
 31
0.0
  0
LINE
  5
A09
330
1F
100
AcDbEntity
  8
0
  6
HIDDEN
 62
     8
100
AcDbLine
 10
135.0132793168388
 20
59.76898882987356
 30
0.0
 11
135.0228615466826
 21
59.77711418591656
 31
0.0
  0
LINE
  5
A0A
330
1F
100
AcDbEntity
  8
0
  6
HIDDEN
 62
     8
100
AcDbLine
 10
133.3647417736762
 20
60.70352635981951
 30
0.0
 11
133.3599151656806
 21
60.69950498870619
 31
0.0
  0
LINE
  5
A0B
330
1F
100
AcDbEntity
  8
0
  6
HIDDEN
 62
     8
100
AcDbLine
 10
135.0035321839188
 20
59.76106202109716
 30
0.0
 11
135.0132793168388
 21
59.76898882987356
 31
0.0
  0
LINE
  5
A0C
330
1F
100
AcDbEntity
  8
0
  6
HIDDEN
 62
     8
100
AcDbLine
 10
133.3696207535848
 20
60.70748403918312
 30
0.0
 11
133.3647417736762
 21
60.70352635981951
 31
0.0
  0
LINE
  5
A0D
330
1F
100
AcDbEntity
  8
0
  6
HIDDEN
 62
     8
100
AcDbLine
 10
133.2822278786931
 20
60.63256851983358
 30
0.0
 11
133.3220269467483
 21
60.66449456324552
 31
0.0
  0
LINE
  5
A0E
330
1F
100
AcDbEntity
  8
0
  6
HIDDEN
 62
     8
100
AcDbLine
 10
133.3757631353664
 20
60.71231735396589
 30
0.0
 11
133.3696207535848
 21
60.70748403918312
 31
0.0
  0
LINE
  5
A0F
330
1F
100
AcDbEntity
  8
0
  6
HIDDEN
 62
     8
100
AcDbLine
 10
134.9935186981593
 20
59.75325460245837
 30
0.0
 11
135.0035321839188
 21
59.76106202109716
 31
0.0
  0
LINE
  5
A10
330
1F
100
AcDbEntity
  8
0
  6
HIDDEN
 62
     8
100
AcDbLine
 10
133.3819846953778
 20
60.71704830956325
 30
0.0
 11
133.3757631353664
 21
60.71231735396589
 31
0.0
  0
LINE
  5
A11
330
1F
100
AcDbEntity
  8
0
  6
HIDDEN
 62
     8
100
AcDbLine
 10
134.9833470073647
 20
59.74565444457342
 30
0.0
 11
134.9935186981593
 21
59.75325460245837
 31
0.0
  0
LINE
  5
A12
330
1F
100
AcDbEntity
  8
0
  6
HIDDEN
 62
     8
100
AcDbLine
 10
133.3882843210047
 20
60.72167476542796
 30
0.0
 11
133.3819846953778
 21
60.71704830956325
 31
0.0
  0
LINE
  5
A13
330
1F
100
AcDbEntity
  8
0
  6
HIDDEN
 62
     8
100
AcDbLine
 10
134.9730220865063
 20
59.73826377559554
 30
0.0
 11
134.9833470073647
 21
59.74565444457342
 31
0.0
  0
LINE
  5
A14
330
1F
100
AcDbEntity
  8
0
  6
HIDDEN
 62
     8
100
AcDbLine
 10
133.3946608974304
 20
60.72619457645775
 30
0.0
 11
133.3882843210047
 21
60.72167476542796
 31
0.0
  0
LINE
  5
A15
330
1F
100
AcDbEntity
  8
0
  6
HIDDEN
 62
     8
100
AcDbLine
 10
134.9624929861448
 20
59.73104736086714
 30
0.0
 11
134.9730220865063
 21
59.73826377559554
 31
0.0
  0
LINE
  5
A16
330
1F
100
AcDbEntity
  8
0
  6
HIDDEN
 62
     8
100
AcDbLine
 10
134.9518188625881
 20
59.72404724321407
 30
0.0
 11
134.9624929861448
 21
59.73104736086714
 31
0.0
  0
LINE
  5
A17
330
1F
100
AcDbEntity
  8
0
  6
HIDDEN
 62
     8
100
AcDbLine
 10
134.9410045090712
 20
59.71726575496631
 30
0.0
 11
134.9518188625881
 21
59.72404724321407
 31
0.0
  0
LINE
  5
A18
330
1F
100
AcDbEntity
  8
0
  6
HIDDEN
 62
     8
100
AcDbLine
 10
134.9300017925011
 20
59.71067427963679
 30
0.0
 11
134.9410045090712
 21
59.71726575496631
 31
0.0
  0
LINE
  5
A19
330
1F
100
AcDbEntity
  8
0
  6
HIDDEN
 62
     8
100
AcDbLine
 10
134.9188670273498
 20
59.70430840651146
 30
0.0
 11
134.9300017925011
 21
59.71067427963679
 31
0.0
  0
LINE
  5
A1A
330
1F
100
AcDbEntity
  8
0
  6
HIDDEN
 62
     8
100
AcDbLine
 10
134.9076048996712
 20
59.69817064957199
 30
0.0
 11
134.9188670273498
 21
59.70430840651146
 31
0.0
  0
LINE
  5
A1B
330
1F
100
AcDbEntity
  8
0
  6
HIDDEN
 62
     8
100
AcDbLine
 10
134.8962097186781
 20
59.69225832311908
 30
0.0
 11
134.9076048996712
 21
59.69817064957199
 31
0.0
  0
LINE
  5
A1C
330
1F
100
AcDbEntity
  8
0
  6
HIDDEN
 62
     8
100
AcDbLine
 10
134.8846962425
 20
59.68657980298726
 30
0.0
 11
134.8962097186781
 21
59.69225832311908
 31
0.0
  0
LINE
  5
A1D
330
1F
100
AcDbEntity
  8
0
  6
HIDDEN
 62
     8
100
AcDbLine
 10
132.2801948471626
 20
58.9792345389856
 30
0.0
 11
132.5496904059022
 21
59.01674271495391
 31
0.0
  0
LINE
  5
A1E
330
1F
100
AcDbEntity
  8
0
  6
HIDDEN
 62
     8
100
AcDbLine
 10
132.0099922731531
 20
58.94707754145
 30
0.0
 11
132.2801948471626
 21
58.9792345389856
 31
0.0
  0
LINE
  5
A1F
330
1F
100
AcDbEntity
  8
0
  6
HIDDEN
 62
     8
100
AcDbLine
 10
131.7393337233013
 20
58.91883972646373
 30
0.0
 11
132.0099922731531
 21
58.94707754145
 31
0.0
  0
LINE
  5
A20
330
1F
100
AcDbEntity
  8
0
  6
HIDDEN
 62
     8
100
AcDbLine
 10
131.2845483417752
 20
58.87691904699143
 30
0.0
 11
131.7393337233013
 21
58.91883972646373
 31
0.0
  0
LINE
  5
A21
330
1F
100
AcDbEntity
  8
0
  6
HIDDEN
 62
     8
100
AcDbLine
 10
128.9156511027111
 20
58.67944949199004
 30
0.0
 11
131.2845483417752
 21
58.87691904699143
 31
0.0
  0
LINE
  5
A22
330
1F
100
AcDbEntity
  8
0
  6
HIDDEN
 62
     8
100
AcDbLine
 10
124.2181091931171
 20
59.16052106969712
 30
0.0
 11
124.2291420738659
 21
59.15494565467264
 31
0.0
  0
LINE
  5
A23
330
1F
100
AcDbEntity
  8
0
  6
HIDDEN
 62
     8
100
AcDbLine
 10
124.2071953711714
 20
59.1663260674065
 30
0.0
 11
124.2181091931171
 21
59.16052106969712
 31
0.0
  0
LINE
  5
A24
330
1F
100
AcDbEntity
  8
0
  6
HIDDEN
 62
     8
100
AcDbLine
 10
124.1964056356061
 20
59.17235858091145
 30
0.0
 11
124.2071953711714
 21
59.1663260674065
 31
0.0
  0
LINE
  5
A25
330
1F
100
AcDbEntity
  8
0
  6
HIDDEN
 62
     8
100
AcDbLine
 10
124.1857774442484
 20
59.17859706817111
 30
0.0
 11
124.1964056356061
 21
59.17235858091145
 31
0.0
  0
LINE
  5
A26
330
1F
100
AcDbEntity
  8
0
  6
HIDDEN
 62
     8
100
AcDbLine
 10
124.1752827558245
 20
59.18505760516682
 30
0.0
 11
124.1857774442484
 21
59.17859706817111
 31
0.0
  0
LINE
  5
A27
330
1F
100
AcDbEntity
  8
0
  6
HIDDEN
 62
     8
100
AcDbLine
 10
124.1649267447877
 20
59.19173817538217
 30
0.0
 11
124.1752827558245
 21
59.18505760516682
 31
0.0
  0
LINE
  5
A28
330
1F
100
AcDbEntity
  8
0
  6
HIDDEN
 62
     8
100
AcDbLine
 10
124.15479734929
 20
59.19857959175245
 30
0.0
 11
124.1649267447877
 21
59.19173817538217
 31
0.0
  0
LINE
  5
A29
330
1F
100
AcDbEntity
  8
0
  6
HIDDEN
 62
     8
100
AcDbLine
 10
124.1448147610391
 20
59.20563347338845
 30
0.0
 11
124.15479734929
 21
59.19857959175245
 31
0.0
  0
LINE
  5
A2A
330
1F
100
AcDbEntity
  8
0
  6
HIDDEN
 62
     8
100
AcDbLine
 10
124.1349842734023
 20
59.21289781259061
 30
0.0
 11
124.1448147610391
 21
59.20563347338845
 31
0.0
  0
LINE
  5
A2B
330
1F
100
AcDbEntity
  8
0
  6
HIDDEN
 62
     8
100
AcDbLine
 10
124.1254398101057
 20
59.22026905517029
 30
0.0
 11
124.1349842734023
 21
59.21289781259061
 31
0.0
  0
LINE
  5
A2C
330
1F
100
AcDbEntity
  8
0
  6
HIDDEN
 62
     8
100
AcDbLine
 10
124.116053922362
 20
59.22784115730282
 30
0.0
 11
124.1254398101057
 21
59.22026905517029
 31
0.0
  0
LINE
  5
A2D
330
1F
100
AcDbEntity
  8
0
  6
HIDDEN
 62
     8
100
AcDbLine
 10
124.1068319879375
 20
59.23561207778394
 30
0.0
 11
124.116053922362
 21
59.22784115730282
 31
0.0
  0
LINE
  5
A2E
330
1F
100
AcDbEntity
  8
0
  6
HIDDEN
 62
     8
100
AcDbLine
 10
124.097933767145
 20
59.24344096592914
 30
0.0
 11
124.1068319879375
 21
59.23561207778394
 31
0.0
  0
LINE
  5
A2F
330
1F
100
AcDbEntity
  8
0
  6
HIDDEN
 62
     8
100
AcDbLine
 10
124.0892045163945
 20
59.25145779168999
 30
0.0
 11
124.097933767145
 21
59.24344096592914
 31
0.0
  0
LINE
  5
A30
330
1F
100
AcDbEntity
  8
0
  6
HIDDEN
 62
     8
100
AcDbLine
 10
124.0806496549923
 20
59.25966043588855
 30
0.0
 11
124.0892045163945
 21
59.25145779168999
 31
0.0
  0
LINE
  5
A31
330
1F
100
AcDbEntity
  8
0
  6
HIDDEN
 62
     8
100
AcDbLine
 10
124.0724267566522
 20
59.26789113258313
 30
0.0
 11
124.0806496549923
 21
59.25966043588855
 31
0.0
  0
LINE
  5
A32
330
1F
100
AcDbEntity
  8
0
  6
HIDDEN
 62
     8
100
AcDbLine
 10
124.0643825941603
 20
59.27629657457818
 30
0.0
 11
124.0724267566522
 21
59.26789113258313
 31
0.0
  0
LINE
  5
A33
330
1F
100
AcDbEntity
  8
0
  6
HIDDEN
 62
     8
100
AcDbLine
 10
124.0565226411347
 20
59.28487448885653
 30
0.0
 11
124.0643825941603
 21
59.27629657457818
 31
0.0
  0
LINE
  5
A34
330
1F
100
AcDbEntity
  8
0
  6
HIDDEN
 62
     8
100
AcDbLine
 10
124.0490243697544
 20
59.29342212245376
 30
0.0
 11
124.0565226411347
 21
59.28487448885653
 31
0.0
  0
LINE
  5
A35
330
1F
100
AcDbEntity
  8
0
  6
HIDDEN
 62
     8
100
AcDbLine
 10
124.0417127015938
 20
59.30212987837155
 30
0.0
 11
124.0490243697544
 21
59.29342212245376
 31
0.0
  0
LINE
  5
A36
330
1F
100
AcDbEntity
  8
0
  6
HIDDEN
 62
     8
100
AcDbLine
 10
124.0345930740264
 20
59.31099531565492
 30
0.0
 11
124.0417127015938
 21
59.30212987837155
 31
0.0
  0
LINE
  5
A37
330
1F
100
AcDbEntity
  8
0
  6
HIDDEN
 62
     8
100
AcDbLine
 10
124.0278340962338
 20
59.31979851333666
 30
0.0
 11
124.0345930740264
 21
59.31099531565492
 31
0.0
  0
LINE
  5
A38
330
1F
100
AcDbEntity
  8
0
  6
HIDDEN
 62
     8
100
AcDbLine
 10
124.0212686589561
 20
59.32874695477028
 30
0.0
 11
124.0278340962338
 21
59.31979851333666
 31
0.0
  0
LINE
  5
A39
330
1F
100
AcDbEntity
  8
0
  6
HIDDEN
 62
     8
100
AcDbLine
 10
124.0149021455901
 20
59.33783796882352
 30
0.0
 11
124.0212686589561
 21
59.32874695477028
 31
0.0
  0
LINE
  5
A3A
330
1F
100
AcDbEntity
  8
0
  6
HIDDEN
 62
     8
100
AcDbLine
 10
124.0089012982414
 20
59.34682136310595
 30
0.0
 11
124.0149021455901
 21
59.33783796882352
 31
0.0
  0
LINE
  5
A3B
330
1F
100
AcDbEntity
  8
0
  6
HIDDEN
 62
     8
100
AcDbLine
 10
124.0030992927414
 20
59.35593441137865
 30
0.0
 11
124.0089012982414
 21
59.34682136310595
 31
0.0
  0
LINE
  5
A3C
330
1F
100
AcDbEntity
  8
0
  6
HIDDEN
 62
     8
100
AcDbLine
 10
123.9975013891974
 20
59.36517420032543
 30
0.0
 11
124.0030992927414
 21
59.35593441137865
 31
0.0
  0
LINE
  5
A3D
330
1F
100
AcDbEntity
  8
0
  6
HIDDEN
 62
     8
100
AcDbLine
 10
123.9922537010179
 20
59.37428669151426
 30
0.0
 11
123.9975013891974
 21
59.36517420032543
 31
0.0
  0
LINE
  5
A3E
330
1F
100
AcDbEntity
  8
0
  6
HIDDEN
 62
     8
100
AcDbLine
 10
123.9872094713539
 20
59.38351334195586
 30
0.0
 11
123.9922537010179
 21
59.37428669151426
 31
0.0
  0
LINE
  5
A3F
330
1F
100
AcDbEntity
  8
0
  6
HIDDEN
 62
     8
100
AcDbLine
 10
123.9823738020587
 20
59.39285098776641
 30
0.0
 11
123.9872094713539
 21
59.38351334195586
 31
0.0
  0
LINE
  5
A40
330
1F
100
AcDbEntity
  8
0
  6
HIDDEN
 62
     8
100
AcDbLine
 10
123.9778835264091
 20
59.40201946117197
 30
0.0
 11
123.9823738020587
 21
59.39285098776641
 31
0.0
  0
LINE
  5
A41
330
1F
100
AcDbEntity
  8
0
  6
HIDDEN
 62
     8
100
AcDbLine
 10
123.9735995239783
 20
59.41128605134773
 30
0.0
 11
123.9778835264091
 21
59.40201946117197
 31
0.0
  0
LINE
  5
A42
330
1F
100
AcDbEntity
  8
0
  6
HIDDEN
 62
     8
100
AcDbLine
 10
123.9695266908794
 20
59.42064723866535
 30
0.0
 11
123.9735995239783
 21
59.41128605134773
 31
0.0
  0
LINE
  5
A43
330
1F
100
AcDbEntity
  8
0
  6
HIDDEN
 62
     8
100
AcDbLine
 10
123.9657766326178
 20
59.42982926489425
 30
0.0
 11
123.9695266908794
 21
59.42064723866535
 31
0.0
  0
LINE
  5
A44
330
1F
100
AcDbEntity
  8
0
  6
HIDDEN
 62
     8
100
AcDbLine
 10
123.9622350350938
 20
59.43909376759854
 30
0.0
 11
123.9657766326178
 21
59.42982926489425
 31
0.0
  0
LINE
  5
A45
330
1F
100
AcDbEntity
  8
0
  6
HIDDEN
 62
     8
100
AcDbLine
 10
135.1195616405494
 20
59.88427580966568
 30
0.0
 11
135.1260422661166
 21
59.89384187726681
 31
0.0
  0
LINE
  5
A46
330
1F
100
AcDbEntity
  8
0
  6
HIDDEN
 62
     8
100
AcDbLine
 10
135.1128780344395
 20
59.87485041296686
 30
0.0
 11
135.1195616405494
 21
59.88427580966568
 31
0.0
  0
LINE
  5
A47
330
1F
100
AcDbEntity
  8
0
  6
HIDDEN
 62
     8
100
AcDbLine
 10
135.1059968919982
 20
59.86556821278106
 30
0.0
 11
135.1128780344395
 21
59.87485041296686
 31
0.0
  0
LINE
  5
A48
330
1F
100
AcDbEntity
  8
0
  6
HIDDEN
 62
     8
100
AcDbLine
 10
135.0987323566507
 20
59.85619001596872
 30
0.0
 11
135.1059968919982
 21
59.86556821278106
 31
0.0
  0
LINE
  5
A49
330
1F
100
AcDbEntity
  8
0
  6
HIDDEN
 62
     8
100
AcDbLine
 10
135.0912707912878
 20
59.8469677842294
 30
0.0
 11
135.0987323566507
 21
59.85619001596872
 31
0.0
  0
LINE
  5
A4A
330
1F
100
AcDbEntity
  8
0
  6
HIDDEN
 62
     8
100
AcDbLine
 10
135.0836176400165
 20
59.8379038802407
 30
0.0
 11
135.0912707912878
 21
59.8469677842294
 31
0.0
  0
LINE
  5
A4B
330
1F
100
AcDbEntity
  8
0
  6
HIDDEN
 62
     8
100
AcDbLine
 10
135.0756051326857
 20
59.82880810576649
 30
0.0
 11
135.0836176400165
 21
59.8379038802407
 31
0.0
  0
LINE
  5
A4C
330
1F
100
AcDbEntity
  8
0
  6
HIDDEN
 62
     8
100
AcDbLine
 10
135.0674036283254
 20
59.81988235314304
 30
0.0
 11
135.0756051326857
 21
59.82880810576649
 31
0.0
  0
LINE
  5
A4D
330
1F
100
AcDbEntity
  8
0
  6
HIDDEN
 62
     8
100
AcDbLine
 10
135.059018488126
 20
59.81112885541437
 30
0.0
 11
135.0674036283254
 21
59.81988235314304
 31
0.0
  0
LINE
  5
A4E
330
1F
100
AcDbEntity
  8
0
  6
HIDDEN
 62
     8
100
AcDbLine
 10
135.0502820175039
 20
59.80238009770125
 30
0.0
 11
135.059018488126
 21
59.81112885541437
 31
0.0
  0
LINE
  5
A4F
330
1F
100
AcDbEntity
  8
0
  6
HIDDEN
 62
     8
100
AcDbLine
 10
135.0413653411811
 20
59.79381505754176
 30
0.0
 11
135.0502820175039
 21
59.80238009770125
 31
0.0
  0
LINE
  5
A50
330
1F
100
AcDbEntity
  8
0
  6
HIDDEN
 62
     8
100
AcDbLine
 10
135.0322737246595
 20
59.78543591421192
 30
0.0
 11
135.0413653411811
 21
59.79381505754176
 31
0.0
  0
LINE
  5
A51
330
1F
100
AcDbEntity
  8
0
  6
HIDDEN
 62
     8
100
AcDbLine
 10
135.0228615466826
 20
59.77711418591656
 30
0.0
 11
135.0322737246595
 21
59.78543591421192
 31
0.0
  0
LINE
  5
A52
330
1F
100
AcDbEntity
  8
0
  6
HIDDEN
 62
     8
100
AcDbLine
 10
131.9048180276901
 20
60.21923794111349
 30
0.0
 11
132.0472464939273
 21
60.23997573639957
 31
0.0
  0
LINE
  5
A53
330
1F
100
AcDbEntity
  8
0
  6
HIDDEN
 62
     8
100
AcDbLine
 10
133.577998589313
 20
60.79838631913276
 30
0.0
 11
133.5714230211071
 21
60.79750827497604
 31
0.0
  0
LINE
  5
A54
330
1F
100
AcDbEntity
  8
0
  6
HIDDEN
 62
     8
100
AcDbLine
 10
131.7620732858048
 20
60.20082656490993
 30
0.0
 11
131.9048180276901
 21
60.21923794111349
 31
0.0
  0
LINE
  5
A55
330
1F
100
AcDbEntity
  8
0
  6
HIDDEN
 62
     8
100
AcDbLine
 10
124.3987460824027
 20
60.31698492356264
 30
0.0
 11
124.3783106443842
 21
60.31436795368454
 31
0.0
  0
LINE
  5
A56
330
1F
100
AcDbEntity
  8
0
  6
HIDDEN
 62
     8
100
AcDbLine
 10
131.5422083632311
 20
60.17603095110491
 30
0.0
 11
131.7620732858048
 21
60.20082656490993
 31
0.0
  0
LINE
  5
A57
330
1F
100
AcDbEntity
  8
0
  6
HIDDEN
 62
     8
100
AcDbLine
 10
133.5866164944242
 20
60.79935538032279
 30
0.0
 11
133.577998589313
 21
60.79838631913276
 31
0.0
  0
LINE
  5
A58
330
1F
100
AcDbEntity
  8
0
  6
HIDDEN
 62
     8
100
AcDbLine
 10
131.3220718461044
 20
60.15432664739728
 30
0.0
 11
131.5422083632311
 21
60.17603095110491
 31
0.0
  0
LINE
  5
A59
330
1F
100
AcDbEntity
  8
0
  6
HIDDEN
 62
     8
100
AcDbLine
 10
124.4199401406309
 20
60.31905084027441
 30
0.0
 11
124.3987460824027
 21
60.31698492356264
 31
0.0
  0
LINE
  5
A5A
330
1F
100
AcDbEntity
  8
0
  6
HIDDEN
 62
     8
100
AcDbLine
 10
129.8578555825114
 20
60.02111277604111
 30
0.0
 11
130.8814683432029
 21
60.11505333541295
 31
0.0
  0
LINE
  5
A5B
330
1F
100
AcDbEntity
  8
0
  6
HIDDEN
 62
     8
100
AcDbLine
 10
133.5952546014128
 20
60.80011989700614
 30
0.0
 11
133.5866164944242
 21
60.79935538032279
 31
0.0
  0
LINE
  5
A5C
330
1F
100
AcDbEntity
  8
0
  6
HIDDEN
 62
     8
100
AcDbLine
 10
130.8814683432029
 20
60.11505333541295
 30
0.0
 11
131.3220718461044
 21
60.15432664739728
 31
0.0
  0
LINE
  5
A5D
330
1F
100
AcDbEntity
  8
0
  6
HIDDEN
 62
     8
100
AcDbLine
 10
129.5164414061454
 20
59.99146748664864
 30
0.0
 11
129.8578555825114
 21
60.02111277604111
 31
0.0
  0
LINE
  5
A5E
330
1F
100
AcDbEntity
  8
0
  6
HIDDEN
 62
     8
100
AcDbLine
 10
129.1746901486847
 20
59.96455993422244
 30
0.0
 11
129.5164414061454
 21
59.99146748664864
 31
0.0
  0
LINE
  5
A5F
330
1F
100
AcDbEntity
  8
0
  6
HIDDEN
 62
     8
100
AcDbLine
 10
128.5804477904385
 20
58.65491470211003
 30
0.0
 11
128.9156511027111
 21
58.67944949199004
 31
0.0
  0
LINE
  5
A60
330
1F
100
AcDbEntity
  8
0
  6
HIDDEN
 62
     8
100
AcDbLine
 10
128.8324625396457
 20
59.94153229713564
 30
0.0
 11
129.1746901486847
 21
59.96455993422244
 31
0.0
  0
LINE
  5
A61
330
1F
100
AcDbEntity
  8
0
  6
HIDDEN
 62
     8
100
AcDbLine
 10
124.4411847748722
 20
60.32047955625206
 30
0.0
 11
124.4199401406309
 21
60.31905084027441
 31
0.0
  0
LINE
  5
A62
330
1F
100
AcDbEntity
  8
0
  6
HIDDEN
 62
     8
100
AcDbLine
 10
133.6039072606663
 20
60.8006777137833
 30
0.0
 11
133.5952546014128
 21
60.80011989700614
 31
0.0
  0
LINE
  5
A63
330
1F
100
AcDbEntity
  8
0
  6
HIDDEN
 62
     8
100
AcDbLine
 10
128.2449949647043
 20
58.63443941766593
 30
0.0
 11
128.5804477904385
 21
58.65491470211003
 31
0.0
  0
LINE
  5
A64
330
1F
100
AcDbEntity
  8
0
  6
HIDDEN
 62
     8
100
AcDbLine
 10
128.6786816084464
 20
59.93282647202015
 30
0.0
 11
128.8324625396457
 21
59.94153229713564
 31
0.0
  0
LINE
  5
A65
330
1F
100
AcDbEntity
  8
0
  6
HIDDEN
 62
     8
100
AcDbLine
 10
134.6328636290372
 20
60.85460305599323
 30
0.0
 11
133.6039072606663
 21
60.8006777137833
 31
0.0
  0
LINE
  5
A66
330
1F
100
AcDbEntity
  8
0
  6
HIDDEN
 62
     8
100
AcDbLine
 10
126.0999738060765
 20
60.40741304619818
 30
0.0
 11
124.4411847748722
 21
60.32047955625206
 31
0.0
  0
LINE
  5
A67
330
1F
100
AcDbEntity
  8
0
  6
HIDDEN
 62
     8
100
AcDbLine
 10
128.5248142886182
 20
59.92562419514793
 30
0.0
 11
128.6786816084464
 21
59.93282647202015
 31
0.0
  0
LINE
  5
A68
330
1F
100
AcDbEntity
  8
0
  6
HIDDEN
 62
     8
100
AcDbLine
 10
127.9092454532257
 20
58.61998004199564
 30
0.0
 11
128.2449949647043
 21
58.63443941766593
 31
0.0
  0
LINE
  5
A69
330
1F
100
AcDbEntity
  8
0
  6
HIDDEN
 62
     8
100
AcDbLine
 10
126.1088413235862
 20
60.40777256480899
 30
0.0
 11
126.0999738060765
 21
60.40741304619818
 31
0.0
  0
LINE
  5
A6A
330
1F
100
AcDbEntity
  8
0
  6
HIDDEN
 62
     8
100
AcDbLine
 10
134.6550615039885
 20
60.85543886021628
 30
0.0
 11
134.6328636290372
 21
60.85460305599323
 31
0.0
  0
LINE
  5
A6B
330
1F
100
AcDbEntity
  8
0
  6
HIDDEN
 62
     8
100
AcDbLine
 10
128.370898199137
 20
59.92041738052359
 30
0.0
 11
128.5248142886182
 21
59.92562419514793
 31
0.0
  0
LINE
  5
A6C
330
1F
100
AcDbEntity
  8
0
  6
HIDDEN
 62
     8
100
AcDbLine
 10
127.6588115356053
 20
58.61416651540159
 30
0.0
 11
127.9092454532257
 21
58.61998004199564
 31
0.0
  0
LINE
  5
A6D
330
1F
100
AcDbEntity
  8
0
  6
HIDDEN
 62
     8
100
AcDbLine
 10
128.2169709603606
 20
59.91769794035964
 30
0.0
 11
128.370898199137
 21
59.92041738052359
 31
0.0
  0
LINE
  5
A6E
330
1F
100
AcDbEntity
  8
0
  6
HIDDEN
 62
     8
100
AcDbLine
 10
126.1177160853208
 20
60.40792347814686
 30
0.0
 11
126.1088413235862
 21
60.40777256480899
 31
0.0
  0
LINE
  5
A6F
330
1F
100
AcDbEntity
  8
0
  6
HIDDEN
 62
     8
100
AcDbLine
 10
134.6772763964926
 20
60.85560924466232
 30
0.0
 11
134.6550615039885
 21
60.85543886021628
 31
0.0
  0
LINE
  5
A70
330
1F
100
AcDbEntity
  8
0
  6
HIDDEN
 62
     8
100
AcDbLine
 10
127.4082916769811
 20
58.61290720667648
 30
0.0
 11
127.6588115356053
 21
58.61416651540159
 31
0.0
  0
LINE
  5
A71
330
1F
100
AcDbEntity
  8
0
  6
HIDDEN
 62
     8
100
AcDbLine
 10
128.063070192291
 20
59.91795779659458
 30
0.0
 11
128.2169709603606
 21
59.91769794035964
 31
0.0
  0
LINE
  5
A72
330
1F
100
AcDbEntity
  8
0
  6
HIDDEN
 62
     8
100
AcDbLine
 10
126.1265923028676
 20
60.40786763369872
 30
0.0
 11
126.1177160853208
 21
60.40792347814686
 31
0.0
  0
LINE
  5
A73
330
1F
100
AcDbEntity
  8
0
  6
HIDDEN
 62
     8
100
AcDbLine
 10
127.1577909376402
 20
58.61632795229079
 30
0.0
 11
127.4082916769811
 21
58.61290720667648
 31
0.0
  0
LINE
  5
A74
330
1F
100
AcDbEntity
  8
0
  6
HIDDEN
 62
     8
100
AcDbLine
 10
127.9092335132885
 20
59.92168885847262
 30
0.0
 11
128.063070192291
 21
59.91795779659458
 31
0.0
  0
LINE
  5
A75
330
1F
100
AcDbEntity
  8
0
  6
HIDDEN
 62
     8
100
AcDbLine
 10
126.1356746398882
 20
60.40759830593136
 30
0.0
 11
126.1265923028676
 21
60.40786763369872
 31
0.0
  0
LINE
  5
A76
330
1F
100
AcDbEntity
  8
0
  6
HIDDEN
 62
     8
100
AcDbLine
 10
126.9074143731097
 20
58.62455458933081
 30
0.0
 11
127.1577909376402
 21
58.61632795229079
 31
0.0
  0
LINE
  5
A77
330
1F
100
AcDbEntity
  8
0
  6
HIDDEN
 62
     8
100
AcDbLine
 10
127.7554985429448
 20
59.9293830447587
 30
0.0
 11
127.9092335132885
 21
59.92168885847262
 31
0.0
  0
LINE
  5
A78
330
1F
100
AcDbEntity
  8
0
  6
HIDDEN
 62
     8
100
AcDbLine
 10
126.1447478805488
 20
60.40711667553846
 30
0.0
 11
126.1356746398882
 21
60.40759830593136
 31
0.0
  0
LINE
  5
A79
330
1F
100
AcDbEntity
  8
0
  6
HIDDEN
 62
     8
100
AcDbLine
 10
126.6356612051137
 20
58.63910763560859
 30
0.0
 11
126.9074143731097
 21
58.62455458933081
 31
0.0
  0
LINE
  5
A7A
330
1F
100
AcDbEntity
  8
0
  6
HIDDEN
 62
     8
100
AcDbLine
 10
126.3643001950798
 20
58.65977444709921
 30
0.0
 11
126.6356612051137
 21
58.63910763560859
 31
0.0
  0
LINE
  5
A7B
330
1F
100
AcDbEntity
  8
0
  6
HIDDEN
 62
     8
100
AcDbLine
 10
126.1538074711941
 20
60.40642518047437
 30
0.0
 11
126.1447478805488
 21
60.40711667553846
 31
0.0
  0
LINE
  5
A7C
330
1F
100
AcDbEntity
  8
0
  6
HIDDEN
 62
     8
100
AcDbLine
 10
127.6019029034096
 20
59.94153226904685
 30
0.0
 11
127.7554985429448
 21
59.9293830447587
 31
0.0
  0
LINE
  5
A7D
330
1F
100
AcDbEntity
  8
0
  6
HIDDEN
 62
     8
100
AcDbLine
 10
126.1630600656571
 20
60.40550282273297
 30
0.0
 11
126.1538074711941
 21
60.40642518047437
 31
0.0
  0
LINE
  5
A7E
330
1F
100
AcDbEntity
  8
0
  6
HIDDEN
 62
     8
100
AcDbLine
 10
126.093452932674
 20
58.68684782018052
 30
0.0
 11
126.3643001950798
 21
58.65977444709921
 31
0.0
  0
LINE
  5
A7F
330
1F
100
AcDbEntity
  8
0
  6
HIDDEN
 62
     8
100
AcDbLine
 10
127.4956807306234
 20
59.95282479252182
 30
0.0
 11
127.6019029034096
 21
59.94153226904685
 31
0.0
  0
LINE
  5
A80
330
1F
100
AcDbEntity
  8
0
  6
HIDDEN
 62
     8
100
AcDbLine
 10
126.1722888955314
 20
60.40436611852429
 30
0.0
 11
126.1630600656571
 21
60.40550282273297
 31
0.0
  0
LINE
  5
A81
330
1F
100
AcDbEntity
  8
0
  6
HIDDEN
 62
     8
100
AcDbLine
 10
125.8232410115569
 20
58.72062055716712
 30
0.0
 11
126.093452932674
 21
58.68684782018052
 31
0.0
  0
LINE
  5
A82
330
1F
100
AcDbEntity
  8
0
  6
HIDDEN
 62
     8
100
AcDbLine
 10
127.3897191483183
 20
59.96672042262058
 30
0.0
 11
127.4956807306234
 21
59.95282479252182
 31
0.0
  0
LINE
  5
A83
330
1F
100
AcDbEntity
  8
0
  6
HIDDEN
 62
     8
100
AcDbLine
 10
126.1814892609138
 20
60.40301797161479
 30
0.0
 11
126.1722888955314
 21
60.40436611852429
 31
0.0
  0
LINE
  5
A84
330
1F
100
AcDbEntity
  8
0
  6
HIDDEN
 62
     8
100
AcDbLine
 10
125.621677336703
 20
58.75056042135501
 30
0.0
 11
125.8232410115569
 21
58.72062055716712
 31
0.0
  0
LINE
  5
A85
330
1F
100
AcDbEntity
  8
0
  6
HIDDEN
 62
     8
100
AcDbLine
 10
127.2841939094439
 20
59.98345055064575
 30
0.0
 11
127.3897191483183
 21
59.96672042262058
 31
0.0
  0
LINE
  5
A86
330
1F
100
AcDbEntity
  8
0
  6
HIDDEN
 62
     8
100
AcDbLine
 10
126.1908940124345
 20
60.40141816185322
 30
0.0
 11
126.1814892609138
 21
60.40301797161479
 31
0.0
  0
LINE
  5
A87
330
1F
100
AcDbEntity
  8
0
  6
HIDDEN
 62
     8
100
AcDbLine
 10
125.4209286178934
 20
58.78528071615973
 30
0.0
 11
125.621677336703
 21
58.75056042135501
 31
0.0
  0
LINE
  5
A88
330
1F
100
AcDbEntity
  8
0
  6
HIDDEN
 62
     8
100
AcDbLine
 10
127.1792807725315
 20
60.00324657363117
 30
0.0
 11
127.2841939094439
 21
59.98345055064575
 31
0.0
  0
LINE
  5
A89
330
1F
100
AcDbEntity
  8
0
  6
HIDDEN
 62
     8
100
AcDbLine
 10
126.2002594269673
 20
60.39960219329561
 30
0.0
 11
126.1908940124345
 21
60.40141816185322
 31
0.0
  0
LINE
  5
A8A
330
1F
100
AcDbEntity
  8
0
  6
HIDDEN
 62
     8
100
AcDbLine
 10
125.2213863473692
 20
58.82565011559465
 30
0.0
 11
125.4209286178934
 21
58.78528071615973
 31
0.0
  0
LINE
  5
A8B
330
1F
100
AcDbEntity
  8
0
  6
HIDDEN
 62
     8
100
AcDbLine
 10
126.2095810724715
 20
60.39757341905652
 30
0.0
 11
126.2002594269673
 21
60.39960219329561
 31
0.0
  0
LINE
  5
A8C
330
1F
100
AcDbEntity
  8
0
  6
HIDDEN
 62
     8
100
AcDbLine
 10
127.0751554909412
 20
60.02633988605298
 30
0.0
 11
127.1792807725315
 21
60.00324657363117
 31
0.0
  0
LINE
  5
A8D
330
1F
100
AcDbEntity
  8
0
  6
HIDDEN
 62
     8
100
AcDbLine
 10
125.0234420215164
 20
58.87253728829685
 30
0.0
 11
125.2213863473692
 21
58.82565011559465
 31
0.0
  0
LINE
  5
A8E
330
1F
100
AcDbEntity
  8
0
  6
HIDDEN
 62
     8
100
AcDbLine
 10
126.2190879200006
 20
60.39527605852264
 30
0.0
 11
126.2095810724715
 21
60.39757341905652
 31
0.0
  0
LINE
  5
A8F
330
1F
100
AcDbEntity
  8
0
  6
HIDDEN
 62
     8
100
AcDbLine
 10
126.9719938212068
 20
60.05296188197674
 30
0.0
 11
127.0751554909412
 21
60.02633988605298
 31
0.0
  0
LINE
  5
A90
330
1F
100
AcDbEntity
  8
0
  6
HIDDEN
 62
     8
100
AcDbLine
 10
126.2285398756913
 20
60.39276227177946
 30
0.0
 11
126.2190879200006
 21
60.39527605852264
 31
0.0
  0
LINE
  5
A91
330
1F
100
AcDbEntity
  8
0
  6
HIDDEN
 62
     8
100
AcDbLine
 10
124.8655580210764
 20
58.9155968294765
 30
0.0
 11
125.0234420215164
 21
58.87253728829685
 31
0.0
  0
LINE
  5
A92
330
1F
100
AcDbEntity
  8
0
  6
HIDDEN
 62
     8
100
AcDbLine
 10
126.237932714325
 20
60.39003578851948
 30
0.0
 11
126.2285398756913
 21
60.39276227177946
 31
0.0
  0
LINE
  5
A93
330
1F
100
AcDbEntity
  8
0
  6
HIDDEN
 62
     8
100
AcDbLine
 10
126.8699715182753
 20
60.08334395567331
 30
0.0
 11
126.9719938212068
 21
60.05296188197674
 31
0.0
  0
LINE
  5
A94
330
1F
100
AcDbEntity
  8
0
  6
HIDDEN
 62
     8
100
AcDbLine
 10
124.7091667555986
 20
58.96389374066477
 30
0.0
 11
124.8655580210764
 21
58.9155968294765
 31
0.0
  0
LINE
  5
A95
330
1F
100
AcDbEntity
  8
0
  6
HIDDEN
 62
     8
100
AcDbLine
 10
126.247511607398
 20
60.38701877385399
 30
0.0
 11
126.237932714325
 21
60.39003578851948
 31
0.0
  0
LINE
  5
A96
330
1F
100
AcDbEntity
  8
0
  6
HIDDEN
 62
     8
100
AcDbLine
 10
126.7816516495081
 20
60.11323878202339
 30
0.0
 11
126.8699715182753
 21
60.08334395567331
 31
0.0
  0
LINE
  5
A97
330
1F
100
AcDbEntity
  8
0
  6
HIDDEN
 62
     8
100
AcDbLine
 10
126.2570197097315
 20
60.38378549888652
 30
0.0
 11
126.247511607398
 21
60.38701877385399
 31
0.0
  0
LINE
  5
A98
330
1F
100
AcDbEntity
  8
0
  6
HIDDEN
 62
     8
100
AcDbLine
 10
124.5544723154594
 20
59.01788087334978
 30
0.0
 11
124.7091667555986
 21
58.96389374066477
 31
0.0
  0
LINE
  5
A99
330
1F
100
AcDbEntity
  8
0
  6
HIDDEN
 62
     8
100
AcDbLine
 10
126.2664530150464
 20
60.38034002637335
 30
0.0
 11
126.2570197097315
 21
60.38378549888652
 31
0.0
  0
LINE
  5
A9A
330
1F
100
AcDbEntity
  8
0
  6
HIDDEN
 62
     8
100
AcDbLine
 10
126.6944597434063
 20
60.14635384325401
 30
0.0
 11
126.7816516495081
 21
60.11323878202339
 31
0.0
  0
LINE
  5
A9B
330
1F
100
AcDbEntity
  8
0
  6
HIDDEN
 62
     8
100
AcDbLine
 10
126.2760393104461
 20
60.37659289244186
 30
0.0
 11
126.2664530150464
 21
60.38034002637335
 31
0.0
  0
LINE
  5
A9C
330
1F
100
AcDbEntity
  8
0
  6
HIDDEN
 62
     8
100
AcDbLine
 10
124.4016787950295
 20
59.07801108495611
 30
0.0
 11
124.5544723154594
 21
59.01788087334978
 31
0.0
  0
LINE
  5
A9D
330
1F
100
AcDbEntity
  8
0
  6
HIDDEN
 62
     8
100
AcDbLine
 10
126.2855390707089
 20
60.37263144460753
 30
0.0
 11
126.2760393104461
 21
60.37659289244186
 31
0.0
  0
LINE
  5
A9E
330
1F
100
AcDbEntity
  8
0
  6
HIDDEN
 62
     8
100
AcDbLine
 10
126.608514037146
 20
60.18284481349128
 30
0.0
 11
126.6944597434063
 21
60.14635384325401
 31
0.0
  0
LINE
  5
A9F
330
1F
100
AcDbEntity
  8
0
  6
HIDDEN
 62
     8
100
AcDbLine
 10
124.2509902864776
 20
59.14473722835335
 30
0.0
 11
124.4016787950295
 21
59.07801108495611
 31
0.0
  0
LINE
  5
AA0
330
1F
100
AcDbEntity
  8
0
  6
HIDDEN
 62
     8
100
AcDbLine
 10
126.2949485341114
 20
60.36845998986994
 30
0.0
 11
126.2855390707089
 21
60.37263144460753
 31
0.0
  0
LINE
  5
AA1
330
1F
100
AcDbEntity
  8
0
  6
HIDDEN
 62
     8
100
AcDbLine
 10
124.2400142125297
 20
59.14973021752091
 30
0.0
 11
124.2509902864776
 21
59.14473722835335
 31
0.0
  0
LINE
  5
AA2
330
1F
100
AcDbEntity
  8
0
  6
HIDDEN
 62
     8
100
AcDbLine
 10
126.3044963271312
 20
60.36397046053057
 30
0.0
 11
126.2949485341114
 21
60.36845998986994
 31
0.0
  0
LINE
  5
AA3
330
1F
100
AcDbEntity
  8
0
  6
HIDDEN
 62
     8
100
AcDbLine
 10
126.5239327718426
 20
60.22286735989843
 30
0.0
 11
126.608514037146
 21
60.18284481349128
 31
0.0
  0
LINE
  5
AA4
330
1F
100
AcDbEntity
  8
0
  6
HIDDEN
 62
     8
100
AcDbLine
 10
124.2291420738659
 20
59.15494565467264
 30
0.0
 11
124.2400142125297
 21
59.14973021752091
 31
0.0
  0
LINE
  5
AA5
330
1F
100
AcDbEntity
  8
0
  6
HIDDEN
 62
     8
100
AcDbLine
 10
126.3139417226018
 20
60.35926927268717
 30
0.0
 11
126.3044963271312
 21
60.36397046053057
 31
0.0
  0
LINE
  5
AA6
330
1F
100
AcDbEntity
  8
0
  6
HIDDEN
 62
     8
100
AcDbLine
 10
126.3232811621778
 20
60.35436090869625
 30
0.0
 11
126.3139417226018
 21
60.35926927268717
 31
0.0
  0
LINE
  5
AA7
330
1F
100
AcDbEntity
  8
0
  6
HIDDEN
 62
     8
100
AcDbLine
 10
126.4408341842617
 20
60.26657715342809
 30
0.0
 11
126.5239327718426
 21
60.22286735989843
 31
0.0
  0
LINE
  5
AA8
330
1F
100
AcDbEntity
  8
0
  6
HIDDEN
 62
     8
100
AcDbLine
 10
126.3327189480835
 20
60.34913172584808
 30
0.0
 11
126.3232811621778
 21
60.35436090869625
 31
0.0
  0
LINE
  5
AA9
330
1F
100
AcDbEntity
  8
0
  6
HIDDEN
 62
     8
100
AcDbLine
 10
126.3420388250376
 20
60.34369514331263
 30
0.0
 11
126.3327189480835
 21
60.34913172584808
 31
0.0
  0
LINE
  5
AAA
330
1F
100
AcDbEntity
  8
0
  6
HIDDEN
 62
     8
100
AcDbLine
 10
126.3512374162911
 20
60.33805573772766
 30
0.0
 11
126.3420388250376
 21
60.34369514331263
 31
0.0
  0
LINE
  5
AAB
330
1F
100
AcDbEntity
  8
0
  6
HIDDEN
 62
     8
100
AcDbLine
 10
126.3604981863242
 20
60.33209494063901
 30
0.0
 11
126.3512374162911
 21
60.33805573772766
 31
0.0
  0
LINE
  5
AAC
330
1F
100
AcDbEntity
  8
0
  6
HIDDEN
 62
     8
100
AcDbLine
 10
126.3696258177195
 20
60.32593218268857
 30
0.0
 11
126.3604981863242
 21
60.33209494063901
 31
0.0
  0
LINE
  5
AAD
330
1F
100
AcDbEntity
  8
0
  6
HIDDEN
 62
     8
100
AcDbLine
 10
126.3786170661572
 20
60.31957205403604
 30
0.0
 11
126.3696258177195
 21
60.32593218268857
 31
0.0
  0
LINE
  5
AAE
330
1F
100
AcDbEntity
  8
0
  6
HIDDEN
 62
     8
100
AcDbLine
 10
126.3876200721835
 20
60.31290446656211
 30
0.0
 11
126.3786170661572
 21
60.31957205403604
 31
0.0
  0
LINE
  5
AAF
330
1F
100
AcDbEntity
  8
0
  6
HIDDEN
 62
     8
100
AcDbLine
 10
126.396475396172
 20
60.30604193323076
 30
0.0
 11
126.3876200721835
 21
60.31290446656211
 31
0.0
  0
LINE
  5
AB0
330
1F
100
AcDbEntity
  8
0
  6
HIDDEN
 62
     8
100
AcDbLine
 10
126.4051798499394
 20
60.29898899176628
 30
0.0
 11
126.396475396172
 21
60.30604193323076
 31
0.0
  0
LINE
  5
AB1
330
1F
100
AcDbEntity
  8
0
  6
HIDDEN
 62
     8
100
AcDbLine
 10
126.4138364710471
 20
60.29165820931902
 30
0.0
 11
126.4051798499394
 21
60.29898899176628
 31
0.0
  0
LINE
  5
AB2
330
1F
100
AcDbEntity
  8
0
  6
HIDDEN
 62
     8
100
AcDbLine
 10
126.4223319531572
 20
60.28414127211203
 30
0.0
 11
126.4138364710471
 21
60.29165820931902
 31
0.0
  0
LINE
  5
AB3
330
1F
100
AcDbEntity
  8
0
  6
HIDDEN
 62
     8
100
AcDbLine
 10
126.4306631041539
 20
60.27644258769845
 30
0.0
 11
126.4223319531572
 21
60.28414127211203
 31
0.0
  0
LINE
  5
AB4
330
1F
100
AcDbEntity
  8
0
  6
HIDDEN
 62
     8
100
AcDbLine
 10
126.4357817071019
 20
60.27154395525728
 30
0.0
 11
126.4306631041539
 21
60.27644258769845
 31
0.0
  0
LINE
  5
AB5
330
1F
100
AcDbEntity
  8
0
  6
HIDDEN
 62
     8
100
AcDbLine
 10
126.4408341842617
 20
60.26657715342809
 30
0.0
 11
126.4357817071019
 21
60.27154395525728
 31
0.0
  0
LINE
  5
AB6
330
1F
100
AcDbEntity
  8
0
  6
HIDDEN
 62
     8
100
AcDbLine
 10
135.1857995053506
 20
60.01846903751275
 30
0.0
 11
135.1886245172665
 21
60.02795036676691
 31
0.0
  0
LINE
  5
AB7
330
1F
100
AcDbEntity
  8
0
  6
HIDDEN
 62
     8
100
AcDbLine
 10
135.1827639335665
 20
60.00905307806779
 30
0.0
 11
135.1857995053506
 21
60.01846903751275
 31
0.0
  0
LINE
  5
AB8
330
1F
100
AcDbEntity
  8
0
  6
HIDDEN
 62
     8
100
AcDbLine
 10
135.1794114076036
 20
59.9993972283808
 30
0.0
 11
135.1827639335665
 21
60.00905307806779
 31
0.0
  0
LINE
  5
AB9
330
1F
100
AcDbEntity
  8
0
  6
HIDDEN
 62
     8
100
AcDbLine
 10
135.1758439851874
 20
59.98981855926389
 30
0.0
 11
135.1794114076036
 21
59.9993972283808
 31
0.0
  0
LINE
  5
ABA
330
1F
100
AcDbEntity
  8
0
  6
HIDDEN
 62
     8
100
AcDbLine
 10
135.1720666098434
 20
59.98032066459076
 30
0.0
 11
135.1758439851874
 21
59.98981855926389
 31
0.0
  0
LINE
  5
ABB
330
1F
100
AcDbEntity
  8
0
  6
HIDDEN
 62
     8
100
AcDbLine
 10
135.1679451833611
 20
59.97058838394391
 30
0.0
 11
135.1720666098434
 21
59.98032066459076
 31
0.0
  0
LINE
  5
ABC
330
1F
100
AcDbEntity
  8
0
  6
HIDDEN
 62
     8
100
AcDbLine
 10
135.1636097232802
 20
59.96094954434191
 30
0.0
 11
135.1679451833611
 21
59.97058838394391
 31
0.0
  0
LINE
  5
ABD
330
1F
100
AcDbEntity
  8
0
  6
HIDDEN
 62
     8
100
AcDbLine
 10
135.1590653876931
 20
59.95140737794163
 30
0.0
 11
135.1636097232802
 21
59.96094954434191
 31
0.0
  0
LINE
  5
ABE
330
1F
100
AcDbEntity
  8
0
  6
HIDDEN
 62
     8
100
AcDbLine
 10
135.1541658053119
 20
59.9416718505288
 30
0.0
 11
135.1590653876931
 21
59.95140737794163
 31
0.0
  0
LINE
  5
ABF
330
1F
100
AcDbEntity
  8
0
  6
HIDDEN
 62
     8
100
AcDbLine
 10
135.149054897378
 20
59.93204554716257
 30
0.0
 11
135.1541658053119
 21
59.9416718505288
 31
0.0
  0
LINE
  5
AC0
330
1F
100
AcDbEntity
  8
0
  6
HIDDEN
 62
     8
100
AcDbLine
 10
135.1437379653837
 20
59.92253144912928
 30
0.0
 11
135.149054897378
 21
59.93204554716257
 31
0.0
  0
LINE
  5
AC1
330
1F
100
AcDbEntity
  8
0
  6
HIDDEN
 62
     8
100
AcDbLine
 10
135.1380455701165
 20
59.9128421498089
 30
0.0
 11
135.1437379653837
 21
59.92253144912928
 31
0.0
  0
LINE
  5
AC2
330
1F
100
AcDbEntity
  8
0
  6
HIDDEN
 62
     8
100
AcDbLine
 10
135.1321451981823
 20
59.90327804728893
 30
0.0
 11
135.1380455701165
 21
59.9128421498089
 31
0.0
  0
LINE
  5
AC3
330
1F
100
AcDbEntity
  8
0
  6
HIDDEN
 62
     8
100
AcDbLine
 10
135.1260422661166
 20
59.89384187726681
 30
0.0
 11
135.1321451981823
 21
59.90327804728893
 31
0.0
  0
LINE
  5
AC4
330
1F
100
AcDbEntity
  8
0
  6
CONTINUOUS
 62
     7
100
AcDbLine
 10
91.94305857626499
 20
61.6279065142768
 30
0.0
 11
98.26408007861317
 21
61.62790666512801
 31
0.0
  0
LINE
  5
AC5
330
1F
100
AcDbEntity
  8
0
  6
CONTINUOUS
 62
     7
100
AcDbLine
 10
162.338131761244
 20
61.62790819424659
 30
0.0
 11
163.7466139202221
 21
61.62790822728687
 31
0.0
  0
LINE
  5
AC7
330
1F
100
AcDbEntity
  8
0
  6
CONTINUOUS
 62
     7
100
AcDbLine
 10
92.4043955075175
 20
63.44047688147701
 30
0.0
 11
94.04600620640843
 21
63.44047692055379
 31
0.0
  0
LINE
  5
AC8
330
1F
100
AcDbEntity
  8
0
  6
CONTINUOUS
 62
     7
100
AcDbLine
 10
156.1560911553862
 20
63.44047840390135
 30
0.0
 11
162.0650109641631
 21
63.44047854479391
 31
0.0
  0
LINE
  5
AC9
330
1F
100
AcDbEntity
  8
0
  6
CONTINUOUS
 62
     7
100
AcDbLine
 10
94.04600620163739
 20
63.62797692124214
 30
0.0
 11
92.34712480419766
 21
63.62797688126453
 31
0.0
  0
LINE
  5
ACA
330
1F
100
AcDbEntity
  8
0
  6
CONTINUOUS
 62
     7
100
AcDbLine
 10
113.8449951503015
 20
63.62797739315869
 30
0.0
 11
163.3425475967553
 21
63.62797857503824
 31
0.0
  0
LINE
  5
ACB
330
1F
100
AcDbEntity
  8
0
  6
HIDDEN
 62
     8
100
AcDbLine
 10
134.6986571340198
 20
60.85512788279948
 30
0.0
 11
134.6772763964926
 21
60.85560924466232
 31
0.0
  0
LINE
  5
ACC
330
1F
100
AcDbEntity
  8
0
  6
HIDDEN
 62
     8
100
AcDbLine
 10
134.7200127548407
 20
60.85399760956221
 30
0.0
 11
134.6986571340198
 21
60.85512788279948
 31
0.0
  0
LINE
  5
ACD
330
1F
100
AcDbEntity
  8
0
  6
HIDDEN
 62
     8
100
AcDbLine
 10
134.7405744121225
 20
60.85227767313405
 30
0.0
 11
134.7200127548407
 21
60.85399760956221
 31
0.0
  0
LINE
  5
ACE
330
1F
100
AcDbEntity
  8
0
  6
HIDDEN
 62
     8
100
AcDbLine
 10
134.7610734678151
 20
60.84992619234165
 30
0.0
 11
134.7405744121225
 21
60.85227767313405
 31
0.0
  0
LINE
  5
ACF
330
1F
100
AcDbEntity
  8
0
  6
HIDDEN
 62
     8
100
AcDbLine
 10
134.7808220258922
 20
60.84703865896337
 30
0.0
 11
134.7610734678151
 21
60.84992619234165
 31
0.0
  0
LINE
  5
AD0
330
1F
100
AcDbEntity
  8
0
  6
HIDDEN
 62
     8
100
AcDbLine
 10
134.8004709261059
 20
60.8435374429311
 30
0.0
 11
134.7808220258922
 21
60.84703865896337
 31
0.0
  0
LINE
  5
AD1
330
1F
100
AcDbEntity
  8
0
  6
HIDDEN
 62
     8
100
AcDbLine
 10
134.8193879395756
 20
60.83955127775748
 30
0.0
 11
134.8004709261059
 21
60.8435374429311
 31
0.0
  0
LINE
  5
AD2
330
1F
100
AcDbEntity
  8
0
  6
HIDDEN
 62
     8
100
AcDbLine
 10
134.8381699732165
 20
60.83497146146962
 30
0.0
 11
134.8193879395756
 21
60.83955127775748
 31
0.0
  0
LINE
  5
AD3
330
1F
100
AcDbEntity
  8
0
  6
HIDDEN
 62
     8
100
AcDbLine
 10
134.8562807249618
 20
60.82994231433566
 30
0.0
 11
134.8381699732165
 21
60.83497146146962
 31
0.0
  0
LINE
  5
AD4
330
1F
100
AcDbEntity
  8
0
  6
HIDDEN
 62
     8
100
AcDbLine
 10
134.8742220749127
 20
60.82433908433384
 30
0.0
 11
134.8562807249618
 21
60.82994231433566
 31
0.0
  0
LINE
  5
AD5
330
1F
100
AcDbEntity
  8
0
  6
HIDDEN
 62
     8
100
AcDbLine
 10
134.8915071786977
 20
60.81832715102912
 30
0.0
 11
134.8742220749127
 21
60.82433908433384
 31
0.0
  0
LINE
  5
AD6
330
1F
100
AcDbEntity
  8
0
  6
CONTINUOUS
 62
     7
100
AcDbLine
 10
147.189869369409
 20
44.0667968917831
 30
0.0
 11
147.5438551029317
 21
43.70120150256953
 31
0.0
  0
LINE
  5
AD7
330
1F
100
AcDbEntity
  8
0
  6
CONTINUOUS
 62
     7
100
AcDbLine
 10
147.6764376209233
 20
43.83378402764113
 30
0.0
 11
147.3224518889874
 21
44.19937941664942
 31
0.0
  0
LINE
  5
AD8
330
1F
100
AcDbEntity
  8
0
  6
HIDDEN
 62
     8
100
AcDbLine
 10
135.2327452466293
 20
60.28368938540949
 30
0.0
 11
135.2335387894562
 21
60.30316196724105
 31
0.0
  0
LINE
  5
AD9
330
1F
100
AcDbEntity
  8
0
  6
HIDDEN
 62
     8
100
AcDbLine
 10
135.2313075911086
 20
60.26374833452654
 30
0.0
 11
135.2327452466293
 21
60.28368938540949
 31
0.0
  0
LINE
  5
ADA
330
1F
100
AcDbEntity
  8
0
  6
HIDDEN
 62
     8
100
AcDbLine
 10
135.229250617023
 20
60.24386101785563
 30
0.0
 11
135.2313075911086
 21
60.26374833452654
 31
0.0
  0
LINE
  5
ADB
330
1F
100
AcDbEntity
  8
0
  6
HIDDEN
 62
     8
100
AcDbLine
 10
135.2265084989186
 20
60.22352292078938
 30
0.0
 11
135.229250617023
 21
60.24386101785563
 31
0.0
  0
LINE
  5
ADC
330
1F
100
AcDbEntity
  8
0
  6
HIDDEN
 62
     8
100
AcDbLine
 10
135.2231418045568
 20
60.20328081204777
 30
0.0
 11
135.2265084989186
 21
60.22352292078938
 31
0.0
  0
LINE
  5
ADD
330
1F
100
AcDbEntity
  8
0
  6
HIDDEN
 62
     8
100
AcDbLine
 10
135.2040220704401
 20
60.09983229137451
 30
0.0
 11
135.2231418045568
 21
60.20328081204777
 31
0.0
  0
LINE
  5
ADE
330
1F
100
AcDbEntity
  8
0
  6
HIDDEN
 62
     8
100
AcDbLine
 10
135.1975442061164
 20
60.06548781344131
 30
0.0
 11
135.2040220704401
 21
60.09983229137451
 31
0.0
  0
LINE
  5
ADF
330
1F
100
AcDbEntity
  8
0
  6
HIDDEN
 62
     8
100
AcDbLine
 10
135.1956539034893
 20
60.05611022856237
 30
0.0
 11
135.1975442061164
 21
60.06548781344131
 31
0.0
  0
LINE
  5
AE0
330
1F
100
AcDbEntity
  8
0
  6
HIDDEN
 62
     8
100
AcDbLine
 10
135.1935491308136
 20
60.04677712815288
 30
0.0
 11
135.1956539034893
 21
60.05611022856237
 31
0.0
  0
LINE
  5
AE1
330
1F
100
AcDbEntity
  8
0
  6
HIDDEN
 62
     8
100
AcDbLine
 10
135.1912343619021
 20
60.03749350107586
 30
0.0
 11
135.1935491308136
 21
60.04677712815288
 31
0.0
  0
LINE
  5
AE2
330
1F
100
AcDbEntity
  8
0
  6
HIDDEN
 62
     8
100
AcDbLine
 10
135.1886245172665
 20
60.02795036676691
 30
0.0
 11
135.1912343619021
 21
60.03749350107586
 31
0.0
  0
LINE
  5
AE3
330
1F
100
AcDbEntity
  8
CENTER
100
AcDbLine
 10
152.2788735781691
 20
60.40205362553252
 30
0.0
 11
158.2964299591257
 21
59.55634137555273
 31
0.0
  0
LINE
  5
AE4
330
1F
100
AcDbEntity
  8
0
  6
HIDDEN
 62
     8
100
AcDbLine
 10
134.9085901587474
 20
60.81176306935397
 30
0.0
 11
134.8915071786977
 21
60.81832715102912
 31
0.0
  0
LINE
  5
AE5
330
1F
100
AcDbEntity
  8
0
  6
HIDDEN
 62
     8
100
AcDbLine
 10
134.9250814486524
 20
60.80480697211972
 30
0.0
 11
134.9085901587474
 21
60.81176306935397
 31
0.0
  0
LINE
  5
AE6
330
1F
100
AcDbEntity
  8
0
  6
HIDDEN
 62
     8
100
AcDbLine
 10
134.9413384258726
 20
60.79731976765019
 30
0.0
 11
134.9250814486524
 21
60.80480697211972
 31
0.0
  0
LINE
  5
AE7
330
1F
100
AcDbEntity
  8
0
  6
HIDDEN
 62
     8
100
AcDbLine
 10
134.9570168883676
 20
60.78947027414738
 30
0.0
 11
134.9413384258726
 21
60.79731976765019
 31
0.0
  0
LINE
  5
AE8
330
1F
100
AcDbEntity
  8
0
  6
HIDDEN
 62
     8
100
AcDbLine
 10
134.9724306012846
 20
60.78111299662463
 30
0.0
 11
134.9570168883676
 21
60.78947027414738
 31
0.0
  0
LINE
  5
AE9
330
1F
100
AcDbEntity
  8
0
  6
HIDDEN
 62
     8
100
AcDbLine
 10
134.9873077710013
 20
60.77240363691441
 30
0.0
 11
134.9724306012846
 21
60.78111299662463
 31
0.0
  0
LINE
  5
AEA
330
1F
100
AcDbEntity
  8
0
  6
HIDDEN
 62
     8
100
AcDbLine
 10
135.0018906321097
 20
60.76321006744951
 30
0.0
 11
134.9873077710013
 21
60.77240363691441
 31
0.0
  0
LINE
  5
AEB
330
1F
100
AcDbEntity
  8
0
  6
HIDDEN
 62
     8
100
AcDbLine
 10
135.0159717732075
 20
60.7536695619116
 30
0.0
 11
135.0018906321097
 21
60.76321006744951
 31
0.0
  0
LINE
  5
AEC
330
1F
100
AcDbEntity
  8
0
  6
HIDDEN
 62
     8
100
AcDbLine
 10
135.0297298961042
 20
60.74366893858462
 30
0.0
 11
135.0159717732075
 21
60.7536695619116
 31
0.0
  0
LINE
  5
AED
330
1F
100
AcDbEntity
  8
0
  6
HIDDEN
 62
     8
100
AcDbLine
 10
135.0429974360165
 20
60.73333612179974
 30
0.0
 11
135.0297298961042
 21
60.74366893858462
 31
0.0
  0
LINE
  5
AEE
330
1F
100
AcDbEntity
  8
0
  6
HIDDEN
 62
     8
100
AcDbLine
 10
135.0559150844599
 20
60.72256912767715
 30
0.0
 11
135.0429974360165
 21
60.73333612179974
 31
0.0
  0
LINE
  5
AEF
330
1F
100
AcDbEntity
  8
0
  6
HIDDEN
 62
     8
100
AcDbLine
 10
135.0683874152728
 20
60.71145011135411
 30
0.0
 11
135.0559150844599
 21
60.72256912767715
 31
0.0
  0
LINE
  5
AF0
330
1F
100
AcDbEntity
  8
0
  6
HIDDEN
 62
     8
100
AcDbLine
 10
135.0804827961392
 20
60.69992219966448
 30
0.0
 11
135.0683874152728
 21
60.71145011135411
 31
0.0
  0
LINE
  5
AF1
330
1F
100
AcDbEntity
  8
0
  6
HIDDEN
 62
     8
100
AcDbLine
 10
135.0921291967722
 20
60.68805685462496
 30
0.0
 11
135.0804827961392
 21
60.69992219966448
 31
0.0
  0
LINE
  5
AF2
330
1F
100
AcDbEntity
  8
0
  6
HIDDEN
 62
     8
100
AcDbLine
 10
135.103373952035
 20
60.67581021216277
 30
0.0
 11
135.0921291967722
 21
60.68805685462496
 31
0.0
  0
LINE
  5
AF3
330
1F
100
AcDbEntity
  8
0
  6
HIDDEN
 62
     8
100
AcDbLine
 10
135.1141970589917
 20
60.66320352940353
 30
0.0
 11
135.103373952035
 21
60.67581021216277
 31
0.0
  0
LINE
  5
AF4
330
1F
100
AcDbEntity
  8
0
  6
HIDDEN
 62
     8
100
AcDbLine
 10
135.2187004239982
 20
60.45102400440237
 30
0.0
 11
135.2143440857936
 21
60.46832793253121
 31
0.0
  0
LINE
  5
AF5
330
1F
100
AcDbEntity
  8
0
  6
HIDDEN
 62
     8
100
AcDbLine
 10
135.2224935629497
 20
60.43358789674313
 30
0.0
 11
135.2187004239982
 21
60.45102400440237
 31
0.0
  0
LINE
  5
AF6
330
1F
100
AcDbEntity
  8
0
  6
HIDDEN
 62
     8
100
AcDbLine
 10
135.2257872600648
 20
60.41567850703117
 30
0.0
 11
135.2224935629497
 21
60.43358789674313
 31
0.0
  0
LINE
  5
AF7
330
1F
100
AcDbEntity
  8
0
  6
HIDDEN
 62
     8
100
AcDbLine
 10
135.2285026108176
 20
60.39767228517987
 30
0.0
 11
135.2257872600648
 21
60.41567850703117
 31
0.0
  0
LINE
  5
AF8
330
1F
100
AcDbEntity
  8
0
  6
HIDDEN
 62
     8
100
AcDbLine
 10
135.2306836590881
 20
60.37921047995256
 30
0.0
 11
135.2285026108176
 21
60.39767228517987
 31
0.0
  0
LINE
  5
AF9
330
1F
100
AcDbEntity
  8
0
  6
HIDDEN
 62
     8
100
AcDbLine
 10
135.2322743317162
 20
60.36068840643024
 30
0.0
 11
135.2306836590881
 21
60.37921047995256
 31
0.0
  0
LINE
  5
AFA
330
1F
100
AcDbEntity
  8
0
  6
HIDDEN
 62
     8
100
AcDbLine
 10
135.2332989987395
 20
60.34168067230421
 30
0.0
 11
135.2322743317162
 21
60.36068840643024
 31
0.0
  0
LINE
  5
AFB
330
1F
100
AcDbEntity
  8
0
  6
HIDDEN
 62
     8
100
AcDbLine
 10
135.2337211516199
 20
60.32264991093625
 30
0.0
 11
135.2332989987395
 21
60.34168067230421
 31
0.0
  0
LINE
  5
AFC
330
1F
100
AcDbEntity
  8
0
  6
HIDDEN
 62
     8
100
AcDbLine
 10
135.2335387894562
 20
60.30316196724105
 30
0.0
 11
135.2337211516199
 21
60.32264991093625
 31
0.0
  0
LINE
  5
AFD
330
1F
100
AcDbEntity
  8
0
  6
HIDDEN
 62
     8
100
AcDbLine
 10
135.1245939615064
 20
60.65024310371334
 30
0.0
 11
135.1141970589917
 21
60.66320352940353
 31
0.0
  0
LINE
  5
AFE
330
1F
100
AcDbEntity
  8
0
  6
HIDDEN
 62
     8
100
AcDbLine
 10
135.1345748199297
 20
60.63691380413864
 30
0.0
 11
135.1245939615064
 21
60.65024310371334
 31
0.0
  0
LINE
  5
AFF
330
1F
100
AcDbEntity
  8
0
  6
HIDDEN
 62
     8
100
AcDbLine
 10
135.1441061446994
 20
60.62325942994525
 30
0.0
 11
135.1345748199297
 21
60.63691380413864
 31
0.0
  0
LINE
  5
B00
330
1F
100
AcDbEntity
  8
0
  6
HIDDEN
 62
     8
100
AcDbLine
 10
135.1532159994349
 20
60.60923615455848
 30
0.0
 11
135.1441061446994
 21
60.62325942994525
 31
0.0
  0
LINE
  5
B01
330
1F
100
AcDbEntity
  8
0
  6
HIDDEN
 62
     8
100
AcDbLine
 10
135.161854983897
 20
60.59491797040276
 30
0.0
 11
135.1532159994349
 21
60.60923615455848
 31
0.0
  0
LINE
  5
B02
330
1F
100
AcDbEntity
  8
0
  6
HIDDEN
 62
     8
100
AcDbLine
 10
135.1700854468678
 20
60.58019233566504
 30
0.0
 11
135.161854983897
 21
60.59491797040276
 31
0.0
  0
LINE
  5
B03
330
1F
100
AcDbEntity
  8
0
  6
HIDDEN
 62
     8
100
AcDbLine
 10
135.1778232527339
 20
60.56520193235563
 30
0.0
 11
135.1700854468678
 21
60.58019233566504
 31
0.0
  0
LINE
  5
B04
330
1F
100
AcDbEntity
  8
0
  6
HIDDEN
 62
     8
100
AcDbLine
 10
135.1851316861552
 20
60.54981424069912
 30
0.0
 11
135.1778232527339
 21
60.56520193235563
 31
0.0
  0
LINE
  5
B05
330
1F
100
AcDbEntity
  8
0
  6
HIDDEN
 62
     8
100
AcDbLine
 10
135.1919285367176
 20
60.53419379630868
 30
0.0
 11
135.1851316861552
 21
60.54981424069912
 31
0.0
  0
LINE
  5
B06
330
1F
100
AcDbEntity
  8
0
  6
HIDDEN
 62
     8
100
AcDbLine
 10
135.1982941307622
 20
60.51813855209778
 30
0.0
 11
135.1919285367176
 21
60.53419379630868
 31
0.0
  0
LINE
  5
B07
330
1F
100
AcDbEntity
  8
0
  6
HIDDEN
 62
     8
100
AcDbLine
 10
135.2041289816374
 20
60.50188285301351
 30
0.0
 11
135.1982941307622
 21
60.51813855209778
 31
0.0
  0
LINE
  5
B08
330
1F
100
AcDbEntity
  8
0
  6
HIDDEN
 62
     8
100
AcDbLine
 10
135.2095104887816
 20
60.48518881935883
 30
0.0
 11
135.2041289816374
 21
60.50188285301351
 31
0.0
  0
LINE
  5
B09
330
1F
100
AcDbEntity
  8
0
  6
HIDDEN
 62
     8
100
AcDbLine
 10
135.2143440857936
 20
60.46832793253121
 30
0.0
 11
135.2095104887816
 21
60.48518881935883
 31
0.0
  0
LINE
  5
B0A
330
1F
100
AcDbEntity
  8
0
  6
CONTINUOUS
 62
     7
100
AcDbLine
 10
143.7571119941986
 20
44.21513840400362
 30
0.0
 11
143.0573555083379
 21
43.00312454959268
 31
0.0
  0
LINE
  5
B0C
330
1F
100
AcDbEntity
  8
0
  6
CONTINUOUS
 62
     7
100
AcDbLine
 10
150.6114188570851
 20
44.14407584538203
 30
0.0
 11
150.3078481770231
 21
43.83378409067027
 31
0.0
  0
LINE
  5
B0D
330
1F
100
AcDbEntity
  8
0
  6
CONTINUOUS
 62
     7
100
AcDbLine
 10
150.4404307020947
 20
43.70120157267864
 30
0.0
 11
150.74400138057
 21
44.01149332759567
 31
0.0
  0
LINE
  5
B0E
330
1F
100
AcDbEntity
  8
0
  6
CONTINUOUS
 62
     7
100
AcDbLine
 10
155.5371736212184
 20
63.08996157748201
 30
0.0
 11
153.1938914559049
 21
46.41663972204591
 31
0.0
  0
LINE
  5
B0F
330
1F
100
AcDbEntity
  8
0
  6
CONTINUOUS
 62
     7
100
AcDbLine
 10
153.3795667193624
 20
46.39054477095905
 30
0.0
 11
155.7228488844706
 21
63.06386662480836
 31
0.0
  0
LINE
  5
B10
330
1F
100
AcDbEntity
  8
0
  6
CONTINUOUS
 62
     7
100
AcDbLine
 10
162.1895353044301
 20
63.326373015857
 30
0.0
 11
162.338131761244
 21
61.62790819424659
 31
0.0
  0
LINE
  5
B11
330
1F
100
AcDbEntity
  8
0
  6
CONTINUOUS
 62
     7
100
AcDbLine
 10
162.5263479798209
 20
61.62790819883693
 30
0.0
 11
162.3713303366828
 21
63.39976748712773
 31
0.0
  0
LINE
  5
B12
330
1F
100
AcDbEntity
  8
0
  6
CONTINUOUS
 62
     7
100
AcDbLine
 10
163.7466139202221
 20
61.62790822728687
 30
0.0
 11
163.5915962772892
 21
63.39976751716442
 31
0.0
  0
ARC
  5
113B
330
1F
100
AcDbEntity
  8
0
  6
CONTINUOUS
 62
     7
100
AcDbCircle
 10
104.6774462210081
 20
48.60869473403361
 30
0.0
 40
2.5
100
AcDbArc
 50
185.0120739997999
 51
269.1882880216
  0
ARC
  5
113C
330
1F
100
AcDbEntity
  8
0
  6
CONTINUOUS
 62
     7
100
AcDbCircle
 10
163.3425476032536
 20
63.37797857517831
 30
0.0
 40
0.25
100
AcDbArc
 50
5.000001342399986
 51
90.00000136729999
  0
ARC
  5
113D
330
1F
100
AcDbEntity
  8
0
  6
CONTINUOUS
 62
     7
100
AcDbCircle
 10
123.5296980505914
 20
45.39175241377473
 30
0.0
 40
0.5
100
AcDbArc
 50
185.7250514436999
 51
269.3201359175
  0
ARC
  5
113E
330
1F
100
AcDbEntity
  8
0
  6
CONTINUOUS
 62
     7
100
AcDbCircle
 10
122.5260246957876
 20
45.37815537911924
 30
0.0
 40
0.5000234528
100
AcDbArc
 50
5.725055124899986
 51
88.37443743239999
  0
ARC
  5
113F
330
1F
100
AcDbEntity
  8
0
  6
CONTINUOUS
 62
     7
100
AcDbCircle
 10
162.1222816628524
 20
63.37797854672839
 30
0.0
 40
0.25
100
AcDbArc
 50
5.000001342499986
 51
90.0000013674
  0
ARC
  5
1140
330
1F
100
AcDbEntity
  8
0
  6
CONTINUOUS
 62
     7
100
AcDbCircle
 10
156.1560911666555
 20
63.00297840335311
 30
0.0
 40
0.625
100
AcDbArc
 50
90.00000136719998
 51
172.0000013673
  0
ARC
  5
1141
330
1F
100
AcDbEntity
  8
0
  6
CONTINUOUS
 62
     7
100
AcDbCircle
 10
150.5941574890969
 20
46.89541309033536
 30
0.0
 40
2.643452407999999
100
AcDbArc
 50
277.0975091283999
 51
349.5651890232
  0
ARC
  5
1142
330
1F
100
AcDbEntity
  8
0
  6
CONTINUOUS
 62
     7
100
AcDbCircle
 10
150.9207780806654
 20
43.83471663694016
 30
0.0
 40
0.4375
100
AcDbArc
 50
90.00000136729999
 51
135.0000014955
  0
ARC
  5
1143
330
1F
100
AcDbEntity
  8
0
  6
CONTINUOUS
 62
     7
100
AcDbCircle
 10
150.2636540019993
 20
43.87797826333415
 30
0.0
 40
0.0625
100
AcDbArc
 50
270.0000013673
 51
315.0000014959
  0
ARC
  5
1144
330
1F
100
AcDbEntity
  8
0
  6
CONTINUOUS
 62
     7
100
AcDbCircle
 10
147.7206317935871
 20
43.87797820266499
 30
0.0
 40
0.0625
100
AcDbArc
 50
225.0000013674
 51
270.0000013672
  0
ARC
  5
1145
330
1F
100
AcDbEntity
  8
0
  6
CONTINUOUS
 62
     7
100
AcDbCircle
 10
147.0130926789588
 20
43.89002019327442
 30
0.0
 40
0.4375
100
AcDbArc
 50
45.00000136749998
 51
90.0000013674
  0
ARC
  5
1146
330
1F
100
AcDbEntity
  8
0
  6
CONTINUOUS
 62
     7
100
AcDbCircle
 10
122.5626445626791
 20
45.39175239046982
 30
0.0
 40
0.5
100
AcDbArc
 50
185.7250514436
 51
269.3201359174
  0
ARC
  5
1147
330
1F
100
AcDbEntity
  8
0
  6
CONTINUOUS
 62
     7
100
AcDbCircle
 10
121.5589712078753
 20
45.3781553558143
 30
0.0
 40
0.5000234528
100
AcDbArc
 50
5.725055125999986
 51
88.37443743359997
  0
ARC
  5
1148
330
1F
100
AcDbEntity
  8
0
  6
CONTINUOUS
 62
     7
100
AcDbCircle
 10
103.7791569923665
 20
48.62142169176161
 30
0.0
 40
2.5
100
AcDbArc
 50
181.6019389332999
 51
269.1882880212999
  0
ARC
  5
1149
330
1F
100
AcDbEntity
  8
0
  6
CONTINUOUS
 62
     7
100
AcDbCircle
 10
64.12704527281563
 20
47.51249501729932
 30
0.0
 40
37.1676150304
100
AcDbArc
 50
1.601938933599986
 51
21.40564273009998
  0
ARC
  5
114A
330
1F
100
AcDbEntity
  8
0
  6
CONTINUOUS
 62
     7
100
AcDbCircle
 10
95.76320778035158
 20
59.91416584339018
 30
0.0
 40
3.1875
100
AcDbArc
 50
21.40564273009998
 51
25.76602408989998
  0
ARC
  5
114B
330
1F
100
AcDbEntity
  8
0
  6
CONTINUOUS
 62
     7
100
AcDbCircle
 10
65.16150787079408
 20
45.14310697096047
 30
0.0
 40
37.1676150304
100
AcDbArc
 50
5.012073999799985
 51
32.49731295989998
  0
ARC
  5
114C
330
1F
100
AcDbEntity
  8
0
  6
CONTINUOUS
 62
     7
100
AcDbCircle
 10
95.55311270807631
 20
64.48428335557323
 30
0.0
 40
1.1436936016
100
AcDbArc
 50
33.27510585179998
 51
169.5115551321999
  0
ARC
  5
114D
330
1F
100
AcDbEntity
  8
0
  6
CONTINUOUS
 62
     7
100
AcDbCircle
 10
14.49268184296097
 20
76.95270095882911
 30
0.0
 40
80.8705918128
100
AcDbArc
 50
350.6667790947
 51
351.2801669114
  0
ARC
  5
114E
330
1F
100
AcDbEntity
  8
0
  6
CONTINUOUS
 62
     7
100
AcDbCircle
 10
94.04600619513912
 20
63.87797692110204
 30
0.0
 40
0.25
100
AcDbArc
 50
270.0000013673
 51
350.6667790947
  0
ARC
  5
114F
330
1F
100
AcDbEntity
  8
0
  6
CONTINUOUS
 62
     7
100
AcDbCircle
 10
92.34712481069591
 20
63.37797688140462
 30
0.0
 40
0.25
100
AcDbArc
 50
90.00000136729999
 51
175.0000013921999
  0
ARC
  5
1150
330
1F
100
AcDbEntity
  8
0
  6
CONTINUOUS
 62
     7
100
AcDbCircle
 10
92.40439551076661
 20
63.31547688154706
 30
0.0
 40
0.125
100
AcDbArc
 50
90.00000136689999
 51
175.0000013918
  0
ARC
  5
1151
330
1F
100
AcDbEntity
  8
0
  6
CONTINUOUS
 62
     7
100
AcDbCircle
 10
94.04600619513912
 20
63.87797692110204
 30
0.0
 40
0.4375
100
AcDbArc
 50
270.0000013674999
 51
350.6667790946
  0
ARC
  5
1152
330
1F
100
AcDbEntity
  8
0
  6
CONTINUOUS
 62
     7
100
AcDbCircle
 10
14.49268184137419
 20
76.95270095903437
 30
0.0
 40
81.05809181439999
100
AcDbArc
 50
350.6667790947
 51
351.2780284926
  0
ARC
  5
1153
330
1F
100
AcDbEntity
  8
0
  6
CONTINUOUS
 62
     7
100
AcDbCircle
 10
95.55311270807631
 20
64.48428335557323
 30
0.0
 40
0.9561936016
100
AcDbArc
 50
33.34805067099998
 51
169.3459938971999
  0
ARC
  5
1154
330
1F
100
AcDbEntity
  8
0
  6
CONTINUOUS
 62
     7
100
AcDbCircle
 10
65.16150787079408
 20
45.14310697096047
 30
0.0
 40
36.9801150304
100
AcDbArc
 50
25.76602408989998
 51
32.49525538479998
  0
ARC
  5
1155
330
1F
100
AcDbEntity
  8
0
  6
CONTINUOUS
 62
     7
100
AcDbCircle
 10
95.76320778035158
 20
59.91416584339018
 30
0.0
 40
3.0
100
AcDbArc
 50
21.40564272979998
 51
25.76602408959999
  0
ARC
  5
1156
330
1F
100
AcDbEntity
  8
0
  6
CONTINUOUS
 62
     7
100
AcDbCircle
 10
64.12704527281563
 20
47.51249501729932
 30
0.0
 40
36.9801150304
100
AcDbArc
 50
1.601938933599986
 51
21.40564273009998
  0
ARC
  5
1157
330
1F
100
AcDbEntity
  8
0
  6
CONTINUOUS
 62
     7
100
AcDbCircle
 10
103.7791569923665
 20
48.62142169176161
 30
0.0
 40
2.6875
100
AcDbArc
 50
181.6019389332999
 51
269.1882880214
  0
ARC
  5
1158
330
1F
100
AcDbEntity
  8
0
  6
CONTINUOUS
 62
     7
100
AcDbCircle
 10
121.5589978804413
 20
45.37812440934283
 30
0.0
 40
0.3125
100
AcDbArc
 50
5.725050430599988
 51
89.21692187019997
  0
ARC
  5
1159
330
1F
100
AcDbEntity
  8
0
  6
CONTINUOUS
 62
     7
100
AcDbCircle
 10
122.5626402276733
 20
45.39179562874004
 30
0.0
 40
0.6875
100
AcDbArc
 50
185.7250504299
 51
268.6783726482
  0
ARC
  5
115A
330
1F
100
AcDbEntity
  8
0
  6
CONTINUOUS
 62
     7
100
AcDbCircle
 10
147.0130926789588
 20
43.89002019327442
 30
0.0
 40
0.25
100
AcDbArc
 50
45.00000136749998
 51
90.0000013674
  0
ARC
  5
115B
330
1F
100
AcDbEntity
  8
0
  6
CONTINUOUS
 62
     7
100
AcDbCircle
 10
147.7206317935871
 20
43.87797820266499
 30
0.0
 40
0.25
100
AcDbArc
 50
225.0000013675
 51
270.0000013673999
  0
ARC
  5
115C
330
1F
100
AcDbEntity
  8
0
  6
CONTINUOUS
 62
     7
100
AcDbCircle
 10
150.2636540019993
 20
43.87797826333415
 30
0.0
 40
0.25
100
AcDbArc
 50
270.0000013674999
 51
315.0000014959
  0
ARC
  5
115D
330
1F
100
AcDbEntity
  8
0
  6
CONTINUOUS
 62
     7
100
AcDbCircle
 10
150.9207780806654
 20
43.83471663694016
 30
0.0
 40
0.25
100
AcDbArc
 50
90.00000136749996
 51
135.0000014957
  0
ARC
  5
115E
330
1F
100
AcDbEntity
  8
0
  6
CONTINUOUS
 62
     7
100
AcDbCircle
 10
150.6795488713
 20
46.80581021300705
 30
0.0
 40
2.7317653216
100
AcDbArc
 50
275.0661165341
 51
351.2563651259
  0
ARC
  5
115F
330
1F
100
AcDbEntity
  8
0
  6
CONTINUOUS
 62
     7
100
AcDbCircle
 10
156.1560911666555
 20
63.00297840335311
 30
0.0
 40
0.4375
100
AcDbArc
 50
90.00000136729999
 51
172.0000013673999
  0
ARC
  5
1160
330
1F
100
AcDbEntity
  8
0
  6
CONTINUOUS
 62
     7
100
AcDbCircle
 10
162.0650109674123
 20
63.31547854486396
 30
0.0
 40
0.125
100
AcDbArc
 50
5.000001342499986
 51
90.0000013674
  0
ARC
  5
1161
330
1F
100
AcDbEntity
  8
0
  6
CONTINUOUS
 62
     7
100
AcDbCircle
 10
157.5143977874162
 20
-254.6987709130333
 30
0.0
 40
314.2934599376
100
AcDbArc
 50
90.80520351839998
 51
96.2203972442
  0
ARC
  5
1162
330
1F
100
AcDbEntity
  8
0
  6
CONTINUOUS
 62
     7
100
AcDbCircle
 10
132.791222187317
 20
-30.54142220347901
 30
0.0
 40
88.77748308959999
100
AcDbArc
 50
96.03359886199998
 51
108.9393835941
  0
ARC
  5
1163
330
1F
100
AcDbEntity
  8
0
  6
CONTINUOUS
 62
     7
100
AcDbCircle
 10
114.3058763351811
 20
151.503148530286
 30
0.0
 40
87.8763797248
100
AcDbArc
 50
257.8965946849999
 51
269.6995020979
  0
ARC
  5
1164
330
1F
100
AcDbEntity
  8
0
  6
CONTINUOUS
 62
     7
100
AcDbCircle
 10
112.3408491181892
 20
44.62812381749197
 30
0.0
 40
2.0
100
AcDbArc
 50
200.0000013672999
 51
340.0000013672999
  0
ARC
  5
1165
330
1F
100
AcDbEntity
  8
0
  6
CONTINUOUS
 62
     7
100
AcDbCircle
 10
125.2738618503181
 20
43.37812412618646
 30
0.0
 40
0.75
100
AcDbArc
 50
210.0000013672999
 51
270.0000013673
  0
ARC
  5
1166
330
1F
100
AcDbEntity
  8
0
  6
CONTINUOUS
 62
     7
100
AcDbCircle
 10
142.4078364456022
 20
43.37812453513831
 30
0.0
 40
0.75
100
AcDbArc
 50
270.0000013673
 51
330.0000013673
  0
LINE
  5
1208
330
1F
100
AcDbEntity
  8
CENTER
100
AcDbLine
 10
148.9921429178373
 20
41.23598232272207
 30
0.0
 11
148.992142880793
 21
46.39497414176035
 31
0.0
  0
ENDSEC
  0
SECTION
  2
OBJECTS
  0
DICTIONARY
  5
C
330
0
100
AcDbDictionary
  3
ACAD_GROUP
350
D
  3
ACAD_LAYOUT
350
1A
  3
ACAD_MLINESTYLE
350
17
  3
ACAD_PLOTSETTINGS
350
19
  3
ACAD_PLOTSTYLENAME
350
E
  3
ACDBHEADERROUNDTRIPXREC
350
1266
  3
ASE_INDEX_DICTIONARY
350
11D9
  0
DICTIONARY
  5
1289
330
1F
100
AcDbDictionary
280
     1
  3
ACAD_LAYOUTSELFREF
360
128A
  0
DICTIONARY
  5
1287
330
1B
100
AcDbDictionary
280
     1
  3
ACAD_LAYOUTSELFREF
360
1288
  0
DICTIONARY
  5
D
102
{ACAD_REACTORS
330
C
102
}
330
C
100
AcDbDictionary
  0
DICTIONARY
  5
1A
102
{ACAD_REACTORS
330
C
102
}
330
C
100
AcDbDictionary
  0
DICTIONARY
  5
17
102
{ACAD_REACTORS
330
C
102
}
330
C
100
AcDbDictionary
  3
STANDARD
350
18
  0
DICTIONARY
  5
19
102
{ACAD_REACTORS
330
C
102
}
330
C
100
AcDbDictionary
  0
ACDBDICTIONARYWDFLT
  5
E
102
{ACAD_REACTORS
330
C
102
}
330
C
100
AcDbDictionary
281
     1
  3
Normal
350
F
100
AcDbDictionaryWithDefault
340
F
  0
DICTIONARY
  5
1266
102
{ACAD_REACTORS
330
C
102
}
330
C
100
AcDbDictionary
  3
CEPSNTYPE
350
1270
  3
DIMSTYLEDATA
350
1274
  3
FINGERPRINTGUID
350
1271
  3
HYPERLINKBASE
350
1269
  3
INSUNITS
350
126F
  3
LAYOUTDICT
350
126B
  3
LWETCUNION
350
126E
  3
PLOTSETDICT
350
126C
  3
PLOTSTYLNAMDICT
350
126D
  3
PSVPSCALE
350
1273
  3
PUCSBASE
350
1277
  3
PUCSORGBACK
350
127D
  3
PUCSORGBOTTOM
350
1279
  3
PUCSORGFRONT
350
127C
  3
PUCSORGLEFT
350
127A
  3
PUCSORGRIGHT
350
127B
  3
PUCSORGTOP
350
1278
  3
PUCSORTHOREF
350
1275
  3
PUCSORTHOVIEW
350
1276
  3
STYLESHEET
350
126A
  3
TSTACKALIGN
350
1267
  3
TSTACKSIZE
350
1268
  3
UCSBASE
350
1280
  3
UCSORGBACK
350
1286
  3
UCSORGBOTTOM
350
1282
  3
UCSORGFRONT
350
1285
  3
UCSORGLEFT
350
1283
  3
UCSORGRIGHT
350
1284
  3
UCSORGTOP
350
1281
  3
UCSORTHOREF
350
127E
  3
UCSORTHOVIEW
350
127F
  3
VERSIONGUID
350
1272
  0
DICTIONARY
  5
11D9
102
{ACAD_REACTORS
330
C
102
}
330
C
100
AcDbDictionary
  3
ASEBLOCKHIERARCHYINDEXRECORD
350
11DB
1001
DCO15
1040
1563534640.352999
  0
XRECORD
  5
128A
102
{ACAD_REACTORS
330
1289
102
}
330
1289
100
AcDbXrecord
340
1F
  0
XRECORD
  5
1288
102
{ACAD_REACTORS
330
1287
102
}
330
1287
100
AcDbXrecord
340
1B
  0
MLINESTYLE
  5
18
102
{ACAD_REACTORS
330
17
102
}
330
17
100
AcDbMlineStyle
  2
STANDARD
 70
     0
  3

 62
   256
 51
90.0
 52
90.0
 71
     2
 49
0.5
 62
   256
  6
BYLAYER
 49
-0.5
 62
   256
  6
BYLAYER
  0
ACDBPLACEHOLDER
  5
F
102
{ACAD_REACTORS
330
E
102
}
330
0
100
AcDbPlaceHolder
280
     0
  0
XRECORD
  5
1270
102
{ACAD_REACTORS
330
1266
102
}
330
1266
100
AcDbXrecord
 90
        0
  0
XRECORD
  5
1274
102
{ACAD_REACTORS
330
1266
102
}
330
1266
100
AcDbXrecord
1000
DSTYLE
1002
{
1070
   179
 70
     5
1070
   278
 70
     0
1070
   342
340
215
1070
   371
 70
     0
1070
   372
 70
     0
1002
}
  0
XRECORD
  5
1271
102
{ACAD_REACTORS
330
1266
102
}
330
1266
100
AcDbXrecord
  1

  0
XRECORD
  5
1269
102
{ACAD_REACTORS
330
1266
102
}
330
1266
100
AcDbXrecord
  1

  0
XRECORD
  5
126F
102
{ACAD_REACTORS
330
1266
102
}
330
1266
100
AcDbXrecord
 90
        1
  0
XRECORD
  5
126B
102
{ACAD_REACTORS
330
1266
102
}
330
1266
100
AcDbXrecord
340
1A
  0
XRECORD
  5
126E
102
{ACAD_REACTORS
330
1266
102
}
330
1266
100
AcDbXrecord
 90
    10752
  0
XRECORD
  5
126C
102
{ACAD_REACTORS
330
1266
102
}
330
1266
100
AcDbXrecord
340
19
  0
XRECORD
  5
126D
102
{ACAD_REACTORS
330
1266
102
}
330
1266
100
AcDbXrecord
340
E
  0
XRECORD
  5
1273
102
{ACAD_REACTORS
330
1266
102
}
330
1266
100
AcDbXrecord
 40
0.0
  0
XRECORD
  5
1277
102
{ACAD_REACTORS
330
1266
102
}
330
1266
100
AcDbXrecord
340
0
  0
XRECORD
  5
127D
102
{ACAD_REACTORS
330
1266
102
}
330
1266
100
AcDbXrecord
 10
0.0
 20
0.0
 30
0.0
  0
XRECORD
  5
1279
102
{ACAD_REACTORS
330
1266
102
}
330
1266
100
AcDbXrecord
 10
0.0
 20
0.0
 30
0.0
  0
XRECORD
  5
127C
102
{ACAD_REACTORS
330
1266
102
}
330
1266
100
AcDbXrecord
 10
0.0
 20
0.0
 30
0.0
  0
XRECORD
  5
127A
102
{ACAD_REACTORS
330
1266
102
}
330
1266
100
AcDbXrecord
 10
0.0
 20
0.0
 30
0.0
  0
XRECORD
  5
127B
102
{ACAD_REACTORS
330
1266
102
}
330
1266
100
AcDbXrecord
 10
0.0
 20
0.0
 30
0.0
  0
XRECORD
  5
1278
102
{ACAD_REACTORS
330
1266
102
}
330
1266
100
AcDbXrecord
 10
0.0
 20
0.0
 30
0.0
  0
XRECORD
  5
1275
102
{ACAD_REACTORS
330
1266
102
}
330
1266
100
AcDbXrecord
340
0
  0
XRECORD
  5
1276
102
{ACAD_REACTORS
330
1266
102
}
330
1266
100
AcDbXrecord
 70
     0
  0
XRECORD
  5
126A
102
{ACAD_REACTORS
330
1266
102
}
330
1266
100
AcDbXrecord
  1

  0
XRECORD
  5
1267
102
{ACAD_REACTORS
330
1266
102
}
330
1266
100
AcDbXrecord
 90
        1
  0
XRECORD
  5
1268
102
{ACAD_REACTORS
330
1266
102
}
330
1266
100
AcDbXrecord
 90
       70
  0
XRECORD
  5
1280
102
{ACAD_REACTORS
330
1266
102
}
330
1266
100
AcDbXrecord
340
0
  0
XRECORD
  5
1286
102
{ACAD_REACTORS
330
1266
102
}
330
1266
100
AcDbXrecord
 10
0.0
 20
0.0
 30
0.0
  0
XRECORD
  5
1282
102
{ACAD_REACTORS
330
1266
102
}
330
1266
100
AcDbXrecord
 10
0.0
 20
0.0
 30
0.0
  0
XRECORD
  5
1285
102
{ACAD_REACTORS
330
1266
102
}
330
1266
100
AcDbXrecord
 10
0.0
 20
0.0
 30
0.0
  0
XRECORD
  5
1283
102
{ACAD_REACTORS
330
1266
102
}
330
1266
100
AcDbXrecord
 10
0.0
 20
0.0
 30
0.0
  0
XRECORD
  5
1284
102
{ACAD_REACTORS
330
1266
102
}
330
1266
100
AcDbXrecord
 10
0.0
 20
0.0
 30
0.0
  0
XRECORD
  5
1281
102
{ACAD_REACTORS
330
1266
102
}
330
1266
100
AcDbXrecord
 10
0.0
 20
0.0
 30
0.0
  0
XRECORD
  5
127E
102
{ACAD_REACTORS
330
1266
102
}
330
1266
100
AcDbXrecord
340
0
  0
XRECORD
  5
127F
102
{ACAD_REACTORS
330
1266
102
}
330
1266
100
AcDbXrecord
 70
     0
  0
XRECORD
  5
1272
102
{ACAD_REACTORS
330
1266
102
}
330
1266
100
AcDbXrecord
  1
{59F909DA-E604-4B6F-BF48-5038170E9D9A}
  0
XRECORD
  5
11DB
102
{ACAD_REACTORS
330
11D9
102
}
330
11D9
100
AcDbXrecord
330
11F9
330
11FA
  0
ENDSEC
  0
EOF
