  0
SECTION
  2
HEADER
  9
$ACADVER
  1
AC1015
  9
$ACADMAINTVER
 70
    20
  9
$DWGCODEPAGE
  3
ANSI_1252
  9
$INSBASE
 10
0.0
 20
0.0
 30
0.0
  9
$EXTMIN
 10
14.5746334942
 20
25.8314322126
 30
0.0
  9
$EXTMAX
 10
86.574621259
 20
52.19694434051875
 30
0.0
  9
$LIMMIN
 10
0.0
 20
0.0
  9
$LIMMAX
 10
181.3333333333
 20
117.3333333333
  9
$ORTHOMODE
 70
     0
  9
$REGENMODE
 70
     1
  9
$FILLMODE
 70
     1
  9
$QTEXTMODE
 70
     0
  9
$MIRRTEXT
 70
     0
  9
$LTSCALE
 40
9.973333333300001
  9
$ATTMODE
 70
     1
  9
$TEXTSIZE
 40
0.2
  9
$TRACEWID
 40
0.05
  9
$TEXTSTYLE
  7
STANDARD
  9
$CLAYER
  8
0
  9
$CELTYPE
  6
BYLAYER
  9
$CECOLOR
 62
   256
  9
$CELTSCALE
 40
1.0
  9
$DISPSILH
 70
     0
  9
$DIMSCALE
 40
1.0
  9
$DIMASZ
 40
2.0
  9
$DIMEXO
 40
0.0625
  9
$DIMDLI
 40
6.890666666699999
  9
$DIMRND
 40
0.0
  9
$DIMDLE
 40
0.0
  9
$DIMEXE
 40
0.125
  9
$DIMTP
 40
0.00001
  9
$DIMTM
 40
0.00001
  9
$DIMTXT
 40
1.333333333299999
  9
$DIMCEN
 40
1.631999999999999
  9
$DIMTSZ
 40
0.0
  9
$DIMTOL
 70
     1
  9
$DIMLIM
 70
     0
  9
$DIMTIH
 70
     1
  9
$DIMTOH
 70
     1
  9
$DIMSE1
 70
     0
  9
$DIMSE2
 70
     0
  9
$DIMTAD
 70
     0
  9
$DIMZIN
 70
     0
  9
$DIMBLK
  1
_FILLED
  9
$DIMASO
 70
     1
  9
$DIMSHO
 70
     1
  9
$DIMPOST
  1

  9
$DIMAPOST
  1

  9
$DIMALT
 70
     0
  9
$DIMALTD
 70
     2
  9
$DIMALTF
 40
25.4
  9
$DIMLFAC
 40
1.0
  9
$DIMTOFL
 70
     0
  9
$DIMTVP
 40
0.0
  9
$DIMTIX
 70
     0
  9
$DIMSOXD
 70
     0
  9
$DIMSAH
 70
     0
  9
$DIMBLK1
  1

  9
$DIMBLK2
  1

  9
$DIMSTYLE
  2
STANDARD
  9
$DIMCLRD
 70
     0
  9
$DIMCLRE
 70
     0
  9
$DIMCLRT
 70
     0
  9
$DIMTFAC
 40
1.0
  9
$DIMGAP
 40
0.09
  9
$DIMJUST
 70
     0
  9
$DIMSD1
 70
     0
  9
$DIMSD2
 70
     0
  9
$DIMTOLJ
 70
     1
  9
$DIMTZIN
 70
     0
  9
$DIMALTZ
 70
     0
  9
$DIMALTTZ
 70
     0
  9
$DIMUPT
 70
     0
  9
$DIMDEC
 70
     4
  9
$DIMTDEC
 70
     4
  9
$DIMALTU
 70
     2
  9
$DIMALTTD
 70
     2
  9
$DIMTXSTY
  7
STANDARD
  9
$DIMAUNIT
 70
     0
  9
$DIMADEC
 70
     0
  9
$DIMALTRND
 40
0.0
  9
$DIMAZIN
 70
     0
  9
$DIMDSEP
 70
    46
  9
$DIMATFIT
 70
     3
  9
$DIMFRAC
 70
     0
  9
$DIMLDRBLK
  1

  9
$DIMLUNIT
 70
     2
  9
$DIMLWD
 70
    -2
  9
$DIMLWE
 70
    -2
  9
$DIMTMOVE
 70
     0
  9
$LUNITS
 70
     2
  9
$LUPREC
 70
     4
  9
$SKETCHINC
 40
0.1
  9
$FILLETRAD
 40
0.0
  9
$AUNITS
 70
     0
  9
$AUPREC
 70
     0
  9
$MENU
  1
.
  9
$ELEVATION
 40
0.0
  9
$PELEVATION
 40
0.0
  9
$THICKNESS
 40
0.0
  9
$LIMCHECK
 70
     0
  9
$CHAMFERA
 40
0.0
  9
$CHAMFERB
 40
0.0
  9
$CHAMFERC
 40
0.0
  9
$CHAMFERD
 40
0.0
  9
$SKPOLY
 70
     0
  9
$TDCREATE
 40
2456597.336554491
  9
$TDUCREATE
 40
2456597.544887824
  9
$TDUPDATE
 40
2456624.534687755
  9
$TDUUPDATE
 40
2456624.743021088
  9
$TDINDWG
 40
0.0389075579
  9
$TDUSRTIMER
 40
0.0389075579
  9
$USRTIMER
 70
     1
  9
$ANGBASE
 50
0.0
  9
$ANGDIR
 70
     0
  9
$PDMODE
 70
     3
  9
$PDSIZE
 40
0.03125
  9
$PLINEWID
 40
0.0
  9
$SPLFRAME
 70
     0
  9
$SPLINETYPE
 70
     6
  9
$SPLINESEGS
 70
     8
  9
$HANDSEED
  5
17D5
  9
$SURFTAB1
 70
     6
  9
$SURFTAB2
 70
     6
  9
$SURFTYPE
 70
     6
  9
$SURFU
 70
     6
  9
$SURFV
 70
     6
  9
$UCSBASE
  2

  9
$UCSNAME
  2

  9
$UCSORG
 10
0.0
 20
0.0
 30
0.0
  9
$UCSXDIR
 10
1.0
 20
0.0
 30
0.0
  9
$UCSYDIR
 10
0.0
 20
1.0
 30
0.0
  9
$UCSORTHOREF
  2

  9
$UCSORTHOVIEW
 70
     0
  9
$UCSORGTOP
 10
0.0
 20
0.0
 30
0.0
  9
$UCSORGBOTTOM
 10
0.0
 20
0.0
 30
0.0
  9
$UCSORGLEFT
 10
0.0
 20
0.0
 30
0.0
  9
$UCSORGRIGHT
 10
0.0
 20
0.0
 30
0.0
  9
$UCSORGFRONT
 10
0.0
 20
0.0
 30
0.0
  9
$UCSORGBACK
 10
0.0
 20
0.0
 30
0.0
  9
$PUCSBASE
  2

  9
$PUCSNAME
  2

  9
$PUCSORG
 10
0.0
 20
0.0
 30
0.0
  9
$PUCSXDIR
 10
1.0
 20
0.0
 30
0.0
  9
$PUCSYDIR
 10
0.0
 20
1.0
 30
0.0
  9
$PUCSORTHOREF
  2

  9
$PUCSORTHOVIEW
 70
     0
  9
$PUCSORGTOP
 10
0.0
 20
0.0
 30
0.0
  9
$PUCSORGBOTTOM
 10
0.0
 20
0.0
 30
0.0
  9
$PUCSORGLEFT
 10
0.0
 20
0.0
 30
0.0
  9
$PUCSORGRIGHT
 10
0.0
 20
0.0
 30
0.0
  9
$PUCSORGFRONT
 10
0.0
 20
0.0
 30
0.0
  9
$PUCSORGBACK
 10
0.0
 20
0.0
 30
0.0
  9
$USERI1
 70
     0
  9
$USERI2
 70
     0
  9
$USERI3
 70
     0
  9
$USERI4
 70
     0
  9
$USERI5
 70
     0
  9
$USERR1
 40
0.0
  9
$USERR2
 40
0.0
  9
$USERR3
 40
0.0
  9
$USERR4
 40
0.0
  9
$USERR5
 40
0.0
  9
$WORLDVIEW
 70
     1
  9
$SHADEDGE
 70
     3
  9
$SHADEDIF
 70
    70
  9
$TILEMODE
 70
     1
  9
$MAXACTVP
 70
    64
  9
$PINSBASE
 10
0.0
 20
0.0
 30
0.0
  9
$PLIMCHECK
 70
     0
  9
$PEXTMIN
 10
1.000000000000000E+20
 20
1.000000000000000E+20
 30
1.000000000000000E+20
  9
$PEXTMAX
 10
-1.000000000000000E+20
 20
-1.000000000000000E+20
 30
-1.000000000000000E+20
  9
$PLIMMIN
 10
0.0
 20
0.0
  9
$PLIMMAX
 10
12.0
 20
9.0
  9
$UNITMODE
 70
     0
  9
$VISRETAIN
 70
     1
  9
$PLINEGEN
 70
     0
  9
$PSLTSCALE
 70
     1
  9
$TREEDEPTH
 70
  3020
  9
$CMLSTYLE
  2
Standard
  9
$CMLJUST
 70
     0
  9
$CMLSCALE
 40
1.0
  9
$PROXYGRAPHICS
 70
     1
  9
$MEASUREMENT
 70
     0
  9
$CELWEIGHT
370
    -1
  9
$ENDCAPS
280
     0
  9
$JOINSTYLE
280
     0
  9
$LWDISPLAY
290
     0
  9
$INSUNITS
 70
     1
  9
$HYPERLINKBASE
  1

  9
$STYLESHEET
  1

  9
$XEDIT
290
     1
  9
$CEPSNTYPE
380
     0
  9
$PSTYLEMODE
290
     1
  9
$FINGERPRINTGUID
  2
{FDB93A40-0023-40AE-8372-CF1222E0D174}
  9
$VERSIONGUID
  2
{00F0F925-D478-4ED3-9104-B57B02614986}
  9
$EXTNAMES
290
     1
  9
$PSVPSCALE
 40
0.0
  9
$OLESTARTUP
290
     0
  0
ENDSEC
  0
SECTION
  2
CLASSES
  0
CLASS
  1
ACDBDICTIONARYWDFLT
  2
AcDbDictionaryWithDefault
  3
ObjectDBX Classes
 90
        0
280
     0
281
     0
  0
CLASS
  1
ACDBPLACEHOLDER
  2
AcDbPlaceHolder
  3
ObjectDBX Classes
 90
        0
280
     0
281
     0
  0
CLASS
  1
LAYOUT
  2
AcDbLayout
  3
ObjectDBX Classes
 90
        0
280
     0
281
     0
  0
CLASS
  1
MATERIAL
  2
AcDbMaterial
  3
ObjectDBX Classes
 90
     1153
280
     0
281
     0
  0
CLASS
  1
VISUALSTYLE
  2
AcDbVisualStyle
  3
ObjectDBX Classes
 90
     4095
280
     0
281
     0
  0
CLASS
  1
TABLESTYLE
  2
AcDbTableStyle
  3
ObjectDBX Classes
 90
     4095
280
     0
281
     0
  0
CLASS
  1
SCALE
  2
AcDbScale
  3
ObjectDBX Classes
 90
     1153
280
     0
281
     0
  0
CLASS
  1
MLEADERSTYLE
  2
AcDbMLeaderStyle
  3
ACDB_MLEADERSTYLE_CLASS
 90
     4095
280
     0
281
     0
  0
CLASS
  1
CELLSTYLEMAP
  2
AcDbCellStyleMap
  3
ObjectDBX Classes
 90
     1152
280
     0
281
     0
  0
CLASS
  1
DICTIONARYVAR
  2
AcDbDictionaryVar
  3
ObjectDBX Classes
 90
        0
280
     0
281
     0
  0
ENDSEC
  0
SECTION
  2
TABLES
  0
TABLE
  2
VPORT
  5
8
102
{ACAD_XDICTIONARY
360
1735
102
}
330
0
100
AcDbSymbolTable
 70
     1
  0
VPORT
  5
1F4
330
8
100
AcDbSymbolTableRecord
100
AcDbViewportTableRecord
  2
*ACTIVE
 70
     0
 10
0.0
 20
0.0
 11
1.0
 21
1.0
 12
49.8600519082317
 22
41.1285489347878
 13
0.0
 23
0.0
 14
1.0
 24
1.0
 15
0.0
 25
0.0
 16
0.0
 26
0.0
 36
1.0
 17
0.0
 27
0.0
 37
0.0
 40
70.09672285041955
 41
2.286075949367088
 42
50.0
 43
0.0
 44
0.0
 50
0.0
 51
0.0
 71
     0
 72
   100
 73
     1
 74
     1
 75
     0
 76
     0
 77
     0
 78
     0
281
     0
 65
     1
110
0.0
120
0.0
130
0.0
111
1.0
121
0.0
131
0.0
112
0.0
122
1.0
132
0.0
 79
     0
146
0.0
  0
ENDTAB
  0
TABLE
  2
LTYPE
  5
5
330
0
100
AcDbSymbolTable
 70
     7
  0
LTYPE
  5
14
330
5
100
AcDbSymbolTableRecord
100
AcDbLinetypeTableRecord
  2
BYBLOCK
 70
     0
  3

 72
    65
 73
     0
 40
0.0
  0
LTYPE
  5
15
330
5
100
AcDbSymbolTableRecord
100
AcDbLinetypeTableRecord
  2
BYLAYER
 70
     0
  3

 72
    65
 73
     0
 40
0.0
  0
LTYPE
  5
16
330
5
100
AcDbSymbolTableRecord
100
AcDbLinetypeTableRecord
  2
CONTINUOUS
 70
     0
  3
Solid line
 72
    65
 73
     0
 40
0.0
  0
LTYPE
  5
1F5
330
5
100
AcDbSymbolTableRecord
100
AcDbLinetypeTableRecord
  2
CENTER
 70
     0
  3
____ _ ____ _ ____ _ ____ _ ____ _ ____ _ ____
 72
    65
 73
     4
 40
0.6
 49
0.375
 74
     0
 49
-0.075
 74
     0
 49
0.075
 74
     0
 49
-0.075
 74
     0
  0
LTYPE
  5
1F6
330
5
100
AcDbSymbolTableRecord
100
AcDbLinetypeTableRecord
  2
HIDDEN
 70
     0
  3
- - - - - - - - - - - - - - - - - - - -
 72
    65
 73
     2
 40
0.2
 49
0.1
 74
     0
 49
-0.1
 74
     0
  0
LTYPE
  5
1F7
330
5
100
AcDbSymbolTableRecord
100
AcDbLinetypeTableRecord
  2
PHANTOM
 70
     0
  3
_____ _ _ _____ _ _ _____ _ _ _____
 72
    65
 73
     6
 40
0.8
 49
0.45
 74
     0
 49
-0.05
 74
     0
 49
0.1
 74
     0
 49
-0.05
 74
     0
 49
0.1
 74
     0
 49
-0.05
 74
     0
  0
LTYPE
  5
1F8
330
5
100
AcDbSymbolTableRecord
100
AcDbLinetypeTableRecord
  2
DOT
 70
     0
  3
. . . . . . . . . . . . . . . . . . . .
 72
    65
 73
     2
 40
0.2
 49
0.1
 74
     0
 49
-0.1
 74
     0
  0
LTYPE
  5
1F9
330
5
100
AcDbSymbolTableRecord
100
AcDbLinetypeTableRecord
  2
DASHED
 70
     0
  3
- - - - - - - - - - - - - - - - - - - -
 72
    65
 73
     2
 40
0.2
 49
0.1
 74
     0
 49
-0.1
 74
     0
  0
ENDTAB
  0
TABLE
  2
LAYER
  5
2
330
0
100
AcDbSymbolTable
 70
    25
  0
LAYER
  5
10
102
{ACAD_XDICTIONARY
360
178E
102
}
330
2
100
AcDbSymbolTableRecord
100
AcDbLayerTableRecord
  2
0
 70
     0
 62
     7
  6
CONTINUOUS
370
    -3
390
F
  0
LAYER
  5
1FA
102
{ACAD_XDICTIONARY
360
1790
102
}
330
2
100
AcDbSymbolTableRecord
100
AcDbLayerTableRecord
  2
DEFAULT_1
 70
     0
 62
     7
  6
CENTER
370
    -3
390
F
  0
LAYER
  5
1FB
102
{ACAD_XDICTIONARY
360
1792
102
}
330
2
100
AcDbSymbolTableRecord
100
AcDbLayerTableRecord
  2
DEFAULT_2
 70
     0
 62
     7
  6
HIDDEN
370
    -3
390
F
  0
LAYER
  5
1FC
102
{ACAD_XDICTIONARY
360
1794
102
}
330
2
100
AcDbSymbolTableRecord
100
AcDbLayerTableRecord
  2
DEFAULT_3
 70
     0
 62
     7
  6
PHANTOM
370
    -3
390
F
  0
LAYER
  5
1FD
102
{ACAD_XDICTIONARY
360
1796
102
}
330
2
100
AcDbSymbolTableRecord
100
AcDbLayerTableRecord
  2
0_CURVES_STYLE
 70
     0
 62
     7
  6
CONTINUOUS
370
    -3
390
F
  0
LAYER
  5
1FE
102
{ACAD_XDICTIONARY
360
1798
102
}
330
2
100
AcDbSymbolTableRecord
100
AcDbLayerTableRecord
  2
1_CURVES
 70
     0
 62
     7
  6
CONTINUOUS
370
    -3
390
F
  0
LAYER
  5
1FF
102
{ACAD_XDICTIONARY
360
179A
102
}
330
2
100
AcDbSymbolTableRecord
100
AcDbLayerTableRecord
  2
1_CURVES_DROIT_AUTEUR
 70
     0
 62
     7
  6
CONTINUOUS
370
    -3
390
F
  0
LAYER
  5
200
102
{ACAD_XDICTIONARY
360
179C
102
}
330
2
100
AcDbSymbolTableRecord
100
AcDbLayerTableRecord
  2
1_CURVES_DROIT_AUTEUR_PROJETE
 70
     0
 62
     7
  6
CONTINUOUS
370
    -3
390
F
  0
LAYER
  5
201
102
{ACAD_XDICTIONARY
360
179E
102
}
330
2
100
AcDbSymbolTableRecord
100
AcDbLayerTableRecord
  2
1_CURVES_JETS
 70
     0
 62
     7
  6
CONTINUOUS
370
    -3
390
F
  0
LAYER
  5
202
102
{ACAD_XDICTIONARY
360
17A0
102
}
330
2
100
AcDbSymbolTableRecord
100
AcDbLayerTableRecord
  2
1_CURVES_JETS_PROJETE
 70
     0
 62
     7
  6
CONTINUOUS
370
    -3
390
F
  0
LAYER
  5
203
102
{ACAD_XDICTIONARY
360
17A2
102
}
330
2
100
AcDbSymbolTableRecord
100
AcDbLayerTableRecord
  2
1_CURVES_JETS_PROJETE_SIEGE
 70
     0
 62
     7
  6
CONTINUOUS
370
    -3
390
F
  0
LAYER
  5
204
102
{ACAD_XDICTIONARY
360
17A4
102
}
330
2
100
AcDbSymbolTableRecord
100
AcDbLayerTableRecord
  2
1_CURVES_SPEC
 70
     0
 62
     7
  6
CONTINUOUS
370
    -3
390
F
  0
LAYER
  5
205
102
{ACAD_XDICTIONARY
360
17A6
102
}
330
2
100
AcDbSymbolTableRecord
100
AcDbLayerTableRecord
  2
1_CURVES_V
 70
     0
 62
     7
  6
CONTINUOUS
370
    -3
390
F
  0
LAYER
  5
206
102
{ACAD_XDICTIONARY
360
17A8
102
}
330
2
100
AcDbSymbolTableRecord
100
AcDbLayerTableRecord
  2
2_PLANES
 70
     0
 62
     7
  6
CONTINUOUS
370
    -3
390
F
  0
LAYER
  5
207
102
{ACAD_XDICTIONARY
360
17AA
102
}
330
2
100
AcDbSymbolTableRecord
100
AcDbLayerTableRecord
  2
2_PLANES_TOL_GEOM
 70
     0
 62
     7
  6
CONTINUOUS
370
    -3
390
F
  0
LAYER
  5
208
102
{ACAD_XDICTIONARY
360
17AC
102
}
330
2
100
AcDbSymbolTableRecord
100
AcDbLayerTableRecord
  2
3_POINTS
 70
     0
 62
     7
  6
CONTINUOUS
370
    -3
390
F
  0
LAYER
  5
209
102
{ACAD_XDICTIONARY
360
17AE
102
}
330
2
100
AcDbSymbolTableRecord
100
AcDbLayerTableRecord
  2
4_CSYS
 70
     0
 62
     7
  6
CONTINUOUS
370
    -3
390
F
  0
LAYER
  5
20A
102
{ACAD_XDICTIONARY
360
17B0
102
}
330
2
100
AcDbSymbolTableRecord
100
AcDbLayerTableRecord
  2
5_AXIS
 70
     0
 62
     7
  6
CONTINUOUS
370
    -3
390
F
  0
LAYER
  5
20B
102
{ACAD_XDICTIONARY
360
17B2
102
}
330
2
100
AcDbSymbolTableRecord
100
AcDbLayerTableRecord
  2
6_SURFACES
 70
     0
 62
     7
  6
CONTINUOUS
370
    -3
390
F
  0
LAYER
  5
20C
102
{ACAD_XDICTIONARY
360
17B4
102
}
330
2
100
AcDbSymbolTableRecord
100
AcDbLayerTableRecord
  2
6_SURFACES_DRW
 70
     0
 62
     7
  6
CONTINUOUS
370
    -3
390
F
  0
LAYER
  5
20D
102
{ACAD_XDICTIONARY
360
17B6
102
}
330
2
100
AcDbSymbolTableRecord
100
AcDbLayerTableRecord
  2
6_SURFACES_TOOLING
 70
     0
 62
     7
  6
CONTINUOUS
370
    -3
390
F
  0
LAYER
  5
20E
102
{ACAD_XDICTIONARY
360
17B8
102
}
330
2
100
AcDbSymbolTableRecord
100
AcDbLayerTableRecord
  2
7_NOTES
 70
     0
 62
     7
  6
CONTINUOUS
370
    -3
390
F
  0
LAYER
  5
20F
102
{ACAD_XDICTIONARY
360
17BA
102
}
330
2
100
AcDbSymbolTableRecord
100
AcDbLayerTableRecord
  2
XSEC_DATUMS
 70
     0
 62
     7
  6
CONTINUOUS
370
    -3
390
F
  0
LAYER
  5
210
102
{ACAD_XDICTIONARY
360
17BC
102
}
330
2
100
AcDbSymbolTableRecord
100
AcDbLayerTableRecord
  2
ZONE_ROBINETTERIE
 70
     0
 62
     7
  6
CONTINUOUS
370
    -3
390
F
  0
LAYER
  5
211
102
{ACAD_XDICTIONARY
360
17BE
102
}
330
2
100
AcDbSymbolTableRecord
100
AcDbLayerTableRecord
  2
ZONE_ROBINETTERIE_AUTOPORTANT
 70
     0
 62
     7
  6
CONTINUOUS
370
    -3
390
F
  0
ENDTAB
  0
TABLE
  2
STYLE
  5
3
330
0
100
AcDbSymbolTable
 70
     8
  0
STYLE
  5
11
330
3
100
AcDbSymbolTableRecord
100
AcDbTextStyleTableRecord
  2
STANDARD
 70
     0
 40
0.0
 41
0.8
 50
0.0
 71
     0
 42
0.2
  3
txt
  4

  0
STYLE
  5
212
330
3
100
AcDbSymbolTableRecord
100
AcDbTextStyleTableRecord
  2
TEXTSTYLE_1
 70
     0
 40
0.0
 41
0.8
 50
0.0
 71
     0
 42
0.2
  3
gdt
  4

  0
STYLE
  5
213
330
3
100
AcDbSymbolTableRecord
100
AcDbTextStyleTableRecord
  2
TEXTSTYLE_2
 70
     0
 40
0.0
 41
1.0
 50
0.0
 71
     0
 42
0.2
  3
trium.ttf
  4

  0
STYLE
  5
214
330
3
100
AcDbSymbolTableRecord
100
AcDbTextStyleTableRecord
  2
TEXTSTYLE_3
 70
     0
 40
0.0
 41
1.0
 50
0.0
 71
     0
 42
0.2
  3
trium.ttf
  4

  0
STYLE
  5
215
330
3
100
AcDbSymbolTableRecord
100
AcDbTextStyleTableRecord
  2
TEXTSTYLE_4
 70
     0
 40
0.0
 41
1.0
 50
0.0
 71
     0
 42
0.2
  3
txt_____.ttf
  4

1001
ACAD
1000
txt
1071
        2
  0
STYLE
  5
216
330
3
100
AcDbSymbolTableRecord
100
AcDbTextStyleTableRecord
  2
TEXTSTYLE_5
 70
     0
 40
0.0
 41
1.0
 50
0.0
 71
     0
 42
0.2
  3
txt_____.ttf
  4

1001
ACAD
1000
txt
1071
        2
  0
STYLE
  5
217
330
3
100
AcDbSymbolTableRecord
100
AcDbTextStyleTableRecord
  2
TEXTSTYLE_6
 70
     0
 40
0.0
 41
1.0
 50
0.0
 71
     0
 42
0.2
  3
trium.ttf
  4

  0
STYLE
  5
218
330
3
100
AcDbSymbolTableRecord
100
AcDbTextStyleTableRecord
  2
TEXTSTYLE_7
 70
     0
 40
0.0
 41
0.8
 50
0.0
 71
     0
 42
0.2
  3
txt_____.ttf
  4

1001
ACAD
1000
txt
1071
        2
  0
ENDTAB
  0
TABLE
  2
VIEW
  5
6
330
0
100
AcDbSymbolTable
 70
     0
  0
ENDTAB
  0
TABLE
  2
UCS
  5
7
330
0
100
AcDbSymbolTable
 70
     0
  0
ENDTAB
  0
TABLE
  2
APPID
  5
9
330
0
100
AcDbSymbolTable
 70
     3
  0
APPID
  5
219
330
9
100
AcDbSymbolTableRecord
100
AcDbRegAppTableRecord
  2
ACAD
 70
     0
  0
APPID
  5
1765
330
9
100
AcDbSymbolTableRecord
100
AcDbRegAppTableRecord
  2
ACAD_MLEADERVER
 70
     0
  0
APPID
  5
1776
330
9
100
AcDbSymbolTableRecord
100
AcDbRegAppTableRecord
  2
ACAD_EXEMPT_FROM_CAD_STANDARDS
 70
     0
  0
ENDTAB
  0
TABLE
  2
DIMSTYLE
  5
A
330
0
100
AcDbSymbolTable
 70
     4
100
AcDbDimStyleTable
 71
     1
340
226
  0
DIMSTYLE
105
226
330
A
100
AcDbSymbolTableRecord
100
AcDbDimStyleTableRecord
  2
STANDARD
 70
     0
 41
2.0
 44
0.125
 47
0.00001
 48
0.00001
 71
     1
 78
     4
140
1.333333333299999
271
     5
272
     5
284
     4
340
11
341
21C
342
21C
343
21C
344
21C
  0
DIMSTYLE
105
227
330
A
100
AcDbSymbolTableRecord
100
AcDbDimStyleTableRecord
  2
DIMSTYLE_1
 70
     0
 41
2.0
 44
0.125
 47
0.00001
 48
0.00001
 78
     4
140
1.333333333299999
147
0.0625
271
     3
272
     3
284
     4
340
11
341
21C
342
21C
343
21C
344
21C
  0
DIMSTYLE
105
228
330
A
100
AcDbSymbolTableRecord
100
AcDbDimStyleTableRecord
  2
DIMSTYLE_2
 70
     0
 41
2.0
 44
0.125
 47
0.001
 48
0.001
 78
     4
140
1.333333333299999
147
0.0625
271
     3
272
     3
284
     4
340
11
341
21C
342
21C
343
21C
344
21C
  0
ENDTAB
  0
TABLE
  2
BLOCK_RECORD
  5
1
330
0
100
AcDbSymbolTable
 70
    11
  0
BLOCK_RECORD
  5
21A
330
1
100
AcDbSymbolTableRecord
100
AcDbBlockTableRecord
  2
*Model_Space
340
16D8
  0
BLOCK_RECORD
  5
21B
330
1
100
AcDbSymbolTableRecord
100
AcDbBlockTableRecord
  2
*Paper_Space
340
16D9
  0
BLOCK_RECORD
  5
21C
330
1
100
AcDbSymbolTableRecord
100
AcDbBlockTableRecord
  2
_FILLED
340
0
102
{BLKREFS
331
2FC
331
2FD
331
305
331
306
331
30E
331
30F
331
317
331
318
331
320
331
321
331
329
331
32A
331
332
331
333
102
}
  0
BLOCK_RECORD
  5
21D
330
1
100
AcDbSymbolTableRecord
100
AcDbBlockTableRecord
  2
*D1
340
0
  0
BLOCK_RECORD
  5
21E
330
1
100
AcDbSymbolTableRecord
100
AcDbBlockTableRecord
  2
*D2
340
0
  0
BLOCK_RECORD
  5
21F
330
1
100
AcDbSymbolTableRecord
100
AcDbBlockTableRecord
  2
*D3
340
0
  0
BLOCK_RECORD
  5
220
330
1
100
AcDbSymbolTableRecord
100
AcDbBlockTableRecord
  2
*D4
340
0
  0
BLOCK_RECORD
  5
221
330
1
100
AcDbSymbolTableRecord
100
AcDbBlockTableRecord
  2
*D5
340
0
  0
BLOCK_RECORD
  5
222
330
1
100
AcDbSymbolTableRecord
100
AcDbBlockTableRecord
  2
*D6
340
0
  0
BLOCK_RECORD
  5
223
330
1
100
AcDbSymbolTableRecord
100
AcDbBlockTableRecord
  2
*D7
340
0
  0
BLOCK_RECORD
  5
224
330
1
100
AcDbSymbolTableRecord
100
AcDbBlockTableRecord
  2
SYMBOL_5_BL1
340
0
  0
BLOCK_RECORD
  5
225
330
1
100
AcDbSymbolTableRecord
100
AcDbBlockTableRecord
  2
SYMBOL_2_BL0
340
0
  0
ENDTAB
  0
ENDSEC
  0
SECTION
  2
BLOCKS
  0
BLOCK
  5
20
330
21A
100
AcDbEntity
  8
0
100
AcDbBlockBegin
  2
*Model_Space
 70
     0
 10
0.0
 20
0.0
 30
0.0
  3
*Model_Space
  1

  0
ENDBLK
  5
21
330
21A
100
AcDbEntity
  8
0
100
AcDbBlockEnd
  0
BLOCK
  5
1C
330
21B
100
AcDbEntity
 67
     1
  8
0
100
AcDbBlockBegin
  2
*Paper_Space
 70
     0
 10
0.0
 20
0.0
 30
0.0
  3
*Paper_Space
  1

  0
ENDBLK
  5
1D
330
21B
100
AcDbEntity
 67
     1
  8
0
100
AcDbBlockEnd
  0
BLOCK
  5
2F3
330
21C
100
AcDbEntity
  8
0
100
AcDbBlockBegin
  2
_FILLED
 70
     0
 10
0.0
 20
0.0
 30
0.0
  3
_FILLED
  1

  0
SOLID
  5
2F4
330
21C
100
AcDbEntity
  8
0
  6
ByBlock
 62
     0
100
AcDbTrace
 10
0.0
 20
0.0
 30
0.0
 11
-1.0
 21
0.1666666667
 31
0.0
 12
-1.0
 22
-0.1666666667
 32
0.0
 13
-1.0
 23
-0.1666666667
 33
0.0
  0
ENDBLK
  5
2F5
330
21C
100
AcDbEntity
  8
0
  6
ByBlock
 62
     0
100
AcDbBlockEnd
  0
BLOCK
  5
2F6
330
21D
100
AcDbEntity
  8
0
  6
Continuous
 62
     7
100
AcDbBlockBegin
  2
*D1
 70
     1
 10
0.0
 20
0.0
 30
0.0
  3
*D1
  1

  0
MTEXT
  5
2F7
330
21D
100
AcDbEntity
  8
0
  6
Continuous
 62
     7
100
AcDbMText
 10
160.2407331508
 20
90.9212923251
 30
0.0
 40
1.333333333299999
 41
6.4
 71
     2
 72
     1
  1
24-1/8\P[61]
 73
     1
 44
0.9
1001
ACAD
1000
MTEXTBEGIN
1070
    73
1070
     1
1070
    44
1040
0.9
1070
    74
1070
     0
1000
MTEXTEND
  0
LINE
  5
2F8
330
21D
100
AcDbEntity
  8
0
  6
Continuous
 62
     7
100
AcDbLine
 10
139.020766396
 20
78.2088562615
 30
0.0
 11
161.5740664841
 21
78.2088562615
 31
0.0
  0
LINE
  5
2F9
330
21D
100
AcDbEntity
  8
0
  6
Continuous
 62
     7
100
AcDbLine
 10
154.39346228
 20
102.3003950554
 30
0.0
 11
161.5740664841
 21
102.3003950554
 31
0.0
  0
LINE
  5
2FA
330
21D
100
AcDbEntity
  8
0
  6
Continuous
 62
     7
100
AcDbLine
 10
160.2407331508
 20
78.2088562615
 30
0.0
 11
160.2407331508
 21
86.9212923251
 31
0.0
  0
LINE
  5
2FB
330
21D
100
AcDbEntity
  8
0
  6
Continuous
 62
     7
100
AcDbLine
 10
160.2407331508
 20
102.3003950554
 30
0.0
 11
160.2407331508
 21
91.58795899180001
 31
0.0
  0
INSERT
  5
2FC
330
21D
100
AcDbEntity
  8
0
  6
Continuous
 62
     7
100
AcDbBlockReference
  2
_FILLED
 10
160.2407331508
 20
78.2088562615
 30
0.0
 41
2.0
 42
2.0
 43
2.0
 50
270.0
  0
INSERT
  5
2FD
330
21D
100
AcDbEntity
  8
0
  6
Continuous
 62
     7
100
AcDbBlockReference
  2
_FILLED
 10
160.2407331508
 20
102.3003950554
 30
0.0
 41
2.0
 42
2.0
 43
2.0
 50
90.0
  0
ENDBLK
  5
2FE
330
21D
100
AcDbEntity
  8
0
  6
ByBlock
 62
     0
100
AcDbBlockEnd
  0
BLOCK
  5
2FF
330
21E
100
AcDbEntity
  8
0
  6
Continuous
 62
     7
100
AcDbBlockBegin
  2
*D2
 70
     1
 10
0.0
 20
0.0
 30
0.0
  3
*D2
  1

  0
MTEXT
  5
300
330
21E
100
AcDbEntity
  8
0
  6
Continuous
 62
     7
100
AcDbMText
 10
9.733774266900001
 20
39.6758332159
 30
0.0
 40
1.333333333299999
 41
6.4
 71
     2
 72
     1
  1
26-3/8\P[66,9]
 73
     1
 44
0.9
1001
ACAD
1000
MTEXTBEGIN
1070
    73
1070
     1
1070
    44
1040
0.9
1070
    74
1070
     0
1000
MTEXTEND
  0
LINE
  5
301
330
21E
100
AcDbEntity
  8
0
  6
Continuous
 62
     7
100
AcDbLine
 10
29.8500416179
 20
25.8314322126
 30
0.0
 11
8.4004409336
 21
25.8314322126
 31
0.0
  0
LINE
  5
302
330
21E
100
AcDbEntity
  8
0
  6
Continuous
 62
     7
100
AcDbLine
 10
15.5514981723
 20
52.1869008859
 30
0.0
 11
8.4004409336
 21
52.1869008859
 31
0.0
  0
LINE
  5
303
330
21E
100
AcDbEntity
  8
0
  6
Continuous
 62
     7
100
AcDbLine
 10
9.733774266900001
 20
25.8314322126
 30
0.0
 11
9.733774266900001
 21
35.6758332159
 31
0.0
  0
LINE
  5
304
330
21E
100
AcDbEntity
  8
0
  6
Continuous
 62
     7
100
AcDbLine
 10
9.733774266900001
 20
52.1869008859
 30
0.0
 11
9.733774266900001
 21
40.3424998826
 31
0.0
  0
INSERT
  5
305
330
21E
100
AcDbEntity
  8
0
  6
Continuous
 62
     7
100
AcDbBlockReference
  2
_FILLED
 10
9.733774266900001
 20
25.8314322126
 30
0.0
 41
2.0
 42
2.0
 43
2.0
 50
270.0
  0
INSERT
  5
306
330
21E
100
AcDbEntity
  8
0
  6
Continuous
 62
     7
100
AcDbBlockReference
  2
_FILLED
 10
9.733774266900001
 20
52.1869008859
 30
0.0
 41
2.0
 42
2.0
 43
2.0
 50
90.0
  0
ENDBLK
  5
307
330
21E
100
AcDbEntity
  8
0
  6
ByBlock
 62
     0
100
AcDbBlockEnd
  0
BLOCK
  5
308
330
21F
100
AcDbEntity
  8
0
  6
Continuous
 62
     7
100
AcDbBlockBegin
  2
*D3
 70
     1
 10
0.0
 20
0.0
 30
0.0
  3
*D3
  1

  0
MTEXT
  5
309
330
21F
100
AcDbEntity
  8
0
  6
Continuous
 62
     7
100
AcDbMText
 10
48.97462737659999
 20
108.8115303349
 30
0.0
 40
1.333333333299999
 41
5.333333333299999
 71
     2
 72
     1
  1
72\P[183]
 73
     1
 44
0.9
1001
ACAD
1000
MTEXTBEGIN
1070
    73
1070
     1
1070
    44
1040
0.9
1070
    74
1070
     0
1000
MTEXTEND
  0
LINE
  5
30A
330
21F
100
AcDbEntity
  8
0
  6
Continuous
 62
     7
100
AcDbLine
 10
14.5746335381
 20
83.45926563579999
 30
0.0
 11
14.5746335381
 21
109.4781970016
 31
0.0
  0
LINE
  5
30B
330
21F
100
AcDbEntity
  8
0
  6
Continuous
 62
     7
100
AcDbLine
 10
86.57462121509999
 20
83.45926563579999
 30
0.0
 11
86.57462121509999
 21
109.4781970016
 31
0.0
  0
LINE
  5
30C
330
21F
100
AcDbEntity
  8
0
  6
Continuous
 62
     7
100
AcDbLine
 10
14.5746335381
 20
108.1448636682
 30
0.0
 11
47.2412940433
 21
108.1448636682
 31
0.0
  0
LINE
  5
30D
330
21F
100
AcDbEntity
  8
0
  6
Continuous
 62
     7
100
AcDbLine
 10
86.57462121509999
 20
108.1448636682
 30
0.0
 11
53.90796070989999
 21
108.1448636682
 31
0.0
  0
INSERT
  5
30E
330
21F
100
AcDbEntity
  8
0
  6
Continuous
 62
     7
100
AcDbBlockReference
  2
_FILLED
 10
14.5746335381
 20
108.1448636682
 30
0.0
 41
2.0
 42
2.0
 43
2.0
 50
180.0
  0
INSERT
  5
30F
330
21F
100
AcDbEntity
  8
0
  6
Continuous
 62
     7
100
AcDbBlockReference
  2
_FILLED
 10
86.57462121509999
 20
108.1448636682
 30
0.0
 41
2.0
 42
2.0
 43
2.0
  0
ENDBLK
  5
310
330
21F
100
AcDbEntity
  8
0
  6
ByBlock
 62
     0
100
AcDbBlockEnd
  0
BLOCK
  5
311
330
220
100
AcDbEntity
  8
0
  6
Continuous
 62
     7
100
AcDbBlockBegin
  2
*D4
 70
     1
 10
0.0
 20
0.0
 30
0.0
  3
*D4
  1

  0
MTEXT
  5
312
330
220
100
AcDbEntity
  8
0
  6
Continuous
 62
     7
100
AcDbMText
 10
93.62650596909999
 20
83.45926563579999
 30
0.0
 40
1.333333333299999
 41
5.333333333299999
 71
     2
 72
     1
  1
42\P[107]
 73
     1
 44
0.9
1001
ACAD
1000
MTEXTBEGIN
1070
    73
1070
     1
1070
    44
1040
0.9
1070
    74
1070
     0
1000
MTEXTEND
  0
LINE
  5
313
330
220
100
AcDbEntity
  8
0
  6
Continuous
 62
     7
100
AcDbLine
 10
67.2440091784
 20
103.7903010719
 30
0.0
 11
96.55983930239999
 21
103.7903010719
 31
0.0
  0
LINE
  5
314
330
220
100
AcDbEntity
  8
0
  6
Continuous
 62
     7
100
AcDbLine
 10
67.2440091784
 20
61.7948968664
 30
0.0
 11
96.55983930239999
 21
61.7948968664
 31
0.0
  0
LINE
  5
315
330
220
100
AcDbEntity
  8
0
  6
Continuous
 62
     7
100
AcDbLine
 10
95.22650596910001
 20
103.7903010719
 30
0.0
 11
95.22650596910001
 21
84.12593230250001
 31
0.0
  0
LINE
  5
316
330
220
100
AcDbEntity
  8
0
  6
Continuous
 62
     7
100
AcDbLine
 10
95.22650596910001
 20
61.7948968664
 30
0.0
 11
95.22650596910001
 21
79.45926563579999
 31
0.0
  0
INSERT
  5
317
330
220
100
AcDbEntity
  8
0
  6
Continuous
 62
     7
100
AcDbBlockReference
  2
_FILLED
 10
95.22650596910001
 20
103.7903010719
 30
0.0
 41
2.0
 42
2.0
 43
2.0
 50
90.0
  0
INSERT
  5
318
330
220
100
AcDbEntity
  8
0
  6
Continuous
 62
     7
100
AcDbBlockReference
  2
_FILLED
 10
95.22650596910001
 20
61.7948968664
 30
0.0
 41
2.0
 42
2.0
 43
2.0
 50
270.0
  0
ENDBLK
  5
319
330
220
100
AcDbEntity
  8
0
  6
ByBlock
 62
     0
100
AcDbBlockEnd
  0
BLOCK
  5
31A
330
221
100
AcDbEntity
  8
0
  6
Continuous
 62
     7
100
AcDbBlockBegin
  2
*D5
 70
     1
 10
0.0
 20
0.0
 30
0.0
  3
*D5
  1

  0
MTEXT
  5
31B
330
221
100
AcDbEntity
  8
0
  6
Continuous
 62
     7
100
AcDbMText
 10
50.57462737659999
 20
21.5892833307
 30
0.0
 40
1.333333333299999
 41
6.4
 71
     2
 72
     1
  1
40-1/8\P[102]
 73
     1
 44
0.9
1001
ACAD
1000
MTEXTBEGIN
1070
    73
1070
     1
1070
    44
1040
0.9
1070
    74
1070
     0
1000
MTEXTEND
  0
LINE
  5
31C
330
221
100
AcDbEntity
  8
0
  6
Continuous
 62
     7
100
AcDbLine
 10
30.5167082846
 20
25.1647655459
 30
0.0
 11
30.5167082846
 21
19.5892833307
 31
0.0
  0
LINE
  5
31D
330
221
100
AcDbEntity
  8
0
  6
Continuous
 62
     7
100
AcDbLine
 10
70.63254646859999
 20
25.1647655459
 30
0.0
 11
70.63254646859999
 21
19.5892833307
 31
0.0
  0
LINE
  5
31E
330
221
100
AcDbEntity
  8
0
  6
Continuous
 62
     7
100
AcDbLine
 10
30.5167082846
 20
20.9226166641
 30
0.0
 11
46.70796070989999
 21
20.9226166641
 31
0.0
  0
LINE
  5
31F
330
221
100
AcDbEntity
  8
0
  6
Continuous
 62
     7
100
AcDbLine
 10
70.63254646859999
 20
20.9226166641
 30
0.0
 11
54.44129404329999
 21
20.9226166641
 31
0.0
  0
INSERT
  5
320
330
221
100
AcDbEntity
  8
0
  6
Continuous
 62
     7
100
AcDbBlockReference
  2
_FILLED
 10
30.5167082846
 20
20.9226166641
 30
0.0
 41
2.0
 42
2.0
 43
2.0
 50
180.0
  0
INSERT
  5
321
330
221
100
AcDbEntity
  8
0
  6
Continuous
 62
     7
100
AcDbBlockReference
  2
_FILLED
 10
70.63254646859999
 20
20.9226166641
 30
0.0
 41
2.0
 42
2.0
 43
2.0
  0
ENDBLK
  5
322
330
221
100
AcDbEntity
  8
0
  6
ByBlock
 62
     0
100
AcDbBlockEnd
  0
BLOCK
  5
323
330
222
100
AcDbEntity
  8
0
  6
Continuous
 62
     7
100
AcDbBlockBegin
  2
*D6
 70
     1
 10
0.0
 20
0.0
 30
0.0
  3
*D6
  1

  0
MTEXT
  5
324
330
222
100
AcDbEntity
  8
0
  6
Continuous
 62
     7
100
AcDbMText
 10
115.2039658869
 20
18.1609174267
 30
0.0
 40
1.333333333299999
 41
6.4
 71
     2
 72
     1
  1
29-5/8\P[75]
 73
     1
 44
0.9
1001
ACAD
1000
MTEXTBEGIN
1070
    73
1070
     1
1070
    44
1040
0.9
1070
    74
1070
     0
1000
MTEXTEND
  0
LINE
  5
325
330
222
100
AcDbEntity
  8
0
  6
Continuous
 62
     7
100
AcDbLine
 10
100.396240978
 20
25.1647655459
 30
0.0
 11
100.396240978
 21
16.1609174267
 31
0.0
  0
LINE
  5
326
330
222
100
AcDbEntity
  8
0
  6
Continuous
 62
     7
100
AcDbLine
 10
130.0116907958
 20
25.1647655459
 30
0.0
 11
130.0116907958
 21
16.1609174267
 31
0.0
  0
LINE
  5
327
330
222
100
AcDbEntity
  8
0
  6
Continuous
 62
     7
100
AcDbLine
 10
100.396240978
 20
17.4942507601
 30
0.0
 11
111.3372992202
 21
17.4942507601
 31
0.0
  0
LINE
  5
328
330
222
100
AcDbEntity
  8
0
  6
Continuous
 62
     7
100
AcDbLine
 10
130.0116907958
 20
17.4942507601
 30
0.0
 11
119.0706325536
 21
17.4942507601
 31
0.0
  0
INSERT
  5
329
330
222
100
AcDbEntity
  8
0
  6
Continuous
 62
     7
100
AcDbBlockReference
  2
_FILLED
 10
100.396240978
 20
17.4942507601
 30
0.0
 41
2.0
 42
2.0
 43
2.0
 50
180.0
  0
INSERT
  5
32A
330
222
100
AcDbEntity
  8
0
  6
Continuous
 62
     7
100
AcDbBlockReference
  2
_FILLED
 10
130.0116907958
 20
17.4942507601
 30
0.0
 41
2.0
 42
2.0
 43
2.0
  0
ENDBLK
  5
32B
330
222
100
AcDbEntity
  8
0
  6
ByBlock
 62
     0
100
AcDbBlockEnd
  0
BLOCK
  5
32C
330
223
100
AcDbEntity
  8
0
  6
Continuous
 62
     7
100
AcDbBlockBegin
  2
*D7
 70
     1
 10
0.0
 20
0.0
 30
0.0
  3
*D7
  1

  0
MTEXT
  5
32D
330
223
100
AcDbEntity
  8
0
  6
Continuous
 62
     7
100
AcDbMText
 10
116.062634195
 20
23.1438994017
 30
0.0
 40
1.333333333299999
 41
6.4
 71
     2
 72
     1
  1
27-7/8\P[71]
 73
     1
 44
0.9
1001
ACAD
1000
MTEXTBEGIN
1070
    73
1070
     1
1070
    44
1040
0.9
1070
    74
1070
     0
1000
MTEXTEND
  0
LINE
  5
32E
330
223
100
AcDbEntity
  8
0
  6
Continuous
 62
     7
100
AcDbLine
 10
130.0116907958
 20
25.1647655459
 30
0.0
 11
130.0116907958
 21
21.1438994017
 31
0.0
  0
LINE
  5
32F
330
223
100
AcDbEntity
  8
0
  6
Continuous
 62
     7
100
AcDbLine
 10
102.1135775942
 20
25.1647655482
 30
0.0
 11
102.1135775942
 21
21.1438994017
 31
0.0
  0
LINE
  5
330
330
223
100
AcDbEntity
  8
0
  6
Continuous
 62
     7
100
AcDbLine
 10
130.0116907958
 20
22.47723273510001
 30
0.0
 11
119.9293008617
 21
22.47723273510001
 31
0.0
  0
LINE
  5
331
330
223
100
AcDbEntity
  8
0
  6
Continuous
 62
     7
100
AcDbLine
 10
102.1135775942
 20
22.47723273510001
 30
0.0
 11
112.1959675283
 21
22.47723273510001
 31
0.0
  0
INSERT
  5
332
330
223
100
AcDbEntity
  8
0
  6
Continuous
 62
     7
100
AcDbBlockReference
  2
_FILLED
 10
130.0116907958
 20
22.47723273510001
 30
0.0
 41
2.0
 42
2.0
 43
2.0
  0
INSERT
  5
333
330
223
100
AcDbEntity
  8
0
  6
Continuous
 62
     7
100
AcDbBlockReference
  2
_FILLED
 10
102.1135775942
 20
22.47723273510001
 30
0.0
 41
2.0
 42
2.0
 43
2.0
 50
180.0
  0
ENDBLK
  5
334
330
223
100
AcDbEntity
  8
0
  6
ByBlock
 62
     0
100
AcDbBlockEnd
  0
BLOCK
  5
229
330
224
100
AcDbEntity
  8
0
  6
Continuous
 62
     7
100
AcDbBlockBegin
  2
SYMBOL_5_BL1
 70
     0
 10
120.4781412034
 20
57.5297914987
 30
0.0
  3
SYMBOL_5_BL1
  1

  0
TEXT
  5
22A
330
224
100
AcDbEntity
  8
0
  6
Continuous
 62
     7
100
AcDbText
 10
114.1640809016
 20
59.7748254845
 30
0.0
 40
1.1626666667
  1
INTERNAL USE 
 50
10.0
  7
TEXTSTYLE_3
100
AcDbText
  0
TEXT
  5
22B
330
224
100
AcDbEntity
  8
0
  6
Continuous
 62
     7
100
AcDbText
 10
113.4203966976
 20
57.7733043068
 30
0.0
 40
1.1626666667
  1
DOCUMENT ONLY
 50
10.0
  7
TEXTSTYLE_3
100
AcDbText
  0
TEXT
  5
22C
330
224
100
AcDbEntity
  8
0
  6
Continuous
 62
     7
100
AcDbText
 10
119.2051242609
 20
57.5248762563
 30
0.0
 40
1.1626666667
  1
 
 50
10.0
  7
TEXTSTYLE_5
100
AcDbText
  0
TEXT
  5
22D
330
224
100
AcDbEntity
  8
0
  6
Continuous
 62
     7
100
AcDbText
 10
110.7604763779
 20
53.34778185
 30
0.0
 40
1.1626666667
  1
DOCUMENT POUR USAGE
 50
10.0
  7
TEXTSTYLE_3
100
AcDbText
  0
TEXT
  5
22E
330
224
100
AcDbEntity
  8
0
  6
Continuous
 62
     7
100
AcDbText
 10
111.1895758239
 20
51.3310333896
 30
0.0
 40
1.1626666667
  1
A L'INTERNE SEULEMENT
 50
10.0
  7
TEXTSTYLE_3
100
AcDbText
  0
LINE
  5
22F
330
224
100
AcDbEntity
  8
0
  6
Continuous
 62
     7
100
AcDbLine
 10
134.3346929267
 20
53.1862578807
 30
0.0
 11
134.3414518594
 21
53.1930168134
 31
0.0
  0
LINE
  5
230
330
224
100
AcDbEntity
  8
0
  6
Continuous
 62
     7
100
AcDbLine
 10
133.6021233603
 20
53.0570861009
 30
0.0
 11
134.2510048054
 21
53.7059675461
 31
0.0
  0
LINE
  5
231
330
224
100
AcDbEntity
  8
0
  6
Continuous
 62
     7
100
AcDbLine
 10
132.8695537939
 20
52.9279143211
 30
0.0
 11
134.1605577515
 21
54.2189182787
 31
0.0
  0
LINE
  5
232
330
224
100
AcDbEntity
  8
0
  6
Continuous
 62
     7
100
AcDbLine
 10
132.1369842275
 20
52.7987425413
 30
0.0
 11
134.0701106976
 21
54.7318690114
 31
0.0
  0
LINE
  5
233
330
224
100
AcDbEntity
  8
0
  6
Continuous
 62
     7
100
AcDbLine
 10
131.4044146611
 20
52.66957076149999
 30
0.0
 11
133.9796636436
 21
55.2448197441
 31
0.0
  0
LINE
  5
234
330
224
100
AcDbEntity
  8
0
  6
Continuous
 62
     7
100
AcDbLine
 10
130.6718450946
 20
52.5403989817
 30
0.0
 11
132.2128489094
 21
54.08140279649999
 31
0.0
  0
LINE
  5
235
330
224
100
AcDbEntity
  8
0
  6
Continuous
 62
     7
100
AcDbLine
 10
132.8101941022
 20
54.6787479892
 30
0.0
 11
133.8892165897
 21
55.7577704767
 31
0.0
  0
LINE
  5
236
330
224
100
AcDbEntity
  8
0
  6
Continuous
 62
     7
100
AcDbLine
 10
129.9392755282
 20
52.41122720189999
 30
0.0
 11
131.480279343
 21
53.9522310167
 31
0.0
  0
LINE
  5
237
330
224
100
AcDbEntity
  8
0
  6
Continuous
 62
     7
100
AcDbLine
 10
132.7197470482
 20
55.19169872189999
 30
0.0
 11
133.7987695357
 21
56.27072120939999
 31
0.0
  0
LINE
  5
238
330
224
100
AcDbEntity
  8
0
  6
Continuous
 62
     7
100
AcDbLine
 10
129.2067059618
 20
52.2820554221
 30
0.0
 11
130.7477097766
 21
53.82305923689999
 31
0.0
  0
LINE
  5
239
330
224
100
AcDbEntity
  8
0
  6
Continuous
 62
     7
100
AcDbLine
 10
132.6292999943
 20
55.7046494546
 30
0.0
 11
133.7083224818
 21
56.7836719421
 31
0.0
  0
LINE
  5
23A
330
224
100
AcDbEntity
  8
0
  6
Continuous
 62
     7
100
AcDbLine
 10
128.4741363954
 20
52.1528836423
 30
0.0
 11
130.0151402102
 21
53.6938874571
 31
0.0
  0
LINE
  5
23B
330
224
100
AcDbEntity
  8
0
  6
Continuous
 62
     7
100
AcDbLine
 10
132.5388529403
 20
56.2176001872
 30
0.0
 11
133.6178754278
 21
57.29662267470001
 31
0.0
  0
LINE
  5
23C
330
224
100
AcDbEntity
  8
0
  6
Continuous
 62
     7
100
AcDbLine
 10
127.741566829
 20
52.0237118625
 30
0.0
 11
129.2825706438
 21
53.56471567729999
 31
0.0
  0
LINE
  5
23D
330
224
100
AcDbEntity
  8
0
  6
Continuous
 62
     7
100
AcDbLine
 10
132.4484058864
 20
56.7305509199
 30
0.0
 11
133.5274283739
 21
57.80957340739999
 31
0.0
  0
LINE
  5
23E
330
224
100
AcDbEntity
  8
0
  6
Continuous
 62
     7
100
AcDbLine
 10
127.0089972626
 20
51.89454008270001
 30
0.0
 11
128.5500010773
 21
53.4355438975
 31
0.0
  0
LINE
  5
23F
330
224
100
AcDbEntity
  8
0
  6
Continuous
 62
     7
100
AcDbLine
 10
132.3579588324
 20
57.2435016526
 30
0.0
 11
133.4369813199
 21
58.3225241401
 31
0.0
  0
LINE
  5
240
330
224
100
AcDbEntity
  8
0
  6
Continuous
 62
     7
100
AcDbLine
 10
126.2764276961
 20
51.7653683029
 30
0.0
 11
127.8174315109
 21
53.3063721177
 31
0.0
  0
LINE
  5
241
330
224
100
AcDbEntity
  8
0
  6
Continuous
 62
     7
100
AcDbLine
 10
132.2675117785
 20
57.75645238520001
 30
0.0
 11
133.346534266
 21
58.8354748727
 31
0.0
  0
LINE
  5
242
330
224
100
AcDbEntity
  8
0
  6
Continuous
 62
     7
100
AcDbLine
 10
125.5438581297
 20
51.6361965231
 30
0.0
 11
127.0848619445
 21
53.17720033789999
 31
0.0
  0
LINE
  5
243
330
224
100
AcDbEntity
  8
0
  6
Continuous
 62
     7
100
AcDbLine
 10
132.1770647245
 20
58.2694031179
 30
0.0
 11
133.2560872121
 21
59.3484256054
 31
0.0
  0
LINE
  5
244
330
224
100
AcDbEntity
  8
0
  6
Continuous
 62
     7
100
AcDbLine
 10
124.8112885633
 20
51.5070247433
 30
0.0
 11
126.3522923781
 21
53.048028558
 31
0.0
  0
LINE
  5
245
330
224
100
AcDbEntity
  8
0
  6
Continuous
 62
     7
100
AcDbLine
 10
132.0866176706
 20
58.7823538506
 30
0.0
 11
133.1656401581
 21
59.8613763381
 31
0.0
  0
LINE
  5
246
330
224
100
AcDbEntity
  8
0
  6
Continuous
 62
     7
100
AcDbLine
 10
124.0787189969
 20
51.3778529635
 30
0.0
 11
125.6197228117
 21
52.91885677819999
 31
0.0
  0
LINE
  5
247
330
224
100
AcDbEntity
  8
0
  6
Continuous
 62
     7
100
AcDbLine
 10
131.7837380708
 20
59.08287203739999
 30
0.0
 11
133.0751931042
 21
60.3743270708
 31
0.0
  0
LINE
  5
248
330
224
100
AcDbEntity
  8
0
  6
Continuous
 62
     7
100
AcDbLine
 10
123.3461494305
 20
51.2486811837
 30
0.0
 11
124.8871532452
 21
52.7896849984
 31
0.0
  0
LINE
  5
249
330
224
100
AcDbEntity
  8
0
  6
Continuous
 62
     7
100
AcDbLine
 10
131.0511685044
 20
58.95370025750001
 30
0.0
 11
132.9847460502
 21
60.88727780340001
 31
0.0
  0
LINE
  5
24A
330
224
100
AcDbEntity
  8
0
  6
Continuous
 62
     7
100
AcDbLine
 10
122.6135798641
 20
51.1195094039
 30
0.0
 11
124.1545836788
 21
52.6605132186
 31
0.0
  0
LINE
  5
24B
330
224
100
AcDbEntity
  8
0
  6
Continuous
 62
     7
100
AcDbLine
 10
130.3185989379
 20
58.8245284777
 30
0.0
 11
131.3459412362
 21
59.851870776
 31
0.0
  0
LINE
  5
24C
330
224
100
AcDbEntity
  8
0
  6
Continuous
 62
     7
100
AcDbLine
 10
131.8152765088
 20
60.3212060486
 30
0.0
 11
132.8942989963
 21
61.40022853609999
 31
0.0
  0
LINE
  5
24D
330
224
100
AcDbEntity
  8
0
  6
Continuous
 62
     7
100
AcDbLine
 10
121.8810102976
 20
50.9903376241
 30
0.0
 11
123.4220141124
 21
52.5313414388
 31
0.0
  0
LINE
  5
24E
330
224
100
AcDbEntity
  8
0
  6
Continuous
 62
     7
100
AcDbLine
 10
129.5860293715
 20
58.6953566979
 30
0.0
 11
130.6133714602
 21
59.7226987866
 31
0.0
  0
LINE
  5
24F
330
224
100
AcDbEntity
  8
0
  6
Continuous
 62
     7
100
AcDbLine
 10
131.7248294548
 20
60.8341567812
 30
0.0
 11
132.8038519422999
 21
61.9131792688
 31
0.0
  0
LINE
  5
250
330
224
100
AcDbEntity
  8
0
  6
Continuous
 62
     7
100
AcDbLine
 10
121.1484407312
 20
50.8611658442
 30
0.0
 11
122.689444546
 21
52.402169659
 31
0.0
  0
LINE
  5
251
330
224
100
AcDbEntity
  8
0
  6
Continuous
 62
     7
100
AcDbLine
 10
128.8534598051
 20
58.5661849181
 30
0.0
 11
129.8808016841
 21
59.5935267972
 31
0.0
  0
LINE
  5
252
330
224
100
AcDbEntity
  8
0
  6
Continuous
 62
     7
100
AcDbLine
 10
131.6343824009
 20
61.3471075139
 30
0.0
 11
132.7134048884
 21
62.4261300014
 31
0.0
  0
LINE
  5
253
330
224
100
AcDbEntity
  8
0
  6
Continuous
 62
     7
100
AcDbLine
 10
120.4158711648
 20
50.7319940644
 30
0.0
 11
121.9568749796
 21
52.27299787919999
 31
0.0
  0
LINE
  5
254
330
224
100
AcDbEntity
  8
0
  6
Continuous
 62
     7
100
AcDbLine
 10
128.1208902387
 20
58.43701313829999
 30
0.0
 11
129.1482319081
 21
59.46435480779999
 31
0.0
  0
LINE
  5
255
330
224
100
AcDbEntity
  8
0
  6
Continuous
 62
     7
100
AcDbLine
 10
131.5439353469
 20
61.8600582466
 30
0.0
 11
132.6229578345
 21
62.93908073409999
 31
0.0
  0
LINE
  5
256
330
224
100
AcDbEntity
  8
0
  6
Continuous
 62
     7
100
AcDbLine
 10
119.6833015984
 20
50.6028222846
 30
0.0
 11
121.2243054132
 21
52.14382609939999
 31
0.0
  0
LINE
  5
257
330
224
100
AcDbEntity
  8
0
  6
Continuous
 62
     7
100
AcDbLine
 10
127.3883206723
 20
58.3078413585
 30
0.0
 11
128.4156621321
 21
59.3351828183
 31
0.0
  0
LINE
  5
258
330
224
100
AcDbEntity
  8
0
  6
Continuous
 62
     7
100
AcDbLine
 10
131.453488293
 20
62.3730089792
 30
0.0
 11
132.5325107805
 21
63.4520314668
 31
0.0
  0
LINE
  5
259
330
224
100
AcDbEntity
  8
0
  6
Continuous
 62
     7
100
AcDbLine
 10
118.950732032
 20
50.47365050479999
 30
0.0
 11
120.4917358467
 21
52.01465431959999
 31
0.0
  0
LINE
  5
25A
330
224
100
AcDbEntity
  8
0
  6
Continuous
 62
     7
100
AcDbLine
 10
126.6557511058
 20
58.17866957869999
 30
0.0
 11
127.6830923561
 21
59.20601082890001
 31
0.0
  0
LINE
  5
25B
330
224
100
AcDbEntity
  8
0
  6
Continuous
 62
     7
100
AcDbLine
 10
131.3630412391
 20
62.88595971189999
 30
0.0
 11
132.4420637266
 21
63.96498219939999
 31
0.0
  0
LINE
  5
25C
330
224
100
AcDbEntity
  8
0
  6
Continuous
 62
     7
100
AcDbLine
 10
118.2181624655
 20
50.344478725
 30
0.0
 11
119.7591662803
 21
51.88548253979999
 31
0.0
  0
LINE
  5
25D
330
224
100
AcDbEntity
  8
0
  6
Continuous
 62
     7
100
AcDbLine
 10
125.9231815394
 20
58.04949779890001
 30
0.0
 11
126.95052258
 21
59.07683883949999
 31
0.0
  0
LINE
  5
25E
330
224
100
AcDbEntity
  8
0
  6
Continuous
 62
     7
100
AcDbLine
 10
131.2725941851
 20
63.39891044459999
 30
0.0
 11
132.3516166726
 21
64.47793293210001
 31
0.0
  0
LINE
  5
25F
330
224
100
AcDbEntity
  8
0
  6
Continuous
 62
     7
100
AcDbLine
 10
117.4855928991
 20
50.2153069452
 30
0.0
 11
119.0265967139
 21
51.75631076
 31
0.0
  0
LINE
  5
260
330
224
100
AcDbEntity
  8
0
  6
Continuous
 62
     7
100
AcDbLine
 10
125.190611973
 20
57.92032601909999
 30
0.0
 11
126.217952804
 21
58.9476668501
 31
0.0
  0
LINE
  5
261
330
224
100
AcDbEntity
  8
0
  6
Continuous
 62
     7
100
AcDbLine
 10
131.1821471312
 20
63.9118611773
 30
0.0
 11
132.2611696187
 21
64.99088366479999
 31
0.0
  0
LINE
  5
262
330
224
100
AcDbEntity
  8
0
  6
Continuous
 62
     7
100
AcDbLine
 10
116.7530233327
 20
50.0861351654
 30
0.0
 11
118.2940271475
 21
51.6271389802
 31
0.0
  0
LINE
  5
263
330
224
100
AcDbEntity
  8
0
  6
Continuous
 62
     7
100
AcDbLine
 10
124.4580424066
 20
57.79115423930001
 30
0.0
 11
125.485383028
 21
58.8184948607
 31
0.0
  0
LINE
  5
264
330
224
100
AcDbEntity
  8
0
  6
Continuous
 62
     7
100
AcDbLine
 10
131.0917000772
 20
64.4248119099
 30
0.0
 11
132.1707225647
 21
65.5038343974
 31
0.0
  0
LINE
  5
265
330
224
100
AcDbEntity
  8
0
  6
Continuous
 62
     7
100
AcDbLine
 10
116.0204537663
 20
49.95696338560001
 30
0.0
 11
117.5614575811
 21
51.4979672004
 31
0.0
  0
LINE
  5
266
330
224
100
AcDbEntity
  8
0
  6
Continuous
 62
     7
100
AcDbLine
 10
123.7254728402
 20
57.6619824595
 30
0.0
 11
124.7528132519
 21
58.6893228713
 31
0.0
  0
LINE
  5
267
330
224
100
AcDbEntity
  8
0
  6
Continuous
 62
     7
100
AcDbLine
 10
130.9168239758
 20
64.8533335951
 30
0.0
 11
132.0802755108
 21
66.0167851301
 31
0.0
  0
LINE
  5
268
330
224
100
AcDbEntity
  8
0
  6
Continuous
 62
     7
100
AcDbLine
 10
115.2878841999
 20
49.8277916058
 30
0.0
 11
116.8288880147
 21
51.3687954206
 31
0.0
  0
LINE
  5
269
330
224
100
AcDbEntity
  8
0
  6
Continuous
 62
     7
100
AcDbLine
 10
122.9929032738
 20
57.5328106797
 30
0.0
 11
124.0202434759
 21
58.56015088180001
 31
0.0
  0
LINE
  5
26A
330
224
100
AcDbEntity
  8
0
  6
Continuous
 62
     7
100
AcDbLine
 10
130.1842544094
 20
64.72416181529999
 30
0.0
 11
131.7252582242
 21
66.2651656301
 31
0.0
  0
LINE
  5
26B
330
224
100
AcDbEntity
  8
0
  6
Continuous
 62
     7
100
AcDbLine
 10
114.5553146335
 20
49.69861982600001
 30
0.0
 11
116.0963184482
 21
51.2396236408
 31
0.0
  0
LINE
  5
26C
330
224
100
AcDbEntity
  8
0
  6
Continuous
 62
     7
100
AcDbLine
 10
122.2603337073
 20
57.4036388999
 30
0.0
 11
123.2876736999
 21
58.4309788924
 31
0.0
  0
LINE
  5
26D
330
224
100
AcDbEntity
  8
0
  6
Continuous
 62
     7
100
AcDbLine
 10
129.451684843
 20
64.5949900355
 30
0.0
 11
130.9926886577
 21
66.13599385029999
 31
0.0
  0
LINE
  5
26E
330
224
100
AcDbEntity
  8
0
  6
Continuous
 62
     7
100
AcDbLine
 10
113.822745067
 20
49.5694480462
 30
0.0
 11
115.3637488818
 21
51.110451861
 31
0.0
  0
LINE
  5
26F
330
224
100
AcDbEntity
  8
0
  6
Continuous
 62
     7
100
AcDbLine
 10
121.5277641409
 20
57.27446712009999
 30
0.0
 11
122.5551039239
 21
58.301806903
 31
0.0
  0
LINE
  5
270
330
224
100
AcDbEntity
  8
0
  6
Continuous
 62
     7
100
AcDbLine
 10
128.7191152765
 20
64.4658182557
 30
0.0
 11
130.2601190913
 21
66.00682207050001
 31
0.0
  0
LINE
  5
271
330
224
100
AcDbEntity
  8
0
  6
Continuous
 62
     7
100
AcDbLine
 10
113.0901755006
 20
49.4402762664
 30
0.0
 11
114.6311793154
 21
50.98128008119999
 31
0.0
  0
LINE
  5
272
330
224
100
AcDbEntity
  8
0
  6
Continuous
 62
     7
100
AcDbLine
 10
120.7951945745
 20
57.14529534029999
 30
0.0
 11
121.8225341478
 21
58.1726349136
 31
0.0
  0
LINE
  5
273
330
224
100
AcDbEntity
  8
0
  6
Continuous
 62
     7
100
AcDbLine
 10
127.9865457101
 20
64.33664647589999
 30
0.0
 11
129.5275495249
 21
65.8776502907
 31
0.0
  0
LINE
  5
274
330
224
100
AcDbEntity
  8
0
  6
Continuous
 62
     7
100
AcDbLine
 10
112.3576059342
 20
49.3111044866
 30
0.0
 11
113.898609749
 21
50.8521083014
 31
0.0
  0
LINE
  5
275
330
224
100
AcDbEntity
  8
0
  6
Continuous
 62
     7
100
AcDbLine
 10
120.0626250081
 20
57.0161235605
 30
0.0
 11
121.0899643718
 21
58.04346292419999
 31
0.0
  0
LINE
  5
276
330
224
100
AcDbEntity
  8
0
  6
Continuous
 62
     7
100
AcDbLine
 10
127.2539761437
 20
64.20747469609999
 30
0.0
 11
128.7949799585
 21
65.7484785109
 31
0.0
  0
LINE
  5
277
330
224
100
AcDbEntity
  8
0
  6
Continuous
 62
     7
100
AcDbLine
 10
111.6250363678
 20
49.1819327068
 30
0.0
 11
113.1660401826
 21
50.72293652159999
 31
0.0
  0
LINE
  5
278
330
224
100
AcDbEntity
  8
0
  6
Continuous
 62
     7
100
AcDbLine
 10
119.3300554417
 20
56.88695178069999
 30
0.0
 11
120.3573945958
 21
57.91429093479999
 31
0.0
  0
LINE
  5
279
330
224
100
AcDbEntity
  8
0
  6
Continuous
 62
     7
100
AcDbLine
 10
126.5214065773
 20
64.0783029163
 30
0.0
 11
128.0624103921
 21
65.6193067311
 31
0.0
  0
LINE
  5
27A
330
224
100
AcDbEntity
  8
0
  6
Continuous
 62
     7
100
AcDbLine
 10
110.8924668014
 20
49.052760927
 30
0.0
 11
112.4334706161
 21
50.5937647417
 31
0.0
  0
LINE
  5
27B
330
224
100
AcDbEntity
  8
0
  6
Continuous
 62
     7
100
AcDbLine
 10
118.5974858753
 20
56.7577800009
 30
0.0
 11
119.6248248197
 21
57.7851189453
 31
0.0
  0
LINE
  5
27C
330
224
100
AcDbEntity
  8
0
  6
Continuous
 62
     7
100
AcDbLine
 10
125.7888370109
 20
63.94913113649999
 30
0.0
 11
127.3298408257
 21
65.49013495130001
 31
0.0
  0
LINE
  5
27D
330
224
100
AcDbEntity
  8
0
  6
Continuous
 62
     7
100
AcDbLine
 10
110.1598972349
 20
48.9235891472
 30
0.0
 11
111.7009010497
 21
50.4645929619
 31
0.0
  0
LINE
  5
27E
330
224
100
AcDbEntity
  8
0
  6
Continuous
 62
     7
100
AcDbLine
 10
117.8649163088
 20
56.62860822109999
 30
0.0
 11
118.8922550437
 21
57.65594695589999
 31
0.0
  0
LINE
  5
27F
330
224
100
AcDbEntity
  8
0
  6
Continuous
 62
     7
100
AcDbLine
 10
125.0562674445
 20
63.8199593567
 30
0.0
 11
126.5972712592
 21
65.36096317149999
 31
0.0
  0
LINE
  5
280
330
224
100
AcDbEntity
  8
0
  6
Continuous
 62
     7
100
AcDbLine
 10
109.4273276685
 20
48.7944173674
 30
0.0
 11
110.9683314833
 21
50.3354211821
 31
0.0
  0
LINE
  5
281
330
224
100
AcDbEntity
  8
0
  6
Continuous
 62
     7
100
AcDbLine
 10
117.1323467424
 20
56.4994364412
 30
0.0
 11
118.1596852677
 21
57.5267749665
 31
0.0
  0
LINE
  5
282
330
224
100
AcDbEntity
  8
0
  6
Continuous
 62
     7
100
AcDbLine
 10
124.323697878
 20
63.69078757689999
 30
0.0
 11
125.8647016928
 21
65.23179139159999
 31
0.0
  0
LINE
  5
283
330
224
100
AcDbEntity
  8
0
  6
Continuous
 62
     7
100
AcDbLine
 10
108.876006896
 20
48.84649438149999
 30
0.0
 11
110.2357619169
 21
50.2062494023
 31
0.0
  0
LINE
  5
284
330
224
100
AcDbEntity
  8
0
  6
Continuous
 62
     7
100
AcDbLine
 10
116.399777176
 20
56.3702646614
 30
0.0
 11
117.4271154917
 21
57.3976029771
 31
0.0
  0
LINE
  5
285
330
224
100
AcDbEntity
  8
0
  6
Continuous
 62
     7
100
AcDbLine
 10
123.5911283116
 20
63.56161579710001
 30
0.0
 11
125.1321321264
 21
65.10261961180001
 31
0.0
  0
LINE
  5
286
330
224
100
AcDbEntity
  8
0
  6
Continuous
 62
     7
100
AcDbLine
 10
108.7855598421
 20
49.35944511409999
 30
0.0
 11
109.8645823296
 21
50.4384676016
 31
0.0
  0
LINE
  5
287
330
224
100
AcDbEntity
  8
0
  6
Continuous
 62
     7
100
AcDbLine
 10
115.6672076096
 20
56.24109288159999
 30
0.0
 11
116.6945457156
 21
57.2684309877
 31
0.0
  0
LINE
  5
288
330
224
100
AcDbEntity
  8
0
  6
Continuous
 62
     7
100
AcDbLine
 10
122.8585587452
 20
63.43244401729999
 30
0.0
 11
124.39956256
 21
64.973447832
 31
0.0
  0
LINE
  5
289
330
224
100
AcDbEntity
  8
0
  6
Continuous
 62
     7
100
AcDbLine
 10
108.6951127881
 20
49.87239584680001
 30
0.0
 11
109.7741352756
 21
50.9514183343
 31
0.0
  0
LINE
  5
28A
330
224
100
AcDbEntity
  8
0
  6
Continuous
 62
     7
100
AcDbLine
 10
114.9346380432
 20
56.1119211018
 30
0.0
 11
115.9619759396
 21
57.1392589983
 31
0.0
  0
LINE
  5
28B
330
224
100
AcDbEntity
  8
0
  6
Continuous
 62
     7
100
AcDbLine
 10
122.1259891788
 20
63.3032722375
 30
0.0
 11
123.6669929936
 21
64.8442760522
 31
0.0
  0
LINE
  5
28C
330
224
100
AcDbEntity
  8
0
  6
Continuous
 62
     7
100
AcDbLine
 10
108.6046657342
 20
50.38534657949999
 30
0.0
 11
109.6836882217
 21
51.46436906699999
 31
0.0
  0
LINE
  5
28D
330
224
100
AcDbEntity
  8
0
  6
Continuous
 62
     7
100
AcDbLine
 10
114.2020684767
 20
55.98274932199999
 30
0.0
 11
115.2294061636
 21
57.0100870089
 31
0.0
  0
LINE
  5
28E
330
224
100
AcDbEntity
  8
0
  6
Continuous
 62
     7
100
AcDbLine
 10
121.3934196124
 20
63.1741004576
 30
0.0
 11
122.9344234271
 21
64.7151042724
 31
0.0
  0
LINE
  5
28F
330
224
100
AcDbEntity
  8
0
  6
Continuous
 62
     7
100
AcDbLine
 10
108.5142186802
 20
50.8982973121
 30
0.0
 11
109.5932411678
 21
51.9773197996
 31
0.0
  0
LINE
  5
290
330
224
100
AcDbEntity
  8
0
  6
Continuous
 62
     7
100
AcDbLine
 10
113.4694989103
 20
55.8535775422
 30
0.0
 11
114.4968363875
 21
56.88091501939999
 31
0.0
  0
LINE
  5
291
330
224
100
AcDbEntity
  8
0
  6
Continuous
 62
     7
100
AcDbLine
 10
120.660850046
 20
63.04492867779999
 30
0.0
 11
122.2018538607
 21
64.58593249260001
 31
0.0
  0
LINE
  5
292
330
224
100
AcDbEntity
  8
0
  6
Continuous
 62
     7
100
AcDbLine
 10
108.4237716263
 20
51.4112480448
 30
0.0
 11
109.5027941138
 21
52.49027053229999
 31
0.0
  0
LINE
  5
293
330
224
100
AcDbEntity
  8
0
  6
Continuous
 62
     7
100
AcDbLine
 10
112.7369293439
 20
55.72440576239999
 30
0.0
 11
113.7642666115
 21
56.75174303
 31
0.0
  0
LINE
  5
294
330
224
100
AcDbEntity
  8
0
  6
Continuous
 62
     7
100
AcDbLine
 10
119.9282804795
 20
62.91575689800001
 30
0.0
 11
121.4692842943
 21
64.45676071279999
 31
0.0
  0
LINE
  5
295
330
224
100
AcDbEntity
  8
0
  6
Continuous
 62
     7
100
AcDbLine
 10
108.3333245723
 20
51.9241987775
 30
0.0
 11
109.4123470599
 21
53.003221265
 31
0.0
  0
LINE
  5
296
330
224
100
AcDbEntity
  8
0
  6
Continuous
 62
     7
100
AcDbLine
 10
112.0043597775
 20
55.5952339826
 30
0.0
 11
113.0316968355
 21
56.6225710406
 31
0.0
  0
LINE
  5
297
330
224
100
AcDbEntity
  8
0
  6
Continuous
 62
     7
100
AcDbLine
 10
119.1957109131
 20
62.78658511819999
 30
0.0
 11
120.7367147279
 21
64.327588933
 31
0.0
  0
LINE
  5
298
330
224
100
AcDbEntity
  8
0
  6
Continuous
 62
     7
100
AcDbLine
 10
108.2428775184
 20
52.4371495101
 30
0.0
 11
109.3219000059
 21
53.5161719977
 31
0.0
  0
LINE
  5
299
330
224
100
AcDbEntity
  8
0
  6
Continuous
 62
     7
100
AcDbLine
 10
111.2717902111
 20
55.4660622028
 30
0.0
 11
112.2991270595
 21
56.4933990512
 31
0.0
  0
LINE
  5
29A
330
224
100
AcDbEntity
  8
0
  6
Continuous
 62
     7
100
AcDbLine
 10
118.4631413467
 20
62.65741333840001
 30
0.0
 11
120.0041451615
 21
64.1984171532
 31
0.0
  0
LINE
  5
29B
330
224
100
AcDbEntity
  8
0
  6
Continuous
 62
     7
100
AcDbLine
 10
108.1524304645
 20
52.95010024279999
 30
0.0
 11
109.231452952
 21
54.0291227303
 31
0.0
  0
LINE
  5
29C
330
224
100
AcDbEntity
  8
0
  6
Continuous
 62
     7
100
AcDbLine
 10
110.5392206447
 20
55.336890423
 30
0.0
 11
111.5665572834
 21
56.3642270618
 31
0.0
  0
LINE
  5
29D
330
224
100
AcDbEntity
  8
0
  6
Continuous
 62
     7
100
AcDbLine
 10
117.7305717803
 20
62.52824155859999
 30
0.0
 11
119.2715755951
 21
64.06924537340001
 31
0.0
  0
LINE
  5
29E
330
224
100
AcDbEntity
  8
0
  6
Continuous
 62
     7
100
AcDbLine
 10
108.0619834105
 20
53.46305097550001
 30
0.0
 11
109.141005898
 21
54.542073463
 31
0.0
  0
LINE
  5
29F
330
224
100
AcDbEntity
  8
0
  6
Continuous
 62
     7
100
AcDbLine
 10
109.8066510782
 20
55.2077186432
 30
0.0
 11
110.8339875074
 21
56.23505507239999
 31
0.0
  0
LINE
  5
2A0
330
224
100
AcDbEntity
  8
0
  6
Continuous
 62
     7
100
AcDbLine
 10
116.9980022139
 20
62.3990697788
 30
0.0
 11
118.5390060286
 21
63.94007359359999
 31
0.0
  0
LINE
  5
2A1
330
224
100
AcDbEntity
  8
0
  6
Continuous
 62
     7
100
AcDbLine
 10
107.9715363566
 20
53.97600170810001
 30
0.0
 11
109.0505588441
 21
55.05502419569999
 31
0.0
  0
LINE
  5
2A2
330
224
100
AcDbEntity
  8
0
  6
Continuous
 62
     7
100
AcDbLine
 10
109.0740815118
 20
55.07854686339999
 30
0.0
 11
110.1014177314
 21
56.1058830829
 31
0.0
  0
LINE
  5
2A3
330
224
100
AcDbEntity
  8
0
  6
Continuous
 62
     7
100
AcDbLine
 10
116.2654326474
 20
62.269897999
 30
0.0
 11
117.8064364622
 21
63.8109018138
 31
0.0
  0
LINE
  5
2A4
330
224
100
AcDbEntity
  8
0
  6
Continuous
 62
     7
100
AcDbLine
 10
107.8810893026
 20
54.4889524408
 30
0.0
 11
109.3688479553
 21
55.9767110935
 31
0.0
  0
LINE
  5
2A5
330
224
100
AcDbEntity
  8
0
  6
Continuous
 62
     7
100
AcDbLine
 10
115.532863081
 20
62.14072621919999
 30
0.0
 11
117.0738668958
 21
63.68173003399999
 31
0.0
  0
LINE
  5
2A6
330
224
100
AcDbEntity
  8
0
  6
Continuous
 62
     7
100
AcDbLine
 10
107.7906422487
 20
55.0019031735
 30
0.0
 11
108.8696647362
 21
56.080925661
 31
0.0
  0
LINE
  5
2A7
330
224
100
AcDbEntity
  8
0
  6
Continuous
 62
     7
100
AcDbLine
 10
114.8002935146
 20
62.01155443939999
 30
0.0
 11
116.3412973294
 21
63.5525582542
 31
0.0
  0
LINE
  5
2A8
330
224
100
AcDbEntity
  8
0
  6
Continuous
 62
     7
100
AcDbLine
 10
107.7001951947
 20
55.51485390609999
 30
0.0
 11
108.7792176823
 21
56.5938763937
 31
0.0
  0
LINE
  5
2A9
330
224
100
AcDbEntity
  8
0
  6
Continuous
 62
     7
100
AcDbLine
 10
114.0677239482
 20
61.88238265959999
 30
0.0
 11
115.608727763
 21
63.4233864744
 31
0.0
  0
LINE
  5
2AA
330
224
100
AcDbEntity
  8
0
  6
Continuous
 62
     7
100
AcDbLine
 10
107.6097481408
 20
56.0278046388
 30
0.0
 11
108.6887706283
 21
57.1068271263
 31
0.0
  0
LINE
  5
2AB
330
224
100
AcDbEntity
  8
0
  6
Continuous
 62
     7
100
AcDbLine
 10
113.3351543818
 20
61.75321087979999
 30
0.0
 11
114.8761581966
 21
63.2942146946
 31
0.0
  0
LINE
  5
2AC
330
224
100
AcDbEntity
  8
0
  6
Continuous
 62
     7
100
AcDbLine
 10
107.5193010869
 20
56.54075537149999
 30
0.0
 11
108.5983235744
 21
57.619777859
 31
0.0
  0
LINE
  5
2AD
330
224
100
AcDbEntity
  8
0
  6
Continuous
 62
     7
100
AcDbLine
 10
112.6025848154
 20
61.6240391
 30
0.0
 11
114.1435886301
 21
63.1650429148
 31
0.0
  0
LINE
  5
2AE
330
224
100
AcDbEntity
  8
0
  6
Continuous
 62
     7
100
AcDbLine
 10
107.4288540329
 20
57.05370610420001
 30
0.0
 11
108.5078765204
 21
58.1327285917
 31
0.0
  0
LINE
  5
2AF
330
224
100
AcDbEntity
  8
0
  6
Continuous
 62
     7
100
AcDbLine
 10
111.8700152489
 20
61.49486732020001
 30
0.0
 11
113.4110190637
 21
63.035871135
 31
0.0
  0
LINE
  5
2B0
330
224
100
AcDbEntity
  8
0
  6
Continuous
 62
     7
100
AcDbLine
 10
107.338406979
 20
57.5666568368
 30
0.0
 11
108.4174294665
 21
58.6456793243
 31
0.0
  0
LINE
  5
2B1
330
224
100
AcDbEntity
  8
0
  6
Continuous
 62
     7
100
AcDbLine
 10
111.1374456825
 20
61.3656955404
 30
0.0
 11
112.6784494973
 21
62.9066993552
 31
0.0
  0
LINE
  5
2B2
330
224
100
AcDbEntity
  8
0
  6
Continuous
 62
     7
100
AcDbLine
 10
107.247959925
 20
58.0796075695
 30
0.0
 11
108.3269824125
 21
59.158630057
 31
0.0
  0
LINE
  5
2B3
330
224
100
AcDbEntity
  8
0
  6
Continuous
 62
     7
100
AcDbLine
 10
110.4048761161
 20
61.2365237606
 30
0.0
 11
111.9458799309
 21
62.7775275753
 31
0.0
  0
LINE
  5
2B4
330
224
100
AcDbEntity
  8
0
  6
Continuous
 62
     7
100
AcDbLine
 10
107.1575128711
 20
58.5925583022
 30
0.0
 11
108.2365353586
 21
59.6715807897
 31
0.0
  0
LINE
  5
2B5
330
224
100
AcDbEntity
  8
0
  6
Continuous
 62
     7
100
AcDbLine
 10
109.6723065497
 20
61.1073519808
 30
0.0
 11
111.2133103645
 21
62.6483557955
 31
0.0
  0
LINE
  5
2B6
330
224
100
AcDbEntity
  8
0
  6
Continuous
 62
     7
100
AcDbLine
 10
107.0670658171
 20
59.10550903479999
 30
0.0
 11
108.1460883047
 21
60.1845315223
 31
0.0
  0
LINE
  5
2B7
330
224
100
AcDbEntity
  8
0
  6
Continuous
 62
     7
100
AcDbLine
 10
108.9397369833
 20
60.978180201
 30
0.0
 11
110.480740798
 21
62.5191840157
 31
0.0
  0
LINE
  5
2B8
330
224
100
AcDbEntity
  8
0
  6
Continuous
 62
     7
100
AcDbLine
 10
106.9766187632
 20
59.6184597675
 30
0.0
 11
108.0556412507
 21
60.69748225499999
 31
0.0
  0
LINE
  5
2B9
330
224
100
AcDbEntity
  8
0
  6
Continuous
 62
     7
100
AcDbLine
 10
108.2071674168
 20
60.84900842119999
 30
0.0
 11
109.7481712316
 21
62.3900122359
 31
0.0
  0
LINE
  5
2BA
330
224
100
AcDbEntity
  8
0
  6
Continuous
 62
     7
100
AcDbLine
 10
106.8861717092
 20
60.1314105002
 30
0.0
 11
109.0156016652
 21
62.2608404561
 31
0.0
  0
LINE
  5
2BB
330
224
100
AcDbEntity
  8
0
  6
Continuous
 62
     7
100
AcDbLine
 10
106.7957246553
 20
60.6443612328
 30
0.0
 11
108.2830320988
 21
62.1316686763
 31
0.0
  0
LINE
  5
2BC
330
224
100
AcDbEntity
  8
0
  6
Continuous
 62
     7
100
AcDbLine
 10
106.7052776014
 20
61.1573119655
 30
0.0
 11
107.5504625324
 21
62.0024968965
 31
0.0
  0
LINE
  5
2BD
330
224
100
AcDbEntity
  8
0
  6
Continuous
 62
     7
100
AcDbLine
 10
106.6148305474
 20
61.6702626982
 30
0.0
 11
106.817892966
 21
61.8733251167
 31
0.0
  0
ENDBLK
  5
2BE
330
224
100
AcDbEntity
  8
0
  6
ByBlock
 62
     0
100
AcDbBlockEnd
  0
BLOCK
  5
2BF
330
225
100
AcDbEntity
  8
0
  6
Continuous
 62
     7
100
AcDbBlockBegin
  2
SYMBOL_2_BL0
 70
     0
 10
160.6666666667
 20
55.33333333329999
 30
0.0
  3
SYMBOL_2_BL0
  1

  0
TEXT
  5
2C0
330
225
100
AcDbEntity
  8
0
  6
Continuous
 62
     7
100
AcDbText
 10
144.4188815905
 20
63.10676672439999
 30
0.0
 40
0.5
  1
Infomations Techniques/Technical Infomations
  7
TEXTSTYLE_2
100
AcDbText
  0
TEXT
  5
2C1
330
225
100
AcDbEntity
  8
0
  6
Continuous
 62
     7
100
AcDbText
 10
144.6666666667
 20
61.6666666667
 30
0.0
 40
0.6666666667
  1
NOMBRE DE JETS:     58
  7
TEXTSTYLE_2
100
AcDbText
  0
TEXT
  5
2C2
330
225
100
AcDbEntity
  8
0
  6
Continuous
 62
     7
100
AcDbText
 10
144.6666666667
 20
60.6666666667
 30
0.0
 40
0.6666666667
  1
 
  7
TEXTSTYLE_2
100
AcDbText
  0
TEXT
  5
2C3
330
225
100
AcDbEntity
  8
0
  6
Continuous
 62
     7
100
AcDbText
 10
144.6666666667
 20
59.66666666670001
 30
0.0
 40
0.6666666667
  1
NIVEAU D'EAU              GALLONS(US)        LITRES        GALLONS(UK)
  7
TEXTSTYLE_2
100
AcDbText
  0
TEXT
  5
2C4
330
225
100
AcDbEntity
  8
0
  6
Continuous
 62
     7
100
AcDbText
 10
144.6666666667
 20
58.6666666667
 30
0.0
 40
0.6666666667
  1
PLEIN
  7
TEXTSTYLE_2
100
AcDbText
  0
TEXT
  5
2C5
330
225
100
AcDbEntity
  8
0
  6
Continuous
 62
     7
100
AcDbText
 10
144.6666666667
 20
57.6666666667
 30
0.0
 40
0.6666666667
  1
HAUT T.PLEIN
  7
TEXTSTYLE_2
100
AcDbText
  0
TEXT
  5
2C6
330
225
100
AcDbEntity
  8
0
  6
Continuous
 62
     7
100
AcDbText
 10
144.6666666667
 20
56.6666666667
 30
0.0
 40
0.6666666667
  1
MILIEU T.PLEIN
  7
TEXTSTYLE_2
100
AcDbText
  0
TEXT
  5
2C7
330
225
100
AcDbEntity
  8
0
  6
Continuous
 62
     7
100
AcDbText
 10
144.6666666667
 20
55.6666666667
 30
0.0
 40
0.6666666667
  1
BAS T.PLEIN
  7
TEXTSTYLE_2
100
AcDbText
  0
TEXT
  5
2C8
330
225
100
AcDbEntity
  8
0
  6
Continuous
 62
     7
100
AcDbText
 10
144.6666666667
 20
54.66666666670001
 30
0.0
 40
0.6666666667
  1
3" EN BAS T.PLEIN
  7
TEXTSTYLE_2
100
AcDbText
  0
TEXT
  5
2C9
330
225
100
AcDbEntity
  8
0
  6
Continuous
 62
     7
100
AcDbText
 10
144.6666666667
 20
53.6666666667
 30
0.0
 40
0.6666666667
  1
 
  7
TEXTSTYLE_2
100
AcDbText
  0
TEXT
  5
2CA
330
225
100
AcDbEntity
  8
0
  6
Continuous
 62
     7
100
AcDbText
 10
144.4665051611
 20
53.1198797418
 30
0.0
 40
0.5
  1
Legende/Legend
  7
TEXTSTYLE_2
100
AcDbText
  0
TEXT
  5
2CB
330
225
100
AcDbEntity
  8
0
  6
Continuous
 62
     7
100
AcDbText
 10
150.9953401051
 20
51.6086147641
 30
0.0
 40
0.6666666667
  1
ZONE DE ROBINETTERIE
  7
TEXTSTYLE_2
100
AcDbText
  0
TEXT
  5
2CC
330
225
100
AcDbEntity
  8
0
  6
Continuous
 62
     7
100
AcDbText
 10
145.9156155382
 20
50.1133702497
 30
0.0
 40
0.6666666667
  1
L   :  SYSTEME LED       DC   :  DOUBLE DOSSIER CHAUFFANT
  7
TEXTSTYLE_2
100
AcDbText
  0
TEXT
  5
2CD
330
225
100
AcDbEntity
  8
0
  6
Continuous
 62
     7
100
AcDbText
 10
145.9156155382
 20
48.7800369164
 30
0.0
 40
0.6666666667
  1
C   :  CONTROLE
  7
TEXTSTYLE_2
100
AcDbText
  0
TEXT
  5
2CE
330
225
100
AcDbEntity
  8
0
  6
Continuous
 62
     7
100
AcDbText
 10
145.9156155382
 20
47.4467035831
 30
0.0
 40
0.6666666667
  1
T   :  MOTEUR
  7
TEXTSTYLE_2
100
AcDbText
  0
TEXT
  5
2CF
330
225
100
AcDbEntity
  8
0
  6
Continuous
 62
     7
100
AcDbText
 10
157.2438078104
 20
58.6666666667
 30
0.0
 40
0.6666666667
  1
121
  7
TEXTSTYLE_2
100
AcDbText
  0
TEXT
  5
2D0
330
225
100
AcDbEntity
  8
0
  6
Continuous
 62
     7
100
AcDbText
 10
157.2438078104
 20
57.6666666667
 30
0.0
 40
0.6666666667
  1
104
  7
TEXTSTYLE_2
100
AcDbText
  0
TEXT
  5
2D1
330
225
100
AcDbEntity
  8
0
  6
Continuous
 62
     7
100
AcDbText
 10
157.499363366
 20
56.6666666667
 30
0.0
 40
0.6666666667
  1
95
  7
TEXTSTYLE_2
100
AcDbText
  0
TEXT
  5
2D2
330
225
100
AcDbEntity
  8
0
  6
Continuous
 62
     7
100
AcDbText
 10
157.499363366
 20
55.6666666667
 30
0.0
 40
0.6666666667
  1
87
  7
TEXTSTYLE_2
100
AcDbText
  0
TEXT
  5
2D3
330
225
100
AcDbEntity
  8
0
  6
Continuous
 62
     7
100
AcDbText
 10
157.499363366
 20
54.66666666670001
 30
0.0
 40
0.6666666667
  1
65
  7
TEXTSTYLE_2
100
AcDbText
  0
TEXT
  5
2D4
330
225
100
AcDbEntity
  8
0
  6
Continuous
 62
     7
100
AcDbText
 10
164.4195693097
 20
58.68374606879999
 30
0.0
 40
0.6666666667
  1
459
  7
TEXTSTYLE_2
100
AcDbText
  0
TEXT
  5
2D5
330
225
100
AcDbEntity
  8
0
  6
Continuous
 62
     7
100
AcDbText
 10
164.4195693097
 20
57.6837460688
 30
0.0
 40
0.6666666667
  1
395
  7
TEXTSTYLE_2
100
AcDbText
  0
TEXT
  5
2D6
330
225
100
AcDbEntity
  8
0
  6
Continuous
 62
     7
100
AcDbText
 10
164.4195693097
 20
56.6837460688
 30
0.0
 40
0.6666666667
  1
361
  7
TEXTSTYLE_2
100
AcDbText
  0
TEXT
  5
2D7
330
225
100
AcDbEntity
  8
0
  6
Continuous
 62
     7
100
AcDbText
 10
164.4195693097
 20
55.68374606879999
 30
0.0
 40
0.6666666667
  1
327
  7
TEXTSTYLE_2
100
AcDbText
  0
TEXT
  5
2D8
330
225
100
AcDbEntity
  8
0
  6
Continuous
 62
     7
100
AcDbText
 10
164.4195693097
 20
54.6837460688
 30
0.0
 40
0.6666666667
  1
246
  7
TEXTSTYLE_2
100
AcDbText
  0
TEXT
  5
2D9
330
225
100
AcDbEntity
  8
0
  6
Continuous
 62
     7
100
AcDbText
 10
171.1086526916
 20
58.6666666667
 30
0.0
 40
0.6666666667
  1
101
  7
TEXTSTYLE_2
100
AcDbText
  0
TEXT
  5
2DA
330
225
100
AcDbEntity
  8
0
  6
Continuous
 62
     7
100
AcDbText
 10
171.3642082472
 20
57.6666666667
 30
0.0
 40
0.6666666667
  1
87
  7
TEXTSTYLE_2
100
AcDbText
  0
TEXT
  5
2DB
330
225
100
AcDbEntity
  8
0
  6
Continuous
 62
     7
100
AcDbText
 10
171.3642082472
 20
56.6666666667
 30
0.0
 40
0.6666666667
  1
79
  7
TEXTSTYLE_2
100
AcDbText
  0
TEXT
  5
2DC
330
225
100
AcDbEntity
  8
0
  6
Continuous
 62
     7
100
AcDbText
 10
171.3642082472
 20
55.6666666667
 30
0.0
 40
0.6666666667
  1
72
  7
TEXTSTYLE_2
100
AcDbText
  0
TEXT
  5
2DD
330
225
100
AcDbEntity
  8
0
  6
Continuous
 62
     7
100
AcDbText
 10
171.3642082472
 20
54.66666666670001
 30
0.0
 40
0.6666666667
  1
54
  7
TEXTSTYLE_2
100
AcDbText
  0
LINE
  5
2DE
330
225
100
AcDbEntity
  8
0
  6
Continuous
 62
     7
100
AcDbLine
 10
144.0
 20
64.0
 30
0.0
 11
144.0
 21
46.6666666667
 31
0.0
  0
LINE
  5
2DF
330
225
100
AcDbEntity
  8
0
  6
Continuous
 62
     7
100
AcDbLine
 10
144.0
 20
64.0
 30
0.0
 11
177.3333333333
 21
64.0
 31
0.0
  0
LINE
  5
2E0
330
225
100
AcDbEntity
  8
0
  6
Continuous
 62
     7
100
AcDbLine
 10
177.3333333333
 20
64.0
 30
0.0
 11
177.3333333333
 21
46.6666666667
 31
0.0
  0
LINE
  5
2E1
330
225
100
AcDbEntity
  8
0
  6
Continuous
 62
     7
100
AcDbLine
 10
144.0
 20
46.6666666667
 30
0.0
 11
177.3333333333
 21
46.6666666667
 31
0.0
  0
LINE
  5
2E2
330
225
100
AcDbEntity
  8
0
  6
Continuous
 62
     7
100
AcDbLine
 10
145.3333333333
 20
54.0
 30
0.0
 11
176.0
 21
54.0
 31
0.0
  0
LINE
  5
2E3
330
225
100
AcDbEntity
  8
0
  6
Continuous
 62
     7
100
AcDbLine
 10
145.3333333333
 20
61.0
 30
0.0
 11
176.0
 21
61.0
 31
0.0
  0
LINE
  5
2E4
330
225
100
AcDbEntity
  8
0
  6
Continuous
 62
     7
100
AcDbLine
 10
144.8089065593
 20
52.3781645044
 30
0.0
 11
144.4398858169
 21
52.009143762
 31
0.0
  0
LINE
  5
2E5
330
225
100
AcDbEntity
  8
0
  6
Continuous
 62
     7
100
AcDbLine
 10
145.4755732259
 20
52.3781645044
 30
0.0
 11
144.6775574355
 21
51.5801487139
 31
0.0
  0
LINE
  5
2E6
330
225
100
AcDbEntity
  8
0
  6
Continuous
 62
     7
100
AcDbLine
 10
146.1422398926
 20
52.3781645044
 30
0.0
 11
145.3442241022
 21
51.5801487139
 31
0.0
  0
LINE
  5
2E7
330
225
100
AcDbEntity
  8
0
  6
Continuous
 62
     7
100
AcDbLine
 10
146.8089065593
 20
52.3781645044
 30
0.0
 11
146.0108907688
 21
51.5801487139
 31
0.0
  0
LINE
  5
2E8
330
225
100
AcDbEntity
  8
0
  6
Continuous
 62
     7
100
AcDbLine
 10
147.4755732259
 20
52.3781645044
 30
0.0
 11
146.6775574355
 21
51.5801487139
 31
0.0
  0
LINE
  5
2E9
330
225
100
AcDbEntity
  8
0
  6
Continuous
 62
     7
100
AcDbLine
 10
148.1422398926
 20
52.3781645044
 30
0.0
 11
147.3442241022
 21
51.5801487139
 31
0.0
  0
LINE
  5
2EA
330
225
100
AcDbEntity
  8
0
  6
Continuous
 62
     7
100
AcDbLine
 10
148.8089065593
 20
52.3781645044
 30
0.0
 11
148.0108907688
 21
51.5801487139
 31
0.0
  0
LINE
  5
2EB
330
225
100
AcDbEntity
  8
0
  6
Continuous
 62
     7
100
AcDbLine
 10
149.4755732259
 20
52.3781645044
 30
0.0
 11
148.6775574355
 21
51.5801487139
 31
0.0
  0
LINE
  5
2EC
330
225
100
AcDbEntity
  8
0
  6
Continuous
 62
     7
100
AcDbLine
 10
150.1422398926
 20
52.3781645044
 30
0.0
 11
149.3442241022
 21
51.5801487139
 31
0.0
  0
LINE
  5
2ED
330
225
100
AcDbEntity
  8
0
  6
Continuous
 62
     7
100
AcDbLine
 10
150.5857273268
 20
52.1549852718
 30
0.0
 11
150.0108907688
 21
51.5801487139
 31
0.0
  0
ELLIPSE
  5
2EE
330
225
100
AcDbEntity
  8
0
  6
Continuous
 62
     7
100
AcDbEllipse
 10
146.1454024822
 20
50.43094770689999
 30
0.0
 11
1.0473539356
 21
0.0
 31
0.0
210
0.0
220
0.0
230
1.0
 40
0.4938647983
 41
0.0
 42
6.283185307179586
  0
ELLIPSE
  5
2EF
330
225
100
AcDbEntity
  8
0
  6
Continuous
 62
     7
100
AcDbEllipse
 10
146.1454024822
 20
49.0976143736
 30
0.0
 11
1.0473539356
 21
0.0
 31
0.0
210
0.0
220
0.0
230
1.0
 40
0.4938647983
 41
0.0
 42
6.283185307179586
  0
ELLIPSE
  5
2F0
330
225
100
AcDbEntity
  8
0
  6
Continuous
 62
     7
100
AcDbEllipse
 10
146.1454024822
 20
47.76428104029999
 30
0.0
 11
1.0473539356
 21
0.0
 31
0.0
210
0.0
220
0.0
230
1.0
 40
0.4938647983
 41
0.0
 42
6.283185307179586
  0
ELLIPSE
  5
2F1
330
225
100
AcDbEntity
  8
0
  6
Continuous
 62
     7
100
AcDbEllipse
 10
157.1640380633
 20
50.45046906399999
 30
0.0
 11
1.0473539356
 21
0.0
 31
0.0
210
0.0
220
0.0
230
1.0
 40
0.4938647983
 41
0.0
 42
6.283185307179586
  0
ENDBLK
  5
2F2
330
225
100
AcDbEntity
  8
0
  6
ByBlock
 62
     0
100
AcDbBlockEnd
  0
ENDSEC
  0
SECTION
  2
ENTITIES
  0
LWPOLYLINE
  5
3B0
330
21A
100
AcDbEntity
  8
DEFAULT_2
  6
HIDDEN
 62
     7
100
AcDbPolyline
 90
       33
 70
     0
 43
0.0
 10
22.1154640781
 20
43.4902613306
 10
22.1169566217
 20
43.4761268947
 10
22.1185273821
 20
43.4614775054
 10
22.1201838998
 20
43.446298354
 10
22.1219333622
 20
43.4305794217
 10
22.1237838575
 20
43.4143106465
 10
22.1257470765
 20
43.39748179369999
 10
22.1278356107
 20
43.38008258569999
 10
22.1300632386
 20
43.36210274959999
 10
22.1324484865
 20
43.3435320327
 10
22.1350110675
 20
43.3243601872
 10
22.1377721937
 20
43.3045756843
 10
22.1407590723
 20
43.2841618697
 10
22.1440004096
 20
43.26310080819999
 10
22.1475223763
 20
43.2413759146
 10
22.151341001
 20
43.21897600409999
 10
22.155469777
 20
43.1958912417
 10
22.1587779554
 20
43.1781212154
 10
22.1622735316
 20
43.1599496531
 10
22.1659618534
 20
43.14136578
 10
22.1698482687
 20
43.1223588213
 10
22.1739385639
 20
43.1029184104
 10
22.1782402807
 20
43.08303581359999
 10
22.1827613997
 20
43.06270270539999
 10
22.1875099013
 20
43.0419107602
 10
22.1924945939
 20
43.020649635
 10
22.1977275976
 20
42.998900917
 10
22.20322186
 20
42.9766441759
 10
22.2089903293
 20
42.9538589812
 10
22.2150450979
 20
42.9305300126
 10
22.2213948375
 20
42.9066623902
 10
22.2280473648
 20
42.88226634379999
 10
22.2350104961
 20
42.8573521034
  0
LINE
  5
3B1
330
21A
100
AcDbEntity
  8
DEFAULT_2
  6
HIDDEN
 62
     7
100
AcDbLine
 10
22.1126774759
 20
43.51712600739999
 30
0.0
 11
22.1154640781
 21
43.4902613306
 31
0.0
  0
LINE
  5
3B2
330
21A
100
AcDbEntity
  8
DEFAULT_2
  6
HIDDEN
 62
     7
100
AcDbLine
 10
22.10361267
 20
43.60568512399999
 30
0.0
 11
22.1070748486
 21
43.5720255862
 31
0.0
  0
LINE
  5
3B3
330
21A
100
AcDbEntity
  8
DEFAULT_2
  6
HIDDEN
 62
     7
100
AcDbLine
 10
22.1070748486
 20
43.5720255862
 30
0.0
 11
22.1126774759
 21
43.51712600739999
 31
0.0
  0
LWPOLYLINE
  5
3B6
330
21A
100
AcDbEntity
  8
DEFAULT_2
  6
HIDDEN
 62
     7
100
AcDbPolyline
 90
       20
 70
     0
 43
0.0
 10
22.0572494466
 20
43.87468551939999
 10
22.0618426164
 20
43.8634484766
 10
22.0661074009
 20
43.8520304904
 10
22.0698522677
 20
43.84033141249999
 10
22.07308028
 20
43.82847514479999
 10
22.0758532014
 20
43.8166030497
 10
22.0782730034
 20
43.8047022806
 10
22.0804424553
 20
43.79273476569999
 10
22.0824273122
 20
43.78071574069999
 10
22.0860208459
 20
43.7566274472
 10
22.0892626725
 20
43.7325281055
 10
22.090801689
 20
43.72037672850001
 10
22.0923169095
 20
43.7079999693
 10
22.0938326958
 20
43.69523958649999
 10
22.095371238
 20
43.68192368869999
 10
22.0969501549
 20
43.6679109772
 10
22.0985709485
 20
43.6531961717
 10
22.1002292423
 20
43.63782973439999
 10
22.1019132621
 20
43.6219490774
 10
22.10361267
 20
43.60568512399999
  0
LWPOLYLINE
  5
3B7
330
21A
100
AcDbEntity
  8
DEFAULT_2
  6
HIDDEN
 62
     7
100
AcDbPolyline
 90
      108
 70
     0
 43
0.0
 10
22.2350104961
 20
42.8573521034
 10
22.2834814687
 20
42.6975215048
 10
22.3371403549
 20
42.5375162363
 10
22.3933725514
 20
42.37900645409999
 10
22.4498518223
 20
42.2231581117
 10
22.4780909939
 20
42.1453868897
 10
22.5067879724
 20
42.0660380246
 10
22.536422333
 20
41.98344966959999
 10
22.5673240447
 20
41.89613023409999
 10
22.5997827916
 20
41.8026173551
 10
22.6340767249
 20
41.7013953241
 10
22.6703415349
 20
41.5914270964
 10
22.7081546002
 20
41.4736436275
 10
22.7469618073
 20
41.34951309339999
 10
22.7862413837
 20
41.2206845509
 10
22.8255508367
 20
41.0886781811
 10
22.8647324517
 20
40.954317781
 10
22.9426811446
 20
40.6800284083
 10
23.0206770061
 20
40.398285436
 10
23.0981570123
 20
40.1125165975
 10
23.1733453526
 20
39.8291358829
 10
23.2454143208
 20
39.5495729749
 10
23.3146145645
 20
39.2716900461
 10
23.3811080814
 20
38.9940471457
 10
23.4450047253
 20
38.715799708
 10
23.5065294715
 20
38.436491404
 10
23.5658968452
 20
38.1560650263
 10
23.6232097403
 20
37.874755691
 10
23.6788227146
 20
37.5912377085
 10
23.706332571
 20
37.4468846977
 10
23.7338030096
 20
37.2998490185
 10
23.7613071486
 20
37.1495966599
 10
23.788841051
 20
36.9959559046
 10
23.8163812236
 20
36.8388309902
 10
23.843903003
 20
36.6780676812
 10
23.8713776006
 20
36.5134956664
 10
23.8987608964
 20
36.3449388053
 10
23.9259358659
 20
36.1726846783
 10
23.9525091992
 20
35.9988815786
 10
23.9780339188
 20
35.8261556996
 10
24.002124662
 20
35.6571841239
 10
24.0172118524
 20
35.5479510544
 10
24.0314239404
 20
35.4423827602
 10
24.0446875727
 20
35.34127996880001
 10
24.0569579909
 20
35.2452279972
 10
24.0683048172
 20
35.1539505218
 10
24.0788262692
 20
35.06695580880001
 10
24.0932619322
 20
34.9434281674
 10
24.1063102439
 20
34.8268302353
 10
24.1182124022
 20
34.7155456638
 10
24.1291793886
 20
34.6078931305
 10
24.1489783888
 20
34.39711013570001
 10
24.166243348
 20
34.1864118278
 10
24.1736376502
 20
34.0826806078
 10
24.1801467023
 20
33.9811024252
 10
24.185821426
 20
33.8820588799
 10
24.1908144092
 20
33.7849973047
 10
24.199479818
 20
33.59401279780001
 10
24.207649027
 20
33.40470973489999
 10
24.2169294712
 20
33.2182543748
 10
24.2291384401
 20
33.0346190406
 10
24.2467787023
 20
32.8505968656
 10
24.2585901731
 20
32.7579127089
 10
24.2728562497
 20
32.6651526674
 10
24.2898616122
 20
32.57277584940001
 10
24.3097703892
 20
32.4810422879
 10
24.3326670678
 20
32.3901683024
 10
24.3584381214
 20
32.3003944327
 10
24.3869553338
 20
32.2118881787
 10
24.4182297444
 20
32.12450066000001
 10
24.4523362159
 20
32.03798636320001
 10
24.4894656472
 20
31.9520296244
 10
24.5297675212
 20
31.8664583473
 10
24.5731096213
 20
31.7817448558
 10
24.61925374070001
 20
31.6985171791
 10
24.6678194131
 20
31.617381748
 10
24.7185066641
 20
31.538749759
 10
24.7714797476
 20
31.4622730721
 10
24.8270384061
 20
31.3874558127
 10
24.8855601093
 20
31.3139705055
 10
24.9472496873
 20
31.2417445678
 10
25.0115436856
 20
31.1715565912
 10
25.0777255285
 20
31.1042894267
 10
25.14523444
 20
31.0403917907
 10
25.2137225581
 20
30.9800596278
 10
25.283537875
 20
30.9229119293
 10
25.3551732701
 20
30.8684851848
 10
25.4290053148
 20
30.8165628306
 10
25.5052156361
 20
30.7670890054
 10
25.5833223917
 20
30.7204037106
 10
25.6626829664
 20
30.6769013399
 10
25.7426751235
 20
30.6367979937
 10
25.8226005122
 20
30.6002634905
 10
25.9014359461
 20
30.567460814
 10
25.9781019096
 20
30.53849946510001
 10
26.0516184058
 20
30.5132818499
 10
26.1213154337
 20
30.4915811451
 10
26.1876634571
 20
30.4728607061
 10
26.25144199
 20
30.456542888
 10
26.31352628010001
 20
30.4421958653
 10
26.4360207226
 20
30.4181069097
 10
26.5599928097
 20
30.39913776880001
 10
26.684774544
 20
30.3853446686
 10
26.80977356610001
 20
30.3764276382
 10
26.9356533028
 20
30.3709319244
 10
27.0626028589
 20
30.3672460389
 10
27.1901575816
 20
30.363912529
 10
27.3178534811
 20
30.3600186264
  0
LWPOLYLINE
  5
3BB
330
21A
100
AcDbEntity
  8
DEFAULT_2
  6
HIDDEN
 62
     7
100
AcDbPolyline
 90
       29
 70
     0
 43
0.0
 10
17.3321233806
 20
51.746182982
 10
17.534863255
 20
51.53106086810001
 10
17.7344218237
 20
51.31044188689999
 10
17.9308081372
 20
51.0844660627
 10
18.1240312457
 20
50.8532734197
 10
18.3184155525
 20
50.6115421314
 10
18.5095127797
 20
50.3646841246
 10
18.6973360849
 20
50.11288460350001
 10
18.8818986255
 20
49.8563287722
 10
19.0632135592
 20
49.5952018347
 10
19.2412940433
 20
49.3296889952
 10
19.4375109077
 20
49.0264759801
 10
19.6295908321
 20
48.7187810872
 10
19.8174629723
 20
48.4074247963
 10
20.0010564845
 20
48.09322758689999
 10
20.1803005248
 20
47.77700993879999
 10
20.3551320041
 20
47.4595578647
 10
20.5255188528
 20
47.1415195101
 10
20.6914367564
 20
46.8235085532
 10
20.8528614003
 20
46.50613867239999
 10
21.0097684697
 20
46.19002354609999
 10
21.1621391643
 20
45.8757513144
 10
21.3099767408
 20
45.5638079638
 10
21.4532899699
 20
45.2546539426
 10
21.5920876226
 20
44.94874969899999
 10
21.7263784698
 20
44.6465556813
 10
21.8400211539
 20
44.38592784369999
 10
21.9502913919
 20
44.1285990641
 10
22.0572494466
 20
43.87468551939999
  0
LWPOLYLINE
  5
3BC
330
21A
100
AcDbEntity
  8
DEFAULT_2
  6
HIDDEN
 62
     7
100
AcDbPolyline
 90
       53
 70
     0
 43
0.0
 10
42.75372493289999
 20
29.2473195262
 10
42.7551191003
 20
29.2335646311
 10
42.7568882088
 20
29.2198848634
 10
42.7590327442
 20
29.2062742221
 10
42.7615531921
 20
29.1927267064
 10
42.76444923389999
 20
29.1792402739
 10
42.7677173334
 20
29.165828716
 10
42.7713531503
 20
29.1525097829
 10
42.7753523442
 20
29.1393012247
 10
42.7797110886
 20
29.1262184041
 10
42.7844276136
 20
29.1132671359
 10
42.7895006635
 20
29.1004508474
 10
42.7949289825
 20
29.0877729662
 10
42.8007101178
 20
29.0752390334
 10
42.80683682929999
 20
29.0628630451
 10
42.81330067999999
 20
29.0506611113
 10
42.8200932329
 20
29.0386493418
 10
42.8272073067
 20
29.0268414307
 10
42.83464074309999
 20
29.0152414091
 10
42.84239263969999
 20
29.0038508925
 10
42.85046209399999
 20
28.992671496
 10
42.8588462285
 20
28.9817070967
 10
42.8675342665
 20
28.9709706174
 10
42.8765134562
 20
28.9604772429
 10
42.88577104589999
 20
28.9502421577
 10
42.8952962953
 20
28.9402781229
 10
42.9050865094
 20
28.9305882062
 10
42.9151410046
 20
28.9211730517
 10
42.9254590975
 20
28.9120333037
 10
42.93603760969999
 20
28.9031715245
 10
42.9468633843
 20
28.8945979484
 10
42.9579207697
 20
28.8863247277
 10
42.9691941143
 20
28.8783640151
 10
42.98067009199999
 20
28.870726075
 10
42.9923446793
 20
28.863413621
 10
43.0042161785
 20
28.8564274787
 10
43.01628289149999
 20
28.8497684738
 10
43.02854069939999
 20
28.8434385932
 10
43.04097579729999
 20
28.8374444688
 10
43.0535719594
 20
28.8317938937
 10
43.06631295959999
 20
28.8264946612
 10
43.07918458409999
 20
28.8215534563
 10
43.09218066689999
 20
28.8169725317
 10
43.1052970542
 20
28.8127530323
 10
43.1185295921
 20
28.8088961026
 10
43.1318722684
 20
28.8054032844
 10
43.1453116372
 20
28.8022777059
 10
43.15883239459999
 20
28.7995228924
 10
43.1724192363
 20
28.7971423692
 10
43.186059536
 20
28.7951390731
 10
43.1997513782
 20
28.7935135872
 10
43.2134955253
 20
28.7922659063
 10
43.2272927396
 20
28.7913960251
  0
LINE
  5
3BD
330
21A
100
AcDbEntity
  8
DEFAULT_2
  6
HIDDEN
 62
     7
100
AcDbLine
 10
42.7407093475
 20
29.396088348
 30
0.0
 11
42.75372493289999
 21
29.2473195262
 31
0.0
  0
LWPOLYLINE
  5
3C1
330
21A
100
AcDbEntity
  8
DEFAULT_2
  6
HIDDEN
 62
     7
100
AcDbPolyline
 90
        5
 70
     0
 43
0.0
 10
39.6963875044
 20
45.05385248359999
 10
39.6838988112
 20
45.09596607119999
 10
39.6715030962
 20
45.13810714789999
 10
39.6591366305
 20
45.1804932422
 10
39.6468632641
 20
45.22290636060001
  0
LWPOLYLINE
  5
3C2
330
21A
100
AcDbEntity
  8
DEFAULT_2
  6
HIDDEN
 62
     7
100
AcDbPolyline
 90
       70
 70
     0
 43
0.0
 10
39.6468632641
 20
45.22290636060001
 10
39.6427997265
 20
45.23764408389999
 10
39.6390803471
 20
45.2524745042
 10
39.6357126084
 20
45.26738922169999
 10
39.6327897247
 20
45.2819245356
 10
39.6302106801
 20
45.29652419729999
 10
39.627981631
 20
45.3111811881
 10
39.6261589573
 20
45.32545226249999
 10
39.6246770498
 20
45.3397628313
 10
39.6235412941
 20
45.3541050128
 10
39.6227739118
 20
45.36807283329999
 10
39.6223432505
 20
45.3820550176
 10
39.622253688
 20
45.3960434945
 10
39.6224987587
 20
45.4096777258
 10
39.6230754668
 20
45.42330193709999
 10
39.6239871633
 20
45.4369077984
 10
39.6252041826
 20
45.4501720731
 10
39.6267462762
 20
45.4634024667
 10
39.6286157021
 20
45.4765905539
 10
39.6307689749
 20
45.489474788
 10
39.633240375
 20
45.50230178199999
 10
39.6360310396
 20
45.5150630881
 10
39.6390867896
 20
45.5275368822
 10
39.6424522169
 20
45.53993069689999
 10
39.6461273137
 20
45.5522362088
 10
39.650055824
 20
45.5642803502
 10
39.6542845107
 20
45.57622239879999
 10
39.6588122228
 20
45.58805428729999
 10
39.6635955906
 20
45.5996695022
 10
39.66866953
 20
45.6111607568
 10
39.6740317518
 20
45.6225203284
 10
39.6796448401
 20
45.6336732826
 10
39.685537098
 20
45.6446813018
 10
39.6917051436
 20
45.65553717939999
 10
39.6981416178
 20
45.6662276737
 10
39.7048457422
 20
45.67675240069999
 10
39.7118130758
 20
45.6871047572
 10
39.7190658353
 20
45.6973150318
 10
39.7265738136
 20
45.7073391468
 10
39.73433157090001
 20
45.71717122359999
 10
39.7423881419
 20
45.7268696255
 10
39.7506860145
 20
45.7363624211
 10
39.7592188556
 20
45.7456445906
 10
39.7680992445
 20
45.7548313907
 10
39.7772072525
 20
45.7637926174
 10
39.7865356907
 20
45.7725241653
 10
39.7962294672
 20
45.78115426340001
 10
39.8061353685
 20
45.78954007439999
 10
39.8162454985
 20
45.7976785276
 10
39.826766354
 20
45.8057266736
 10
39.8374832107
 20
45.8135119858
 10
39.8483875616
 20
45.8210324874
 10
39.8597577151
 20
45.8284690921
 10
39.8713071342
 20
45.8356242052
 10
39.8830267904
 20
45.84249699569999
 10
39.8952405996
 20
45.8492661806
 10
39.9076153332
 20
45.855736592
 10
39.9201416089
 20
45.86190859
 10
39.9332406454
 20
45.8679760302
 10
39.9464819622
 20
45.87372650899999
 10
39.9598559092
 20
45.8791616027
 10
39.9738277045
 20
45.88445672149999
 10
39.987921368
 20
45.8894184352
 10
40.00212702419999
 20
45.8940495093
 10
40.016997177
 20
45.8985147084
 10
40.0319681779
 20
45.902629898
 10
40.04703060559999
 20
45.9063991182
 10
40.0628013993
 20
45.909960578
 10
40.07864988219999
 20
45.9131561729
 10
40.094564832
 20
45.9159907646
  0
LWPOLYLINE
  5
3C5
330
21A
100
AcDbEntity
  8
DEFAULT_2
  6
HIDDEN
 62
     7
100
AcDbPolyline
 90
        6
 70
     0
 43
0.0
 10
43.4093855612
 20
45.9240595289
 10
43.4097943604
 20
45.9235315634
 10
43.41185951759999
 20
45.92067406209999
 10
43.4135327503
 20
45.9180595832
 10
43.4165840083
 20
45.9129123741
 10
43.4195239081
 20
45.90748816659999
  0
LWPOLYLINE
  5
3C6
330
21A
100
AcDbEntity
  8
DEFAULT_2
  6
HIDDEN
 62
     7
100
AcDbPolyline
 90
        5
 70
     0
 43
0.0
 10
43.52064255600001
 20
45.5073712358
 10
43.5172934164
 20
45.534667657
 10
43.5140194063
 20
45.5619732178
 10
43.51080433929999
 20
45.58942546759999
 10
43.50766468799999
 20
45.6168864187
  0
LWPOLYLINE
  5
3F0
330
21A
100
AcDbEntity
  8
DEFAULT_2
  6
HIDDEN
 62
     7
100
AcDbPolyline
 90
        4
 70
     0
 43
0.0
 10
43.4169732288
 20
45.91656069739999
 10
43.4148350498
 20
45.9184964352
 10
43.41353281409999
 20
45.9197885874
 10
43.4119916824
 20
45.9214018504
  0
LWPOLYLINE
  5
3F1
330
21A
100
AcDbEntity
  8
DEFAULT_2
  6
HIDDEN
 62
     7
100
AcDbPolyline
 90
        6
 70
     0
 43
0.0
 10
43.4119916824
 20
45.9214018504
 10
43.40981223439999
 20
45.9237619947
 10
43.40914549409999
 20
45.9244626298
 10
43.40909372609999
 20
45.924445532
 10
43.4092161009
 20
45.9242804815
 10
43.4093855612
 20
45.9240595289
  0
LWPOLYLINE
  5
3F2
330
21A
100
AcDbEntity
  8
DEFAULT_2
  6
HIDDEN
 62
     7
100
AcDbPolyline
 90
       66
 70
     0
 43
0.0
 10
57.6415900652
 20
45.6168864188
 10
57.6439311149
 20
45.6356467296
 10
57.6467070612
 20
45.6543502415
 10
57.6499120326
 20
45.67298578179999
 10
57.65362000999999
 20
45.691926601
 10
57.6577636848
 20
45.7107762039
 10
57.66233786789999
 20
45.72952583510001
 10
57.6673954574
 20
45.7483733012
 10
57.6728832783
 20
45.7671002161
 10
57.67879673220001
 20
45.78569718689999
 10
57.68515494119999
 20
45.80422111069999
 10
57.69193337619999
 20
45.82259535979999
 10
57.6991281883
 20
45.84081060289999
 10
57.70674059920001
 20
45.85886886609999
 10
57.7147628212
 20
45.87674884520001
 10
57.7231916126
 20
45.89444080759999
 10
57.7319536491
 20
45.91179982799999
 10
57.741110005
 20
45.9289540874
 10
57.75065791350001
 20
45.9458935139
 10
57.7604295834
 20
45.9623373626
 10
57.7705749687
 20
45.97855325689999
 10
57.7810915684
 20
45.9945308763
 10
57.7917768997
 20
46.0099778034
 10
57.802815216
 20
46.0251744461
 10
57.81420399379999
 20
46.04011021239999
 10
57.82569270749999
 20
46.0544718528
 10
57.8375122086
 20
46.0685624534
 10
57.84965968619999
 20
46.0823712547
 10
57.86181219199999
 20
46.09554860329999
 10
57.87427030189999
 20
46.1084373418
 10
57.8870307238
 20
46.121026781
 10
57.8997349072
 20
46.132980036
 10
57.91271831939999
 20
46.1446293259
 10
57.92597703689999
 20
46.15596422449999
 10
57.939174543
 20
46.16671027069999
 10
57.9526256745
 20
46.17713703289999
 10
57.9663257211
 20
46.18723442999999
 10
57.9798865372
 20
46.1967309902
 10
57.9936729334
 20
46.2058969077
 10
58.007679415
 20
46.2147227351
 10
58.02147111
 20
46.22295022649999
 10
58.0354585405
 20
46.2308402617
 10
58.04963551850001
 20
46.2383842886
 10
58.0636140785
 20
46.2453885489
 10
58.0777595824
 20
46.25204913149999
 10
58.09206517189999
 20
46.2583584376
 10
58.1062029243
 20
46.26418148409999
 10
58.1204797103
 20
46.26965472619999
 10
58.1348880283
 20
46.27477156109999
 10
58.1491063362
 20
46.279427101
 10
58.1634353998
 20
46.28372958539999
 10
58.1778672232
 20
46.28767351859999
 10
58.1920963954
 20
46.291184179
 10
58.2064081617
 20
46.2943411679
 10
58.2207941796
 20
46.2971401568
 10
58.23504109489999
 20
46.29954504479999
 10
58.24934345409999
 20
46.30159458529999
 10
58.2636926438
 20
46.3032855779
 10
58.2851010741
 20
46.3051310529
 10
58.3065635293
 20
46.30616945209999
 10
58.32084877959999
 20
46.3064099373
 10
58.3351357237
 20
46.30628957299999
 10
58.3494156583
 20
46.30580737149999
 10
58.36371645699999
 20
46.3049599205
 10
58.3779903972
 20
46.3037481999
 10
58.39222641479999
 20
46.3021726489
  0
LWPOLYLINE
  5
463
330
21A
100
AcDbEntity
  8
DEFAULT_2
  6
HIDDEN
 62
     7
100
AcDbPolyline
 90
       22
 70
     0
 43
0.0
 10
43.2272927396
 20
28.7913960251
 10
43.27549756199999
 20
28.7890136397
 10
43.5154663579
 20
28.7768024299
 10
43.7543769852
 20
28.7641090608
 10
44.2295758222
 20
28.7375274058
 10
44.7021982487
 20
28.7097717976
 10
45.17334844079999
 20
28.681345359
 10
45.6441305743
 20
28.6527512129
 10
46.115648825
 20
28.6244924819
 10
46.5890073688
 20
28.5970722889
 10
47.0653103816
 20
28.5709937568
 10
47.5456620393
 20
28.54676000820001
 10
47.7877011649
 20
28.5354921537
 10
48.0311665177
 20
28.5248741661
 10
48.2761961197
 20
28.5149689359
 10
48.5229279927
 20
28.5058393533
 10
48.8547903572
 20
28.4949818389
 10
49.1902515171
 20
28.4857641322
 10
49.52963863549999
 20
28.4783353065
 10
49.8732788764
 20
28.4728444354
 10
50.2214994024
 20
28.4694405922
 10
50.57462737659999
 20
28.4682728504
  0
LINE
  5
466
330
21A
100
AcDbEntity
  8
DEFAULT_2
  6
HIDDEN
 62
     7
100
AcDbLine
 10
58.3955299226
 20
29.2473206956
 30
0.0
 11
58.40854540569999
 21
29.396088348
 31
0.0
  0
LWPOLYLINE
  5
49F
330
21A
100
AcDbEntity
  8
DEFAULT_2
  6
HIDDEN
 62
     7
100
AcDbPolyline
 90
       57
 70
     0
 43
0.0
 10
57.92196201350001
 20
28.7913960251
 10
57.93473249419999
 20
28.7921880701
 10
57.9474725252
 20
28.7933052764
 10
57.960183106
 20
28.79474881
 10
57.9728652361
 20
28.7965198371
 10
57.9855170405
 20
28.7986189069
 10
57.9981251471
 20
28.8010441023
 10
58.010673309
 20
28.8037928897
 10
58.0231452798
 20
28.8068627351
 10
58.0355257002
 20
28.8102506206
 10
58.04780276089999
 20
28.813951592
 10
58.0599655401
 20
28.8179602107
 10
58.0720031159
 20
28.8222710383
 10
58.08390708020001
 20
28.8268798823
 10
58.0956790796
 20
28.8317875353
 10
58.1073232742
 20
28.8369960359
 10
58.1188438243
 20
28.8425074227
 10
58.13024196749999
 20
28.8483224906
 10
58.1415072515
 20
28.854437059
 10
58.15262630140001
 20
28.8608457037
 10
58.16358574209999
 20
28.8675430002
 10
58.174372494
 20
28.8745228622
 10
58.1849746576
 20
28.8817765547
 10
58.1953806288
 20
28.8892946808
 10
58.20557880329999
 20
28.8970678436
 10
58.2155592483
 20
28.905087739
 10
58.2253187159
 20
28.9133504345
 10
58.2348556296
 20
28.9218530903
 10
58.2441684128
 20
28.9305928668
 10
58.2532552859
 20
28.9395671686
 10
58.2621136571
 20
28.9487743773
 10
58.2707407314
 20
28.9582131187
 10
58.2791337137
 20
28.9678820186
 10
58.2872886419
 20
28.97777807340001
 10
58.2951968844
 20
28.987891762
 10
58.3028486423
 20
28.9982119336
 10
58.3102341168
 20
29.0087274378
 10
58.3173441389
 20
29.0194267832
 10
58.3241720595
 20
29.0302971158
 10
58.3307118593
 20
29.0413252412
 10
58.3369575192
 20
29.0524979648
 10
58.34290437649999
 20
29.0638049065
 10
58.348553195
 20
29.0752469448
 10
58.353906095
 20
29.0868277724
 10
58.358965197
 20
29.0985510823
 10
58.3637313224
 20
29.1104183335
 10
58.3682000969
 20
29.1224220495
 10
58.3723658473
 20
29.1345525201
 10
58.3762229002
 20
29.1468000347
 10
58.3797659541
 20
29.1591533732
 10
58.3829911933
 20
29.1715952751
 10
58.38589517399999
 20
29.18410697010001
 10
58.38847445199999
 20
29.19666968780001
 10
58.3907264314
 20
29.2092688036
 10
58.3926519075
 20
29.2219062748
 10
58.3942525235
 20
29.2345882044
 10
58.3955299226
 20
29.2473206956
  0
LINE
  5
4B8
330
21A
100
AcDbEntity
  8
DEFAULT_2
  6
HIDDEN
 62
     7
100
AcDbLine
 10
58.88966000679999
 20
29.8522219796
 30
0.0
 11
73.83140127209999
 21
30.3600186264
 31
0.0
  0
LWPOLYLINE
  5
4BA
330
21A
100
AcDbEntity
  8
DEFAULT_2
  6
HIDDEN
 62
     7
100
AcDbPolyline
 90
      107
 70
     0
 43
0.0
 10
73.83140127209999
 20
30.3600186264
 10
73.9568910711
 20
30.3638517544
 10
74.08201388080001
 20
30.3671259259
 10
74.20666728829999
 20
30.3706971888
 10
74.33067999149999
 20
30.3759496747
 10
74.45420782319999
 20
30.3844414808
 10
74.5775298405
 20
30.3976162479
 10
74.70008799449999
 20
30.4158422136
 10
74.8210430841
 20
30.4390168644
 10
74.88204404529999
 20
30.4527568622
 10
74.94445941329999
 20
30.4683178068
 10
75.00916681060001
 20
30.48609684840001
 10
75.07698803300001
 20
30.5066365238
 10
75.14848425939999
 20
30.5304594753
 10
75.2232300278
 20
30.557863381
 10
75.3004724566
 20
30.5890252119
 10
75.3791356256
 20
30.623864076
 10
75.4581505242
 20
30.6622342004
 10
75.53679881890001
 20
30.7039881515
 10
75.61444556409999
 20
30.7489365715
 10
75.690438688
 20
30.7967240653
 10
75.7642506623
 20
30.8470170028
 10
75.8358692571
 20
30.8997348496
 10
75.90548841189999
 20
30.9549471606
 10
75.973611445
 20
31.0130707502
 10
76.0406860889
 20
31.0745214132
 10
76.10662835640001
 20
31.1393636062
 10
76.1711101722
 20
31.2074088229
 10
76.2333588284
 20
31.2778080418
 10
76.292665223
 20
31.3497091507
 10
76.3490193083
 20
31.4229081889
 10
76.4026256108
 20
31.4974701586
 10
76.4538478979
 20
31.5738877626
 10
76.50298295829999
 20
31.6526244294
 10
76.54990042289999
 20
31.7335987902
 10
76.5943407055
 20
31.816487636
 10
76.63595450729999
 20
31.9005451939
 10
76.6744619101
 20
31.98508841320001
 10
76.7099502305
 20
32.0701076958
 10
76.742587908
 20
32.1557916489
 10
76.7725006406
 20
32.2424482496
 10
76.7997619438
 20
32.3303292247
 10
76.82427934669999
 20
32.4193419311
 10
76.8459400192
 20
32.5092941818
 10
76.8647156825
 20
32.5999399834
 10
76.88065289069999
 20
32.6910409159
 10
76.8940129789
 20
32.782442658
 10
76.9142925539
 20
32.9657248386
 10
76.92823511100001
 20
33.14973499150001
 10
76.9384309337
 20
33.3361324428
 10
76.9468472617
 20
33.525392222
 10
76.9551724665
 20
33.7161314577
 10
76.9649882267
 20
33.91018072810001
 10
76.9776604197
 20
34.1126313181
 10
76.9938896807
 20
34.3229864457
 10
77.01289976019999
 20
34.5342795315
 10
77.02333644859999
 20
34.6404915884
 10
77.03454052069999
 20
34.7487915958
 10
77.04669299489999
 20
34.8608595437
 10
77.0599797946
 20
34.9780732952
 10
77.0746109941
 20
35.1018411756
 10
77.09088836390001
 20
35.2339954862
 10
77.10907950959999
 20
35.3759797386
 10
77.1292236805
 20
35.5272583092
 10
77.1512513677
 20
35.6865218795
 10
77.17488638759999
 20
35.85134548500001
 10
77.19978515689999
 20
36.019042172
 10
77.22554116979999
 20
36.1869926736
 10
77.2517652416
 20
36.3528694683
 10
77.2782003935
 20
36.5154443303
 10
77.3046650066
 20
36.6740118693
 10
77.33114669569999
 20
36.82885874260001
 10
77.35766980930001
 20
36.9804633529
 10
77.38423639789999
 20
37.12907903570001
 10
77.4108488091
 20
37.2749199112
 10
77.4375328772
 20
37.4182683037
 10
77.49131001890001
 20
37.6989450564
 10
77.5461599158
 20
37.9747033993
 10
77.60273076229999
 20
38.24877634969999
 10
77.6615735672
 20
38.5232639148
 10
77.7230013196
 20
38.7986897465
 10
77.7867976933
 20
39.0730825288
 10
77.8530831937
 20
39.3467712394
 10
77.92252498109999
 20
39.6229291775
 10
77.9955701179
 20
39.9039466656
 10
78.07213957470001
 20
40.19066121429999
 10
78.1110985942
 20
40.3343046552
 10
78.14990961869999
 20
40.4759862589
 10
78.1881646975
 20
40.61412631489999
 10
78.22586967390001
 20
40.7486719414
 10
78.2631758267
 20
40.8800518887
 10
78.30040238329999
 20
41.00909460919999
 10
78.3754482736
 20
41.2618130001
 10
78.413078692
 20
41.3843302873
 10
78.4502860514
 20
41.5025463061
 10
78.48657252169999
 20
41.6149033554
 10
78.52147762850001
 20
41.72019634739999
 10
78.55466849809999
 20
41.8177328895
 10
78.58628530039999
 20
41.9085187559
 10
78.61658328919999
 20
41.99395116299999
 10
78.64580500729999
 20
42.07529492659999
 10
78.6742224355
 20
42.15382144369999
 10
78.70223801609999
 20
42.23096083659999
 10
78.7581729961
 20
42.385366238
 10
78.813583136
 20
42.541750115
 10
78.8663873249
 20
42.69943290919999
 10
78.9142442568
 20
42.85735210219999
  0
LWPOLYLINE
  5
4C5
330
21A
100
AcDbEntity
  8
DEFAULT_2
  6
HIDDEN
 62
     7
100
AcDbPolyline
 90
       22
 70
     0
 43
0.0
 10
50.57462737659999
 20
28.4682728504
 10
50.9277553507
 20
28.4694405922
 10
51.2759758767
 20
28.4728444354
 10
51.6196161177
 20
28.4783353065
 10
51.9590032362
 20
28.4857641322
 10
52.294464396
 20
28.4949818389
 10
52.62632676049999
 20
28.5058393533
 10
52.8730586335
 20
28.5149689359
 10
53.1180882355
 20
28.5248741661
 10
53.3615535883
 20
28.5354921537
 10
53.60359271390001
 20
28.54676000820001
 10
54.0839443716
 20
28.5709937568
 10
54.5602473844
 20
28.5970722889
 10
55.0336059282
 20
28.6244924819
 10
55.50512417890001
 20
28.6527512129
 10
55.9759063124
 20
28.681345359
 10
56.44705650449999
 20
28.7097717976
 10
56.91967893100001
 20
28.7375274058
 10
57.394877768
 20
28.7641090608
 10
57.63378839529999
 20
28.7768024299
 10
57.87375719119999
 20
28.7890136397
 10
57.92196201350001
 20
28.7913960251
  0
LINE
  5
4CB
330
21A
100
AcDbEntity
  8
DEFAULT_2
  6
HIDDEN
 62
     7
100
AcDbLine
 10
27.3178534811
 20
30.3600186264
 30
0.0
 11
42.25959474639999
 21
29.8522219796
 31
0.0
  0
LWPOLYLINE
  5
4CD
330
21A
100
AcDbEntity
  8
DEFAULT_2
  6
HIDDEN
 62
     7
100
AcDbPolyline
 90
       35
 70
     0
 43
0.0
 10
40.0338294157
 20
44.71670442569999
 10
40.1199225817
 20
44.68507826189999
 10
40.20662599099999
 20
44.6551520654
 10
40.29667601569999
 20
44.6259433106
 10
40.3872311279
 20
44.59834382189999
 10
40.4810427686
 20
44.5714809145
 10
40.5752772934
 20
44.5461396074
 10
40.6726477348
 20
44.5215596759
 10
40.7703704664
 20
44.498420016
 10
40.87108311579999
 20
44.4760680301
 10
40.9720890083
 20
44.45508042310001
 10
41.07593217729999
 20
44.4349030762
 10
41.1800185579
 20
44.41602012119999
 10
41.2868238892
 20
44.397959968
 10
41.3938301641
 20
44.3811309272
 10
41.5034359411
 20
44.36513609529999
 10
41.6132067036
 20
44.35031549989999
 10
41.7254442944
 20
44.33634100219999
 10
41.8378160629
 20
44.3234896558
 10
41.9524992181
 20
44.3114969279
 10
42.06728993329999
 20
44.3005813367
 10
42.18422657979999
 20
44.2905351087
 10
42.30124762019999
 20
44.28152467989999
 10
42.420242752
 20
44.2733920553
 10
42.5393019604
 20
44.266258271
 10
42.66015734489999
 20
44.2600083817
 10
42.7810588285
 20
44.254724476
 10
42.90357372329999
 20
44.2503281296
 10
43.02611867989999
 20
44.2468687841
 10
43.15008941699999
 20
44.24429827109999
 10
43.27407567229999
 20
44.2426394255
 10
43.3993000914
 20
44.24186824649999
 10
43.5245270022
 20
44.24198694989999
 10
43.6508058187
 20
44.24299002149999
 10
43.7770740915
 20
44.2448645693
  0
LWPOLYLINE
  5
4CE
330
21A
100
AcDbEntity
  8
DEFAULT_2
  6
HIDDEN
 62
     7
100
AcDbPolyline
 90
        5
 70
     0
 43
0.0
 10
61.50239149579999
 20
45.2229063834
 10
61.4901181276
 20
45.18049325879999
 10
61.4777516601
 20
45.1381071584
 10
61.4653559496
 20
45.0959660977
 10
61.452867261
 20
45.0538525261
  0
LWPOLYLINE
  5
4CF
330
21A
100
AcDbEntity
  8
DEFAULT_2
  6
HIDDEN
 62
     7
100
AcDbPolyline
 90
       58
 70
     0
 43
0.0
 10
61.452867261
 20
45.0538525261
 10
61.44949892959999
 20
45.04309266889999
 10
61.44583408239999
 20
45.03242782979999
 10
61.44188141669999
 20
45.0218655842
 10
61.43744887819999
 20
45.0109364414
 10
61.4327199376
 20
45.0001328336
 10
61.4277034961
 20
44.9894597929
 10
61.4221817561
 20
44.9784860337
 10
61.4163672576
 20
44.96766428679999
 10
61.4102695498
 20
44.95699942609999
 10
61.403636363
 20
44.9460773996
 10
61.3967168818
 20
44.93533445799999
 10
61.38952091180001
 20
44.9247746621
 10
61.3817686881
 20
44.91401055599999
 10
61.3737390271
 20
44.90345171149999
 10
61.36544187770001
 20
44.8931016508
 10
61.3565639734
 20
44.8825908175
 10
61.34741900369999
 20
44.87231143989999
 10
61.3380169571
 20
44.86226658069999
 10
61.3280606264
 20
44.85215499569999
 10
61.317851281
 20
44.8422988822
 10
61.30739876229999
 20
44.8327009695
 10
61.2964327765
 20
44.8231254264
 10
61.2852307706
 20
44.8138270516
 10
61.2738023072
 20
44.8048083831
 10
61.2618602209
 20
44.7958551549
 10
61.2496995112
 20
44.7872011493
 10
61.2373295333
 20
44.778848921
 10
61.224516896
 20
44.7706498926
 10
61.21150571819999
 20
44.76276969659999
 10
61.1983051031
 20
44.75521106489999
 10
61.1848091766
 20
44.74791646679999
 10
61.1711385705
 20
44.7409547477
 10
61.1573020288
 20
44.7343289345
 10
61.14331391
 20
44.72804458699999
 10
61.1291770992
 20
44.7221023176
 10
61.1148999688
 20
44.7165055449
 10
61.1005156281
 20
44.7112664557
 10
61.0860080393
 20
44.7063790492
 10
61.0713854503
 20
44.70184728479999
 10
61.0567818663
 20
44.6977092007
 10
61.0420815632
 20
44.693929171
 10
61.0272927655
 20
44.6905117406
 10
61.0126688089
 20
44.687508733
 10
60.9979755194
 20
44.6848659977
 10
60.9832212164
 20
44.6825886344
 10
60.968750395
 20
44.68072095229999
 10
60.95423774229999
 20
44.67921273339999
 10
60.93969175979999
 20
44.67806956939999
 10
60.9255360697
 20
44.6773139921
 10
60.9113659753
 20
44.6769141796
 10
60.8971905076
 20
44.6768760456
 10
60.8835773288
 20
44.6771856176
 10
60.86997630409999
 20
44.67784042189999
 10
60.8563962129
 20
44.67884651
 10
60.8435987253
 20
44.6801246928
 10
60.83083844829999
 20
44.6817268958
 10
60.8181260913
 20
44.68365842839999
  0
LWPOLYLINE
  5
4D0
330
21A
100
AcDbEntity
  8
DEFAULT_2
  6
HIDDEN
 62
     7
100
AcDbPolyline
 90
        5
 70
     0
 43
0.0
 10
57.7297308496
 20
45.90748817539999
 10
57.7326708243
 20
45.9129125228
 10
57.7357221916
 20
45.91805988189999
 10
57.73739542939999
 20
45.92067433359999
 10
57.73946053060001
 20
45.9235317464
  0
LWPOLYLINE
  5
4D1
330
21A
100
AcDbEntity
  8
DEFAULT_2
  6
HIDDEN
 62
     7
100
AcDbPolyline
 90
        6
 70
     0
 43
0.0
 10
57.73946053060001
 20
45.9235317464
 10
57.7398692234
 20
45.9240595755
 10
57.7400386454
 20
45.9242804785
 10
57.7401610029
 20
45.9244455043
 10
57.74010927089999
 20
45.92446265109999
 10
57.7394424956
 20
45.92376198220001
  0
LWPOLYLINE
  5
555
330
21A
100
AcDbEntity
  8
DEFAULT_2
  6
HIDDEN
 62
     7
100
AcDbPolyline
 90
        6
 70
     0
 43
0.0
 10
57.7394424956
 20
45.92376198220001
 10
57.73726288529999
 20
45.9214016655
 10
57.7357217037
 20
45.91978835329999
 10
57.7344194356
 20
45.9184961724
 10
57.7322812258
 20
45.9165604182
 10
57.7278414789
 20
45.9128887939
  0
LWPOLYLINE
  5
559
330
21A
100
AcDbEntity
  8
DEFAULT_2
  6
HIDDEN
 62
     7
100
AcDbPolyline
 90
       17
 70
     0
 43
0.0
 10
44.2247730342
 20
44.2579963385
 10
45.01706561149999
 20
44.2878955205
 10
45.8099426847
 20
44.31382713859999
 10
46.6033210499
 20
44.3357829635
 10
47.3971109581
 20
44.35375593069999
 10
48.1912217291
 20
44.3677403725
 10
48.9855644107
 20
44.3777320533
 10
49.7800582448
 20
44.3837281475
 10
50.5746275678
 20
44.3857270255
 10
51.3691968675
 20
44.3837281457
 10
52.1636906578
 20
44.3777320501
 10
52.9580333133
 20
44.3677403681
 10
53.7521440872
 20
44.35375592479999
 10
54.5459340003
 20
44.335782956
 10
55.339312338
 20
44.3138271305
 10
56.13218933119999
 20
44.2878955138
 10
56.924481719
 20
44.2579963385
  0
LWPOLYLINE
  5
55B
330
21A
100
AcDbEntity
  8
DEFAULT_2
  6
HIDDEN
 62
     7
100
AcDbPolyline
 90
        7
 70
     0
 43
0.0
 10
43.7770740802
 20
44.2448645679
 10
43.8514700201
 20
44.24636152869999
 10
43.9258600077
 20
44.24813412
 10
44.00049433489999
 20
44.2501874791
 10
44.07512064399999
 20
44.2525140326
 10
44.1499518526
 20
44.25511966680001
 10
44.2247730355
 20
44.25799633859999
  0
LWPOLYLINE
  5
55D
330
21A
100
AcDbEntity
  8
DEFAULT_2
  6
HIDDEN
 62
     7
100
AcDbPolyline
 90
       50
 70
     0
 43
0.0
 10
45.18728969489999
 20
45.58158432079999
 10
45.12512487739999
 20
45.58155294409999
 10
45.06296155850001
 20
45.5820460526
 10
45.00181260429999
 20
45.58305213759999
 10
44.9406747351
 20
45.58458557319999
 10
44.8807617905
 20
45.58661149859999
 10
44.82086910979999
 20
45.5891676355
 10
44.7624048748
 20
45.59218848029999
 10
44.7039706446
 20
45.5957423089
 10
44.6471596184
 20
45.59972571529999
 10
44.59038870229999
 20
45.60424465229999
 10
44.5354266169
 20
45.60915058359999
 10
44.48051520789999
 20
45.6145941958
 10
44.4275896679
 20
45.62037447859999
 10
44.37472583299999
 20
45.6266939561
 10
44.3240199276
 20
45.6332911699
 10
44.27338720509999
 20
45.64042807119999
 10
44.2250734226
 20
45.6477752852
 10
44.1768447066
 20
45.6556613156
 10
44.1310814025
 20
45.6636819163
 10
44.0854153824
 20
45.67223875609999
 10
44.0423431507
 20
45.6808465773
 10
43.99938064919999
 20
45.6899860293
 10
43.9591228252
 20
45.6990848885
 10
43.91898724719999
 20
45.70870833739999
 10
43.8816478872
 20
45.7181919855
 10
43.84444313109999
 20
45.7281903457
 10
43.81009928850001
 20
45.7379442721
 10
43.77590203649999
 20
45.7481999303
 10
43.7446093131
 20
45.758100151
 10
43.71347437069999
 20
45.7684857125
 10
43.68526851520001
 20
45.77839808989999
 10
43.6572306121
 20
45.7887752071
 10
43.6321179767
 20
45.79855811819999
 10
43.6071811428
 20
45.80878178529999
 10
43.5851367558
 20
45.8182894759
 10
43.5632757671
 20
45.8282072812
 10
43.5442557605
 20
45.8372813378
 10
43.52541755659999
 20
45.8467379418
 10
43.50934215979999
 20
45.8552278209
 10
43.4934619291
 20
45.8640450197
 10
43.48023497779999
 20
45.8717654917
 10
43.4671566213
 20
45.8798227325
 10
43.45653637899999
 20
45.8867297597
 10
43.4461734294
 20
45.8937863367
 10
43.4382205135
 20
45.89945890649999
 10
43.4301925452
 20
45.9056218413
 10
43.4242054496
 20
45.9105525235
 10
43.4214129449
 20
45.9128890692
 10
43.4169732288
 20
45.91656069739999
  0
LWPOLYLINE
  5
565
330
21A
100
AcDbEntity
  8
DEFAULT_2
  6
HIDDEN
 62
     7
100
AcDbPolyline
 90
       18
 70
     0
 43
0.0
 10
55.9619650131
 20
45.58158432229999
 10
55.3322778935
 20
45.5844101108
 10
54.7010455234
 20
45.5869791654
 10
54.06846967899999
 20
45.58925278979999
 10
53.4347585615
 20
45.5911978725
 10
52.8001233762
 20
45.59278687249999
 10
52.1647741351
 20
45.5939978055
 10
51.52891802470001
 20
45.5948142179
 10
50.89275795919999
 20
45.59522515979999
 10
50.25649658209999
 20
45.5952251597
 10
49.6203365366
 20
45.59481421770001
 10
48.98448048
 20
45.59399780529999
 10
48.34913133739999
 20
45.59278687239999
 10
47.7144962741
 20
45.59119787270001
 10
47.0807852629
 20
45.5892527905
 10
46.4482094602
 20
45.58697916619999
 10
45.81697704829999
 20
45.5844101116
 10
45.1872897402
 20
45.58158432229999
  0
LWPOLYLINE
  5
568
330
21A
100
AcDbEntity
  8
DEFAULT_2
  6
HIDDEN
 62
     7
100
AcDbPolyline
 90
       35
 70
     0
 43
0.0
 10
57.3721806605
 20
44.24486456989999
 10
57.49844996970001
 20
44.24299001029999
 10
57.62472982270001
 20
44.24198694029999
 10
57.7499575004
 20
44.2418682535
 10
57.8751826863
 20
44.24263946109999
 10
57.99916949069999
 20
44.24429834229999
 10
58.12314077659999
 20
44.2468688994
 10
58.2456860191
 20
44.2503282895
 10
58.3682011992
 20
44.25472468609999
 10
58.4891027936
 20
44.2600086387
 10
58.6099582882
 20
44.26625857789999
 10
58.72901747850001
 20
44.27339240649999
 10
58.84801259159999
 20
44.2815250768
 10
58.96503352359999
 20
44.29053554449999
 10
59.08197006149999
 20
44.30058181119999
 10
59.19676058020001
 20
44.31149743149999
 10
59.31144353869999
 20
44.3234901866
 10
59.423815016
 20
44.33634154629999
 10
59.5360523155
 20
44.35031605339999
 10
59.64582269850001
 20
44.3651366409
 10
59.7554280963
 20
44.3811314587
 10
59.8624339359
 20
44.39796046869999
 10
59.9692388328
 20
44.416020583
 10
60.0733247489
 20
44.4349034838
 10
60.1771674549
 20
44.4550807663
 10
60.27817286680001
 20
44.4760682934
 10
60.3788850379
 20
44.4984201875
 10
60.47660734499999
 20
44.521559755
 10
60.57397736479999
 20
44.5461395818
 10
60.6682116294
 20
44.571480815
 10
60.7620230125
 20
44.5983436401
 10
60.8525781246
 20
44.6259431177
 10
60.94262814989999
 20
44.65515186029999
 10
61.0293318892
 20
44.6850781602
 10
61.1154253798
 20
44.7167044422
  0
LWPOLYLINE
  5
56A
330
21A
100
AcDbEntity
  8
DEFAULT_2
  6
HIDDEN
 62
     7
100
AcDbPolyline
 90
        7
 70
     0
 43
0.0
 10
56.9244817176
 20
44.25799633869999
 10
56.99930303350001
 20
44.2551196619
 10
57.0741343751
 20
44.2525140238
 10
57.14876068369999
 20
44.2501874713
 10
57.22339501029999
 20
44.24813411329999
 10
57.29778486549999
 20
44.24636152579999
 10
57.3721806728
 20
44.2448645678
  0
LWPOLYLINE
  5
5B3
330
21A
100
AcDbEntity
  8
DEFAULT_2
  6
HIDDEN
 62
     7
100
AcDbPolyline
 90
       10
 70
     0
 43
0.0
 10
61.0546899196
 20
45.91599076479999
 10
60.7595127935
 20
45.96444822359999
 10
60.4641111621
 20
46.01152805779999
 10
60.1684926501
 20
46.0572284296
 10
59.8728500294
 20
46.10152023189999
 10
59.5770041428
 20
46.1444310689
 10
59.2809607181
 20
46.18595954479999
 10
58.98489727520001
 20
46.226081416
 10
58.68864994149999
 20
46.26481962089999
 10
58.39222641479999
 20
46.3021726489
  0
LWPOLYLINE
  5
5BD
330
21A
100
AcDbEntity
  8
DEFAULT_2
  6
HIDDEN
 62
     7
100
AcDbPolyline
 90
       70
 70
     0
 43
0.0
 10
61.0546899196
 20
45.91599076479999
 10
61.0706048698
 20
45.91315617310001
 10
61.0864533532
 20
45.9099605781
 10
61.1022241474
 20
45.9063991183
 10
61.1172865753
 20
45.902629898
 10
61.1322575766
 20
45.8985147083
 10
61.1471277297
 20
45.8940495091
 10
61.161333386
 20
45.889418435
 10
61.1754270497
 20
45.8844567214
 10
61.1893988451
 20
45.87916160249999
 10
61.2027727921
 20
45.8737265089
 10
61.21601410890001
 20
45.8679760302
 10
61.2291131455
 20
45.86190859
 10
61.241639421
 20
45.8557365921
 10
61.2540141546
 20
45.8492661809
 10
61.2662279637
 20
45.84249699599999
 10
61.2779476197
 20
45.83562420569999
 10
61.2894970386
 20
45.82846909279999
 10
61.3008671921
 20
45.8210324882
 10
61.31177154270001
 20
45.8135119868
 10
61.3224883993
 20
45.8057266747
 10
61.3330092547
 20
45.79767852899999
 10
61.3431193845
 20
45.7895400758
 10
61.3530252857
 20
45.781154265
 10
61.3627190621
 20
45.772524167
 10
61.3720475003
 20
45.7637926192
 10
61.3811555083
 20
45.75483139270001
 10
61.3900358971
 20
45.7456445927
 10
61.3985687382
 20
45.7363624232
 10
61.40686661090001
 20
45.7268696276
 10
61.4149231819
 20
45.7171712256
 10
61.4226809392
 20
45.7073391488
 10
61.43018891770001
 20
45.6973150338
 10
61.43744167729999
 20
45.6871047592
 10
61.44440901100001
 20
45.67675240249999
 10
61.4511131355
 20
45.6662276754
 10
61.4575496099
 20
45.65553718100001
 10
61.46371765560001
 20
45.64468130319999
 10
61.4696099137
 20
45.6336732838
 10
61.4752230022
 20
45.6225203296
 10
61.4805852241
 20
45.6111607578
 10
61.48565916369999
 20
45.599669503
 10
61.49044253159999
 20
45.5880542881
 10
61.4949702438
 20
45.57622239939999
 10
61.4991989306
 20
45.56428035069999
 10
61.50312744109999
 20
45.5522362093
 10
61.506802538
 20
45.53993069739999
 10
61.5101679653
 20
45.5275368828
 10
61.5132237154
 20
45.51506308869999
 10
61.51601438020001
 20
45.50230178289999
 10
61.5184857803
 20
45.48947478899999
 10
61.5206390532
 20
45.4765905551
 10
61.5225084791
 20
45.46340246829999
 10
61.5240505728
 20
45.45017207509999
 10
61.5252675922
 20
45.4369078009
 10
61.5261792888
 20
45.4233019402
 10
61.526755997
 20
45.4096777295
 10
61.52700106770001
 20
45.3960434988
 10
61.52691150529999
 20
45.38205502279999
 10
61.52648084409999
 20
45.3680728393
 10
61.525713462
 20
45.3541050196
 10
61.5245777064
 20
45.33976283899999
 10
61.52309579909999
 20
45.32545227109999
 10
61.52127312560001
 20
45.3111811977
 10
61.5190440767
 20
45.2965242077
 10
61.5164650322
 20
45.281924547
 10
61.5135421487
 20
45.26738923399999
 10
61.5101744109
 20
45.25247452
 10
61.50645503239999
 20
45.2376441032
 10
61.50239149579999
 20
45.2229063834
  0
LINE
  5
5CA
330
21A
100
AcDbEntity
  8
DEFAULT_2
  6
HIDDEN
 62
     7
100
AcDbLine
 10
79.03552804090001
 20
43.5069484842
 30
0.0
 11
79.04425601949999
 21
43.5922781952
 31
0.0
  0
LWPOLYLINE
  5
5CB
330
21A
100
AcDbEntity
  8
DEFAULT_2
  6
HIDDEN
 62
     7
100
AcDbPolyline
 90
       21
 70
     0
 43
0.0
 10
79.04425601949999
 20
43.5922781952
 10
79.04595168010001
 20
43.60866336519999
 10
79.0476135811
 20
43.62453218489999
 10
79.04924471460001
 20
43.6398776493
 10
79.05084056239999
 20
43.65463309199999
 10
79.0523962548
 20
43.6687337743
 10
79.0539130263
 20
43.6821823279
 10
79.05539683499999
 20
43.6950239901
 10
79.0568664267
 20
43.7074070502
 10
79.0583446143
 20
43.7195044102
 10
79.0598576876
 20
43.7314843731
 10
79.06308542859999
 20
43.7555707028
 10
79.06670240359999
 20
43.77992742079999
 10
79.06870076050001
 20
43.7920866937
 10
79.0708813938
 20
43.8041752885
 10
79.073309685
 20
43.81617755689999
 10
79.076089643
 20
43.82813669479999
 10
79.07932569260001
 20
43.8400723683
 10
79.0830852916
 20
43.85185128089999
 10
79.08737634560001
 20
43.86335606399999
 10
79.09200551729999
 20
43.8746860237
  0
LWPOLYLINE
  5
5CC
330
21A
100
AcDbEntity
  8
DEFAULT_2
  6
HIDDEN
 62
     7
100
AcDbPolyline
 90
       33
 70
     0
 43
0.0
 10
78.9142442568
 20
42.85735210219999
 10
78.921257271
 20
42.8824470614
 10
78.9279552984
 20
42.90701661099999
 10
78.9343463216
 20
42.9310503136
 10
78.94043832359999
 20
42.9545377316
 10
78.94624015489999
 20
42.9774736412
 10
78.95176413689999
 20
42.9998736735
 10
78.9570234588
 20
43.02175867319999
 10
78.9620313099
 20
43.0431494852
 10
78.96680003899999
 20
43.06406489979999
 10
78.9713386338
 20
43.08451548979999
 10
78.9756552415
 20
43.1045097735
 10
78.9797580095
 20
43.1240562693
 10
78.9836546095
 20
43.1431638777
 10
78.9873508104
 20
43.16184302799999
 10
78.99085190540001
 20
43.1801045314
 10
78.9941631879
 20
43.1979591993
 10
78.99829246670001
 20
43.2211488257
 10
79.0021083618
 20
43.243645465
 10
79.005625524
 20
43.2654601729
 10
79.0088609864
 20
43.28660480739999
 10
79.01184131169999
 20
43.307094435
 10
79.01459544499999
 20
43.32694492479999
 10
79.017150806
 20
43.3461712365
 10
79.019528713
 20
43.3647846934
 10
79.02174895899999
 20
43.3827957095
 10
79.02383022689999
 20
43.40021565609999
 10
79.0257867596
 20
43.41705973239999
 10
79.02763169029999
 20
43.4333440946
 10
79.0293772322
 20
43.4490848734
 10
79.03103192029999
 20
43.4642980966
 10
79.03260337
 20
43.47899976609999
 10
79.03552804090001
 20
43.5069484842
  0
LWPOLYLINE
  5
5CD
330
21A
100
AcDbEntity
  8
DEFAULT_2
  6
HIDDEN
 62
     7
100
AcDbPolyline
 90
       49
 70
     0
 43
0.0
 10
57.7278414789
 20
45.9128887939
 10
57.7250489433
 20
45.9105522316
 10
57.71906176689999
 20
45.9056214953
 10
57.711033664
 20
45.8994584775
 10
57.70308062649999
 20
45.89378584649999
 10
57.6927174991
 20
45.8867291795
 10
57.6820970702
 20
45.879822061
 10
57.669018576
 20
45.87176477249999
 10
57.65579148819999
 20
45.86404425749999
 10
57.6399112089
 20
45.85522707189999
 10
57.6238357647
 20
45.8467372039
 10
57.6049975251
 20
45.83728062
 10
57.5859774847
 20
45.8282065819
 10
57.56411646310001
 20
45.8182887976
 10
57.5420720444
 20
45.80878112629999
 10
57.51713519009999
 20
45.79855748449999
 10
57.4920225355
 20
45.7887745969
 10
57.4639846266
 20
45.77839750909999
 10
57.4357787667
 20
45.7684851588
 10
57.4046438272
 20
45.7580996273
 10
57.3733511079
 20
45.74819943439999
 10
57.33915386159999
 20
45.73794380449999
 10
57.3048100258
 20
45.7281899043
 10
57.26760527439999
 20
45.7181915698
 10
57.2302659198
 20
45.7087079456
 10
57.190130343
 20
45.69908451959999
 10
57.14987252090001
 20
45.68998568189999
 10
57.1069100373
 20
45.6808462546
 10
57.0638378241
 20
45.6722384565
 10
57.01817185189999
 20
45.6636816447
 10
56.97240859629999
 20
45.65566106979999
 10
56.92417996060001
 20
45.6477750692
 10
56.87586625899999
 20
45.6404278823
 10
56.8252336328
 20
45.63329100829999
 10
56.7745278241
 20
45.6266938193
 10
56.7216640851
 20
45.6203743642
 10
56.6687386412
 20
45.6145941016
 10
56.6138273227
 20
45.60915050699999
 10
56.558865328
 20
45.6042445913
 10
56.50209449850001
 20
45.5997256677
 10
56.4452835589
 20
45.59574227289999
 10
56.38684940800001
 20
45.5921884539
 10
56.3283852525
 20
45.58916761699999
 10
56.26849263779999
 20
45.58661148619999
 10
56.2085797593
 20
45.58458556549999
 10
56.1474419394
 20
45.58305213319999
 10
56.08629303459999
 20
45.58204605069999
 10
56.0241297978
 20
45.58155294379999
 10
55.9619650625
 20
45.58158432079999
  0
LWPOLYLINE
  5
5CE
330
21A
100
AcDbEntity
  8
DEFAULT_2
  6
HIDDEN
 62
     7
100
AcDbPolyline
 90
       58
 70
     0
 43
0.0
 10
40.33112865959999
 20
44.6836584281
 10
40.31841556209999
 20
44.6817267928
 10
40.30565453949999
 20
44.6801245251
 10
40.292856303
 20
44.6788463147
 10
40.2792761186
 20
44.67784027959999
 10
40.2656750023
 20
44.6771855318
 10
40.25206173329999
 20
44.67687601989999
 10
40.2378865733
 20
44.6769142139
 10
40.22371678779999
 20
44.6773140697
 10
40.2095614071
 20
44.6780696741
 10
40.19501557409999
 20
44.679212865
 10
40.180503071
 20
44.6807211027
 10
40.1660323991
 20
44.6825887961
 10
40.15127818319999
 20
44.68486617399999
 10
40.13658498069999
 20
44.6875089194
 10
40.1219611109
 20
44.6905119326
 10
40.1071723257
 20
44.6939293828
 10
40.09247203530001
 20
44.69770943149999
 10
40.0778684645
 20
44.70184753409999
 10
40.0632458604
 20
44.7063793255
 10
40.04873825739999
 20
44.71126675979999
 10
40.03435390329999
 20
44.7165058776
 10
40.02007677269999
 20
44.7221026747
 10
40.0059399624
 20
44.7280449689
 10
39.9919518448
 20
44.73432934149999
 10
39.978115332
 20
44.7409551667
 10
39.9644447549
 20
44.74791689679999
 10
39.9509488575
 20
44.75521150479999
 10
39.9377482884
 20
44.7627701352
 10
39.9247371563
 20
44.7706503281
 10
39.911924564
 20
44.7788493516
 10
39.8995546355
 20
44.7872015693
 10
39.8873939743
 20
44.79585556239999
 10
39.8754519355
 20
44.804808776
 10
39.8640235118
 20
44.8138274332
 10
39.8528215447
 20
44.8231257951
 10
39.84185559690001
 20
44.8327013237
 10
39.8314031091
 20
44.84229922569999
 10
39.8211937939
 20
44.8521553272
 10
39.8112374926
 20
44.86226689899999
 10
39.8018354711
 20
44.87231174729999
 10
39.7926905258
 20
44.8825911129
 10
39.7838126452
 20
44.89310193319999
 10
39.7755155176
 20
44.90345198089999
 10
39.7674858776
 20
44.9140108114
 10
39.7597336741
 20
44.9247749027
 10
39.7525377239
 20
44.93533468189999
 10
39.7456182614
 20
44.946077606
 10
39.7389850923
 20
44.9569996143
 10
39.7328874016
 20
44.96766445499999
 10
39.7270729191
 20
44.97848618129999
 10
39.721551194
 20
44.9894599191
 10
39.71653476570001
 20
45.0001329387
 10
39.7118058373
 20
45.01093652479999
 10
39.7073733102
 20
45.02186564539999
 10
39.7034206588
 20
45.03242785699999
 10
39.6997558245
 20
45.04309266149999
 10
39.6963875044
 20
45.05385248359999
  0
LWPOLYLINE
  5
5CF
330
21A
100
AcDbEntity
  8
DEFAULT_2
  6
HIDDEN
 62
     7
100
AcDbPolyline
 90
       10
 70
     0
 43
0.0
 10
42.75702833829999
 20
46.3021726489
 10
42.46060481159999
 20
46.26481962089999
 10
42.1643574779
 20
46.226081416
 10
41.86829403499999
 20
46.1859595447
 10
41.5722506107
 20
46.144431069
 10
41.2764047246
 20
46.1015202321
 10
40.9807621044
 20
46.05722842979999
 10
40.68514359139999
 20
46.01152805789999
 10
40.38974195899999
 20
45.9644482235
 10
40.094564832
 20
45.9159907646
  0
LWPOLYLINE
  5
5D0
330
21A
100
AcDbEntity
  8
DEFAULT_2
  6
HIDDEN
 62
     7
100
AcDbPolyline
 90
       66
 70
     0
 43
0.0
 10
42.75702833829999
 20
46.3021726489
 10
42.77126435599999
 20
46.3037481999
 10
42.7855382962
 20
46.3049599205
 10
42.7998390949
 20
46.30580737149999
 10
42.8141190295
 20
46.30628957299999
 10
42.82840597359999
 20
46.3064099373
 10
42.8426912238
 20
46.30616945209999
 10
42.8641536791
 20
46.3051310529
 10
42.8855621094
 20
46.3032855779
 10
42.89991129909999
 20
46.30159458529999
 10
42.91421365829999
 20
46.29954504479999
 10
42.9284605736
 20
46.2971401568
 10
42.9428465915
 20
46.2943411679
 10
42.9571583578
 20
46.291184179
 10
42.97138753
 20
46.28767351859999
 10
42.9858193533
 20
46.28372958529999
 10
43.00014841689999
 20
46.279427101
 10
43.0143667249
 20
46.27477156109999
 10
43.0287750429
 20
46.26965472619999
 10
43.0430518289
 20
46.26418148409999
 10
43.05718958119999
 20
46.2583584376
 10
43.0714951708
 20
46.25204913149999
 10
43.08564067459999
 20
46.2453885489
 10
43.0996192346
 20
46.2383842887
 10
43.1137962127
 20
46.2308402617
 10
43.12778364319999
 20
46.22295022649999
 10
43.1415753381
 20
46.2147227351
 10
43.1555818197
 20
46.2058969077
 10
43.169368216
 20
46.19673099029999
 10
43.18292903209999
 20
46.18723442999999
 10
43.19662907869999
 20
46.177137033
 10
43.2100802101
 20
46.16671027069999
 10
43.2232777162
 20
46.15596422449999
 10
43.2365364337
 20
46.1446293259
 10
43.2495198459
 20
46.132980036
 10
43.2622240294
 20
46.121026781
 10
43.27498445129999
 20
46.1084373418
 10
43.28744256119999
 20
46.09554860329999
 10
43.29959506699999
 20
46.0823712547
 10
43.3117425446
 20
46.0685624534
 10
43.32356204569999
 20
46.0544718529
 10
43.33505075939999
 20
46.04011021239999
 10
43.3464395372
 20
46.0251744462
 10
43.35747785339999
 20
46.00997780350001
 10
43.36816318479999
 20
45.9945308763
 10
43.3786797845
 20
45.97855325689999
 10
43.38882516979999
 20
45.9623373626
 10
43.3985968397
 20
45.94589351399999
 10
43.40814474819999
 20
45.9289540875
 10
43.4173011041
 20
45.91179982799999
 10
43.42606314060001
 20
45.89444080759999
 10
43.434491932
 20
45.87674884520001
 10
43.44251415399999
 20
45.85886886609999
 10
43.45012656489999
 20
45.84081060299999
 10
43.45732137699999
 20
45.8225953599
 10
43.46409981199999
 20
45.80422111079999
 10
43.4704580209
 20
45.78569718699999
 10
43.4763714749
 20
45.7671002162
 10
43.4818592958
 20
45.7483733012
 10
43.4869168852
 20
45.72952583510001
 10
43.4914910684
 20
45.7107762039
 10
43.4956347432
 20
45.691926601
 10
43.4993427206
 20
45.67298578179999
 10
43.502547692
 20
45.6543502415
 10
43.5053236383
 20
45.6356467296
 10
43.50766468799999
 20
45.6168864187
  0
LWPOLYLINE
  5
638
330
21A
100
AcDbEntity
  8
DEFAULT_2
  6
HIDDEN
 62
     7
100
AcDbPolyline
 90
       29
 70
     0
 43
0.0
 10
79.09200551729999
 20
43.8746860237
 10
79.1989635061
 20
44.1285994049
 10
79.30923367390001
 20
44.3859280163
 10
79.4228762834
 20
44.6465556813
 10
79.55716713060001
 20
44.94874969899999
 10
79.6959647833
 20
45.2546539426
 10
79.8392780124
 20
45.5638079638
 10
79.9871155889
 20
45.8757513144
 10
80.1394862835
 20
46.19002354609999
 10
80.29639335289999
 20
46.50613867239999
 10
80.4578179968
 20
46.82350855310001
 10
80.62373590039999
 20
47.14151951
 10
80.7941227491
 20
47.4595578647
 10
80.96895422840001
 20
47.77700993879999
 10
81.1481982687
 20
48.09322758689999
 10
81.33179178090001
 20
48.4074247964
 10
81.51966392109999
 20
48.71878108739999
 10
81.71174384549999
 20
49.0264759803
 10
81.9079607099
 20
49.3296889952
 10
82.08604119399998
 20
49.59520183439999
 10
82.2673561276
 20
49.8563287717
 10
82.45191866829999
 20
50.1128846029
 10
82.6397419735
 20
50.3646841239
 10
82.8308392007
 20
50.6115421309
 10
83.02522350750001
 20
50.8532734197
 10
83.2184466166
 20
51.0844660642
 10
83.4148329307
 20
51.3104418901
 10
83.6143915002
 20
51.5310608727
 10
83.8171313752
 20
51.7461829876
  0
LWPOLYLINE
  5
154F
330
21A
100
AcDbEntity
  8
0
  6
Continuous
 62
     7
100
AcDbPolyline
 90
        5
 70
     0
 43
0.0
 10
14.7960117126
 20
50.9588924972
 10
14.6996889346
 20
50.2109155649
 10
14.6306399027
 20
49.4599743663
 10
14.5889280492
 20
48.7067611952
 10
14.5746335641
 20
47.9529132514
  0
LWPOLYLINE
  5
1550
330
21A
100
AcDbEntity
  8
0
  6
Continuous
 62
     7
100
AcDbPolyline
 90
        7
 70
     0
 43
0.0
 10
23.4668392077
 20
28.1077202584
 10
23.6645686228
 20
27.6048458464
 10
23.9897010438
 20
27.1732564964
 10
24.4185032094
 20
26.8444568974
 10
24.9196746609
 20
26.6424478183
 10
25.456632331
 20
26.5819749423
 10
25.9901809108
 20
26.6674524944
  0
LWPOLYLINE
  5
1551
330
21A
100
AcDbEntity
  8
0
  6
Continuous
 62
     7
100
AcDbPolyline
 90
        9
 70
     0
 43
0.0
 10
15.5408831591
 20
47.9369008861
 10
17.2006414885
 20
44.99282717229999
 10
18.6318671943
 20
42.0146615254
 10
19.8139591336
 20
39.2549306278
 10
20.817717525
 20
36.7190682361
 10
21.67080019030001
 20
34.3527327192
 10
22.3864363094
 20
32.1091393166
 10
22.9799671321
 20
30.0135222476
 10
23.4668376598
 20
28.1077269339
  0
LINE
  5
1552
330
21A
100
AcDbEntity
  8
0
  6
Continuous
 62
     7
100
AcDbLine
 10
30.3646649459
 20
27.5692955261
 30
0.0
 11
30.5167082846
 21
25.8314322126
 31
0.0
  0
LINE
  5
1555
330
21A
100
AcDbEntity
  8
0
  6
Continuous
 62
     7
100
AcDbLine
 10
14.5746334942
 20
47.95291318149999
 30
0.0
 11
14.5906334892
 21
47.936900816
 31
0.0
  0
LINE
  5
1557
330
21A
100
AcDbEntity
  8
0
  6
Continuous
 62
     7
100
AcDbLine
 10
16.4292101382
 20
47.9530719164
 30
0.0
 11
16.4438461748
 21
47.93690083529999
 31
0.0
  0
LWPOLYLINE
  5
1558
330
21A
100
AcDbEntity
  8
0
  6
Continuous
 62
     7
100
AcDbPolyline
 90
       13
 70
     0
 43
0.0
 10
33.8212657981
 20
28.3919931439
 10
33.8134544363
 20
28.4228984917
 10
33.8017508117
 20
28.4525855354
 10
33.7863467465
 20
28.4805677651
 10
33.76749474010001
 20
28.5063865033
 10
33.7455038097
 20
28.5296185357
 10
33.7207344249
 20
28.5498830486
 10
33.6935925988
 20
28.5668478709
 10
33.6645232331
 20
28.5802349192
 10
33.63400282510001
 20
28.5898247554
 10
33.6025316575
 20
28.5954601847
 10
33.5706255977
 20
28.5970488312
 10
33.5388076422
 20
28.5945646532
  0
LWPOLYLINE
  5
1559
330
21A
100
AcDbEntity
  8
0
  6
Continuous
 62
     7
100
AcDbPolyline
 90
       10
 70
     0
 43
0.0
 10
34.1078783615
 20
28.5491481559
 10
34.0999009568
 20
28.5816790136
 10
34.0904272324
 20
28.6129437326
 10
34.079630389
 20
28.6423707226
 10
34.0677078171
 20
28.6694219909
 10
34.0548774881
 20
28.6936029782
 10
34.0413739694
 20
28.7144716005
 10
34.02744413590001
 20
28.7316463312
 10
34.0133426562
 20
28.7448131764
 10
33.9993273376
 20
28.7537314158
  0
LINE
  5
155A
330
21A
100
AcDbEntity
  8
0
  6
Continuous
 62
     7
100
AcDbLine
 10
34.2535115859
 20
25.8314322126
 30
0.0
 11
33.8212657772
 21
28.3919932564
 31
0.0
  0
LWPOLYLINE
  5
155B
330
21A
100
AcDbEntity
  8
0
  6
Continuous
 62
     7
100
AcDbPolyline
 90
        3
 70
     0
 43
0.0
 10
34.5509652981
 20
25.8314322126
 10
34.3355249665
 20
27.152667723
 10
34.1078783615
 20
28.5491481559
  0
LWPOLYLINE
  5
155C
330
21A
100
AcDbEntity
  8
0
  6
Continuous
 62
     7
100
AcDbPolyline
 90
        5
 70
     0
 43
0.0
 10
76.0809823835
 20
26.610828017
 10
76.232917798
 20
26.6432947558
 10
76.3818732516
 20
26.6874569416
 10
76.5269501608
 20
26.7430478505
 10
76.6672737758
 20
26.8097320852
  0
LINE
  5
155F
330
21A
100
AcDbEntity
  8
0
  6
Continuous
 62
     7
100
AcDbLine
 10
75.6925949875
 20
26.5819756049
 30
0.0
 11
76.22956515430001
 21
26.6424440244
 31
0.0
  0
LINE
  5
1560
330
21A
100
AcDbEntity
  8
0
  6
Continuous
 62
     7
100
AcDbLine
 10
30.5167082846
 20
25.8314322126
 30
0.0
 11
70.63254646859999
 21
25.8314322126
 31
0.0
  0
LWPOLYLINE
  5
1561
330
21A
100
AcDbEntity
  8
0
  6
Continuous
 62
     7
100
AcDbPolyline
 90
        4
 70
     0
 43
0.0
 10
75.6165435135
 20
26.5852019962
 10
75.771859905
 20
26.5816942294
 10
75.9269857762
 20
26.5902531517
 10
76.0809823835
 20
26.610828017
  0
LWPOLYLINE
  5
1562
330
21A
100
AcDbEntity
  8
0
  6
Continuous
 62
     7
100
AcDbPolyline
 90
       12
 70
     0
 43
0.0
 10
33.5388076471
 20
28.5945646569
 10
33.55019217960001
 20
28.6037057737
 10
33.5683287863
 20
28.6152612055
 10
33.5934029451
 20
28.6289097875
 10
33.6253423474
 20
28.64418742050001
 10
33.6638267178
 20
28.6605444556
 10
33.7084015841
 20
28.6774309616
 10
33.7584688474
 20
28.6943154342
 10
33.8132217277
 20
28.7106927319
 10
33.87217587929999
 20
28.7262505169
 10
33.9345516558
 20
28.7406801814
 10
33.9993273541
 20
28.7537314191
  0
LWPOLYLINE
  5
1564
330
21A
100
AcDbEntity
  8
0
  6
Continuous
 62
     7
100
AcDbPolyline
 90
       14
 70
     0
 43
0.0
 10
50.5746273608
 20
30.3985287212
 10
52.37294456189999
 20
30.3835058493
 10
53.9888905117
 20
30.3420153611
 10
55.4367714446
 20
30.279560401
 10
56.7335362344
 20
30.2014089183
 10
57.89502453189999
 20
30.112089877
 10
58.9359598392
 20
30.0155200494
 10
59.8699471202
 20
29.9152365699
 10
60.7072125806
 20
29.8142092724
 10
61.4532606134
 20
29.7152662645
 10
62.1121353266
 20
29.62107085
 10
62.691835637
 20
29.5331109659
 10
63.2047019349
 20
29.4514555787
 10
63.66251197819999
 20
29.3756098264
  0
LWPOLYLINE
  5
1565
330
21A
100
AcDbEntity
  8
0
  6
Continuous
 62
     7
100
AcDbPolyline
 90
        8
 70
     0
 43
0.0
 10
33.9993273541
 20
28.7537314191
 10
34.6144169365
 20
28.8682010929
 10
35.1723400654
 20
28.9703570628
 10
35.683355989
 20
29.062431634
 10
36.1457688429
 20
29.1444868631
 10
36.6057315728
 20
29.2248930709
 10
37.064450903
 20
29.3038938929
 10
37.48674358610001
 20
29.3756096925
  0
LWPOLYLINE
  5
1568
330
21A
100
AcDbEntity
  8
0
  6
Continuous
 62
     7
100
AcDbPolyline
 90
       13
 70
     0
 43
0.0
 10
37.48674358530001
 20
29.3756099846
 10
38.0815040172
 20
29.473606499
 10
38.682488493
 20
29.5678157362
 10
39.3540838043
 20
29.6671653839
 10
40.11032316059999
 20
29.7712485906
 10
40.9598369545
 20
29.8779370033
 10
41.9134689186
 20
29.9847436835
 10
42.98507030079999
 20
30.0886393881
 10
44.19032455049999
 20
30.1855502828
 10
45.546343721
 20
30.2707580263
 10
47.0740859643
 20
30.3389897105
 10
48.7804353631
 20
30.3835764386
 10
50.5746273608
 20
30.39852868900001
  0
LINE
  5
1569
330
21A
100
AcDbEntity
  8
0
  6
Continuous
 62
     7
100
AcDbLine
 10
75.15903611029999
 20
26.6674639741
 30
0.0
 11
75.6925949875
 21
26.5819756049
 31
0.0
  0
LWPOLYLINE
  5
156A
330
21A
100
AcDbEntity
  8
0
  6
Continuous
 62
     7
100
AcDbPolyline
 90
        8
 70
     0
 43
0.0
 10
63.66251199069999
 20
29.375609842
 10
64.06022874379999
 20
29.3080940281
 10
64.45906170589999
 20
29.239527912
 10
64.8967742297
 20
29.1632488551
 10
65.3789746689
 20
29.077948908
 10
65.91481157359999
 20
28.9816237658
 10
66.50583805689999
 20
28.8735579981
 10
67.1499290233
 20
28.753739108
  0
LWPOLYLINE
  5
156C
330
21A
100
AcDbEntity
  8
0
  6
Continuous
 62
     7
100
AcDbPolyline
 90
       12
 70
     0
 43
0.0
 10
67.1499290233
 20
28.753739108
 10
67.21487920199999
 20
28.7406493086
 10
67.2773458152
 20
28.7261905178
 10
67.33675755270001
 20
28.7104934013
 10
67.39210844909999
 20
28.6938973336
 10
67.4423040273
 20
28.6769122725
 10
67.4866852302
 20
28.6600384818
 10
67.5247339271
 20
28.6438148468
 10
67.55611289859999
 20
28.6287740567
 10
67.58089926779999
 20
28.6152736547
 10
67.5990129085
 20
28.603737655
 10
67.61045131680001
 20
28.594558431
  0
LWPOLYLINE
  5
156E
330
21A
100
AcDbEntity
  8
0
  6
Continuous
 62
     7
100
AcDbPolyline
 90
        4
 70
     0
 43
0.0
 10
75.1591070602
 20
26.6674424636
 10
75.3090930059
 20
26.6282526641
 10
75.4619763638
 20
26.60075356570001
 10
75.6165435135
 20
26.5852019962
  0
LINE
  5
156F
330
21A
100
AcDbEntity
  8
0
  6
Continuous
 62
     7
100
AcDbLine
 10
50.57462737739999
 20
25.8314322126
 30
0.0
 11
50.5746281893
 21
30.3985287146
 31
0.0
  0
LWPOLYLINE
  5
1570
330
21A
100
AcDbEntity
  8
0
  6
Continuous
 62
     7
100
AcDbPolyline
 90
        4
 70
     0
 43
0.0
 10
33.5029739673
 20
28.574522015
 10
33.5154549549
 20
28.5784873766
 10
33.5274026018
 20
28.5851586422
 10
33.5388076471
 20
28.5945646569
  0
LWPOLYLINE
  5
1571
330
21A
100
AcDbEntity
  8
0
  6
Continuous
 62
     7
100
AcDbPolyline
 90
        4
 70
     0
 43
0.0
 10
67.61045131680001
 20
28.594558431
 10
67.621839653
 20
28.5851644368
 10
67.6337834441
 20
28.5784919752
 10
67.64627695919999
 20
28.57452119860001
  0
LWPOLYLINE
  5
1572
330
21A
100
AcDbEntity
  8
0
  6
Continuous
 62
     7
100
AcDbPolyline
 90
        3
 70
     0
 43
0.0
 10
83.24292619620001
 20
51.84756155279999
 10
83.27455822739999
 20
51.85583573489999
 10
83.33664567760001
 20
51.8721481426
  0
LWPOLYLINE
  5
1574
330
21A
100
AcDbEntity
  8
0
  6
Continuous
 62
     7
100
AcDbPolyline
 90
       63
 70
     0
 43
0.0
 10
17.906328557
 20
51.84756155279999
 10
18.0043899193
 20
51.8220593568
 10
18.1054723802
 20
51.79599401709999
 10
18.2095661863
 20
51.769386467
 10
18.3166585406
 20
51.7422584797
 10
18.4267270154
 20
51.7146342614
 10
18.5397498744
 20
51.6865377675
 10
18.6557073959
 20
51.65799237109999
 10
18.774578292
 20
51.6290217418
 10
18.8963388117
 20
51.5996500427
 10
19.0209132247
 20
51.56991411029999
 10
19.1481027968
 20
51.5398797789
 10
19.2778569426
 20
51.5095769871
 10
19.4101340109
 20
51.4790331634
 10
19.5448751201
 20
51.44827918939999
 10
19.6820203218
 20
51.41734553
 10
19.8215294957
 20
51.38625757789999
 10
19.9633630385
 20
51.3550401393
 10
20.107480935
 20
51.32371763800001
 10
20.2538380185
 20
51.29231515779999
 10
20.4022368189
 20
51.260889858
 10
20.5525342009
 20
51.2294858746
 10
20.70466391
 20
51.19813023129999
 10
20.858558043
 20
51.1668494834
 10
21.0141100603
 20
51.13567703010001
 10
21.171125105
 20
51.1046625758
 10
21.3294426249
 20
51.07384722529999
 10
21.4889351025
 20
51.0432641518
 10
21.6495065655
 20
51.0129390338
 10
21.8110719716
 20
50.982894266
 10
21.9736674548
 20
50.9531292697
 10
22.1373198978
 20
50.92364572090001
 10
22.3020100765
 20
50.8944535493
 10
22.4677127459
 20
50.86556343339999
 10
22.6343357929
 20
50.8369971302
 10
22.8018778667
 20
50.8087602214
 10
22.970994023
 20
50.7807510689
 10
23.1426671612
 20
50.752822598
 10
23.3174765377
 20
50.72490238020001
 10
23.4958335104
 20
50.6969515917
 10
23.6777772137
 20
50.66899392109999
 10
23.8631041387
 20
50.64109006989999
 10
24.0517685899
 20
50.613274082
 10
24.2436791441
 20
50.585586435
 10
24.43873759380001
 20
50.558068208
 10
24.6368452182
 20
50.5307600606
 10
24.8380519749
 20
50.5036823092
 10
25.0423707993
 20
50.47686015
 10
25.2497659617
 20
50.4503247692
 10
25.4602099536
 20
50.42410658569999
 10
25.6736880991
 20
50.398234881
 10
25.8901880079
 20
50.37273927
 10
26.1095899074
 20
50.34766120779999
 10
26.3317977863
 20
50.3230369872
 10
26.5567179135
 20
50.29890187
 10
26.7841904764
 20
50.27529724
 10
27.0141937548
 20
50.2522493308
 10
27.2466973518
 20
50.2297851911
 10
27.4814719428
 20
50.2079489116
 10
27.7181159895
 20
50.1867967121
 10
27.9566422766
 20
50.1663444927
 10
28.1970238802
 20
50.1466118099
 10
28.2965443162
 20
50.1386997826
  0
LWPOLYLINE
  5
1575
330
21A
100
AcDbEntity
  8
0
  6
Continuous
 62
     7
100
AcDbPolyline
 90
        3
 70
     0
 43
0.0
 10
17.8126090756
 20
51.8721481426
 10
17.8434574322
 20
51.8640313234
 10
17.906328557
 20
51.84756155279999
  0
LINE
  5
1579
330
21A
100
AcDbEntity
  8
0
  6
Continuous
 62
     7
100
AcDbLine
 10
84.92442495970001
 20
52.18542114239999
 30
0.0
 11
84.93108991419999
 21
52.18690088609999
 31
0.0
  0
LWPOLYLINE
  5
158C
330
21A
100
AcDbEntity
  8
0
  6
Continuous
 62
     7
100
AcDbPolyline
 90
       15
 70
     0
 43
0.0
 10
16.87175492267012
 20
52.06671350395463
 10
16.8744064461
 20
52.0662627289
 10
16.9343039384
 20
52.0559338897
 10
16.9965177814
 20
52.0450237912
 10
17.0609775687
 20
52.0334995217
 10
17.1275837614
 20
52.0213293919
 10
17.1962628467
 20
52.0084723553
 10
17.266999838
 20
51.9948698066
 10
17.3397794006
 20
51.9804464079
 10
17.4145601266
 20
51.9651152452
 10
17.4912694774
 20
51.94878502779999
 10
17.5695872848
 20
51.9314101263
 10
17.6493162353
 20
51.912915382
 10
17.7303557526
 20
51.8931981425
 10
17.8126090756
 20
51.8721481426
  0
LWPOLYLINE
  5
1599
330
21A
100
AcDbEntity
  8
0
  6
Continuous
 62
     7
100
AcDbPolyline
 90
       63
 70
     0
 43
0.0
 10
72.852629621
 20
50.1386934188
 10
72.95223087300001
 20
50.1466118099
 10
73.1926124766
 20
50.1663444927
 10
73.43113876370001
 20
50.1867967121
 10
73.6677828104
 20
50.2079489116
 10
73.9025574014
 20
50.2297851911
 10
74.13506099840001
 20
50.2522493308
 10
74.3650642768
 20
50.27529724
 10
74.5925368397
 20
50.29890187
 10
74.8174569669
 20
50.3230369872
 10
75.03966484580001
 20
50.34766120779999
 10
75.2590667453
 20
50.37273927
 10
75.47556665409999
 20
50.398234881
 10
75.6890447996
 20
50.42410658569999
 10
75.89948879149999
 20
50.4503247692
 10
76.10688395390001
 20
50.47686015
 10
76.3112027783
 20
50.5036823092
 10
76.512409535
 20
50.5307600606
 10
76.7105171594
 20
50.558068208
 10
76.9055756091
 20
50.585586435
 10
77.0974861633
 20
50.613274082
 10
77.2861506145
 20
50.64109006989999
 10
77.4714775395
 20
50.66899392109999
 10
77.6534212428
 20
50.6969515917
 10
77.83177821550001
 20
50.72490238020001
 10
78.006587592
 20
50.752822598
 10
78.1782607302
 20
50.7807510689
 10
78.3473768865
 20
50.8087602214
 10
78.51491896029999
 20
50.8369971302
 10
78.6815420073
 20
50.86556343339999
 10
78.8472446767
 20
50.8944535493
 10
79.0119348554
 20
50.92364572090001
 10
79.1755872984
 20
50.9531292697
 10
79.3381827816
 20
50.982894266
 10
79.49974818770001
 20
51.0129390338
 10
79.6603196507
 20
51.0432641518
 10
79.8198121283
 20
51.07384722529999
 10
79.97812964819999
 20
51.1046625758
 10
80.13514469289999
 20
51.13567703010001
 10
80.29069671020002
 20
51.1668494834
 10
80.44459084320001
 20
51.19813023129999
 10
80.5967205523
 20
51.2294858746
 10
80.7470179343
 20
51.260889858
 10
80.8954167347
 20
51.29231515779999
 10
81.04177381819999
 20
51.32371763800001
 10
81.1858917147
 20
51.3550401393
 10
81.3277252575
 20
51.38625757789999
 10
81.4672344314
 20
51.41734553
 10
81.6043796331
 20
51.44827918939999
 10
81.73912074229999
 20
51.4790331634
 10
81.8713978106
 20
51.5095769871
 10
82.0011519564
 20
51.5398797789
 10
82.1283415285
 20
51.56991411029999
 10
82.25291594149998
 20
51.5996500427
 10
82.3746764612
 20
51.6290217418
 10
82.49354735729999
 20
51.65799237109999
 10
82.6095048788
 20
51.6865377675
 10
82.7225277378
 20
51.7146342614
 10
82.8325962126
 20
51.7422584797
 10
82.9396885669
 20
51.769386467
 10
83.04378237299999
 20
51.79599401709999
 10
83.1448648339
 20
51.8220593568
 10
83.24292619620001
 20
51.84756155279999
  0
LWPOLYLINE
  5
159A
330
21A
100
AcDbEntity
  8
0
  6
Continuous
 62
     7
100
AcDbPolyline
 90
        9
 70
     0
 43
0.0
 10
72.852629621
 20
50.1386934188
 10
72.5228932489
 20
50.1135533671
 10
71.8496363337
 20
50.0673219775
 10
71.19296511479999
 20
50.02880476359999
 10
70.5393155017
 20
49.9968839195
 10
69.87579205260001
 20
49.97099600520001
 10
69.1920004512
 20
49.95110639319999
 10
68.476947522
 20
49.93763720850001
 10
67.7307386949
 20
49.93150624270001
  0
LINE
  5
159B
330
21A
100
AcDbEntity
  8
0
  6
Continuous
 62
     7
100
AcDbLine
 10
14.5906335593
 20
47.9369008861
 30
0.0
 11
86.55862119389999
 21
47.9369008861
 31
0.0
  0
LINE
  5
159C
330
21A
100
AcDbEntity
  8
0
  6
Continuous
 62
     7
100
AcDbLine
 10
86.00724409950002
 20
47.9528579931
 30
0.0
 11
86.5746211891
 21
47.9529132514
 31
0.0
  0
LWPOLYLINE
  5
15A5
330
21A
100
AcDbEntity
  8
0
  6
Continuous
 62
     7
100
AcDbPolyline
 90
        7
 70
     0
 43
0.0
 10
80.6461084953
 20
47.9533893412
 10
82.40383772879999
 20
47.9532987242
 10
82.93194339840001
 20
47.9532649993
 10
83.42886927569999
 20
47.9532258277
 10
83.89334046020001
 20
47.95318008249999
 10
84.3241344481
 20
47.9531285989
 10
84.7200445682
 20
47.953071967
  0
LWPOLYLINE
  5
15A7
330
21A
100
AcDbEntity
  8
0
  6
Continuous
 62
     7
100
AcDbPolyline
 90
        5
 70
     0
 43
0.0
 10
77.9512970811
 20
47.95370584839999
 10
78.65835334180001
 20
47.953582298
 10
79.34412696689999
 20
47.9534919889
 10
80.0071346382
 20
47.95343104189999
 10
80.6461084953
 20
47.9533893412
  0
LINE
  5
15A8
330
21A
100
AcDbEntity
  8
0
  6
Continuous
 62
     7
100
AcDbLine
 10
84.7200445682
 20
47.953071967
 30
0.0
 11
86.00724409950002
 21
47.9528579931
 31
0.0
  0
LINE
  5
15A9
330
21A
100
AcDbEntity
  8
0
  6
Continuous
 62
     7
100
AcDbLine
 10
28.3923654001
 20
50.13061807949999
 30
0.0
 11
28.392393362
 21
50.13061551649999
 31
0.0
  0
LWPOLYLINE
  5
15B4
330
21A
100
AcDbEntity
  8
0
  6
Continuous
 62
     7
100
AcDbPolyline
 90
        4
 70
     0
 43
0.0
 10
67.7307394352
 20
49.9315062793
 10
67.3035327763
 20
49.9303463927
 10
66.99817852629999
 20
49.9295683876
 10
66.6886701538
 20
49.92881571439999
  0
LWPOLYLINE
  5
15B5
330
21A
100
AcDbEntity
  8
0
  6
Continuous
 62
     7
100
AcDbPolyline
 90
        3
 70
     0
 43
0.0
 10
66.6886705429
 20
49.9288157055
 10
64.6715254851
 20
49.925436153
 10
62.5508581808
 20
49.9248293796
  0
LINE
  5
15B6
330
21A
100
AcDbEntity
  8
0
  6
Continuous
 62
     7
100
AcDbLine
 10
40.8112925746
 20
49.9252627572
 30
0.0
 11
38.5981928463
 21
49.92482945189999
 31
0.0
  0
LWPOLYLINE
  5
15B7
330
21A
100
AcDbEntity
  8
0
  6
Continuous
 62
     7
100
AcDbPolyline
 90
        4
 70
     0
 43
0.0
 10
50.57468691810001
 20
49.925150882
 10
48.004304826
 20
49.9252370594
 10
45.5142389013
 20
49.92538138189999
 10
43.11653139949999
 20
49.9254310462
  0
LWPOLYLINE
  5
15B8
330
21A
100
AcDbEntity
  8
0
  6
Continuous
 62
     7
100
AcDbPolyline
 90
        4
 70
     0
 43
0.0
 10
58.0327906626
 20
49.92543104500001
 10
55.635101782
 20
49.9253813862
 10
53.14505519629999
 20
49.9252370653
 10
50.57468691810001
 20
49.925150882
  0
LINE
  5
15B9
330
21A
100
AcDbEntity
  8
0
  6
Continuous
 62
     7
100
AcDbLine
 10
43.11611494899999
 20
49.9254310158
 30
0.0
 11
43.1155370588
 21
49.9254310278
 31
0.0
  0
LINE
  5
15BA
330
21A
100
AcDbEntity
  8
0
  6
Continuous
 62
     7
100
AcDbLine
 10
43.11653139949999
 20
49.9254310462
 30
0.0
 11
40.81029839969999
 21
49.9252628345
 31
0.0
  0
LINE
  5
15BB
330
21A
100
AcDbEntity
  8
0
  6
Continuous
 62
     7
100
AcDbLine
 10
60.3390053264
 20
49.9252628279
 30
0.0
 11
58.0327906626
 21
49.92543104500001
 31
0.0
  0
LINE
  5
15BC
330
21A
100
AcDbEntity
  8
0
  6
Continuous
 62
     7
100
AcDbLine
 10
62.55109414020001
 20
49.9248294471
 30
0.0
 11
60.3380115878
 21
49.9252627505
 31
0.0
  0
LWPOLYLINE
  5
15BD
330
21A
100
AcDbEntity
  8
0
  6
Continuous
 62
     7
100
AcDbPolyline
 90
        3
 70
     0
 43
0.0
 10
38.5984287996
 20
49.92482938430001
 10
36.4777450239
 20
49.9254361383
 10
34.4605842103
 20
49.9288157055
  0
LWPOLYLINE
  5
15BE
330
21A
100
AcDbEntity
  8
0
  6
Continuous
 62
     7
100
AcDbPolyline
 90
        3
 70
     0
 43
0.0
 10
34.4605845994
 20
49.92881571439999
 10
33.8457219769
 20
49.9303463927
 10
33.5673470747
 20
49.93109164069999
  0
LINE
  5
15BF
330
21A
100
AcDbEntity
  8
0
  6
Continuous
 62
     7
100
AcDbLine
 10
33.5673471871
 20
49.9310916406
 30
0.0
 11
33.41851531800001
 21
49.9315062793
 31
0.0
  0
LWPOLYLINE
  5
15C0
330
21A
100
AcDbEntity
  8
0
  6
Continuous
 62
     7
100
AcDbPolyline
 90
        9
 70
     0
 43
0.0
 10
33.4185160516
 20
49.93150624270001
 10
32.67598355940001
 20
49.9375872337
 10
31.9642199128
 20
49.9509390745
 10
31.2835062273
 20
49.9706541853
 10
30.6230100078
 20
49.996310692
 10
29.9725158097
 20
50.0279349908
 10
29.3193810084
 20
50.0660682193
 10
28.6501934367
 20
50.1118001076
 10
28.2965499685
 20
50.138699349
  0
LWPOLYLINE
  5
15C2
330
21A
100
AcDbEntity
  8
0
  6
Continuous
 62
     7
100
AcDbPolyline
 90
        4
 70
     0
 43
0.0
 10
67.0413778676
 20
28.5491572115
 10
66.89843898609999
 20
27.6722646626
 10
66.75094445270001
 20
26.7675848925
 10
66.59828945520001
 20
25.8314322126
  0
LINE
  5
15C3
330
21A
100
AcDbEntity
  8
0
  6
Continuous
 62
     7
100
AcDbLine
 10
67.32798801850001
 20
28.3919875846
 30
0.0
 11
66.89574316729999
 21
25.8314322126
 31
0.0
  0
LWPOLYLINE
  5
15C4
330
21A
100
AcDbEntity
  8
0
  6
Continuous
 62
     7
100
AcDbPolyline
 90
       10
 70
     0
 43
0.0
 10
67.04137787579999
 20
28.5491572492
 10
67.04935542449999
 20
28.5816874678
 10
67.0588292513
 20
28.6129516444
 10
67.06962615229999
 20
28.642378181
 10
67.08154874359999
 20
28.669429111
 10
67.09437906179999
 20
28.6936098961
 10
67.10788254810001
 20
28.71447846780001
 10
67.12181233629999
 20
28.7316533089
 10
67.13591376620001
 20
28.7448204289
 10
67.1499290384
 20
28.753739105
  0
LWPOLYLINE
  5
15C5
330
21A
100
AcDbEntity
  8
0
  6
Continuous
 62
     7
100
AcDbPolyline
 90
       13
 70
     0
 43
0.0
 10
67.32798801850001
 20
28.3919875846
 10
67.33579948159999
 20
28.42289327260001
 10
67.34750333609999
 20
28.452580728
 10
67.3629077297
 20
28.4805633074
 10
67.3817601504
 20
28.5063823144
 10
67.40375156499999
 20
28.5296145183
 10
67.42852148549999
 20
28.5498790916
 10
67.45566387789999
 20
28.5668438532
 10
67.4847338182
 20
28.5802307129
 10
67.51525478560001
 20
28.5898202304
 10
67.54672647380001
 20
28.5954552123
 10
67.578632992
 20
28.5970432887
 10
67.6104513204
 20
28.5945584277
  0
LINE
  5
15C6
330
21A
100
AcDbEntity
  8
0
  6
Continuous
 62
     7
100
AcDbLine
 10
84.72004461979999
 20
47.9530719112
 30
0.0
 11
84.70540858359999
 21
47.9369008297
 31
0.0
  0
LINE
  5
15C7
330
21A
100
AcDbEntity
  8
0
  6
Continuous
 62
     7
100
AcDbLine
 10
86.00724416570001
 20
47.95285792489999
 30
0.0
 11
85.99165765349999
 21
47.93690081789999
 31
0.0
  0
LINE
  5
15C8
330
21A
100
AcDbEntity
  8
0
  6
Continuous
 62
     7
100
AcDbLine
 10
86.574621259
 20
47.95291318149999
 30
0.0
 11
86.558621264
 21
47.936900816
 31
0.0
  0
LINE
  5
15C9
330
21A
100
AcDbEntity
  8
0
  6
Continuous
 62
     7
100
AcDbLine
 10
76.22956515430001
 20
26.6424440244
 30
0.0
 11
76.7307486122
 21
26.8444551472
 31
0.0
  0
LINE
  5
15CA
330
21A
100
AcDbEntity
  8
0
  6
Continuous
 62
     7
100
AcDbLine
 10
16.218164839
 20
52.18690088609999
 30
0.0
 11
16.2963474863
 21
52.18690088609999
 31
0.0
  0
LINE
  5
15CB
330
21A
100
AcDbEntity
  8
0
  6
Continuous
 62
     7
100
AcDbLine
 10
84.85290726689999
 20
52.18690088609999
 30
0.0
 11
84.93108991419999
 21
52.18690088609999
 31
0.0
  0
LINE
  5
15CC
330
21A
100
AcDbEntity
  8
0
  6
Continuous
 62
     7
100
AcDbLine
 10
70.78458980729999
 20
27.5692955261
 30
0.0
 11
70.63254646859999
 21
25.8314322126
 31
0.0
  0
LWPOLYLINE
  5
15CD
330
21A
100
AcDbEntity
  8
0
  6
Continuous
 62
     7
100
AcDbPolyline
 90
        4
 70
     0
 43
0.0
 10
76.6672737758
 20
26.8097320852
 10
76.80199794169999
 20
26.8871074954
 10
76.9303098446
 20
26.9747073368
 10
77.05143502
 20
27.0720029623
  0
LWPOLYLINE
  5
15CE
330
21A
100
AcDbEntity
  8
0
  6
Continuous
 62
     7
100
AcDbPolyline
 90
        5
 70
     0
 43
0.0
 10
77.05143502
 20
27.0720029623
 10
77.1646423862
 20
27.1784071603
 10
77.26924870159999
 20
27.29327774130001
 10
77.3646227444
 20
27.4159215139
 10
77.4501890224
 20
27.5455984117
  0
LINE
  5
15CF
330
21A
100
AcDbEntity
  8
0
  6
Continuous
 62
     7
100
AcDbLine
 10
76.7307486122
 20
26.8444551472
 30
0.0
 11
77.15955981090001
 21
27.1732624841
 31
0.0
  0
LWPOLYLINE
  5
15D0
330
21A
100
AcDbEntity
  8
0
  6
Continuous
 62
     7
100
AcDbPolyline
 90
        9
 70
     0
 43
0.0
 10
85.60837157939999
 20
47.9369008861
 10
83.9486150489
 20
44.9928306327
 10
82.51739571639999
 20
42.0146796564
 10
81.3353088933
 20
39.2549630302
 10
80.33155426129999
 20
36.7191129815
 10
79.478472943
 20
34.352786918
 10
78.76283566259999
 20
32.1091967973
 10
78.1693014016
 20
30.0135736968
 10
77.682425541
 20
28.1077615817
  0
LINE
  5
15D1
330
21A
100
AcDbEntity
  8
0
  6
Continuous
 62
     7
100
AcDbLine
 10
77.15955981090001
 20
27.1732624841
 30
0.0
 11
77.484696265
 21
27.604863641
 31
0.0
  0
LINE
  5
15D2
330
21A
100
AcDbEntity
  8
0
  6
Continuous
 62
     7
100
AcDbLine
 10
77.484696265
 20
27.604863641
 30
0.0
 11
77.682423274
 21
28.1077512281
 31
0.0
  0
LWPOLYLINE
  5
15D3
330
21A
100
AcDbEntity
  8
0
  6
Continuous
 62
     7
100
AcDbPolyline
 90
        5
 70
     0
 43
0.0
 10
77.4501890224
 20
27.5455984117
 10
77.52543121959999
 20
27.6815259348
 10
77.5898953104
 20
27.8228838711
 10
77.6431922988
 20
27.9688192435
 10
77.68240704250001
 20
28.1076845837
  0
LWPOLYLINE
  5
15D4
330
21A
100
AcDbEntity
  8
0
  6
Continuous
 62
     7
100
AcDbPolyline
 90
        5
 70
     0
 43
0.0
 10
86.5746211891
 20
47.9529132514
 10
86.560326704
 20
48.7067611952
 10
86.51861485049998
 20
49.4599743663
 10
86.4495658186
 20
50.2109155649
 10
86.35324304059999
 20
50.9588924972
  0
ARC
  5
16B5
330
21A
100
AcDbEntity
  8
DEFAULT_2
  6
HIDDEN
 62
     7
100
AcDbCircle
 10
84.8529072684
 20
50.749400876
 30
0.0
 40
1.4375000102
100
AcDbArc
 50
90.00000006270001
 51
136.0990609242
  0
ARC
  5
16B6
330
21A
100
AcDbEntity
  8
DEFAULT_2
  6
HIDDEN
 62
     7
100
AcDbCircle
 10
16.2963474848
 20
50.749400876
 30
0.0
 40
1.4375000102
100
AcDbArc
 50
43.90093884699999
 51
89.99999993919999
  0
ARC
  5
16BB
330
21A
100
AcDbEntity
  8
DEFAULT_2
  6
HIDDEN
 62
     7
100
AcDbCircle
 10
58.90664275479999
 20
29.3525104766
 30
0.0
 40
0.5
100
AcDbArc
 50
91.9464539125
 51
175.0000000294
  0
ARC
  5
16BC
330
21A
100
AcDbEntity
  8
DEFAULT_2
  6
HIDDEN
 62
     7
100
AcDbCircle
 10
42.24261199839999
 20
29.3525104766
 30
0.0
 40
0.5
100
AcDbArc
 50
4.9999999718
 51
88.0535460888
  0
ARC
  5
16C6
330
21A
100
AcDbEntity
  8
0
  6
Continuous
 62
     7
100
AcDbCircle
 10
50.57462737659999
 20
-54.4302797566
 30
0.0
 40
84.7421806426
100
AcDbArc
 50
73.1355814985
 51
78.37800301999999
  0
ARC
  5
16C7
330
21A
100
AcDbEntity
  8
0
  6
Continuous
 62
     7
100
AcDbCircle
 10
50.57462737659999
 20
-54.4302797566
 30
0.0
 40
84.7421806426
100
AcDbArc
 50
101.6220005512
 51
106.8644515
  0
ARC
  5
16C8
330
21A
100
AcDbEntity
  8
0
  6
Continuous
 62
     7
100
AcDbCircle
 10
84.9310899143
 20
50.749400886
 30
0.0
 40
1.437499999899999
100
AcDbArc
 50
8.379744929999999
 51
90.0000000025
  0
ARC
  5
16C9
330
21A
100
AcDbEntity
  8
0
  6
Continuous
 62
     7
100
AcDbCircle
 10
16.2181648389
 20
50.749400886
 30
0.0
 40
1.437499999899999
100
AcDbArc
 50
89.9999999975
 51
171.62025507
  0
ARC
  5
16CA
330
21A
100
AcDbEntity
  8
0
  6
Continuous
 62
     7
100
AcDbCircle
 10
30.1156162714
 20
27.5475065904
 30
0.0
 40
0.25
100
AcDbArc
 50
5.0
 51
104.0129314432
  0
ARC
  5
16CB
330
21A
100
AcDbEntity
  8
0
  6
Continuous
 62
     7
100
AcDbCircle
 10
71.0336291472
 20
27.5475096923
 30
0.0
 40
0.2499996903
100
AcDbArc
 50
75.9848207302
 51
175.0005217878
  0
ARC
  5
1782
330
21A
100
AcDbEntity
  8
0
100
AcDbCircle
 10
85.27687616632881
 20
46.23938242265507
 30
0.0
 40
5.957561917863685
100
AcDbArc
 50
97.2223891680921
 51
109.0064900378615
  0
ENDSEC
  0
SECTION
  2
OBJECTS
  0
DICTIONARY
  5
C
330
0
100
AcDbDictionary
281
     1
  3
ACAD_COLOR
350
170A
  3
ACAD_GROUP
350
D
  3
ACAD_LAYOUT
350
1A
  3
ACAD_MATERIAL
350
16DD
  3
ACAD_MLEADERSTYLE
350
172F
  3
ACAD_MLINESTYLE
350
17
  3
ACAD_PLOTSETTINGS
350
19
  3
ACAD_PLOTSTYLENAME
350
E
  3
ACAD_SCALELIST
350
170D
  3
ACAD_TABLESTYLE
350
170B
  3
ACAD_VISUALSTYLE
350
16F6
  3
ACDB_RECOMPOSE_DATA
350
1734
  3
AcDbVariableDictionary
350
1766
  3
DWGPROPS
350
17CC
  0
DICTIONARY
  5
1735
330
8
100
AcDbDictionary
280
     1
281
     1
  0
DICTIONARY
  5
178E
330
10
100
AcDbDictionary
280
     1
281
     1
  3
ADSK_XREC_LAYER_RECONCILED
360
178F
  0
DICTIONARY
  5
1790
330
1FA
100
AcDbDictionary
280
     1
281
     1
  3
ADSK_XREC_LAYER_RECONCILED
360
1791
  0
DICTIONARY
  5
1792
330
1FB
100
AcDbDictionary
280
     1
281
     1
  3
ADSK_XREC_LAYER_RECONCILED
360
1793
  0
DICTIONARY
  5
1794
330
1FC
100
AcDbDictionary
280
     1
281
     1
  3
ADSK_XREC_LAYER_RECONCILED
360
1795
  0
DICTIONARY
  5
1796
330
1FD
100
AcDbDictionary
280
     1
281
     1
  3
ADSK_XREC_LAYER_RECONCILED
360
1797
  0
DICTIONARY
  5
1798
330
1FE
100
AcDbDictionary
280
     1
281
     1
  3
ADSK_XREC_LAYER_RECONCILED
360
1799
  0
DICTIONARY
  5
179A
330
1FF
100
AcDbDictionary
280
     1
281
     1
  3
ADSK_XREC_LAYER_RECONCILED
360
179B
  0
DICTIONARY
  5
179C
330
200
100
AcDbDictionary
280
     1
281
     1
  3
ADSK_XREC_LAYER_RECONCILED
360
179D
  0
DICTIONARY
  5
179E
330
201
100
AcDbDictionary
280
     1
281
     1
  3
ADSK_XREC_LAYER_RECONCILED
360
179F
  0
DICTIONARY
  5
17A0
330
202
100
AcDbDictionary
280
     1
281
     1
  3
ADSK_XREC_LAYER_RECONCILED
360
17A1
  0
DICTIONARY
  5
17A2
330
203
100
AcDbDictionary
280
     1
281
     1
  3
ADSK_XREC_LAYER_RECONCILED
360
17A3
  0
DICTIONARY
  5
17A4
330
204
100
AcDbDictionary
280
     1
281
     1
  3
ADSK_XREC_LAYER_RECONCILED
360
17A5
  0
DICTIONARY
  5
17A6
330
205
100
AcDbDictionary
280
     1
281
     1
  3
ADSK_XREC_LAYER_RECONCILED
360
17A7
  0
DICTIONARY
  5
17A8
330
206
100
AcDbDictionary
280
     1
281
     1
  3
ADSK_XREC_LAYER_RECONCILED
360
17A9
  0
DICTIONARY
  5
17AA
330
207
100
AcDbDictionary
280
     1
281
     1
  3
ADSK_XREC_LAYER_RECONCILED
360
17AB
  0
DICTIONARY
  5
17AC
330
208
100
AcDbDictionary
280
     1
281
     1
  3
ADSK_XREC_LAYER_RECONCILED
360
17AD
  0
DICTIONARY
  5
17AE
330
209
100
AcDbDictionary
280
     1
281
     1
  3
ADSK_XREC_LAYER_RECONCILED
360
17AF
  0
DICTIONARY
  5
17B0
330
20A
100
AcDbDictionary
280
     1
281
     1
  3
ADSK_XREC_LAYER_RECONCILED
360
17B1
  0
DICTIONARY
  5
17B2
330
20B
100
AcDbDictionary
280
     1
281
     1
  3
ADSK_XREC_LAYER_RECONCILED
360
17B3
  0
DICTIONARY
  5
17B4
330
20C
100
AcDbDictionary
280
     1
281
     1
  3
ADSK_XREC_LAYER_RECONCILED
360
17B5
  0
DICTIONARY
  5
17B6
330
20D
100
AcDbDictionary
280
     1
281
     1
  3
ADSK_XREC_LAYER_RECONCILED
360
17B7
  0
DICTIONARY
  5
17B8
330
20E
100
AcDbDictionary
280
     1
281
     1
  3
ADSK_XREC_LAYER_RECONCILED
360
17B9
  0
DICTIONARY
  5
17BA
330
20F
100
AcDbDictionary
280
     1
281
     1
  3
ADSK_XREC_LAYER_RECONCILED
360
17BB
  0
DICTIONARY
  5
17BC
330
210
100
AcDbDictionary
280
     1
281
     1
  3
ADSK_XREC_LAYER_RECONCILED
360
17BD
  0
DICTIONARY
  5
17BE
330
211
100
AcDbDictionary
280
     1
281
     1
  3
ADSK_XREC_LAYER_RECONCILED
360
17BF
  0
DICTIONARY
  5
170A
102
{ACAD_REACTORS
330
C
102
}
330
C
100
AcDbDictionary
281
     1
  0
DICTIONARY
  5
D
102
{ACAD_REACTORS
330
C
102
}
330
C
100
AcDbDictionary
281
     1
  0
DICTIONARY
  5
1A
102
{ACAD_REACTORS
330
C
102
}
330
C
100
AcDbDictionary
281
     1
  3
Layout1
350
16D9
  3
Model
350
16D8
  0
DICTIONARY
  5
16DD
102
{ACAD_REACTORS
330
C
102
}
330
C
100
AcDbDictionary
281
     1
  3
ByBlock
350
16E6
  3
ByLayer
350
16DE
  3
Global
350
16EE
  0
DICTIONARY
  5
172F
102
{ACAD_REACTORS
330
C
102
}
330
C
100
AcDbDictionary
281
     1
  3
Standard
350
1730
  0
DICTIONARY
  5
17
102
{ACAD_REACTORS
330
C
102
}
330
C
100
AcDbDictionary
281
     1
  3
Standard
350
18
  0
DICTIONARY
  5
19
102
{ACAD_REACTORS
330
C
102
}
330
C
100
AcDbDictionary
281
     1
  0
ACDBDICTIONARYWDFLT
  5
E
102
{ACAD_REACTORS
330
C
102
}
330
C
100
AcDbDictionary
281
     1
  3
Normal
350
F
100
AcDbDictionaryWithDefault
340
F
  0
DICTIONARY
  5
170D
102
{ACAD_REACTORS
330
C
102
}
330
C
100
AcDbDictionary
281
     1
  3
A0
350
170E
  3
A1
350
170F
  3
A2
350
1710
  3
A3
350
1711
  3
A4
350
1712
  3
A5
350
1713
  3
A6
350
1714
  3
A7
350
1715
  3
A8
350
1716
  3
A9
350
1717
  3
B0
350
1718
  3
B1
350
1719
  3
B2
350
171A
  3
B3
350
171B
  3
B4
350
171C
  3
B5
350
171D
  3
B6
350
171E
  3
B7
350
171F
  3
B8
350
1720
  3
B9
350
1721
  3
C0
350
1722
  3
C1
350
1723
  3
C2
350
1724
  3
C3
350
1725
  3
C4
350
1726
  3
C5
350
1727
  3
C6
350
1728
  3
C7
350
1729
  3
C8
350
172A
  3
C9
350
172B
  3
D0
350
172C
  3
D1
350
172D
  3
D2
350
172E
  0
DICTIONARY
  5
170B
102
{ACAD_REACTORS
330
C
102
}
330
C
100
AcDbDictionary
281
     1
  3
Standard
350
170C
  0
DICTIONARY
  5
16F6
102
{ACAD_REACTORS
330
C
102
}
330
C
100
AcDbDictionary
281
     1
  3
2dWireframe
350
16FC
  3
3D Hidden
350
16FE
  3
3dWireframe
350
16FD
  3
Basic
350
16FB
  3
Brighten
350
1702
  3
ColorChange
350
1706
  3
Conceptual
350
16FF
  3
Dim
350
1701
  3
EdgeColorOff
350
1709
  3
Facepattern
350
1705
  3
Flat
350
16F7
  3
FlatWithEdges
350
16F8
  3
Gouraud
350
16F9
  3
GouraudWithEdges
350
16FA
  3
JitterOff
350
1707
  3
Linepattern
350
1704
  3
OverhangOff
350
1708
  3
Realistic
350
1700
  3
Thicken
350
1703
  0
XRECORD
  5
1734
102
{ACAD_REACTORS
330
C
102
}
330
C
100
AcDbXrecord
280
     1
 90
        1
330
170C
  0
DICTIONARY
  5
1766
102
{ACAD_REACTORS
330
C
102
}
330
C
100
AcDbDictionary
281
     1
  3
CANNOSCALE
350
1769
  3
CMLEADERSTYLE
350
1768
  3
CTABLESTYLE
350
1767
  3
DIMASSOC
350
176C
  3
INDEXCTL
350
176B
  3
SORTENTS
350
176A
  3
XCLIPFRAME
350
176D
  0
XRECORD
  5
17CC
102
{ACAD_REACTORS
330
C
102
}
330
C
100
AcDbXrecord
280
     1
  1
DWGPROPS COOKIE
  2

  3

  4

  6

  7

  8
crystelled
  9

300
=
301
=
302
=
303
=
304
=
305
=
306
=
307
=
308
=
309
=
 40
0.0389075115740741
 41
2456597.336554491
 42
2456624.534687755
  1

 90
        0
  0
XRECORD
  5
178F
102
{ACAD_REACTORS
330
178E
102
}
330
178E
100
AcDbXrecord
280
     1
290
     1
  0
XRECORD
  5
1791
102
{ACAD_REACTORS
330
1790
102
}
330
1790
100
AcDbXrecord
280
     1
290
     1
  0
XRECORD
  5
1793
102
{ACAD_REACTORS
330
1792
102
}
330
1792
100
AcDbXrecord
280
     1
290
     1
  0
XRECORD
  5
1795
102
{ACAD_REACTORS
330
1794
102
}
330
1794
100
AcDbXrecord
280
     1
290
     1
  0
XRECORD
  5
1797
102
{ACAD_REACTORS
330
1796
102
}
330
1796
100
AcDbXrecord
280
     1
290
     1
  0
XRECORD
  5
1799
102
{ACAD_REACTORS
330
1798
102
}
330
1798
100
AcDbXrecord
280
     1
290
     1
  0
XRECORD
  5
179B
102
{ACAD_REACTORS
330
179A
102
}
330
179A
100
AcDbXrecord
280
     1
290
     1
  0
XRECORD
  5
179D
102
{ACAD_REACTORS
330
179C
102
}
330
179C
100
AcDbXrecord
280
     1
290
     1
  0
XRECORD
  5
179F
102
{ACAD_REACTORS
330
179E
102
}
330
179E
100
AcDbXrecord
280
     1
290
     1
  0
XRECORD
  5
17A1
102
{ACAD_REACTORS
330
17A0
102
}
330
17A0
100
AcDbXrecord
280
     1
290
     1
  0
XRECORD
  5
17A3
102
{ACAD_REACTORS
330
17A2
102
}
330
17A2
100
AcDbXrecord
280
     1
290
     1
  0
XRECORD
  5
17A5
102
{ACAD_REACTORS
330
17A4
102
}
330
17A4
100
AcDbXrecord
280
     1
290
     1
  0
XRECORD
  5
17A7
102
{ACAD_REACTORS
330
17A6
102
}
330
17A6
100
AcDbXrecord
280
     1
290
     1
  0
XRECORD
  5
17A9
102
{ACAD_REACTORS
330
17A8
102
}
330
17A8
100
AcDbXrecord
280
     1
290
     1
  0
XRECORD
  5
17AB
102
{ACAD_REACTORS
330
17AA
102
}
330
17AA
100
AcDbXrecord
280
     1
290
     1
  0
XRECORD
  5
17AD
102
{ACAD_REACTORS
330
17AC
102
}
330
17AC
100
AcDbXrecord
280
     1
290
     1
  0
XRECORD
  5
17AF
102
{ACAD_REACTORS
330
17AE
102
}
330
17AE
100
AcDbXrecord
280
     1
290
     1
  0
XRECORD
  5
17B1
102
{ACAD_REACTORS
330
17B0
102
}
330
17B0
100
AcDbXrecord
280
     1
290
     1
  0
XRECORD
  5
17B3
102
{ACAD_REACTORS
330
17B2
102
}
330
17B2
100
AcDbXrecord
280
     1
290
     1
  0
XRECORD
  5
17B5
102
{ACAD_REACTORS
330
17B4
102
}
330
17B4
100
AcDbXrecord
280
     1
290
     1
  0
XRECORD
  5
17B7
102
{ACAD_REACTORS
330
17B6
102
}
330
17B6
100
AcDbXrecord
280
     1
290
     1
  0
XRECORD
  5
17B9
102
{ACAD_REACTORS
330
17B8
102
}
330
17B8
100
AcDbXrecord
280
     1
290
     1
  0
XRECORD
  5
17BB
102
{ACAD_REACTORS
330
17BA
102
}
330
17BA
100
AcDbXrecord
280
     1
290
     1
  0
XRECORD
  5
17BD
102
{ACAD_REACTORS
330
17BC
102
}
330
17BC
100
AcDbXrecord
280
     1
290
     1
  0
XRECORD
  5
17BF
102
{ACAD_REACTORS
330
17BE
102
}
330
17BE
100
AcDbXrecord
280
     1
290
     1
  0
LAYOUT
  5
16D9
102
{ACAD_XDICTIONARY
360
17CF
102
}
102
{ACAD_REACTORS
330
1A
102
}
330
1A
100
AcDbPlotSettings
  1

  2
none_device
  4
ANSI_B_(17.00_x_11.00_Inches)
  6

 40
0.0
 41
0.0
 42
0.0
 43
0.0
 44
431.8
 45
279.4
 46
0.0
 47
0.0
 48
0.0
 49
0.0
140
0.0
141
0.0
142
1.0
143
1.0
 70
     0
 72
     0
 73
     0
 74
     0
  7

 75
     0
147
1.0
148
0.0
149
0.0
100
AcDbLayout
  1
Layout1
 70
     1
 71
     1
 10
0.0
 20
0.0
 11
12.0
 21
9.0
 12
0.0
 22
0.0
 32
0.0
 14
1.000000000000000E+20
 24
1.000000000000000E+20
 34
1.000000000000000E+20
 15
-1.000000000000000E+20
 25
-1.000000000000000E+20
 35
-1.000000000000000E+20
146
0.0
 13
0.0
 23
0.0
 33
0.0
 16
1.0
 26
0.0
 36
0.0
 17
0.0
 27
1.0
 37
0.0
 76
     0
330
21B
  0
LAYOUT
  5
16D8
102
{ACAD_XDICTIONARY
360
17CD
102
}
102
{ACAD_REACTORS
330
1A
102
}
330
1A
100
AcDbPlotSettings
  1

  2
none_device
  4
ANSI_B_(17.00_x_11.00_Inches)
  6

 40
0.0
 41
0.0
 42
0.0
 43
0.0
 44
431.8
 45
279.4
 46
0.0
 47
0.0
 48
0.0
 49
0.0
140
0.0
141
0.0
142
1.0
143
1.0
 70
  1024
 72
     0
 73
     0
 74
     0
  7

 75
     0
147
1.0
148
0.0
149
0.0
100
AcDbLayout
  1
Model
 70
     0
 71
     0
 10
0.0
 20
0.0
 11
17.0
 21
11.0
 12
0.0
 22
0.0
 32
0.0
 14
0.0
 24
0.0
 34
0.0
 15
0.0
 25
0.0
 35
0.0
146
0.0
 13
0.0
 23
0.0
 33
0.0
 16
1.0
 26
0.0
 36
0.0
 17
0.0
 27
1.0
 37
0.0
 76
     0
330
21A
331
1F4
  0
MATERIAL
  5
16E6
102
{ACAD_XDICTIONARY
360
16E7
102
}
102
{ACAD_REACTORS
330
16DD
102
}
330
16DD
100
AcDbMaterial
  1
ByBlock
 72
     0
 43
0.0208333333333333
 43
0.0
 43
0.0
 43
0.0
 43
0.0
 43
0.0208333333333333
 43
0.0
 43
0.0
 43
0.0
 43
0.0
 43
1.0
 43
0.0
 43
0.0
 43
0.0
 43
0.0
 43
1.0
 77
     0
 47
0.0208333333333333
 47
0.0
 47
0.0
 47
0.0
 47
0.0
 47
0.0208333333333333
 47
0.0
 47
0.0
 47
0.0
 47
0.0
 47
1.0
 47
0.0
 47
0.0
 47
0.0
 47
0.0
 47
1.0
171
     0
 49
0.0208333333333333
 49
0.0
 49
0.0
 49
0.0
 49
0.0
 49
0.0208333333333333
 49
0.0
 49
0.0
 49
0.0
 49
0.0
 49
1.0
 49
0.0
 49
0.0
 49
0.0
 49
0.0
 49
1.0
175
     0
142
0.0208333333333333
142
0.0
142
0.0
142
0.0
142
0.0
142
0.0208333333333333
142
0.0
142
0.0
142
0.0
142
0.0
142
1.0
142
0.0
142
0.0
142
0.0
142
0.0
142
1.0
179
     0
144
0.0208333333333333
144
0.0
144
0.0
144
0.0
144
0.0
144
0.0208333333333333
144
0.0
144
0.0
144
0.0
144
0.0
144
1.0
144
0.0
144
0.0
144
0.0
144
0.0
144
1.0
147
0.0208333333333333
147
0.0
147
0.0
147
0.0
147
0.0
147
0.0208333333333333
147
0.0
147
0.0
147
0.0
147
0.0
147
1.0
147
0.0
147
0.0
147
0.0
147
0.0
147
1.0
  0
MATERIAL
  5
16DE
102
{ACAD_XDICTIONARY
360
16DF
102
}
102
{ACAD_REACTORS
330
16DD
102
}
330
16DD
100
AcDbMaterial
  1
ByLayer
 72
     0
 43
0.0208333333333333
 43
0.0
 43
0.0
 43
0.0
 43
0.0
 43
0.0208333333333333
 43
0.0
 43
0.0
 43
0.0
 43
0.0
 43
1.0
 43
0.0
 43
0.0
 43
0.0
 43
0.0
 43
1.0
 77
     0
 47
0.0208333333333333
 47
0.0
 47
0.0
 47
0.0
 47
0.0
 47
0.0208333333333333
 47
0.0
 47
0.0
 47
0.0
 47
0.0
 47
1.0
 47
0.0
 47
0.0
 47
0.0
 47
0.0
 47
1.0
171
     0
 49
0.0208333333333333
 49
0.0
 49
0.0
 49
0.0
 49
0.0
 49
0.0208333333333333
 49
0.0
 49
0.0
 49
0.0
 49
0.0
 49
1.0
 49
0.0
 49
0.0
 49
0.0
 49
0.0
 49
1.0
175
     0
142
0.0208333333333333
142
0.0
142
0.0
142
0.0
142
0.0
142
0.0208333333333333
142
0.0
142
0.0
142
0.0
142
0.0
142
1.0
142
0.0
142
0.0
142
0.0
142
0.0
142
1.0
179
     0
144
0.0208333333333333
144
0.0
144
0.0
144
0.0
144
0.0
144
0.0208333333333333
144
0.0
144
0.0
144
0.0
144
0.0
144
1.0
144
0.0
144
0.0
144
0.0
144
0.0
144
1.0
147
0.0208333333333333
147
0.0
147
0.0
147
0.0
147
0.0
147
0.0208333333333333
147
0.0
147
0.0
147
0.0
147
0.0
147
1.0
147
0.0
147
0.0
147
0.0
147
0.0
147
1.0
  0
MATERIAL
  5
16EE
102
{ACAD_XDICTIONARY
360
16EF
102
}
102
{ACAD_REACTORS
330
16DD
102
}
330
16DD
100
AcDbMaterial
  1
Global
 72
     0
 43
0.0208333333333333
 43
0.0
 43
0.0
 43
0.0
 43
0.0
 43
0.0208333333333333
 43
0.0
 43
0.0
 43
0.0
 43
0.0
 43
1.0
 43
0.0
 43
0.0
 43
0.0
 43
0.0
 43
1.0
 77
     0
 47
0.0208333333333333
 47
0.0
 47
0.0
 47
0.0
 47
0.0
 47
0.0208333333333333
 47
0.0
 47
0.0
 47
0.0
 47
0.0
 47
1.0
 47
0.0
 47
0.0
 47
0.0
 47
0.0
 47
1.0
171
     0
 49
0.0208333333333333
 49
0.0
 49
0.0
 49
0.0
 49
0.0
 49
0.0208333333333333
 49
0.0
 49
0.0
 49
0.0
 49
0.0
 49
1.0
 49
0.0
 49
0.0
 49
0.0
 49
0.0
 49
1.0
175
     0
142
0.0208333333333333
142
0.0
142
0.0
142
0.0
142
0.0
142
0.0208333333333333
142
0.0
142
0.0
142
0.0
142
0.0
142
1.0
142
0.0
142
0.0
142
0.0
142
0.0
142
1.0
179
     0
144
0.0208333333333333
144
0.0
144
0.0
144
0.0
144
0.0
144
0.0208333333333333
144
0.0
144
0.0
144
0.0
144
0.0
144
1.0
144
0.0
144
0.0
144
0.0
144
0.0
144
1.0
147
0.0208333333333333
147
0.0
147
0.0
147
0.0
147
0.0
147
0.0208333333333333
147
0.0
147
0.0
147
0.0
147
0.0
147
1.0
147
0.0
147
0.0
147
0.0
147
0.0
147
1.0
  0
MLEADERSTYLE
  5
1730
102
{ACAD_REACTORS
330
172F
102
}
330
172F
100
AcDbMLeaderStyle
170
     2
171
     1
172
     0
 90
        2
 40
0.0
 41
0.0
173
     1
 91
-1056964608
340
14
 92
       -2
290
     1
 42
0.09
291
     1
 43
0.36
  3
Standard
 44
0.18
300

342
11
174
     1
178
     6
175
     1
176
     0
 93
-1056964608
 45
0.18
292
     0
297
     0
 46
0.18
 94
-1056964608
 47
1.0
 49
1.0
140
1.0
293
     1
141
0.0
294
     1
177
     0
142
1.0
295
     0
296
     0
143
0.125
1001
ACAD_MLEADERVER
1070
     2
  0
MLINESTYLE
  5
18
102
{ACAD_REACTORS
330
17
102
}
330
17
100
AcDbMlineStyle
  2
STANDARD
 70
     0
  3

 62
   256
 51
90.0
 52
90.0
 71
     2
 49
0.5
 62
   256
  6
BYLAYER
 49
-0.5
 62
   256
  6
BYLAYER
  0
ACDBPLACEHOLDER
  5
F
102
{ACAD_REACTORS
330
E
102
}
330
E
  0
SCALE
  5
170E
102
{ACAD_REACTORS
330
170D
102
}
330
170D
100
AcDbScale
 70
     0
300
1:1
140
1.0
141
1.0
290
     1
  0
SCALE
  5
170F
102
{ACAD_REACTORS
330
170D
102
}
330
170D
100
AcDbScale
 70
     0
300
1:2
140
1.0
141
2.0
290
     0
  0
SCALE
  5
1710
102
{ACAD_REACTORS
330
170D
102
}
330
170D
100
AcDbScale
 70
     0
300
1:4
140
1.0
141
4.0
290
     0
  0
SCALE
  5
1711
102
{ACAD_REACTORS
330
170D
102
}
330
170D
100
AcDbScale
 70
     0
300
1:5
140
1.0
141
5.0
290
     0
  0
SCALE
  5
1712
102
{ACAD_REACTORS
330
170D
102
}
330
170D
100
AcDbScale
 70
     0
300
1:8
140
1.0
141
8.0
290
     0
  0
SCALE
  5
1713
102
{ACAD_REACTORS
330
170D
102
}
330
170D
100
AcDbScale
 70
     0
300
1:10
140
1.0
141
10.0
290
     0
  0
SCALE
  5
1714
102
{ACAD_REACTORS
330
170D
102
}
330
170D
100
AcDbScale
 70
     0
300
1:16
140
1.0
141
16.0
290
     0
  0
SCALE
  5
1715
102
{ACAD_REACTORS
330
170D
102
}
330
170D
100
AcDbScale
 70
     0
300
1:20
140
1.0
141
20.0
290
     0
  0
SCALE
  5
1716
102
{ACAD_REACTORS
330
170D
102
}
330
170D
100
AcDbScale
 70
     0
300
1:30
140
1.0
141
30.0
290
     0
  0
SCALE
  5
1717
102
{ACAD_REACTORS
330
170D
102
}
330
170D
100
AcDbScale
 70
     0
300
1:40
140
1.0
141
40.0
290
     0
  0
SCALE
  5
1718
102
{ACAD_REACTORS
330
170D
102
}
330
170D
100
AcDbScale
 70
     0
300
1:50
140
1.0
141
50.0
290
     0
  0
SCALE
  5
1719
102
{ACAD_REACTORS
330
170D
102
}
330
170D
100
AcDbScale
 70
     0
300
1:100
140
1.0
141
100.0
290
     0
  0
SCALE
  5
171A
102
{ACAD_REACTORS
330
170D
102
}
330
170D
100
AcDbScale
 70
     0
300
2:1
140
2.0
141
1.0
290
     0
  0
SCALE
  5
171B
102
{ACAD_REACTORS
330
170D
102
}
330
170D
100
AcDbScale
 70
     0
300
4:1
140
4.0
141
1.0
290
     0
  0
SCALE
  5
171C
102
{ACAD_REACTORS
330
170D
102
}
330
170D
100
AcDbScale
 70
     0
300
8:1
140
8.0
141
1.0
290
     0
  0
SCALE
  5
171D
102
{ACAD_REACTORS
330
170D
102
}
330
170D
100
AcDbScale
 70
     0
300
10:1
140
10.0
141
1.0
290
     0
  0
SCALE
  5
171E
102
{ACAD_REACTORS
330
170D
102
}
330
170D
100
AcDbScale
 70
     0
300
100:1
140
100.0
141
1.0
290
     0
  0
SCALE
  5
171F
102
{ACAD_REACTORS
330
170D
102
}
330
170D
100
AcDbScale
 70
     0
300
1/128" = 1'-0"
140
0.0078125
141
12.0
290
     0
  0
SCALE
  5
1720
102
{ACAD_REACTORS
330
170D
102
}
330
170D
100
AcDbScale
 70
     0
300
1/64" = 1'-0"
140
0.015625
141
12.0
290
     0
  0
SCALE
  5
1721
102
{ACAD_REACTORS
330
170D
102
}
330
170D
100
AcDbScale
 70
     0
300
1/32" = 1'-0"
140
0.03125
141
12.0
290
     0
  0
SCALE
  5
1722
102
{ACAD_REACTORS
330
170D
102
}
330
170D
100
AcDbScale
 70
     0
300
1/16" = 1'-0"
140
0.0625
141
12.0
290
     0
  0
SCALE
  5
1723
102
{ACAD_REACTORS
330
170D
102
}
330
170D
100
AcDbScale
 70
     0
300
3/32" = 1'-0"
140
0.09375
141
12.0
290
     0
  0
SCALE
  5
1724
102
{ACAD_REACTORS
330
170D
102
}
330
170D
100
AcDbScale
 70
     0
300
1/8" = 1'-0"
140
0.125
141
12.0
290
     0
  0
SCALE
  5
1725
102
{ACAD_REACTORS
330
170D
102
}
330
170D
100
AcDbScale
 70
     0
300
3/16" = 1'-0"
140
0.1875
141
12.0
290
     0
  0
SCALE
  5
1726
102
{ACAD_REACTORS
330
170D
102
}
330
170D
100
AcDbScale
 70
     0
300
1/4" = 1'-0"
140
0.25
141
12.0
290
     0
  0
SCALE
  5
1727
102
{ACAD_REACTORS
330
170D
102
}
330
170D
100
AcDbScale
 70
     0
300
3/8" = 1'-0"
140
0.375
141
12.0
290
     0
  0
SCALE
  5
1728
102
{ACAD_REACTORS
330
170D
102
}
330
170D
100
AcDbScale
 70
     0
300
1/2" = 1'-0"
140
0.5
141
12.0
290
     0
  0
SCALE
  5
1729
102
{ACAD_REACTORS
330
170D
102
}
330
170D
100
AcDbScale
 70
     0
300
3/4" = 1'-0"
140
0.75
141
12.0
290
     0
  0
SCALE
  5
172A
102
{ACAD_REACTORS
330
170D
102
}
330
170D
100
AcDbScale
 70
     0
300
1" = 1'-0"
140
1.0
141
12.0
290
     0
  0
SCALE
  5
172B
102
{ACAD_REACTORS
330
170D
102
}
330
170D
100
AcDbScale
 70
     0
300
1-1/2" = 1'-0"
140
1.5
141
12.0
290
     0
  0
SCALE
  5
172C
102
{ACAD_REACTORS
330
170D
102
}
330
170D
100
AcDbScale
 70
     0
300
3" = 1'-0"
140
3.0
141
12.0
290
     0
  0
SCALE
  5
172D
102
{ACAD_REACTORS
330
170D
102
}
330
170D
100
AcDbScale
 70
     0
300
6" = 1'-0"
140
6.0
141
12.0
290
     0
  0
SCALE
  5
172E
102
{ACAD_REACTORS
330
170D
102
}
330
170D
100
AcDbScale
 70
     0
300
1'-0" = 1'-0"
140
12.0
141
12.0
290
     0
  0
TABLESTYLE
  5
170C
102
{ACAD_XDICTIONARY
360
1732
102
}
102
{ACAD_REACTORS
330
170B
102
}
330
170B
100
AcDbTableStyle
  3
Standard
 70
     0
 71
     0
 40
0.06
 41
0.06
280
     0
281
     0
  7
STANDARD
140
0.18
170
     2
 62
     0
 63
     7
283
     0
274
    -2
284
     1
 64
     0
275
    -2
285
     1
 65
     0
276
    -2
286
     1
 66
     0
277
    -2
287
     1
 67
     0
278
    -2
288
     1
 68
     0
279
    -2
289
     1
 69
     0
  7
STANDARD
140
0.25
170
     5
 62
     0
 63
     7
283
     0
274
    -2
284
     1
 64
     0
275
    -2
285
     1
 65
     0
276
    -2
286
     1
 66
     0
277
    -2
287
     1
 67
     0
278
    -2
288
     1
 68
     0
279
    -2
289
     1
 69
     0
  7
STANDARD
140
0.18
170
     5
 62
     0
 63
     7
283
     0
274
    -2
284
     1
 64
     0
275
    -2
285
     1
 65
     0
276
    -2
286
     1
 66
     0
277
    -2
287
     1
 67
     0
278
    -2
288
     1
 68
     0
279
    -2
289
     1
 69
     0
  0
VISUALSTYLE
  5
16FC
102
{ACAD_XDICTIONARY
360
1748
102
}
102
{ACAD_REACTORS
330
16F6
102
}
330
16F6
100
AcDbVisualStyle
  2
2dWireframe
 70
     4
 71
     0
 72
     2
 73
     0
 90
        0
 40
-0.6
 41
-30.0
 62
     5
 63
     7
 74
     1
 91
        4
 64
     7
 65
   257
 75
     1
175
     1
 42
1.0
 92
        0
 66
   257
 43
1.0
 76
     1
 77
     6
 78
     2
 67
     7
 79
     5
170
     0
171
     0
290
     0
174
     0
 93
        1
 44
0.0
173
     0
291
     0
 45
0.0
1001
ACAD
1000
AcDbSavedByObjectVersion
1070
     0
  0
VISUALSTYLE
  5
16FE
102
{ACAD_XDICTIONARY
360
174C
102
}
102
{ACAD_REACTORS
330
16F6
102
}
330
16F6
100
AcDbVisualStyle
  2
3D Hidden
 70
     6
 71
     1
 72
     2
 73
     2
 90
        0
 40
-0.6
 41
-30.0
 62
     5
 63
     7
 74
     2
 91
        2
 64
     7
 65
   257
 75
     2
175
     1
 42
179.0
 92
        0
 66
   257
 43
1.0
 76
     1
 77
     6
 78
     2
 67
     7
 79
     3
170
     0
171
     0
290
     0
174
     0
 93
        1
 44
0.0
173
     0
291
     0
 45
0.0
1001
ACAD
1000
AcDbSavedByObjectVersion
1070
     0
  0
VISUALSTYLE
  5
16FD
102
{ACAD_XDICTIONARY
360
174A
102
}
102
{ACAD_REACTORS
330
16F6
102
}
330
16F6
100
AcDbVisualStyle
  2
3dWireframe
 70
     5
 71
     0
 72
     2
 73
     0
 90
        0
 40
-0.6
 41
-30.0
 62
     5
 63
     7
 74
     1
 91
        4
 64
     7
 65
   257
 75
     1
175
     1
 42
1.0
 92
        0
 66
   257
 43
1.0
 76
     1
 77
     6
 78
     2
 67
     7
 79
     5
170
     0
171
     0
290
     0
174
     0
 93
        1
 44
0.0
173
     0
291
     0
 45
0.0
1001
ACAD
1000
AcDbSavedByObjectVersion
1070
     0
  0
VISUALSTYLE
  5
16FB
102
{ACAD_XDICTIONARY
360
1746
102
}
102
{ACAD_REACTORS
330
16F6
102
}
330
16F6
100
AcDbVisualStyle
  2
Basic
 70
     7
 71
     1
 72
     0
 73
     1
 90
        0
 40
-0.6
 41
-30.0
 62
     5
 63
     7
 74
     0
 91
        4
 64
     7
 65
   257
 75
     1
175
     1
 42
1.0
 92
        8
 66
     7
 43
1.0
 76
     1
 77
     6
 78
     2
 67
     7
 79
     5
170
     0
171
     0
290
     0
174
     0
 93
        1
 44
0.0
173
     0
291
     1
 45
0.0
1001
ACAD
1000
AcDbSavedByObjectVersion
1070
     0
  0
VISUALSTYLE
  5
1702
102
{ACAD_XDICTIONARY
360
1754
102
}
102
{ACAD_REACTORS
330
16F6
102
}
330
16F6
100
AcDbVisualStyle
  2
Brighten
 70
    12
 71
     2
 72
     2
 73
     0
 90
        0
 40
-0.6
 41
-30.0
 62
     5
 63
     7
 74
     1
 91
        4
 64
     7
 65
   257
 75
     1
175
     1
 42
1.0
 92
        8
 66
     7
 43
1.0
 76
     1
 77
     6
 78
     2
 67
     7
 79
     5
170
     0
171
     0
290
     0
174
     0
 93
        1
 44
50.0
173
     0
291
     1
 45
0.0
1001
ACAD
1000
AcDbSavedByObjectVersion
1070
     0
  0
VISUALSTYLE
  5
1706
102
{ACAD_XDICTIONARY
360
175C
102
}
102
{ACAD_REACTORS
330
16F6
102
}
330
16F6
100
AcDbVisualStyle
  2
ColorChange
 70
    16
 71
     2
 72
     2
 73
     3
 90
        0
 40
-0.6
 41
-30.0
 62
     5
 63
     8
 74
     1
 91
        4
 64
     7
 65
   257
 75
     1
175
     1
 42
1.0
 92
        8
 66
     8
 43
1.0
 76
     1
 77
     6
 78
     2
 67
     7
 79
     5
170
     0
171
     0
290
     0
174
     0
 93
        1
 44
0.0
173
     0
291
     1
 45
0.0
1001
ACAD
1000
AcDbSavedByObjectVersion
1070
     0
  0
VISUALSTYLE
  5
16FF
102
{ACAD_XDICTIONARY
360
174E
102
}
102
{ACAD_REACTORS
330
16F6
102
}
330
16F6
100
AcDbVisualStyle
  2
Conceptual
 70
     9
 71
     3
 72
     2
 73
     0
 90
        0
 40
-0.6
 41
-30.0
 62
     5
 63
     7
 74
     2
 91
        2
 64
     7
 65
   257
 75
     1
175
     1
 42
179.0
 92
        8
 66
     7
 43
1.0
 76
     1
 77
     6
 78
     2
 67
     7
 79
     3
170
     0
171
     0
290
     0
174
     0
 93
        1
 44
0.0
173
     0
291
     0
 45
0.0
1001
ACAD
1000
AcDbSavedByObjectVersion
1070
     0
  0
VISUALSTYLE
  5
1701
102
{ACAD_XDICTIONARY
360
1752
102
}
102
{ACAD_REACTORS
330
16F6
102
}
330
16F6
100
AcDbVisualStyle
  2
Dim
 70
    11
 71
     2
 72
     2
 73
     0
 90
        0
 40
-0.6
 41
-30.0
 62
     5
 63
     7
 74
     1
 91
        4
 64
     7
 65
   257
 75
     1
175
     1
 42
1.0
 92
        8
 66
     7
 43
1.0
 76
     1
 77
     6
 78
     2
 67
     7
 79
     5
170
     0
171
     0
290
     0
174
     0
 93
        1
 44
-50.0
173
     0
291
     1
 45
0.0
1001
ACAD
1000
AcDbSavedByObjectVersion
1070
     0
  0
VISUALSTYLE
  5
1709
102
{ACAD_XDICTIONARY
360
1762
102
}
102
{ACAD_REACTORS
330
16F6
102
}
330
16F6
100
AcDbVisualStyle
  2
EdgeColorOff
 70
    22
 71
     2
 72
     2
 73
     0
 90
        0
 40
-0.6
 41
-30.0
 62
     5
 63
     7
 74
     1
 91
        4
 64
     7
 65
   257
 75
     1
175
     1
 42
1.0
 92
        8
 66
     7
 43
1.0
 76
     1
 77
     6
 78
     2
 67
     7
 79
     5
170
     0
171
     0
290
     0
174
     0
 93
        1
 44
0.0
173
     0
291
     1
 45
0.0
1001
ACAD
1000
AcDbSavedByObjectVersion
1070
     0
  0
VISUALSTYLE
  5
1705
102
{ACAD_XDICTIONARY
360
175A
102
}
102
{ACAD_REACTORS
330
16F6
102
}
330
16F6
100
AcDbVisualStyle
  2
Facepattern
 70
    15
 71
     2
 72
     2
 73
     0
 90
        0
 40
-0.6
 41
-30.0
 62
     5
 63
     7
 74
     1
 91
        4
 64
     7
 65
   257
 75
     1
175
     1
 42
1.0
 92
        8
 66
     7
 43
1.0
 76
     1
 77
     6
 78
     2
 67
     7
 79
     5
170
     0
171
     0
290
     0
174
     0
 93
        1
 44
0.0
173
     0
291
     1
 45
0.0
1001
ACAD
1000
AcDbSavedByObjectVersion
1070
     0
  0
VISUALSTYLE
  5
16F7
102
{ACAD_XDICTIONARY
360
173E
102
}
102
{ACAD_REACTORS
330
16F6
102
}
330
16F6
100
AcDbVisualStyle
  2
Flat
 70
     0
 71
     2
 72
     1
 73
     1
 90
        2
 40
-0.6
 41
30.0
 62
     5
 63
     7
 74
     0
 91
        4
 64
     7
 65
   257
 75
     1
175
     1
 42
1.0
 92
        8
 66
     7
 43
1.0
 76
     1
 77
     6
 78
     2
 67
     7
 79
     5
170
     0
171
     0
290
     0
174
     0
 93
       13
 44
0.0
173
     0
291
     1
 45
0.0
1001
ACAD
1000
AcDbSavedByObjectVersion
1070
     0
  0
VISUALSTYLE
  5
16F8
102
{ACAD_XDICTIONARY
360
1740
102
}
102
{ACAD_REACTORS
330
16F6
102
}
330
16F6
100
AcDbVisualStyle
  2
FlatWithEdges
 70
     1
 71
     2
 72
     1
 73
     1
 90
        2
 40
-0.6
 41
30.0
 62
     5
 63
     7
 74
     1
 91
        4
 64
     7
 65
   257
 75
     1
175
     1
 42
1.0
 92
        0
 66
   257
 43
1.0
 76
     1
 77
     6
 78
     2
 67
     7
 79
     5
170
     0
171
     0
290
     0
174
     0
 93
       13
 44
0.0
173
     0
291
     1
 45
0.0
1001
ACAD
1000
AcDbSavedByObjectVersion
1070
     0
  0
VISUALSTYLE
  5
16F9
102
{ACAD_XDICTIONARY
360
1742
102
}
102
{ACAD_REACTORS
330
16F6
102
}
330
16F6
100
AcDbVisualStyle
  2
Gouraud
 70
     2
 71
     2
 72
     2
 73
     1
 90
        2
 40
-0.6
 41
30.0
 62
     5
 63
     7
 74
     0
 91
        4
 64
     7
 65
   257
 75
     1
175
     1
 42
1.0
 92
        0
 66
     7
 43
1.0
 76
     1
 77
     6
 78
     2
 67
     7
 79
     5
170
     0
171
     0
290
     0
174
     0
 93
       13
 44
0.0
173
     0
291
     1
 45
0.0
1001
ACAD
1000
AcDbSavedByObjectVersion
1070
     0
  0
VISUALSTYLE
  5
16FA
102
{ACAD_XDICTIONARY
360
1744
102
}
102
{ACAD_REACTORS
330
16F6
102
}
330
16F6
100
AcDbVisualStyle
  2
GouraudWithEdges
 70
     3
 71
     2
 72
     2
 73
     1
 90
        2
 40
-0.6
 41
30.0
 62
     5
 63
     7
 74
     1
 91
        4
 64
     7
 65
   257
 75
     1
175
     1
 42
1.0
 92
        0
 66
   257
 43
1.0
 76
     1
 77
     6
 78
     2
 67
     7
 79
     5
170
     0
171
     0
290
     0
174
     0
 93
       13
 44
0.0
173
     0
291
     1
 45
0.0
1001
ACAD
1000
AcDbSavedByObjectVersion
1070
     0
  0
VISUALSTYLE
  5
1707
102
{ACAD_XDICTIONARY
360
175E
102
}
102
{ACAD_REACTORS
330
16F6
102
}
330
16F6
100
AcDbVisualStyle
  2
JitterOff
 70
    20
 71
     2
 72
     2
 73
     0
 90
        0
 40
-0.6
 41
-30.0
 62
     5
 63
     7
 74
     1
 91
        4
 64
     7
 65
   257
 75
     1
175
     1
 42
1.0
 92
       10
 66
     7
 43
1.0
 76
     1
 77
     6
 78
     2
 67
     7
 79
     5
170
     0
171
     0
290
     0
174
     0
 93
        1
 44
0.0
173
     0
291
     1
 45
0.0
1001
ACAD
1000
AcDbSavedByObjectVersion
1070
     0
  0
VISUALSTYLE
  5
1704
102
{ACAD_XDICTIONARY
360
1758
102
}
102
{ACAD_REACTORS
330
16F6
102
}
330
16F6
100
AcDbVisualStyle
  2
Linepattern
 70
    14
 71
     2
 72
     2
 73
     0
 90
        0
 40
-0.6
 41
-30.0
 62
     5
 63
     7
 74
     1
 91
        4
 64
     7
 65
   257
 75
     7
175
     7
 42
1.0
 92
        8
 66
     7
 43
1.0
 76
     1
 77
     6
 78
     2
 67
     7
 79
     5
170
     0
171
     0
290
     0
174
     0
 93
        1
 44
0.0
173
     0
291
     1
 45
0.0
1001
ACAD
1000
AcDbSavedByObjectVersion
1070
     0
  0
VISUALSTYLE
  5
1708
102
{ACAD_XDICTIONARY
360
1760
102
}
102
{ACAD_REACTORS
330
16F6
102
}
330
16F6
100
AcDbVisualStyle
  2
OverhangOff
 70
    21
 71
     2
 72
     2
 73
     0
 90
        0
 40
-0.6
 41
-30.0
 62
     5
 63
     7
 74
     1
 91
        4
 64
     7
 65
   257
 75
     1
175
     1
 42
1.0
 92
        9
 66
     7
 43
1.0
 76
     1
 77
     6
 78
     2
 67
     7
 79
     5
170
     0
171
     0
290
     0
174
     0
 93
        1
 44
0.0
173
     0
291
     1
 45
0.0
1001
ACAD
1000
AcDbSavedByObjectVersion
1070
     0
  0
VISUALSTYLE
  5
1700
102
{ACAD_XDICTIONARY
360
1750
102
}
102
{ACAD_REACTORS
330
16F6
102
}
330
16F6
100
AcDbVisualStyle
  2
Realistic
 70
     8
 71
     2
 72
     2
 73
     0
 90
        0
 40
-0.6
 41
-30.0
 62
     5
 63
     7
 74
     1
 91
        0
 64
     7
 65
   257
 75
     1
175
     1
 42
1.0
 92
        8
 66
     8
 43
1.0
 76
     1
 77
     6
 78
     2
 67
     7
 79
     5
170
     0
171
     0
290
     0
174
     0
 93
       13
 44
0.0
173
     0
291
     0
 45
0.0
1001
ACAD
1000
AcDbSavedByObjectVersion
1070
     0
  0
VISUALSTYLE
  5
1703
102
{ACAD_XDICTIONARY
360
1756
102
}
102
{ACAD_REACTORS
330
16F6
102
}
330
16F6
100
AcDbVisualStyle
  2
Thicken
 70
    13
 71
     2
 72
     2
 73
     0
 90
        0
 40
-0.6
 41
-30.0
 62
     5
 63
     7
 74
     1
 91
        4
 64
     7
 65
   257
 75
     1
175
     1
 42
1.0
 92
       12
 66
     7
 43
1.0
 76
     1
 77
     6
 78
     2
 67
     7
 79
     5
170
     0
171
     0
290
     0
174
     0
 93
        1
 44
0.0
173
     0
291
     1
 45
0.0
1001
ACAD
1000
AcDbSavedByObjectVersion
1070
     0
  0
DICTIONARYVAR
  5
1769
102
{ACAD_REACTORS
330
1766
102
}
330
1766
100
DictionaryVariables
280
     0
  1
1:1
  0
DICTIONARYVAR
  5
1768
102
{ACAD_REACTORS
330
1766
102
}
330
1766
100
DictionaryVariables
280
     0
  1
STANDARD
  0
DICTIONARYVAR
  5
1767
102
{ACAD_REACTORS
330
1766
102
}
330
1766
100
DictionaryVariables
280
     0
  1
STANDARD
  0
DICTIONARYVAR
  5
176C
102
{ACAD_REACTORS
330
1766
102
}
330
1766
100
DictionaryVariables
280
     0
  1
1
  0
DICTIONARYVAR
  5
176B
102
{ACAD_REACTORS
330
1766
102
}
330
1766
100
DictionaryVariables
280
     0
  1
0
  0
DICTIONARYVAR
  5
176A
102
{ACAD_REACTORS
330
1766
102
}
330
1766
100
DictionaryVariables
280
     0
  1
127
  0
DICTIONARYVAR
  5
176D
102
{ACAD_REACTORS
330
1766
102
}
330
1766
100
DictionaryVariables
280
     0
  1
0
  0
DICTIONARY
  5
17CF
330
16D9
100
AcDbDictionary
280
     1
281
     1
  3
ACAD_XREC_ROUNDTRIP
360
17D0
  0
DICTIONARY
  5
17CD
330
16D8
100
AcDbDictionary
280
     1
281
     1
  3
ACAD_XREC_ROUNDTRIP
360
17CE
  0
DICTIONARY
  5
16E7
330
16E6
100
AcDbDictionary
280
     1
281
     1
  3
ACAD_XREC_ROUNDTRIP
360
17D2
  3
BUMPTILE
360
16E9
  3
DIFFUSETILE
360
16E8
  3
OPACITYTILE
360
16EC
  3
REFLECTIONTILE
360
16EB
  3
REFRACTIONTILE
360
16ED
  3
SPECULARTILE
360
16EA
  0
DICTIONARY
  5
16DF
330
16DE
100
AcDbDictionary
280
     1
281
     1
  3
ACAD_XREC_ROUNDTRIP
360
17D1
  3
BUMPTILE
360
16E1
  3
DIFFUSETILE
360
16E0
  3
OPACITYTILE
360
16E4
  3
REFLECTIONTILE
360
16E3
  3
REFRACTIONTILE
360
16E5
  3
SPECULARTILE
360
16E2
  0
DICTIONARY
  5
16EF
330
16EE
100
AcDbDictionary
280
     1
281
     1
  3
ACAD_XREC_ROUNDTRIP
360
17D3
  3
BUMPTILE
360
16F1
  3
DIFFUSETILE
360
16F0
  3
OPACITYTILE
360
16F4
  3
REFLECTIONTILE
360
16F3
  3
REFRACTIONTILE
360
16F5
  3
SPECULARTILE
360
16F2
  0
DICTIONARY
  5
1732
330
170C
100
AcDbDictionary
280
     1
281
     1
  3
ACAD_ROUNDTRIP_2008_TABLESTYLE_CELLSTYLEMAP
360
17CB
  3
ACAD_XREC_ROUNDTRIP
360
17D4
  0
DICTIONARY
  5
1748
330
16FC
100
AcDbDictionary
280
     1
281
     1
  3
ACAD_XREC_ROUNDTRIP
360
1749
  0
DICTIONARY
  5
174C
330
16FE
100
AcDbDictionary
280
     1
281
     1
  3
ACAD_XREC_ROUNDTRIP
360
174D
  0
DICTIONARY
  5
174A
330
16FD
100
AcDbDictionary
280
     1
281
     1
  3
ACAD_XREC_ROUNDTRIP
360
174B
  0
DICTIONARY
  5
1746
330
16FB
100
AcDbDictionary
280
     1
281
     1
  3
ACAD_XREC_ROUNDTRIP
360
1747
  0
DICTIONARY
  5
1754
330
1702
100
AcDbDictionary
280
     1
281
     1
  3
ACAD_XREC_ROUNDTRIP
360
1755
  0
DICTIONARY
  5
175C
330
1706
100
AcDbDictionary
280
     1
281
     1
  3
ACAD_XREC_ROUNDTRIP
360
175D
  0
DICTIONARY
  5
174E
330
16FF
100
AcDbDictionary
280
     1
281
     1
  3
ACAD_XREC_ROUNDTRIP
360
174F
  0
DICTIONARY
  5
1752
330
1701
100
AcDbDictionary
280
     1
281
     1
  3
ACAD_XREC_ROUNDTRIP
360
1753
  0
DICTIONARY
  5
1762
330
1709
100
AcDbDictionary
280
     1
281
     1
  3
ACAD_XREC_ROUNDTRIP
360
1763
  0
DICTIONARY
  5
175A
330
1705
100
AcDbDictionary
280
     1
281
     1
  3
ACAD_XREC_ROUNDTRIP
360
175B
  0
DICTIONARY
  5
173E
330
16F7
100
AcDbDictionary
280
     1
281
     1
  3
ACAD_XREC_ROUNDTRIP
360
173F
  0
DICTIONARY
  5
1740
330
16F8
100
AcDbDictionary
280
     1
281
     1
  3
ACAD_XREC_ROUNDTRIP
360
1741
  0
DICTIONARY
  5
1742
330
16F9
100
AcDbDictionary
280
     1
281
     1
  3
ACAD_XREC_ROUNDTRIP
360
1743
  0
DICTIONARY
  5
1744
330
16FA
100
AcDbDictionary
280
     1
281
     1
  3
ACAD_XREC_ROUNDTRIP
360
1745
  0
DICTIONARY
  5
175E
330
1707
100
AcDbDictionary
280
     1
281
     1
  3
ACAD_XREC_ROUNDTRIP
360
175F
  0
DICTIONARY
  5
1758
330
1704
100
AcDbDictionary
280
     1
281
     1
  3
ACAD_XREC_ROUNDTRIP
360
1759
  0
DICTIONARY
  5
1760
330
1708
100
AcDbDictionary
280
     1
281
     1
  3
ACAD_XREC_ROUNDTRIP
360
1761
  0
DICTIONARY
  5
1750
330
1700
100
AcDbDictionary
280
     1
281
     1
  3
ACAD_XREC_ROUNDTRIP
360
1751
  0
DICTIONARY
  5
1756
330
1703
100
AcDbDictionary
280
     1
281
     1
  3
ACAD_XREC_ROUNDTRIP
360
1757
  0
XRECORD
  5
17D0
102
{ACAD_REACTORS
330
17CF
102
}
330
17CF
100
AcDbXrecord
280
     1
102
SHADEPLOT
 70
     0
102
SHADEPLOTRESLEVEL
 70
     2
102
SHADEPLOTCUSTOMDPI
 70
   300
  0
XRECORD
  5
17CE
102
{ACAD_REACTORS
330
17CD
102
}
330
17CD
100
AcDbXrecord
280
     1
102
SHADEPLOT
 70
     0
102
SHADEPLOTRESLEVEL
 70
     2
102
SHADEPLOTCUSTOMDPI
 70
   300
  0
XRECORD
  5
17D2
102
{ACAD_REACTORS
330
16E7
102
}
330
16E7
100
AcDbXrecord
280
     1
102
MATERIAL
148
0.0
149
0.0
149
0.0
 93
        0
 94
      127
282
     0
 72
     0
 77
     0
171
     0
175
     0
179
     0
273
     0
  0
XRECORD
  5
16E9
102
{ACAD_REACTORS
330
16E7
102
}
330
16E7
100
AcDbXrecord
280
     1
270
     1
271
     1
  0
XRECORD
  5
16E8
102
{ACAD_REACTORS
330
16E7
102
}
330
16E7
100
AcDbXrecord
280
     1
270
     1
271
     1
  0
XRECORD
  5
16EC
102
{ACAD_REACTORS
330
16E7
102
}
330
16E7
100
AcDbXrecord
280
     1
270
     1
271
     1
  0
XRECORD
  5
16EB
102
{ACAD_REACTORS
330
16E7
102
}
330
16E7
100
AcDbXrecord
280
     1
270
     1
271
     1
  0
XRECORD
  5
16ED
102
{ACAD_REACTORS
330
16E7
102
}
330
16E7
100
AcDbXrecord
280
     1
270
     1
271
     1
  0
XRECORD
  5
16EA
102
{ACAD_REACTORS
330
16E7
102
}
330
16E7
100
AcDbXrecord
280
     1
270
     1
271
     1
  0
XRECORD
  5
17D1
102
{ACAD_REACTORS
330
16DF
102
}
330
16DF
100
AcDbXrecord
280
     1
102
MATERIAL
148
0.0
149
0.0
149
0.0
 93
        0
 94
      127
282
     0
 72
     0
 77
     0
171
     0
175
     0
179
     0
273
     0
  0
XRECORD
  5
16E1
102
{ACAD_REACTORS
330
16DF
102
}
330
16DF
100
AcDbXrecord
280
     1
270
     1
271
     1
  0
XRECORD
  5
16E0
102
{ACAD_REACTORS
330
16DF
102
}
330
16DF
100
AcDbXrecord
280
     1
270
     1
271
     1
  0
XRECORD
  5
16E4
102
{ACAD_REACTORS
330
16DF
102
}
330
16DF
100
AcDbXrecord
280
     1
270
     1
271
     1
  0
XRECORD
  5
16E3
102
{ACAD_REACTORS
330
16DF
102
}
330
16DF
100
AcDbXrecord
280
     1
270
     1
271
     1
  0
XRECORD
  5
16E5
102
{ACAD_REACTORS
330
16DF
102
}
330
16DF
100
AcDbXrecord
280
     1
270
     1
271
     1
  0
XRECORD
  5
16E2
102
{ACAD_REACTORS
330
16DF
102
}
330
16DF
100
AcDbXrecord
280
     1
270
     1
271
     1
  0
XRECORD
  5
17D3
102
{ACAD_REACTORS
330
16EF
102
}
330
16EF
100
AcDbXrecord
280
     1
102
MATERIAL
148
0.0
149
0.0
149
0.0
 93
        0
 94
      127
282
     0
 72
     0
 77
     0
171
     0
175
     0
179
     0
273
     0
  0
XRECORD
  5
16F1
102
{ACAD_REACTORS
330
16EF
102
}
330
16EF
100
AcDbXrecord
280
     1
270
     1
271
     1
  0
XRECORD
  5
16F0
102
{ACAD_REACTORS
330
16EF
102
}
330
16EF
100
AcDbXrecord
280
     1
270
     1
271
     1
  0
XRECORD
  5
16F4
102
{ACAD_REACTORS
330
16EF
102
}
330
16EF
100
AcDbXrecord
280
     1
270
     1
271
     1
  0
XRECORD
  5
16F3
102
{ACAD_REACTORS
330
16EF
102
}
330
16EF
100
AcDbXrecord
280
     1
270
     1
271
     1
  0
XRECORD
  5
16F5
102
{ACAD_REACTORS
330
16EF
102
}
330
16EF
100
AcDbXrecord
280
     1
270
     1
271
     1
  0
XRECORD
  5
16F2
102
{ACAD_REACTORS
330
16EF
102
}
330
16EF
100
AcDbXrecord
280
     1
270
     1
271
     1
  0
CELLSTYLEMAP
  5
17CB
102
{ACAD_REACTORS
330
1732
102
}
330
1732
100
AcDbCellStyleMap
 90
        3
300
CELLSTYLE
  1
TABLEFORMAT_BEGIN
 90
        5
170
     1
 91
        0
 92
    32768
 62
   257
 93
        1
300
CONTENTFORMAT
  1
CONTENTFORMAT_BEGIN
 90
        0
 91
        0
 92
      512
 93
        0
300

 40
0.0
140
1.0
 94
        5
 62
     0
340
11
144
0.25
309
CONTENTFORMAT_END
171
     0
 94
        0
309
TABLEFORMAT_END
  1
CELLSTYLE_BEGIN
 90
        1
 91
        1
300
_TITLE
309
CELLSTYLE_END
300
CELLSTYLE
  1
TABLEFORMAT_BEGIN
 90
        5
170
     1
 91
        0
 92
        0
 62
   257
 93
        1
300
CONTENTFORMAT
  1
CONTENTFORMAT_BEGIN
 90
        0
 91
        0
 92
      512
 93
        0
300

 40
0.0
140
1.0
 94
        5
 62
     0
340
11
144
0.18
309
CONTENTFORMAT_END
171
     0
 94
        0
309
TABLEFORMAT_END
  1
CELLSTYLE_BEGIN
 90
        2
 91
        1
300
_HEADER
309
CELLSTYLE_END
300
CELLSTYLE
  1
TABLEFORMAT_BEGIN
 90
        5
170
     1
 91
        0
 92
        0
 62
   257
 93
        1
300
CONTENTFORMAT
  1
CONTENTFORMAT_BEGIN
 90
        0
 91
        0
 92
      512
 93
        0
300

 40
0.0
140
1.0
 94
        2
 62
     0
340
11
144
0.18
309
CONTENTFORMAT_END
171
     0
 94
        0
309
TABLEFORMAT_END
  1
CELLSTYLE_BEGIN
 90
        3
 91
        2
300
_DATA
309
CELLSTYLE_END
  0
XRECORD
  5
17D4
102
{ACAD_REACTORS
330
1732
102
}
330
1732
100
AcDbXrecord
280
     1
102
ACAD_ROUNDTRIP_PRE2007_TABLESTYLE
 90
      512
 91
        0
  1

 92
      512
 93
        0
  2

 94
      512
 95
        0
  3

  0
XRECORD
  5
1749
102
{ACAD_REACTORS
330
1748
102
}
330
1748
100
AcDbXrecord
280
     1
102
RTVSPropertyOp0
 70
     1
102
RTVSPropertyOp1
 70
     1
102
RTVSPropertyOp2
 70
     1
102
RTVSPropertyOp3
 70
     1
102
RTVSPropertyOp4
 70
     1
102
RTVSPropertyOp5
 70
     1
102
RTVSPropertyOp6
 70
     1
102
RTVSPropertyOp7
 70
     1
102
RTVSPropertyOp8
 70
     1
102
RTVSPropertyOp9
 70
     1
102
RTVSPropertyOp10
 70
     1
102
RTVSPropertyOp11
 70
     1
102
RTVSPropertyOp12
 70
     1
102
RTVSPropertyOp13
 70
     1
102
RTVSPropertyOp14
 70
     1
102
RTVSPropertyOp15
 70
     1
102
RTVSPropertyOp16
 70
     1
102
RTVSPropertyOp17
 70
     1
102
RTVSPropertyOp18
 70
     1
102
RTVSPropertyOp19
 70
     1
102
RTVSPropertyOp20
 70
     1
102
RTVSPropertyOp21
 70
     1
102
RTVSPropertyOp22
 70
     1
102
RTVSPropertyOp23
 70
     1
102
RTVSPropertyOp24
 70
     1
102
RTVSPropertyOp25
 70
     1
102
RTVSPropertyOp26
 70
     1
102
RTVSPropertyOp27
 70
     1
  0
XRECORD
  5
174D
102
{ACAD_REACTORS
330
174C
102
}
330
174C
100
AcDbXrecord
280
     1
102
RTVSPropertyOp0
 70
     1
102
RTVSPropertyOp1
 70
     1
102
RTVSPropertyOp2
 70
     1
102
RTVSPropertyOp3
 70
     1
102
RTVSPropertyOp4
 70
     1
102
RTVSPropertyOp5
 70
     1
102
RTVSPropertyOp6
 70
     1
102
RTVSPropertyOp7
 70
     1
102
RTVSPropertyOp8
 70
     1
102
RTVSPropertyOp9
 70
     1
102
RTVSPropertyOp10
 70
     1
102
RTVSPropertyOp11
 70
     1
102
RTVSPropertyOp12
 70
     1
102
RTVSPropertyOp13
 70
     1
102
RTVSPropertyOp14
 70
     1
102
RTVSPropertyOp15
 70
     1
102
RTVSPropertyOp16
 70
     1
102
RTVSPropertyOp17
 70
     1
102
RTVSPropertyOp18
 70
     1
102
RTVSPropertyOp19
 70
     1
102
RTVSPropertyOp20
 70
     1
102
RTVSPropertyOp21
 70
     1
102
RTVSPropertyOp22
 70
     1
102
RTVSPropertyOp23
 70
     1
102
RTVSPropertyOp24
 70
     1
102
RTVSPropertyOp25
 70
     1
102
RTVSPropertyOp26
 70
     1
102
RTVSPropertyOp27
 70
     1
  0
XRECORD
  5
174B
102
{ACAD_REACTORS
330
174A
102
}
330
174A
100
AcDbXrecord
280
     1
102
RTVSPropertyOp0
 70
     1
102
RTVSPropertyOp1
 70
     1
102
RTVSPropertyOp2
 70
     1
102
RTVSPropertyOp3
 70
     1
102
RTVSPropertyOp4
 70
     1
102
RTVSPropertyOp5
 70
     1
102
RTVSPropertyOp6
 70
     1
102
RTVSPropertyOp7
 70
     1
102
RTVSPropertyOp8
 70
     1
102
RTVSPropertyOp9
 70
     1
102
RTVSPropertyOp10
 70
     1
102
RTVSPropertyOp11
 70
     1
102
RTVSPropertyOp12
 70
     1
102
RTVSPropertyOp13
 70
     1
102
RTVSPropertyOp14
 70
     1
102
RTVSPropertyOp15
 70
     1
102
RTVSPropertyOp16
 70
     1
102
RTVSPropertyOp17
 70
     1
102
RTVSPropertyOp18
 70
     1
102
RTVSPropertyOp19
 70
     1
102
RTVSPropertyOp20
 70
     1
102
RTVSPropertyOp21
 70
     1
102
RTVSPropertyOp22
 70
     1
102
RTVSPropertyOp23
 70
     1
102
RTVSPropertyOp24
 70
     1
102
RTVSPropertyOp25
 70
     1
102
RTVSPropertyOp26
 70
     1
102
RTVSPropertyOp27
 70
     1
  0
XRECORD
  5
1747
102
{ACAD_REACTORS
330
1746
102
}
330
1746
100
AcDbXrecord
280
     1
102
RTVSPropertyOp0
 70
     1
102
RTVSPropertyOp1
 70
     1
102
RTVSPropertyOp2
 70
     1
102
RTVSPropertyOp3
 70
     1
102
RTVSPropertyOp4
 70
     1
102
RTVSPropertyOp5
 70
     1
102
RTVSPropertyOp6
 70
     1
102
RTVSPropertyOp7
 70
     1
102
RTVSPropertyOp8
 70
     1
102
RTVSPropertyOp9
 70
     1
102
RTVSPropertyOp10
 70
     1
102
RTVSPropertyOp11
 70
     1
102
RTVSPropertyOp12
 70
     1
102
RTVSPropertyOp13
 70
     1
102
RTVSPropertyOp14
 70
     1
102
RTVSPropertyOp15
 70
     1
102
RTVSPropertyOp16
 70
     1
102
RTVSPropertyOp17
 70
     1
102
RTVSPropertyOp18
 70
     1
102
RTVSPropertyOp19
 70
     1
102
RTVSPropertyOp20
 70
     1
102
RTVSPropertyOp21
 70
     1
102
RTVSPropertyOp22
 70
     1
102
RTVSPropertyOp23
 70
     1
102
RTVSPropertyOp24
 70
     1
102
RTVSPropertyOp25
 70
     1
102
RTVSPropertyOp26
 70
     1
102
RTVSPropertyOp27
 70
     1
  0
XRECORD
  5
1755
102
{ACAD_REACTORS
330
1754
102
}
330
1754
100
AcDbXrecord
280
     1
102
RTVSPropertyOp0
 70
     1
102
RTVSPropertyOp1
 70
     1
102
RTVSPropertyOp2
 70
     1
102
RTVSPropertyOp3
 70
     1
102
RTVSPropertyOp4
 70
     1
102
RTVSPropertyOp5
 70
     1
102
RTVSPropertyOp6
 70
     1
102
RTVSPropertyOp7
 70
     1
102
RTVSPropertyOp8
 70
     1
102
RTVSPropertyOp9
 70
     1
102
RTVSPropertyOp10
 70
     1
102
RTVSPropertyOp11
 70
     1
102
RTVSPropertyOp12
 70
     1
102
RTVSPropertyOp13
 70
     1
102
RTVSPropertyOp14
 70
     1
102
RTVSPropertyOp15
 70
     1
102
RTVSPropertyOp16
 70
     1
102
RTVSPropertyOp17
 70
     1
102
RTVSPropertyOp18
 70
     1
102
RTVSPropertyOp19
 70
     1
102
RTVSPropertyOp20
 70
     1
102
RTVSPropertyOp21
 70
     1
102
RTVSPropertyOp22
 70
     1
102
RTVSPropertyOp23
 70
     1
102
RTVSPropertyOp24
 70
     1
102
RTVSPropertyOp25
 70
     1
102
RTVSPropertyOp26
 70
     1
102
RTVSPropertyOp27
 70
     1
  0
XRECORD
  5
175D
102
{ACAD_REACTORS
330
175C
102
}
330
175C
100
AcDbXrecord
280
     1
102
RTVSPropertyOp0
 70
     1
102
RTVSPropertyOp1
 70
     1
102
RTVSPropertyOp2
 70
     1
102
RTVSPropertyOp3
 70
     1
102
RTVSPropertyOp4
 70
     1
102
RTVSPropertyOp5
 70
     1
102
RTVSPropertyOp6
 70
     1
102
RTVSPropertyOp7
 70
     1
102
RTVSPropertyOp8
 70
     1
102
RTVSPropertyOp9
 70
     1
102
RTVSPropertyOp10
 70
     1
102
RTVSPropertyOp11
 70
     1
102
RTVSPropertyOp12
 70
     1
102
RTVSPropertyOp13
 70
     1
102
RTVSPropertyOp14
 70
     1
102
RTVSPropertyOp15
 70
     1
102
RTVSPropertyOp16
 70
     1
102
RTVSPropertyOp17
 70
     1
102
RTVSPropertyOp18
 70
     1
102
RTVSPropertyOp19
 70
     1
102
RTVSPropertyOp20
 70
     1
102
RTVSPropertyOp21
 70
     1
102
RTVSPropertyOp22
 70
     1
102
RTVSPropertyOp23
 70
     1
102
RTVSPropertyOp24
 70
     1
102
RTVSPropertyOp25
 70
     1
102
RTVSPropertyOp26
 70
     1
102
RTVSPropertyOp27
 70
     1
  0
XRECORD
  5
174F
102
{ACAD_REACTORS
330
174E
102
}
330
174E
100
AcDbXrecord
280
     1
102
RTVSPropertyOp0
 70
     1
102
RTVSPropertyOp1
 70
     1
102
RTVSPropertyOp2
 70
     1
102
RTVSPropertyOp3
 70
     1
102
RTVSPropertyOp4
 70
     1
102
RTVSPropertyOp5
 70
     1
102
RTVSPropertyOp6
 70
     1
102
RTVSPropertyOp7
 70
     1
102
RTVSPropertyOp8
 70
     1
102
RTVSPropertyOp9
 70
     1
102
RTVSPropertyOp10
 70
     1
102
RTVSPropertyOp11
 70
     1
102
RTVSPropertyOp12
 70
     1
102
RTVSPropertyOp13
 70
     1
102
RTVSPropertyOp14
 70
     1
102
RTVSPropertyOp15
 70
     1
102
RTVSPropertyOp16
 70
     1
102
RTVSPropertyOp17
 70
     1
102
RTVSPropertyOp18
 70
     1
102
RTVSPropertyOp19
 70
     1
102
RTVSPropertyOp20
 70
     1
102
RTVSPropertyOp21
 70
     1
102
RTVSPropertyOp22
 70
     1
102
RTVSPropertyOp23
 70
     1
102
RTVSPropertyOp24
 70
     1
102
RTVSPropertyOp25
 70
     1
102
RTVSPropertyOp26
 70
     1
102
RTVSPropertyOp27
 70
     1
  0
XRECORD
  5
1753
102
{ACAD_REACTORS
330
1752
102
}
330
1752
100
AcDbXrecord
280
     1
102
RTVSPropertyOp0
 70
     1
102
RTVSPropertyOp1
 70
     1
102
RTVSPropertyOp2
 70
     1
102
RTVSPropertyOp3
 70
     1
102
RTVSPropertyOp4
 70
     1
102
RTVSPropertyOp5
 70
     1
102
RTVSPropertyOp6
 70
     1
102
RTVSPropertyOp7
 70
     1
102
RTVSPropertyOp8
 70
     1
102
RTVSPropertyOp9
 70
     1
102
RTVSPropertyOp10
 70
     1
102
RTVSPropertyOp11
 70
     1
102
RTVSPropertyOp12
 70
     1
102
RTVSPropertyOp13
 70
     1
102
RTVSPropertyOp14
 70
     1
102
RTVSPropertyOp15
 70
     1
102
RTVSPropertyOp16
 70
     1
102
RTVSPropertyOp17
 70
     1
102
RTVSPropertyOp18
 70
     1
102
RTVSPropertyOp19
 70
     1
102
RTVSPropertyOp20
 70
     1
102
RTVSPropertyOp21
 70
     1
102
RTVSPropertyOp22
 70
     1
102
RTVSPropertyOp23
 70
     1
102
RTVSPropertyOp24
 70
     1
102
RTVSPropertyOp25
 70
     1
102
RTVSPropertyOp26
 70
     1
102
RTVSPropertyOp27
 70
     1
  0
XRECORD
  5
1763
102
{ACAD_REACTORS
330
1762
102
}
330
1762
100
AcDbXrecord
280
     1
102
RTVSPropertyOp0
 70
     0
102
RTVSPropertyOp1
 70
     0
102
RTVSPropertyOp2
 70
     0
102
RTVSPropertyOp3
 70
     0
102
RTVSPropertyOp4
 70
     0
102
RTVSPropertyOp5
 70
     0
102
RTVSPropertyOp6
 70
     0
102
RTVSPropertyOp7
 70
     0
102
RTVSPropertyOp8
 70
     0
102
RTVSPropertyOp9
 70
     0
102
RTVSPropertyOp10
 70
     0
102
RTVSPropertyOp11
 70
     0
102
RTVSPropertyOp12
 70
     0
102
RTVSPropertyOp13
 70
     0
102
RTVSPropertyOp14
 70
     2
102
RTVSPropertyOp15
 70
     0
102
RTVSPropertyOp16
 70
     0
102
RTVSPropertyOp17
 70
     0
102
RTVSPropertyOp18
 70
     0
102
RTVSPropertyOp19
 70
     0
102
RTVSPropertyOp20
 70
     0
102
RTVSPropertyOp21
 70
     0
102
RTVSPropertyOp22
 70
     0
102
RTVSPropertyOp23
 70
     0
102
RTVSPropertyOp24
 70
     0
102
RTVSPropertyOp25
 70
     0
102
RTVSPropertyOp26
 70
     0
102
RTVSPropertyOp27
 70
     0
  0
XRECORD
  5
175B
102
{ACAD_REACTORS
330
175A
102
}
330
175A
100
AcDbXrecord
280
     1
102
RTVSPropertyOp0
 70
     1
102
RTVSPropertyOp1
 70
     1
102
RTVSPropertyOp2
 70
     1
102
RTVSPropertyOp3
 70
     1
102
RTVSPropertyOp4
 70
     1
102
RTVSPropertyOp5
 70
     1
102
RTVSPropertyOp6
 70
     1
102
RTVSPropertyOp7
 70
     1
102
RTVSPropertyOp8
 70
     1
102
RTVSPropertyOp9
 70
     1
102
RTVSPropertyOp10
 70
     1
102
RTVSPropertyOp11
 70
     1
102
RTVSPropertyOp12
 70
     1
102
RTVSPropertyOp13
 70
     1
102
RTVSPropertyOp14
 70
     1
102
RTVSPropertyOp15
 70
     1
102
RTVSPropertyOp16
 70
     1
102
RTVSPropertyOp17
 70
     1
102
RTVSPropertyOp18
 70
     1
102
RTVSPropertyOp19
 70
     1
102
RTVSPropertyOp20
 70
     1
102
RTVSPropertyOp21
 70
     1
102
RTVSPropertyOp22
 70
     1
102
RTVSPropertyOp23
 70
     1
102
RTVSPropertyOp24
 70
     1
102
RTVSPropertyOp25
 70
     1
102
RTVSPropertyOp26
 70
     1
102
RTVSPropertyOp27
 70
     1
  0
XRECORD
  5
173F
102
{ACAD_REACTORS
330
173E
102
}
330
173E
100
AcDbXrecord
280
     1
102
RTVSPropertyOp0
 70
     1
102
RTVSPropertyOp1
 70
     1
102
RTVSPropertyOp2
 70
     1
102
RTVSPropertyOp3
 70
     1
102
RTVSPropertyOp4
 70
     1
102
RTVSPropertyOp5
 70
     1
102
RTVSPropertyOp6
 70
     1
102
RTVSPropertyOp7
 70
     1
102
RTVSPropertyOp8
 70
     1
102
RTVSPropertyOp9
 70
     1
102
RTVSPropertyOp10
 70
     1
102
RTVSPropertyOp11
 70
     1
102
RTVSPropertyOp12
 70
     1
102
RTVSPropertyOp13
 70
     1
102
RTVSPropertyOp14
 70
     1
102
RTVSPropertyOp15
 70
     1
102
RTVSPropertyOp16
 70
     1
102
RTVSPropertyOp17
 70
     1
102
RTVSPropertyOp18
 70
     1
102
RTVSPropertyOp19
 70
     1
102
RTVSPropertyOp20
 70
     1
102
RTVSPropertyOp21
 70
     1
102
RTVSPropertyOp22
 70
     1
102
RTVSPropertyOp23
 70
     1
102
RTVSPropertyOp24
 70
     1
102
RTVSPropertyOp25
 70
     1
102
RTVSPropertyOp26
 70
     1
102
RTVSPropertyOp27
 70
     1
  0
XRECORD
  5
1741
102
{ACAD_REACTORS
330
1740
102
}
330
1740
100
AcDbXrecord
280
     1
102
RTVSPropertyOp0
 70
     1
102
RTVSPropertyOp1
 70
     1
102
RTVSPropertyOp2
 70
     1
102
RTVSPropertyOp3
 70
     1
102
RTVSPropertyOp4
 70
     1
102
RTVSPropertyOp5
 70
     1
102
RTVSPropertyOp6
 70
     1
102
RTVSPropertyOp7
 70
     1
102
RTVSPropertyOp8
 70
     1
102
RTVSPropertyOp9
 70
     1
102
RTVSPropertyOp10
 70
     1
102
RTVSPropertyOp11
 70
     1
102
RTVSPropertyOp12
 70
     1
102
RTVSPropertyOp13
 70
     1
102
RTVSPropertyOp14
 70
     1
102
RTVSPropertyOp15
 70
     1
102
RTVSPropertyOp16
 70
     1
102
RTVSPropertyOp17
 70
     1
102
RTVSPropertyOp18
 70
     1
102
RTVSPropertyOp19
 70
     1
102
RTVSPropertyOp20
 70
     1
102
RTVSPropertyOp21
 70
     1
102
RTVSPropertyOp22
 70
     1
102
RTVSPropertyOp23
 70
     1
102
RTVSPropertyOp24
 70
     1
102
RTVSPropertyOp25
 70
     1
102
RTVSPropertyOp26
 70
     1
102
RTVSPropertyOp27
 70
     1
  0
XRECORD
  5
1743
102
{ACAD_REACTORS
330
1742
102
}
330
1742
100
AcDbXrecord
280
     1
102
RTVSPropertyOp0
 70
     1
102
RTVSPropertyOp1
 70
     1
102
RTVSPropertyOp2
 70
     1
102
RTVSPropertyOp3
 70
     1
102
RTVSPropertyOp4
 70
     1
102
RTVSPropertyOp5
 70
     1
102
RTVSPropertyOp6
 70
     1
102
RTVSPropertyOp7
 70
     1
102
RTVSPropertyOp8
 70
     1
102
RTVSPropertyOp9
 70
     1
102
RTVSPropertyOp10
 70
     1
102
RTVSPropertyOp11
 70
     1
102
RTVSPropertyOp12
 70
     1
102
RTVSPropertyOp13
 70
     1
102
RTVSPropertyOp14
 70
     1
102
RTVSPropertyOp15
 70
     1
102
RTVSPropertyOp16
 70
     1
102
RTVSPropertyOp17
 70
     1
102
RTVSPropertyOp18
 70
     1
102
RTVSPropertyOp19
 70
     1
102
RTVSPropertyOp20
 70
     1
102
RTVSPropertyOp21
 70
     1
102
RTVSPropertyOp22
 70
     1
102
RTVSPropertyOp23
 70
     1
102
RTVSPropertyOp24
 70
     1
102
RTVSPropertyOp25
 70
     1
102
RTVSPropertyOp26
 70
     1
102
RTVSPropertyOp27
 70
     1
  0
XRECORD
  5
1745
102
{ACAD_REACTORS
330
1744
102
}
330
1744
100
AcDbXrecord
280
     1
102
RTVSPropertyOp0
 70
     1
102
RTVSPropertyOp1
 70
     1
102
RTVSPropertyOp2
 70
     1
102
RTVSPropertyOp3
 70
     1
102
RTVSPropertyOp4
 70
     1
102
RTVSPropertyOp5
 70
     1
102
RTVSPropertyOp6
 70
     1
102
RTVSPropertyOp7
 70
     1
102
RTVSPropertyOp8
 70
     1
102
RTVSPropertyOp9
 70
     1
102
RTVSPropertyOp10
 70
     1
102
RTVSPropertyOp11
 70
     1
102
RTVSPropertyOp12
 70
     1
102
RTVSPropertyOp13
 70
     1
102
RTVSPropertyOp14
 70
     1
102
RTVSPropertyOp15
 70
     1
102
RTVSPropertyOp16
 70
     1
102
RTVSPropertyOp17
 70
     1
102
RTVSPropertyOp18
 70
     1
102
RTVSPropertyOp19
 70
     1
102
RTVSPropertyOp20
 70
     1
102
RTVSPropertyOp21
 70
     1
102
RTVSPropertyOp22
 70
     1
102
RTVSPropertyOp23
 70
     1
102
RTVSPropertyOp24
 70
     1
102
RTVSPropertyOp25
 70
     1
102
RTVSPropertyOp26
 70
     1
102
RTVSPropertyOp27
 70
     1
  0
XRECORD
  5
175F
102
{ACAD_REACTORS
330
175E
102
}
330
175E
100
AcDbXrecord
280
     1
102
RTVSPropertyOp0
 70
     0
102
RTVSPropertyOp1
 70
     0
102
RTVSPropertyOp2
 70
     0
102
RTVSPropertyOp3
 70
     0
102
RTVSPropertyOp4
 70
     0
102
RTVSPropertyOp5
 70
     0
102
RTVSPropertyOp6
 70
     0
102
RTVSPropertyOp7
 70
     0
102
RTVSPropertyOp8
 70
     0
102
RTVSPropertyOp9
 70
     0
102
RTVSPropertyOp10
 70
     0
102
RTVSPropertyOp11
 70
     0
102
RTVSPropertyOp12
 70
     0
102
RTVSPropertyOp13
 70
     0
102
RTVSPropertyOp14
 70
     2
102
RTVSPropertyOp15
 70
     0
102
RTVSPropertyOp16
 70
     0
102
RTVSPropertyOp17
 70
     0
102
RTVSPropertyOp18
 70
     0
102
RTVSPropertyOp19
 70
     0
102
RTVSPropertyOp20
 70
     0
102
RTVSPropertyOp21
 70
     0
102
RTVSPropertyOp22
 70
     0
102
RTVSPropertyOp23
 70
     0
102
RTVSPropertyOp24
 70
     0
102
RTVSPropertyOp25
 70
     0
102
RTVSPropertyOp26
 70
     0
102
RTVSPropertyOp27
 70
     0
  0
XRECORD
  5
1759
102
{ACAD_REACTORS
330
1758
102
}
330
1758
100
AcDbXrecord
280
     1
102
RTVSPropertyOp0
 70
     1
102
RTVSPropertyOp1
 70
     1
102
RTVSPropertyOp2
 70
     1
102
RTVSPropertyOp3
 70
     1
102
RTVSPropertyOp4
 70
     1
102
RTVSPropertyOp5
 70
     1
102
RTVSPropertyOp6
 70
     1
102
RTVSPropertyOp7
 70
     1
102
RTVSPropertyOp8
 70
     1
102
RTVSPropertyOp9
 70
     1
102
RTVSPropertyOp10
 70
     1
102
RTVSPropertyOp11
 70
     1
102
RTVSPropertyOp12
 70
     1
102
RTVSPropertyOp13
 70
     1
102
RTVSPropertyOp14
 70
     1
102
RTVSPropertyOp15
 70
     1
102
RTVSPropertyOp16
 70
     1
102
RTVSPropertyOp17
 70
     1
102
RTVSPropertyOp18
 70
     1
102
RTVSPropertyOp19
 70
     1
102
RTVSPropertyOp20
 70
     1
102
RTVSPropertyOp21
 70
     1
102
RTVSPropertyOp22
 70
     1
102
RTVSPropertyOp23
 70
     1
102
RTVSPropertyOp24
 70
     1
102
RTVSPropertyOp25
 70
     1
102
RTVSPropertyOp26
 70
     1
102
RTVSPropertyOp27
 70
     1
  0
XRECORD
  5
1761
102
{ACAD_REACTORS
330
1760
102
}
330
1760
100
AcDbXrecord
280
     1
102
RTVSPropertyOp0
 70
     0
102
RTVSPropertyOp1
 70
     0
102
RTVSPropertyOp2
 70
     0
102
RTVSPropertyOp3
 70
     0
102
RTVSPropertyOp4
 70
     0
102
RTVSPropertyOp5
 70
     0
102
RTVSPropertyOp6
 70
     0
102
RTVSPropertyOp7
 70
     0
102
RTVSPropertyOp8
 70
     0
102
RTVSPropertyOp9
 70
     0
102
RTVSPropertyOp10
 70
     0
102
RTVSPropertyOp11
 70
     0
102
RTVSPropertyOp12
 70
     0
102
RTVSPropertyOp13
 70
     0
102
RTVSPropertyOp14
 70
     2
102
RTVSPropertyOp15
 70
     0
102
RTVSPropertyOp16
 70
     0
102
RTVSPropertyOp17
 70
     0
102
RTVSPropertyOp18
 70
     0
102
RTVSPropertyOp19
 70
     0
102
RTVSPropertyOp20
 70
     0
102
RTVSPropertyOp21
 70
     0
102
RTVSPropertyOp22
 70
     0
102
RTVSPropertyOp23
 70
     0
102
RTVSPropertyOp24
 70
     0
102
RTVSPropertyOp25
 70
     0
102
RTVSPropertyOp26
 70
     0
102
RTVSPropertyOp27
 70
     0
  0
XRECORD
  5
1751
102
{ACAD_REACTORS
330
1750
102
}
330
1750
100
AcDbXrecord
280
     1
102
RTVSPropertyOp0
 70
     1
102
RTVSPropertyOp1
 70
     1
102
RTVSPropertyOp2
 70
     1
102
RTVSPropertyOp3
 70
     1
102
RTVSPropertyOp4
 70
     1
102
RTVSPropertyOp5
 70
     1
102
RTVSPropertyOp6
 70
     1
102
RTVSPropertyOp7
 70
     1
102
RTVSPropertyOp8
 70
     1
102
RTVSPropertyOp9
 70
     1
102
RTVSPropertyOp10
 70
     1
102
RTVSPropertyOp11
 70
     1
102
RTVSPropertyOp12
 70
     1
102
RTVSPropertyOp13
 70
     1
102
RTVSPropertyOp14
 70
     1
102
RTVSPropertyOp15
 70
     1
102
RTVSPropertyOp16
 70
     1
102
RTVSPropertyOp17
 70
     1
102
RTVSPropertyOp18
 70
     1
102
RTVSPropertyOp19
 70
     1
102
RTVSPropertyOp20
 70
     1
102
RTVSPropertyOp21
 70
     1
102
RTVSPropertyOp22
 70
     1
102
RTVSPropertyOp23
 70
     1
102
RTVSPropertyOp24
 70
     1
102
RTVSPropertyOp25
 70
     1
102
RTVSPropertyOp26
 70
     1
102
RTVSPropertyOp27
 70
     1
  0
XRECORD
  5
1757
102
{ACAD_REACTORS
330
1756
102
}
330
1756
100
AcDbXrecord
280
     1
102
RTVSPropertyOp0
 70
     1
102
RTVSPropertyOp1
 70
     1
102
RTVSPropertyOp2
 70
     1
102
RTVSPropertyOp3
 70
     1
102
RTVSPropertyOp4
 70
     1
102
RTVSPropertyOp5
 70
     1
102
RTVSPropertyOp6
 70
     1
102
RTVSPropertyOp7
 70
     1
102
RTVSPropertyOp8
 70
     1
102
RTVSPropertyOp9
 70
     1
102
RTVSPropertyOp10
 70
     1
102
RTVSPropertyOp11
 70
     1
102
RTVSPropertyOp12
 70
     1
102
RTVSPropertyOp13
 70
     1
102
RTVSPropertyOp14
 70
     1
102
RTVSPropertyOp15
 70
     1
102
RTVSPropertyOp16
 70
     1
102
RTVSPropertyOp17
 70
     1
102
RTVSPropertyOp18
 70
     1
102
RTVSPropertyOp19
 70
     1
102
RTVSPropertyOp20
 70
     1
102
RTVSPropertyOp21
 70
     1
102
RTVSPropertyOp22
 70
     1
102
RTVSPropertyOp23
 70
     1
102
RTVSPropertyOp24
 70
     1
102
RTVSPropertyOp25
 70
     1
102
RTVSPropertyOp26
 70
     1
102
RTVSPropertyOp27
 70
     1
  0
ENDSEC
  0
EOF
