  0
SECTION
  2
HEADER
  9
$ACADVER
  1
AC1014
  9
$ACADMAINTVER
 70
     9
  9
$DWGCODEPAGE
  3
ANSI_1252
  9
$INSBASE
 10
98.0698528292207
 20
20.50163878276627
 30
0.0
  9
$EXTMIN
 10
79.96538046891607
 20
17.81774834290376
 30
-0.482285085193106
  9
$EXTMAX
 10
116.1781676200583
 20
41.11220422732379
 30
2.985596131529557
  9
$LIMMIN
 10
0.0
 20
0.0
  9
$LIMMAX
 10
187.3118571637889
 20
134.3269220688476
  9
$ORTHOMODE
 70
     1
  9
$REGENMODE
 70
     1
  9
$FILLMODE
 70
     1
  9
$QTEXTMODE
 70
     0
  9
$MIRRTEXT
 70
     1
  9
$DRAGMODE
 70
     2
  9
$LTSCALE
 40
2.0
  9
$OSMODE
 70
    55
  9
$ATTMODE
 70
     1
  9
$TEXTSIZE
 40
0.06
  9
$TRACEWID
 40
1.0
  9
$TEXTSTYLE
  7
CARTOUCHE
  9
$CLAYER
  8
0
  9
$CELTYPE
  6
BYLAYER
  9
$CECOLOR
 62
   256
  9
$CELTSCALE
 40
0.1
  9
$DELOBJ
 70
     1
  9
$DISPSILH
 70
     0
  9
$DIMSCALE
 40
16.0
  9
$DIMASZ
 40
0.1
  9
$DIMEXO
 40
0.0625
  9
$DIMDLI
 40
0.25
  9
$DIMRND
 40
0.0
  9
$DIMDLE
 40
0.0
  9
$DIMEXE
 40
0.1
  9
$DIMTP
 40
0.0
  9
$DIMTM
 40
0.0
  9
$DIMTXT
 40
0.1
  9
$DIMCEN
 40
0.0625
  9
$DIMTSZ
 40
0.0
  9
$DIMTOL
 70
     0
  9
$DIMLIM
 70
     0
  9
$DIMTIH
 70
     1
  9
$DIMTOH
 70
     1
  9
$DIMSE1
 70
     0
  9
$DIMSE2
 70
     0
  9
$DIMTAD
 70
     0
  9
$DIMZIN
 70
    12
  9
$DIMBLK
  1

  9
$DIMASO
 70
     1
  9
$DIMSHO
 70
     1
  9
$DIMPOST
  1
\X
  9
$DIMAPOST
  1
cm
  9
$DIMALT
 70
     1
  9
$DIMALTD
 70
     1
  9
$DIMALTF
 40
2.54
  9
$DIMLFAC
 40
1.0
  9
$DIMTOFL
 70
     0
  9
$DIMTVP
 40
0.0
  9
$DIMTIX
 70
     0
  9
$DIMSOXD
 70
     0
  9
$DIMSAH
 70
     0
  9
$DIMBLK1
  1

  9
$DIMBLK2
  1

  9
$DIMSTYLE
  2
STANDARD
  9
$DIMCLRD
 70
     0
  9
$DIMCLRE
 70
     0
  9
$DIMCLRT
 70
     0
  9
$DIMTFAC
 40
1.0
  9
$DIMGAP
 40
0.08
  9
$DIMJUST
 70
     0
  9
$DIMSD1
 70
     0
  9
$DIMSD2
 70
     0
  9
$DIMTOLJ
 70
     1
  9
$DIMTZIN
 70
     4
  9
$DIMALTZ
 70
    12
  9
$DIMALTTZ
 70
     4
  9
$DIMFIT
 70
     3
  9
$DIMUPT
 70
     0
  9
$DIMUNIT
 70
     5
  9
$DIMDEC
 70
     3
  9
$DIMTDEC
 70
     3
  9
$DIMALTU
 70
     2
  9
$DIMALTTD
 70
     1
  9
$DIMTXSTY
  7
ROMANS
  9
$DIMAUNIT
 70
     0
  9
$LUNITS
 70
     2
  9
$LUPREC
 70
     2
  9
$SKETCHINC
 40
1.0
  9
$FILLETRAD
 40
0.25
  9
$AUNITS
 70
     0
  9
$AUPREC
 70
     0
  9
$MENU
  1
.
  9
$ELEVATION
 40
0.0
  9
$PELEVATION
 40
0.0
  9
$THICKNESS
 40
0.0
  9
$LIMCHECK
 70
     0
  9
$BLIPMODE
 70
     0
  9
$CHAMFERA
 40
10.0
  9
$CHAMFERB
 40
10.0
  9
$CHAMFERC
 40
20.0
  9
$CHAMFERD
 40
0.0
  9
$SKPOLY
 70
     0
  9
$TDCREATE
 40
2452053.367185764
  9
$TDUPDATE
 40
2453689.401197905
  9
$TDINDWG
 40
2.0103228009
  9
$TDUSRTIMER
 40
2.0103196759
  9
$USRTIMER
 70
     1
  9
$ANGBASE
 50
0.0
  9
$ANGDIR
 70
     0
  9
$PDMODE
 70
    33
  9
$PDSIZE
 40
0.25
  9
$PLINEWID
 40
0.0
  9
$COORDS
 70
     1
  9
$SPLFRAME
 70
     0
  9
$SPLINETYPE
 70
     6
  9
$SPLINESEGS
 70
     8
  9
$ATTDIA
 70
     0
  9
$ATTREQ
 70
     1
  9
$HANDLING
 70
 22529
  9
$HANDSEED
  5
237
  9
$SURFTAB1
 70
     6
  9
$SURFTAB2
 70
     6
  9
$SURFTYPE
 70
     6
  9
$SURFU
 70
     6
  9
$SURFV
 70
     6
  9
$UCSNAME
  2

  9
$UCSORG
 10
0.0
 20
0.0
 30
0.0
  9
$UCSXDIR
 10
1.0
 20
0.0
 30
0.0
  9
$UCSYDIR
 10
0.0
 20
1.0
 30
0.0
  9
$PUCSNAME
  2

  9
$PUCSORG
 10
0.0
 20
0.0
 30
0.0
  9
$PUCSXDIR
 10
1.0
 20
0.0
 30
0.0
  9
$PUCSYDIR
 10
0.0
 20
1.0
 30
0.0
  9
$USERI1
 70
     0
  9
$USERI2
 70
     0
  9
$USERI3
 70
     0
  9
$USERI4
 70
     0
  9
$USERI5
 70
     0
  9
$USERR1
 40
0.0
  9
$USERR2
 40
0.0
  9
$USERR3
 40
0.0
  9
$USERR4
 40
0.0
  9
$USERR5
 40
0.0
  9
$WORLDVIEW
 70
     1
  9
$SHADEDGE
 70
     3
  9
$SHADEDIF
 70
    70
  9
$TILEMODE
 70
     1
  9
$MAXACTVP
 70
    48
  9
$PINSBASE
 10
0.0
 20
0.0
 30
0.0
  9
$PLIMCHECK
 70
     0
  9
$PEXTMIN
 10
0.0
 20
0.0
 30
0.0
  9
$PEXTMAX
 10
0.0
 20
0.0
 30
0.0
  9
$PLIMMIN
 10
0.0
 20
0.0
  9
$PLIMMAX
 10
12.0
 20
9.0
  9
$UNITMODE
 70
     0
  9
$VISRETAIN
 70
     1
  9
$PLINEGEN
 70
     0
  9
$PSLTSCALE
 70
     1
  9
$TREEDEPTH
 70
  3020
  9
$PICKSTYLE
 70
     1
  9
$CMLSTYLE
  2
STANDARD
  9
$CMLJUST
 70
     0
  9
$CMLSCALE
 40
20.0
  9
$PROXYGRAPHICS
 70
     1
  9
$MEASUREMENT
 70
     0
  0
ENDSEC
  0
SECTION
  2
CLASSES
  0
CLASS
  1
ACDBDICTIONARYWDFLT
  2
AcDbDictionaryWithDefault
  3
AutoCAD 2000
 90
        0
280
     0
281
     0
  0
CLASS
  1
ACDBPLACEHOLDER
  2
AcDbPlaceHolder
  3
AutoCAD 2000
 90
        0
280
     0
281
     0
  0
CLASS
  1
LAYOUT
  2
AcDbLayout
  3
AutoCAD 2000
 90
        0
280
     0
281
     0
  0
CLASS
  1
DICTIONARYVAR
  2
AcDbDictionaryVar
  3
AutoCAD 2000
 90
        0
280
     0
281
     0
  0
CLASS
  1
IMAGEDEF
  2
AcDbRasterImageDef
  3
ISM
 90
        0
280
     0
281
     0
  0
CLASS
  1
LONG_TRANSACTION
  2
AcDbLongTransaction
  3
AutoCAD 2000
 90
        0
280
     0
281
     0
  0
CLASS
  1
LWPOLYLINE
  2
AcDbPolyline
  3
AutoCAD 2000
 90
        0
280
     0
281
     1
  0
CLASS
  1
HATCH
  2
AcDbHatch
  3
AutoCAD 2000
 90
        0
280
     0
281
     1
  0
CLASS
  1
XRECORD
  2
AcDbXrecord
  3
AutoCAD 2000
 90
        0
280
     0
281
     0
  0
CLASS
  1
LONG_TRANSACTION
  2
AcDbLongTransaction
  3
AutoCAD 2000
 90
        0
280
     0
281
     0
  0
CLASS
  1
LWPOLYLINE
  2
AcDbPolyline
  3
AutoCAD 2000
 90
        0
280
     0
281
     1
  0
CLASS
  1
HATCH
  2
AcDbHatch
  3
AutoCAD 2000
 90
        0
280
     0
281
     1
  0
CLASS
  1
XRECORD
  2
AcDbXrecord
  3
AutoCAD 2000
 90
        0
280
     0
281
     0
  0
ENDSEC
  0
SECTION
  2
TABLES
  0
TABLE
  2
VPORT
  5
1D
330
0
100
AcDbSymbolTable
 70
     4
  0
VPORT
  5
213
330
1D
100
AcDbSymbolTableRecord
100
AcDbViewportTableRecord
  2
*ACTIVE
 70
     0
 10
0.0
 20
0.0
 11
1.0
 21
1.0
 12
98.07177407575572
 22
29.46497623862564
 13
0.0
 23
0.0
 14
10.0
 24
10.0
 15
10.0
 25
10.0
 16
0.0
 26
0.0
 36
1.0
 17
0.0
 27
0.0
 37
0.0
 40
32.50958481023069
 41
1.786792452830188
 42
50.0
 43
0.0
 44
0.0
 50
0.0
 51
0.0
 71
     0
 72
   100
 73
     1
 74
     3
 75
     0
 76
     0
 77
     0
 78
     2
  0
ENDTAB
  0
TABLE
  2
LTYPE
  5
18
330
0
100
AcDbSymbolTable
 70
     3
  0
LTYPE
  5
19
330
18
100
AcDbSymbolTableRecord
100
AcDbLinetypeTableRecord
  2
BYBLOCK
 70
     0
  3

 72
    65
 73
     0
 40
0.0
  0
LTYPE
  5
1A
330
18
100
AcDbSymbolTableRecord
100
AcDbLinetypeTableRecord
  2
BYLAYER
 70
     0
  3

 72
    65
 73
     0
 40
0.0
  0
LTYPE
  5
8
330
18
100
AcDbSymbolTableRecord
100
AcDbLinetypeTableRecord
  2
CONTINUOUS
 70
     0
  3
Solid line
 72
    65
 73
     0
 40
0.0
  0
LTYPE
  5
32
330
18
100
AcDbSymbolTableRecord
100
AcDbLinetypeTableRecord
  2
CENTER
 70
     0
  3
Center ____ _ ____ _ ____ _ ____ _ ____ _ ____
 72
    65
 73
     4
 40
50.8
 49
31.75
 74
     0
 49
-6.349999999999999
 74
     0
 49
6.349999999999999
 74
     0
 49
-6.349999999999999
 74
     0
  0
LTYPE
  5
2E
330
18
100
AcDbSymbolTableRecord
100
AcDbLinetypeTableRecord
  2
HIDDEN
 70
     0
  3
Hidden __ __ __ __ __ __ __ __ __ __ __ __ __ _
 72
    65
 73
     2
 40
0.375
 49
0.25
 74
     0
 49
-0.125
 74
     0
  0
ENDTAB
  0
TABLE
  2
LAYER
  5
10
102
{ACAD_XDICTIONARY
360
11
102
}
330
0
100
AcDbSymbolTable
 70
     3
  0
LAYER
  5
4
330
10
100
AcDbSymbolTableRecord
100
AcDbLayerTableRecord
  2
0
 70
     0
 62
     7
  6
CONTINUOUS
  0
LAYER
  5
31
330
10
100
AcDbSymbolTableRecord
100
AcDbLayerTableRecord
  2
CENTER
 70
     0
 62
     1
  6
CENTER
  0
LAYER
  5
101
330
10
100
AcDbSymbolTableRecord
100
AcDbLayerTableRecord
  2
DEFPOINTS
 70
     0
 62
     7
  6
CONTINUOUS
  0
ENDTAB
  0
TABLE
  2
STYLE
  5
15
330
0
100
AcDbSymbolTable
 70
     3
  0
STYLE
  5
16
330
15
100
AcDbSymbolTableRecord
100
AcDbTextStyleTableRecord
  2
STANDARD
 70
     0
 40
0.0
 41
1.0
 50
0.0
 71
     0
 42
0.125
  3
txt
  4

  0
STYLE
  5
2B
330
15
100
AcDbSymbolTableRecord
100
AcDbTextStyleTableRecord
  2
CARTOUCHE
 70
     0
 40
0.0
 41
1.0
 50
0.0
 71
     0
 42
0.06
  3
romans.shx
  4

  0
STYLE
  5
23
330
15
100
AcDbSymbolTableRecord
100
AcDbTextStyleTableRecord
  2
ROMANS
 70
     0
 40
0.0
 41
1.0
 50
0.0
 71
     0
 42
1.0
  3
romans.shx
  4

  0
ENDTAB
  0
TABLE
  2
VIEW
  5
1B
330
0
100
AcDbSymbolTable
 70
     0
  0
ENDTAB
  0
TABLE
  2
UCS
  5
1C
330
0
100
AcDbSymbolTable
 70
     0
  0
ENDTAB
  0
TABLE
  2
APPID
  5
1F
330
0
100
AcDbSymbolTable
 70
     2
  0
APPID
  5
20
330
1F
100
AcDbSymbolTableRecord
100
AcDbRegAppTableRecord
  2
ACAD
 70
     0
  0
APPID
  5
9D
330
1F
100
AcDbSymbolTableRecord
100
AcDbRegAppTableRecord
  2
DCO15
 70
     0
  0
ENDTAB
  0
TABLE
  2
DIMSTYLE
  5
21
330
0
100
AcDbSymbolTable
 70
     1
  0
DIMSTYLE
105
22
330
21
100
AcDbSymbolTableRecord
100
AcDbDimStyleTableRecord
  2
STANDARD
 70
     0
  3
\X
  4
cm
  5

  6

  7

 40
16.0
 41
0.1
 42
0.0625
 43
0.25
 44
0.1
 45
0.0
 46
0.0
 47
0.0
 48
0.0
140
0.1
141
0.0625
142
0.0
143
2.54
144
1.0
145
0.0
146
1.0
147
0.08
 71
     0
 72
     0
 73
     1
 74
     1
 75
     0
 76
     0
 77
     0
 78
    12
170
     1
171
     1
172
     0
173
     0
174
     0
175
     0
176
     0
177
     0
178
     0
270
     5
271
     3
272
     3
273
     2
274
     1
340
23
275
     0
280
     0
281
     0
282
     0
283
     1
284
     4
285
    12
286
     4
287
     3
288
     0
  0
ENDTAB
  0
TABLE
  2
BLOCK_RECORD
  5
1
330
0
100
AcDbSymbolTable
 70
     3
  0
BLOCK_RECORD
  5
2
102
{ACAD_XDICTIONARY
360
B3
102
}
330
1
100
AcDbSymbolTableRecord
100
AcDbBlockTableRecord
  2
*MODEL_SPACE
  0
BLOCK_RECORD
  5
A8
102
{ACAD_XDICTIONARY
360
B5
102
}
330
1
100
AcDbSymbolTableRecord
100
AcDbBlockTableRecord
  2
*PAPER_SPACE
  0
ENDTAB
  0
ENDSEC
  0
SECTION
  2
BLOCKS
  0
BLOCK
  5
3
330
2
100
AcDbEntity
  8
0
100
AcDbBlockBegin
  2
*MODEL_SPACE
 70
     0
 10
0.0
 20
0.0
 30
0.0
  3
*MODEL_SPACE
  1

  0
ENDBLK
  5
9
330
2
100
AcDbEntity
  8
0
100
AcDbBlockEnd
  0
BLOCK
  5
AA
330
A8
100
AcDbEntity
 67
     1
  8
0
 48
0.1
100
AcDbBlockBegin
  2
*PAPER_SPACE
 70
     0
 10
0.0
 20
0.0
 30
0.0
  3
*PAPER_SPACE
  1

  0
ENDBLK
  5
AB
330
A8
100
AcDbEntity
 67
     1
  8
0
 48
0.1
100
AcDbBlockEnd
  0
ENDSEC
  0
SECTION
  2
ENTITIES
  0
LINE
  5
2D
330
2
100
AcDbEntity
  8
0
  6
HIDDEN
 62
     9
100
AcDbLine
 10
84.45638839754623
 20
38.1462778827191
 30
-0.4820734580447628
 11
84.4297392365889
 21
38.34230299385048
 31
0.0453479187355015
  0
LINE
  5
2F
330
2
100
AcDbEntity
  8
0
  6
HIDDEN
 62
     9
100
AcDbLine
 10
111.4333172608951
 20
38.14627788271909
 30
-0.4820734580447628
 11
111.4599664218524
 21
38.34230299385046
 31
0.0453479187355015
  0
LINE
  5
30
330
2
100
AcDbEntity
  8
CENTER
 48
0.05
100
AcDbLine
 10
98.0698528292207
 20
34.07425387237233
 30
0.0
 11
98.0698528292207
 21
39.42902369316024
 31
0.0
  0
LINE
  5
33
330
2
100
AcDbEntity
  8
0
100
AcDbLine
 10
112.9439033137839
 20
39.50163878276626
 30
0.0
 11
112.4627156643913
 21
34.00163878276626
 31
0.0
  0
LINE
  5
34
330
2
100
AcDbEntity
  8
0
100
AcDbLine
 10
110.9463356055046
 20
39.50163878276626
 30
0.0
 11
110.4982915450862
 21
34.38047173824253
 31
0.0
  0
LINE
  5
35
330
2
100
AcDbEntity
  8
0
100
AcDbLine
 10
84.94337005293674
 20
39.50163878276628
 30
0.0
 11
85.39141411335513
 21
34.38047173824255
 31
0.0
  0
LINE
  5
36
330
2
100
AcDbEntity
  8
0
100
AcDbLine
 10
82.94580234465746
 20
39.50163878276628
 30
0.0
 11
83.42698999405003
 21
34.00163878276627
 31
0.0
  0
LINE
  5
37
330
2
100
AcDbEntity
  8
0
  6
HIDDEN
 62
     9
100
AcDbLine
 10
110.4028154250673
 20
37.38919485946357
 30
0.1219888419324597
 11
110.245881487879
 21
33.49356323935959
 31
2.834314908803559
  0
LINE
  5
38
330
2
100
AcDbEntity
  8
0
  6
HIDDEN
 62
     9
100
AcDbLine
 10
111.3790657104745
 20
36.61242389545651
 30
0.8138837036838744
 11
111.2534236760026
 21
33.49356323935927
 31
2.985384472087008
  0
LINE
  5
39
330
2
100
AcDbEntity
  8
0
  6
HIDDEN
 62
     9
100
AcDbLine
 10
85.48689023337404
 20
37.38919485946358
 30
0.1219888419324597
 11
85.64382417056233
 21
33.4935632393596
 31
2.834314908803559
  0
LINE
  5
3A
330
2
100
AcDbEntity
  8
0
  6
HIDDEN
 62
     9
100
AcDbLine
 10
84.51063994796685
 20
36.61242389545653
 30
0.8138837036838744
 11
84.63628198243878
 21
33.49356323935928
 31
2.985384472087008
  0
LINE
  5
3B
330
2
100
AcDbEntity
  8
0
  6
HIDDEN
 62
     9
100
AcDbLine
 10
112.7691437337993
 20
37.34674374780573
 30
0.1979322647394088
 11
112.4095675463023
 21
37.36950691871203
 31
0.2098214037066519
  0
LINE
  5
3C
330
2
100
AcDbEntity
  8
0
  6
HIDDEN
 62
     9
100
AcDbLine
 10
112.397734014183
 20
37.26290542660553
 30
0.0560282328626833
 11
112.7598035025319
 21
37.23998441589947
 31
0.044056654620166
  0
LINE
  5
3D
330
2
100
AcDbEntity
  8
0
  6
HIDDEN
 62
     9
100
AcDbLine
 10
111.4599664218524
 20
38.34230299385046
 30
0.0453479187355015
 11
112.834131877048
 21
38.24694551952598
 31
0.0
210
0.0330425412699452
220
0.8202277396845561
230
-0.5710819954423254
  0
ARC
  5
3E
330
2
100
AcDbEntity
  8
0
  6
HIDDEN
 62
     9
100
AcDbCircle
 10
-109.3154822861434
 20
24.14023897366897
 30
34.24597874193112
 40
0.5000000000000001
210
0.0330425412699401
220
0.8202277396845564
230
-0.571081995442325
100
AcDbArc
 50
2.302542382350855
 51
92.30254238234815
  0
ARC
  5
3F
330
2
100
AcDbEntity
  8
0
  6
HIDDEN
 62
     9
100
AcDbCircle
 10
-109.3154822861434
 20
24.14023897366897
 30
34.24597874193112
 40
0.5000000000000001
210
0.0330425412699401
220
0.8202277396845564
230
-0.571081995442325
100
AcDbArc
 50
2.302542382350855
 51
92.30254238234815
  0
LINE
  5
40
330
2
100
AcDbEntity
  8
0
  6
HIDDEN
 62
     9
100
AcDbLine
 10
111.3672321783552
 20
36.50582240334995
 30
0.6600905328399059
 11
111.3790657104745
 21
36.61242389545651
 31
0.8138837036838744
210
0.9974592945578701
220
-0.0631447164290215
230
-0.0329803045348976
  0
LINE
  5
41
330
2
100
AcDbEntity
  8
0
  6
HIDDEN
 62
     9
100
AcDbLine
 10
111.3672321783552
 20
36.50582240334995
 30
0.6600905328399059
 11
111.3790657104745
 21
36.61242389545651
 31
0.8138837036838744
  0
LINE
  5
42
330
2
100
AcDbEntity
  8
0
  6
HIDDEN
 62
     9
100
AcDbLine
 10
110.9449346901168
 20
37.74849463897306
 30
0.6694069827595648
 11
110.9118921488469
 21
36.92826689928847
 31
1.240488978201906
  0
LINE
  5
43
330
2
100
AcDbEntity
  8
0
  6
HIDDEN
 62
     9
100
AcDbLine
 10
110.9449346901168
 20
37.74849463897306
 30
0.6694069827595648
 11
110.9118921488469
 21
36.92826689928847
 31
1.240488978201906
210
0.0631121713026928
220
0.5685412912349133
230
0.8202302445011383
  0
ARC
  5
44
330
2
100
AcDbEntity
  8
0
  6
HIDDEN
 62
     9
100
AcDbCircle
 10
-107.6580100591479
 20
-39.51868264980626
 30
29.01262146068429
 40
1.5
210
0.0631121713026928
220
0.5685412912349133
230
0.8202302445011383
100
AcDbArc
 50
273.3051921518249
 51
3.305192151827757
  0
ARC
  5
45
330
2
100
AcDbEntity
  8
0
  6
HIDDEN
 62
     9
100
AcDbCircle
 10
-107.6580100591478
 20
-39.51868264980626
 30
28.51262146068432
 40
1.0
210
0.0631121713026928
220
0.5685412912349133
230
0.8202302445011383
100
AcDbArc
 50
273.3051921518232
 51
3.30519215182726
  0
ARC
  5
46
330
2
100
AcDbEntity
  8
0
  6
HIDDEN
 62
     9
100
AcDbCircle
 10
-86.4154669176276
 20
19.63729069279274
 30
27.77328505835569
 40
0.5000000000000001
210
-0.0330425412699397
220
0.8202277396845564
230
-0.571081995442325
100
AcDbArc
 50
87.69745761765184
 51
177.6974576176491
  0
ARC
  5
47
330
2
100
AcDbEntity
  8
0
  6
HIDDEN
 62
     9
100
AcDbCircle
 10
-86.4154669176276
 20
19.63729069279274
 30
27.77328505835569
 40
0.5000000000000001
210
-0.0330425412699397
220
0.8202277396845564
230
-0.571081995442325
100
AcDbArc
 50
87.69745761765184
 51
177.6974576176491
  0
ARC
  5
48
330
2
100
AcDbEntity
  8
0
  6
HIDDEN
 62
     9
100
AcDbCircle
 10
-87.0358018256674
 20
-21.79152783104215
 30
16.64959680073469
 40
1.5
210
-0.0631121713026925
220
0.5685412912349133
230
0.8202302445011383
100
AcDbArc
 50
176.6948078481722
 51
266.6948078481751
  0
ARC
  5
49
330
2
100
AcDbEntity
  8
0
  6
HIDDEN
 62
     9
100
AcDbCircle
 10
-87.03580182566755
 20
-21.79152783104215
 30
16.14959680073472
 40
1.0
210
-0.0631121713026925
220
0.5685412912349133
230
0.8202302445011383
100
AcDbArc
 50
176.6948078481727
 51
266.6948078481766
  0
LINE
  5
4A
330
2
100
AcDbEntity
  8
0
  6
HIDDEN
 62
     9
100
AcDbLine
 10
84.94477096832453
 20
37.74849463897307
 30
0.6694069827595648
 11
84.97781350959444
 21
36.92826689928848
 31
1.240488978201906
  0
LINE
  5
4B
330
2
100
AcDbEntity
  8
0
  6
HIDDEN
 62
     9
100
AcDbLine
 10
84.94477096832453
 20
37.74849463897307
 30
0.6694069827595648
 11
84.97781350959444
 21
36.92826689928848
 31
1.240488978201906
210
-0.0631121713026925
220
0.5685412912349133
230
0.8202302445011383
  0
LINE
  5
4C
330
2
100
AcDbEntity
  8
0
  6
HIDDEN
 62
     9
100
AcDbLine
 10
84.52247348008613
 20
36.50582240334996
 30
0.6600905328399059
 11
84.51063994796685
 21
36.61242389545653
 31
0.8138837036838744
210
-0.9974592945578702
220
-0.0631447164290211
230
-0.0329803045348976
  0
LINE
  5
4D
330
2
100
AcDbEntity
  8
0
  6
HIDDEN
 62
     9
100
AcDbLine
 10
84.52247348008613
 20
36.50582240334996
 30
0.6600905328399059
 11
84.51063994796685
 21
36.61242389545653
 31
0.8138837036838744
  0
LINE
  5
4E
330
2
100
AcDbEntity
  8
CENTER
 48
0.05
100
AcDbLine
 10
100.6387090410334
 20
36.75163878276628
 30
0.0
 11
95.50099661740793
 21
36.75163878276628
 31
0.0
  0
LINE
  5
4F
330
2
100
AcDbEntity
  8
0
 48
0.1
100
AcDbLine
 10
84.61587422058521
 20
33.4986755426341
 30
0.0
 11
111.3606557052169
 21
33.49867554263409
 31
0.0
  0
LINE
  5
50
330
2
100
AcDbEntity
  8
0
 48
0.5
100
AcDbLine
 10
107.067010262968
 20
21.27197412842213
 30
0.0
 11
88.82269539547339
 21
21.27197412842214
 31
0.0
  0
ARC
  5
51
330
2
100
AcDbEntity
  8
0
 48
0.5
100
AcDbCircle
 10
88.82269539547339
 20
24.27197412842212
 30
0.0
 40
3.0
100
AcDbArc
 50
185.0000000000003
 51
270.0
  0
ARC
  5
52
330
2
100
AcDbEntity
  8
0
 48
0.5
100
AcDbCircle
 10
90.25140381226945
 20
24.27197412842212
 30
0.0
 40
3.0
100
AcDbArc
 50
185.0000000000003
 51
270.0
  0
LINE
  5
53
330
2
100
AcDbEntity
  8
0
100
AcDbLine
 10
90.93589316852693
 20
20.50163878276627
 30
0.0
 11
91.93589316852692
 21
20.50163878276627
 31
0.0
  0
ARC
  5
54
330
2
100
AcDbEntity
  8
0
100
AcDbCircle
 10
90.93589316852693
 20
21.00163878276626
 30
0.0
 40
0.5
100
AcDbArc
 50
191.5298340272642
 51
270.0
  0
ARC
  5
55
330
2
100
AcDbEntity
  8
0
 48
0.1
100
AcDbCircle
 10
89.71111721790371
 20
20.75179108760988
 30
0.0
 40
0.75
100
AcDbArc
 50
11.52983402726431
 51
43.9139615307539
  0
ARC
  5
56
330
2
100
AcDbEntity
  8
0
 48
0.1
100
AcDbCircle
 10
93.16066911915013
 20
20.75179108760988
 30
0.0
 40
0.75
100
AcDbArc
 50
136.086038469246
 51
168.4701659727357
  0
ARC
  5
57
330
2
100
AcDbEntity
  8
0
 48
0.1
100
AcDbCircle
 10
91.93589316852692
 20
21.00163878276626
 30
0.0
 40
0.5
100
AcDbArc
 50
270.0
 51
348.4701659727357
  0
LINE
  5
58
330
2
100
AcDbEntity
  8
0
  6
HIDDEN
 62
     9
100
AcDbLine
 10
85.48689023337404
 20
37.38919485946358
 30
0.1219888419324597
 11
85.47505670125479
 21
37.49579635157012
 31
0.2757820127764354
210
0.9974592945578702
220
0.0631447164290211
230
0.0329803045348976
  0
LINE
  5
59
330
2
100
AcDbEntity
  8
0
  6
HIDDEN
 62
     9
100
AcDbLine
 10
85.48689023337404
 20
37.38919485946358
 30
0.1219888419324597
 11
85.47505670125479
 21
37.49579635157012
 31
0.2757820127764354
  0
LINE
  5
5A
330
2
100
AcDbEntity
  8
0
  6
HIDDEN
 62
     9
100
AcDbLine
 10
83.49197164425829
 20
37.26290542660554
 30
0.0560282328626833
 11
83.48013811213904
 21
37.36950691871204
 31
0.2098214037066519
210
0.0330425412699208
220
-0.8202277396845575
230
0.5710819954423246
  0
ARC
  5
5B
330
2
100
AcDbEntity
  8
0
  6
HIDDEN
 62
     9
100
AcDbCircle
 10
87.03580182566744
 20
-21.79152783104213
 30
-15.96209680073472
 40
1.0
210
0.0631121713026925
220
-0.5685412912349133
230
-0.8202302445011383
100
AcDbArc
 50
273.3051921518249
 51
3.305192151825769
  0
LINE
  5
5C
330
2
100
AcDbEntity
  8
0
100
AcDbLine
 10
86.48763180143813
 20
32.8709453308834
 30
0.0
 11
87.26281971799421
 21
24.01050690017915
 31
0.0
  0
SPLINE
  5
5D
330
2
100
AcDbEntity
  8
0
 48
0.1
100
AcDbSpline
210
0.0
220
0.0
230
1.0
 70
     8
 71
     3
 72
    10
 73
     6
 74
     4
 42
0.0000000001
 43
0.0000000001
 44
0.0000000001
 12
0.0902957725541786
 22
-0.9959149930886894
 32
0.0
 13
0.0859596848406924
 23
-0.9962986161699156
 33
0.0
 40
0.0
 40
0.0
 40
0.0
 40
0.0
 40
1.750586719168465
 40
3.521534685101862
 40
5.502475389801677
 40
5.502475389801677
 40
5.502475389801677
 40
5.502475389801677
 10
83.42698999405003
 20
34.00163878276627
 30
0.0
 10
83.47968018746016
 20
33.42049359599234
 30
0.0
 10
83.81535771892808
 20
32.25273990722699
 30
0.0
 10
84.96903038636771
 20
30.8097238433999
 30
0.0
 10
85.34864538177695
 20
29.56850351860742
 30
0.0
 10
85.40540572799832
 20
28.91063402433839
 30
0.0
 11
83.42698999405003
 21
34.00163878276627
 31
0.0
 11
83.91292178586532
 21
32.31984683516033
 31
0.0
 11
84.8343185998619
 21
30.80746969661301
 31
0.0
 11
85.40540572799832
 21
28.91063402433839
 31
0.0
  0
LINE
  5
5E
330
2
100
AcDbEntity
  8
0
100
AcDbLine
 10
85.40445052933025
 20
28.92155199507404
 30
0.0
 11
85.83411130119815
 21
24.01050690017915
 31
0.0
  0
SPLINE
  5
5F
330
2
100
AcDbEntity
  8
0
  6
HIDDEN
 62
     9
100
AcDbSpline
 70
     0
 71
     3
 72
     9
 73
     5
 74
     0
 42
0.0000000001
 43
0.0000000001
 40
0.6153765629407717
 40
0.6153765629407717
 40
0.6153765629407717
 40
0.6153765629407717
 40
1.273309223145197
 40
1.94829804941258
 40
1.94829804941258
 40
1.94829804941258
 40
1.94829804941258
 10
85.48061420286918
 20
37.44573201248648
 30
-0.0777763480490839
 10
85.46420603581132
 20
37.70130433681548
 30
-0.1319923278467172
 10
85.30011004768418
 20
38.31414601571664
 30
-0.1306382359488616
 10
84.47856552713053
 20
38.3603005120117
 30
-0.1918876539088172
 10
84.42805748691101
 20
38.34218629218172
 30
-0.0256803940610899
  0
LINE
  5
60
330
2
100
AcDbEntity
  8
0
  6
HIDDEN
 62
     9
100
AcDbLine
 10
84.4297392365889
 20
38.34230299385048
 30
0.0453479187355015
 11
83.05557378139333
 21
38.24694551952599
 31
0.0
210
-0.0330425412699448
220
0.8202277396845561
230
-0.5710819954423254
  0
SPLINE
  5
61
330
2
100
AcDbEntity
  8
0
 48
0.1
100
AcDbSpline
210
0.0
220
0.0
230
1.0
 70
     8
 71
     3
 72
    10
 73
     6
 74
     0
 42
0.0000000001
 43
0.0000000001
 40
0.0
 40
0.0
 40
0.0
 40
0.0
 40
0.7261807570757185
 40
1.103047293837589
 40
1.639158202722391
 40
1.639158202722391
 40
1.639158202722391
 40
1.639158202722391
 10
83.39313166561934
 20
34.38864124761319
 30
0.0
 10
83.45377495050168
 20
34.07352741803011
 30
0.0
 10
83.48059073935116
 20
33.71395154036879
 30
0.0
 10
83.88855685753902
 20
33.48067633572414
 30
0.0
 10
84.10373492339205
 20
33.49867554264214
 30
0.0
 10
84.61587422058521
 20
33.4986755426341
 30
0.0
  0
SPLINE
  5
62
330
2
100
AcDbEntity
  8
0
 48
0.1
100
AcDbSpline
210
0.0
220
0.0
230
1.0
 70
     8
 71
     3
 72
    10
 73
     6
 74
     4
 42
0.0000000001
 43
0.0000000001
 44
0.0000000001
 12
0.084005978596606
 22
-0.9964652505531875
 32
0.0
 13
0.0934873802387392
 23
-0.9956204647033413
 33
0.0
 40
0.0
 40
0.0
 40
0.0
 40
0.0
 40
0.9014634420016458
 40
1.304025715373388
 40
2.06573492541978
 40
2.06573492541978
 40
2.06573492541978
 40
2.06573492541978
 10
85.39069937389864
 20
34.38864124761319
 30
0.0
 10
85.4159421467701
 20
34.08921558274696
 30
0.0
 10
85.38736895852649
 20
33.39963171811512
 30
0.0
 10
86.20194079724013
 20
33.58458737232928
 30
0.0
 10
86.46389506870246
 20
33.12373642213128
 30
0.0
 10
86.48763180155278
 20
32.87094532957287
 30
0.0
 11
85.39069937389864
 21
34.38864124761319
 31
0.0
 11
85.63582578078124
 21
33.52114520617307
 31
0.0
 11
86.03675059083867
 21
33.48487289410674
 31
0.0
 11
86.48763180155278
 21
32.87094532957287
 31
0.0
  0
LINE
  5
63
330
2
100
AcDbEntity
  8
0
  6
HIDDEN
 62
     9
100
AcDbLine
 10
83.49197164425829
 20
37.26290542660554
 30
0.0560282328626833
 11
83.12990215590941
 21
37.23998441589948
 31
0.044056654620166
  0
ARC
  5
64
330
2
100
AcDbEntity
  8
0
  6
HIDDEN
 62
     9
100
AcDbCircle
 10
-88.09179291832466
 20
-22.73220993049368
 30
16.64959680073469
 40
0.5000000000000004
210
-0.0631121713026925
220
0.5685412912349133
230
0.8202302445011383
100
AcDbArc
 50
176.6948078481702
 51
266.6948078481734
  0
ARC
  5
65
330
2
100
AcDbEntity
  8
0
  6
HIDDEN
 62
     9
100
AcDbCircle
 10
-88.09179291832466
 20
-22.73220993049368
 30
16.64959680073469
 40
0.5000000000000004
210
-0.0631121713026925
220
0.5685412912349133
230
0.8202302445011383
100
AcDbArc
 50
176.6948078481702
 51
266.6948078481734
  0
ARC
  5
66
330
2
100
AcDbEntity
  8
0
  6
HIDDEN
 62
     9
100
AcDbCircle
 10
-32.43098988328326
 20
-2.901554756969685
 30
-85.63464656219444
 40
0.5000000000000001
210
-0.9974592945578699
220
-0.063144716429024
230
-0.0329803045348955
100
AcDbArc
 50
34.84740939113658
 51
124.8474093911363
  0
LINE
  5
67
330
2
100
AcDbEntity
  8
0
  6
HIDDEN
 62
     9
100
AcDbLine
 10
83.12056192464204
 20
37.34674374780574
 30
0.1979322647394088
 11
83.48013811213904
 21
37.36950691871204
 31
0.2098214037066519
  0
LINE
  5
68
330
2
100
AcDbEntity
  8
0
  6
HIDDEN
 62
     9
100
AcDbLine
 10
83.43206075585273
 20
38.06389143417179
 30
0.3343955282360689
 11
84.42952005041057
 21
38.12703615060083
 31
0.3673758327709429
  0
LINE
  5
69
330
2
100
AcDbEntity
  8
0
  6
HIDDEN
 62
     9
100
AcDbLine
 10
83.43206075585273
 20
38.06389143417179
 30
0.3343955282360689
 11
84.42952005041057
 21
38.12703615060083
 31
0.3673758327709429
210
-0.0631121713026925
220
0.5685412912349133
230
0.8202302445011383
  0
LINE
  5
6A
330
2
100
AcDbEntity
  8
CENTER
 48
0.05
100
AcDbLine
 10
98.0698528292207
 20
17.82425387237232
 30
0.0
 11
98.0698528292207
 21
23.17902369316023
 31
0.0
  0
ARC
  5
6B
330
2
100
AcDbEntity
  8
0
 48
0.5
100
AcDbCircle
 10
105.6383018461719
 20
24.27197412842212
 30
0.0
 40
3.0
100
AcDbArc
 50
270.0
 51
354.9999999999996
  0
ARC
  5
6C
330
2
100
AcDbEntity
  8
0
 48
0.5
100
AcDbCircle
 10
107.067010262968
 20
24.27197412842212
 30
0.0
 40
3.0
100
AcDbArc
 50
270.0
 51
354.9999999999997
  0
LINE
  5
6D
330
2
100
AcDbEntity
  8
0
100
AcDbLine
 10
104.9538124899144
 20
20.50163878276626
 30
0.0
 11
103.9538124899144
 21
20.50163878276626
 31
0.0
  0
LINE
  5
6E
330
2
100
AcDbEntity
  8
0
 48
0.1
100
AcDbLine
 10
99.2434203798296
 20
20.7517910876099
 30
0.0
 11
96.89628527861181
 21
20.7517910876099
 31
0.0
  0
LINE
  5
6F
330
2
100
AcDbEntity
  8
0
100
AcDbLine
 10
97.56985282922073
 20
20.50163878276627
 30
0.0
 11
98.56985282922069
 21
20.50163878276627
 31
0.0
  0
ARC
  5
70
330
2
100
AcDbEntity
  8
0
 48
0.1
100
AcDbCircle
 10
96.89628527861181
 20
21.00179108760988
 30
0.0
 40
0.25
100
AcDbArc
 50
197.7136489003373
 51
270.0
  0
ARC
  5
71
330
2
100
AcDbEntity
  8
0
100
AcDbCircle
 10
97.56985282922073
 20
21.00163878276626
 30
0.0
 40
0.5
100
AcDbArc
 50
209.979849230729
 51
270.0
  0
LINE
  5
72
330
2
100
AcDbEntity
  8
0
 48
0.1
100
AcDbLine
 10
96.65813802161189
 20
20.92572608919796
 30
0.0
 11
96.54754528632068
 21
21.27197412842214
 31
0.0
  0
ARC
  5
73
330
2
100
AcDbEntity
  8
0
 48
0.1
100
AcDbCircle
 10
98.56985282922069
 20
21.00163878276626
 30
0.0
 40
0.5
100
AcDbArc
 50
270.0
 51
330.0201507692709
  0
ARC
  5
74
330
2
100
AcDbEntity
  8
0
 48
0.1
100
AcDbCircle
 10
99.2434203798296
 20
21.00179108760988
 30
0.0
 40
0.25
100
AcDbArc
 50
270.0
 51
342.2863510996626
  0
LINE
  5
75
330
2
100
AcDbEntity
  8
0
 48
0.1
100
AcDbLine
 10
99.48156763682952
 20
20.92572608919796
 30
0.0
 11
99.59216037212078
 21
21.27197412842214
 31
0.0
  0
ARC
  5
76
330
2
100
AcDbEntity
  8
0
 48
0.1
100
AcDbCircle
 10
103.9538124899144
 20
21.00163878276626
 30
0.0
 40
0.5
100
AcDbArc
 50
191.5298340272642
 51
270.0
  0
ARC
  5
77
330
2
100
AcDbEntity
  8
0
 48
0.1
100
AcDbCircle
 10
102.7290365392912
 20
20.75179108760988
 30
0.0
 40
0.75
100
AcDbArc
 50
11.52983402726431
 51
43.9139615307539
  0
ARC
  5
78
330
2
100
AcDbEntity
  8
0
100
AcDbCircle
 10
104.9538124899144
 20
21.00163878276626
 30
0.0
 40
0.5
100
AcDbArc
 50
269.9999999999999
 51
348.4701659727357
  0
ARC
  5
79
330
2
100
AcDbEntity
  8
0
 48
0.1
100
AcDbCircle
 10
106.1785884405376
 20
20.75179108760988
 30
0.0
 40
0.75
100
AcDbArc
 50
136.086038469246
 51
168.4701659727357
  0
LINE
  5
7A
330
2
100
AcDbEntity
  8
0
  6
HIDDEN
 62
     9
100
AcDbLine
 10
112.397734014183
 20
37.26290542660553
 30
0.0560282328626833
 11
112.4095675463023
 21
37.36950691871203
 31
0.2098214037066519
210
-0.0330425412699212
220
-0.8202277396845575
230
0.5710819954423246
  0
LINE
  5
7B
330
2
100
AcDbEntity
  8
0
  6
HIDDEN
 62
     9
100
AcDbLine
 10
110.4028154250673
 20
37.38919485946357
 30
0.1219888419324597
 11
110.4146489571866
 21
37.4957963515701
 31
0.2757820127764354
210
-0.9974592945578701
220
0.0631447164290215
230
0.0329803045348976
  0
LINE
  5
7C
330
2
100
AcDbEntity
  8
0
  6
HIDDEN
 62
     9
100
AcDbLine
 10
110.4028154250673
 20
37.38919485946357
 30
0.1219888419324597
 11
110.4146489571866
 21
37.4957963515701
 31
0.2757820127764354
  0
ARC
  5
7D
330
2
100
AcDbEntity
  8
0
  6
HIDDEN
 62
     9
100
AcDbCircle
 10
107.6580100591479
 20
-39.51868264980626
 30
-28.32512146068432
 40
1.0
210
-0.0631121713026928
220
-0.5685412912349133
230
-0.8202302445011383
100
AcDbArc
 50
176.6948078481742
 51
266.6948078481751
  0
CIRCLE
  5
7E
330
2
100
AcDbEntity
  8
0
 48
0.1
100
AcDbCircle
 10
98.0698528292207
 20
36.75163878276628
 30
0.0
 40
1.25
  0
SPLINE
  5
7F
330
2
100
AcDbEntity
  8
0
 48
0.1
100
AcDbSpline
210
0.0
220
0.0
230
1.0
 70
     8
 71
     3
 72
    10
 73
     6
 74
     4
 42
0.0000000001
 43
0.0000000001
 44
0.0000000001
 12
-0.090295772554179
 22
-0.9959149930886892
 32
0.0
 13
-0.0859596848406929
 23
-0.9962986161699156
 33
0.0
 40
0.0
 40
0.0
 40
0.0
 40
0.0
 40
1.750586719168465
 40
3.521534685101862
 40
5.502475389801677
 40
5.502475389801677
 40
5.502475389801677
 40
5.502475389801677
 10
112.4627156643913
 20
34.00163878276626
 30
0.0
 10
112.4100254709812
 20
33.42049359599232
 30
0.0
 10
112.0743479395133
 20
32.25273990722698
 30
0.0
 10
110.9206752720736
 20
30.80972384339989
 30
0.0
 10
110.5410602766644
 20
29.5685035186074
 30
0.0
 10
110.484299930443
 20
28.91063402433838
 30
0.0
 11
112.4627156643913
 21
34.00163878276626
 31
0.0
 11
111.976783872576
 21
32.31984683516031
 31
0.0
 11
111.0553870585794
 21
30.807469696613
 31
0.0
 11
110.484299930443
 21
28.91063402433838
 31
0.0
  0
LINE
  5
80
330
2
100
AcDbEntity
  8
0
100
AcDbLine
 10
109.402073856917
 20
32.87094532989744
 30
0.0
 11
108.6268859404471
 21
24.01050690017914
 31
0.0
  0
LINE
  5
81
330
2
100
AcDbEntity
  8
0
100
AcDbLine
 10
110.4852551291111
 20
28.92155199507402
 30
0.0
 11
110.0555943572432
 21
24.01050690017914
 31
0.0
  0
SPLINE
  5
82
330
2
100
AcDbEntity
  8
0
  6
HIDDEN
 62
     9
100
AcDbSpline
 70
     0
 71
     3
 72
     9
 73
     5
 74
     0
 42
0.0000000001
 43
0.0000000001
 40
0.6153765629407717
 40
0.6153765629407717
 40
0.6153765629407717
 40
0.6153765629407717
 40
1.273309223145197
 40
1.94829804941258
 40
1.94829804941258
 40
1.94829804941258
 40
1.94829804941258
 10
110.4090914555722
 20
37.44573201248647
 30
-0.0777763480490839
 10
110.42549962263
 20
37.70130433681547
 30
-0.1319923278467172
 10
110.5895956107572
 20
38.31414601571663
 30
-0.1306382359488616
 10
111.4111401313108
 20
38.36030051201169
 30
-0.1918876539088172
 10
111.4616481715303
 20
38.3421862921817
 30
-0.0256803940610899
  0
SPLINE
  5
83
330
2
100
AcDbEntity
  8
0
 48
0.1
100
AcDbSpline
210
0.0
220
0.0
230
1.0
 70
     8
 71
     3
 72
    10
 73
     6
 74
     4
 42
0.0000000001
 43
0.0000000001
 44
0.0000000001
 12
-0.0840059785966065
 22
-0.9964652505531875
 32
0.0
 13
-0.0934873802387397
 23
-0.9956204647033413
 33
0.0
 40
0.0
 40
0.0
 40
0.0
 40
0.0
 40
0.9014634420016458
 40
1.304025715373388
 40
2.06573492541978
 40
2.06573492541978
 40
2.06573492541978
 40
2.06573492541978
 10
110.4990062845427
 20
34.38864124761318
 30
0.0
 10
110.4737635116712
 20
34.08921558274694
 30
0.0
 10
110.5023366999148
 20
33.39963171811511
 30
0.0
 10
109.6877648612012
 20
33.58458737232926
 30
0.0
 10
109.4258105897389
 20
33.12373642213126
 30
0.0
 10
109.4020738568886
 20
32.87094532957286
 30
0.0
 11
110.4990062845427
 21
34.38864124761318
 31
0.0
 11
110.2538798776601
 21
33.52114520617305
 31
0.0
 11
109.8529550676027
 21
33.48487289410673
 31
0.0
 11
109.4020738568886
 21
32.87094532957286
 31
0.0
  0
SPLINE
  5
84
330
2
100
AcDbEntity
  8
0
 48
0.1
100
AcDbSpline
210
0.0
220
0.0
230
1.0
 70
     8
 71
     3
 72
    10
 73
     6
 74
     0
 42
0.0000000001
 43
0.0000000001
 40
0.0
 40
0.0
 40
0.0
 40
0.0
 40
0.7261807570757185
 40
1.103047293837589
 40
1.639158202722391
 40
1.639158202722391
 40
1.639158202722391
 40
1.639158202722391
 10
112.496573992822
 20
34.38864124761318
 30
0.0
 10
112.4359307079397
 20
34.07352741803009
 30
0.0
 10
112.4091149190902
 20
33.71395154036878
 30
0.0
 10
112.0011488009023
 20
33.48067633572412
 30
0.0
 10
111.7859707350493
 20
33.49867554264213
 30
0.0
 10
111.2738314378561
 20
33.49867554263409
 30
0.0
  0
ARC
  5
85
330
2
100
AcDbEntity
  8
0
  6
HIDDEN
 62
     9
100
AcDbCircle
 10
-106.6020189664907
 20
-40.45936474925781
 30
29.01262146068431
 40
0.5000000000000004
210
0.0631121713026928
220
0.5685412912349133
230
0.8202302445011383
100
AcDbArc
 50
273.3051921518265
 51
3.305192151829738
  0
ARC
  5
86
330
2
100
AcDbEntity
  8
0
  6
HIDDEN
 62
     9
100
AcDbCircle
 10
-106.6020189664907
 20
-40.45936474925781
 30
29.01262146068431
 40
0.5000000000000004
210
0.0631121713026928
220
0.5685412912349133
230
0.8202302445011383
100
AcDbArc
 50
273.3051921518265
 51
3.305192151829738
  0
ARC
  5
87
330
2
100
AcDbEntity
  8
0
  6
HIDDEN
 62
     9
100
AcDbCircle
 10
44.80712239239014
 20
3.546040638288696
 30
109.7573610550232
 40
0.5000000000000001
210
0.9974592945578699
220
-0.0631447164290244
230
-0.0329803045348955
100
AcDbArc
 50
55.15259060886362
 51
145.1525906088633
  0
LINE
  5
88
330
2
100
AcDbEntity
  8
0
  6
HIDDEN
 62
     9
100
AcDbLine
 10
112.4576449025886
 20
38.06389143417177
 30
0.3343955282360689
 11
111.4601856080308
 21
38.12703615060081
 31
0.3673758327709429
  0
LINE
  5
89
330
2
100
AcDbEntity
  8
0
  6
HIDDEN
 62
     9
100
AcDbLine
 10
112.4576449025886
 20
38.06389143417177
 30
0.3343955282360689
 11
111.4601856080308
 21
38.12703615060081
 31
0.3673758327709429
210
0.0631121713026928
220
0.5685412912349133
230
0.8202302445011383
  0
ARC
  5
8A
330
2
100
AcDbEntity
  8
0
  6
HIDDEN
 62
     9
100
AcDbCircle
 10
-86.4154669176276
 20
19.63729069279274
 30
26.77328505835569
 40
0.5000000000000001
210
-0.0330425412699397
220
0.8202277396845564
230
-0.571081995442325
100
AcDbArc
 50
357.6974576176484
 51
87.69745761764861
  0
ARC
  5
8B
330
2
100
AcDbEntity
  8
0
  6
HIDDEN
 62
     9
100
AcDbCircle
 10
-86.4154669176276
 20
19.63729069279274
 30
26.77328505835569
 40
0.5000000000000001
210
-0.0330425412699397
220
0.8202277396845564
230
-0.571081995442325
100
AcDbArc
 50
357.6974576176484
 51
87.69745761764861
  0
ARC
  5
8C
330
2
100
AcDbEntity
  8
0
  6
HIDDEN
 62
     9
100
AcDbCircle
 10
-109.3154822861434
 20
24.14023897366896
 30
33.24597874193109
 40
0.5000000000000001
210
0.0330425412699401
220
0.8202277396845564
230
-0.571081995442325
100
AcDbArc
 50
92.3025423823514
 51
182.3025423823516
  0
ARC
  5
8D
330
2
100
AcDbEntity
  8
0
  6
HIDDEN
 62
     9
100
AcDbCircle
 10
-109.3154822861434
 20
24.14023897366896
 30
33.24597874193109
 40
0.5000000000000001
210
0.0330425412699401
220
0.8202277396845564
230
-0.571081995442325
100
AcDbArc
 50
92.3025423823514
 51
182.3025423823516
  0
LINE
  5
8E
330
2
100
AcDbEntity
  8
0
 48
0.1
100
AcDbLine
 10
116.0698528292207
 20
39.50163878276626
 30
0.0
 11
80.0698528292207
 21
39.50163878276628
 31
0.0
  0
LINE
  5
8F
330
2
100
AcDbEntity
  8
0
 48
0.1
100
AcDbLine
 10
115.5698528292207
 20
41.00163878276626
 30
0.0
 11
80.56985282922068
 21
41.00163878276627
 31
0.0
  0
LINE
  5
90
330
2
100
AcDbEntity
  8
0
100
AcDbLine
 10
80.0698528292207
 20
40.50163878276627
 30
0.0
 11
80.0698528292207
 21
39.50163878276628
 31
0.0
  0
ARC
  5
91
330
2
100
AcDbEntity
  8
0
100
AcDbCircle
 10
80.5698528292207
 20
40.50163878276626
 30
0.0
 40
0.5
100
AcDbArc
 50
89.99999999999998
 51
180.0
  0
LINE
  5
92
330
2
100
AcDbEntity
  8
0
100
AcDbLine
 10
116.0698528292207
 20
40.50163878276626
 30
0.0
 11
116.0698528292207
 21
39.50163878276626
 31
0.0
  0
ARC
  5
93
330
2
100
AcDbEntity
  8
0
100
AcDbCircle
 10
115.5698528292207
 20
40.50163878276626
 30
0.0
 40
0.5
100
AcDbArc
 50
0.0000000000000127
 51
89.99999999999998
  0
ENDSEC
  0
SECTION
  2
OBJECTS
  0
DICTIONARY
  5
7
330
0
100
AcDbDictionary
  3
ACAD_GROUP
350
27
  3
ACAD_LAYOUT
350
B
  3
ACAD_MLINESTYLE
350
28
  3
ACAD_PLOTSETTINGS
350
29
  3
ACAD_PLOTSTYLENAME
350
6
  3
ACDBHEADERROUNDTRIPXREC
350
214
  3
ACDBVARIABLEDICTIONARY
350
94
  3
ASE_INDEX_DICTIONARY
350
9C
  0
DICTIONARY
  5
11
330
10
100
AcDbDictionary
280
     1
  3
ACAD_LAYERFILTERS
360
12
  0
DICTIONARY
  5
B3
330
2
100
AcDbDictionary
280
     1
  3
ACAD_LAYOUTSELFREF
360
235
  0
DICTIONARY
  5
B5
330
A8
100
AcDbDictionary
280
     1
  3
ACAD_LAYOUTSELFREF
360
236
  0
DICTIONARY
  5
27
102
{ACAD_REACTORS
330
7
102
}
330
7
100
AcDbDictionary
  0
DICTIONARY
  5
B
102
{ACAD_REACTORS
330
7
102
}
330
7
100
AcDbDictionary
  0
DICTIONARY
  5
28
102
{ACAD_REACTORS
330
7
102
}
330
7
100
AcDbDictionary
  3
STANDARD
350
2C
  0
DICTIONARY
  5
29
102
{ACAD_REACTORS
330
7
102
}
330
7
100
AcDbDictionary
  0
ACDBDICTIONARYWDFLT
  5
6
102
{ACAD_REACTORS
330
7
102
}
330
7
100
AcDbDictionary
281
     1
  3
Normal
350
5
100
AcDbDictionaryWithDefault
340
5
  0
DICTIONARY
  5
214
102
{ACAD_REACTORS
330
7
102
}
330
7
100
AcDbDictionary
  3
CEPSNTYPE
350
21E
  3
DIMSTYLEDATA
350
222
  3
FINGERPRINTGUID
350
21F
  3
HYPERLINKBASE
350
217
  3
INSUNITS
350
21D
  3
LAYOUTDICT
350
219
  3
LWETCUNION
350
21C
  3
PLOTSETDICT
350
21A
  3
PLOTSTYLNAMDICT
350
21B
  3
PSVPSCALE
350
221
  3
PUCSBASE
350
225
  3
PUCSORGBACK
350
22B
  3
PUCSORGBOTTOM
350
227
  3
PUCSORGFRONT
350
22A
  3
PUCSORGLEFT
350
228
  3
PUCSORGRIGHT
350
229
  3
PUCSORGTOP
350
226
  3
PUCSORTHOREF
350
223
  3
PUCSORTHOVIEW
350
224
  3
STYLESHEET
350
218
  3
TSTACKALIGN
350
215
  3
TSTACKSIZE
350
216
  3
UCSBASE
350
22E
  3
UCSORGBACK
350
234
  3
UCSORGBOTTOM
350
230
  3
UCSORGFRONT
350
233
  3
UCSORGLEFT
350
231
  3
UCSORGRIGHT
350
232
  3
UCSORGTOP
350
22F
  3
UCSORTHOREF
350
22C
  3
UCSORTHOVIEW
350
22D
  3
VERSIONGUID
350
220
  0
DICTIONARY
  5
94
102
{ACAD_REACTORS
330
7
102
}
330
7
100
AcDbDictionary
  3
DIMASSOC
350
96
  3
HIDETEXT
350
95
  0
DICTIONARY
  5
9C
102
{ACAD_REACTORS
330
7
102
}
330
7
100
AcDbDictionary
1001
DCO15
1040
1542957431.341999
  0
DICTIONARY
  5
12
102
{ACAD_REACTORS
330
11
102
}
330
11
100
AcDbDictionary
280
     1
  3
DIM-1_12
360
13
  3
DIM-1_16
360
14
  0
XRECORD
  5
235
102
{ACAD_REACTORS
330
B3
102
}
330
B3
100
AcDbXrecord
340
2
  0
XRECORD
  5
236
102
{ACAD_REACTORS
330
B5
102
}
330
B5
100
AcDbXrecord
340
A8
  0
MLINESTYLE
  5
2C
102
{ACAD_REACTORS
330
28
102
}
330
28
100
AcDbMlineStyle
  2
STANDARD
 70
     0
  3

 62
   256
 51
90.0
 52
90.0
 71
     2
 49
0.5
 62
   256
  6
BYLAYER
 49
-0.5
 62
   256
  6
BYLAYER
  0
ACDBPLACEHOLDER
  5
5
102
{ACAD_REACTORS
330
6
102
}
330
6
100
AcDbPlaceHolder
280
     0
  0
XRECORD
  5
21E
102
{ACAD_REACTORS
330
214
102
}
330
214
100
AcDbXrecord
 90
        0
  0
XRECORD
  5
222
102
{ACAD_REACTORS
330
214
102
}
330
214
100
AcDbXrecord
1000
DSTYLE
1002
{
1070
    79
 70
     1
1070
   276
 70
     1
1070
   277
 70
     5
1002
}
  0
XRECORD
  5
21F
102
{ACAD_REACTORS
330
214
102
}
330
214
100
AcDbXrecord
  1
{6A4AC8E0-4F58-11D5-8420-0003476D26AB}
  0
XRECORD
  5
217
102
{ACAD_REACTORS
330
214
102
}
330
214
100
AcDbXrecord
  1

  0
XRECORD
  5
21D
102
{ACAD_REACTORS
330
214
102
}
330
214
100
AcDbXrecord
 90
        1
  0
XRECORD
  5
219
102
{ACAD_REACTORS
330
214
102
}
330
214
100
AcDbXrecord
340
B
  0
XRECORD
  5
21C
102
{ACAD_REACTORS
330
214
102
}
330
214
100
AcDbXrecord
 90
    10781
  0
XRECORD
  5
21A
102
{ACAD_REACTORS
330
214
102
}
330
214
100
AcDbXrecord
340
29
  0
XRECORD
  5
21B
102
{ACAD_REACTORS
330
214
102
}
330
214
100
AcDbXrecord
340
6
  0
XRECORD
  5
221
102
{ACAD_REACTORS
330
214
102
}
330
214
100
AcDbXrecord
 40
0.0
  0
XRECORD
  5
225
102
{ACAD_REACTORS
330
214
102
}
330
214
100
AcDbXrecord
340
0
  0
XRECORD
  5
22B
102
{ACAD_REACTORS
330
214
102
}
330
214
100
AcDbXrecord
 10
0.0
 20
0.0
 30
0.0
  0
XRECORD
  5
227
102
{ACAD_REACTORS
330
214
102
}
330
214
100
AcDbXrecord
 10
0.0
 20
0.0
 30
0.0
  0
XRECORD
  5
22A
102
{ACAD_REACTORS
330
214
102
}
330
214
100
AcDbXrecord
 10
0.0
 20
0.0
 30
0.0
  0
XRECORD
  5
228
102
{ACAD_REACTORS
330
214
102
}
330
214
100
AcDbXrecord
 10
0.0
 20
0.0
 30
0.0
  0
XRECORD
  5
229
102
{ACAD_REACTORS
330
214
102
}
330
214
100
AcDbXrecord
 10
0.0
 20
0.0
 30
0.0
  0
XRECORD
  5
226
102
{ACAD_REACTORS
330
214
102
}
330
214
100
AcDbXrecord
 10
0.0
 20
0.0
 30
0.0
  0
XRECORD
  5
223
102
{ACAD_REACTORS
330
214
102
}
330
214
100
AcDbXrecord
340
0
  0
XRECORD
  5
224
102
{ACAD_REACTORS
330
214
102
}
330
214
100
AcDbXrecord
 70
     0
  0
XRECORD
  5
218
102
{ACAD_REACTORS
330
214
102
}
330
214
100
AcDbXrecord
  1

  0
XRECORD
  5
215
102
{ACAD_REACTORS
330
214
102
}
330
214
100
AcDbXrecord
 90
        1
  0
XRECORD
  5
216
102
{ACAD_REACTORS
330
214
102
}
330
214
100
AcDbXrecord
 90
       70
  0
XRECORD
  5
22E
102
{ACAD_REACTORS
330
214
102
}
330
214
100
AcDbXrecord
340
0
  0
XRECORD
  5
234
102
{ACAD_REACTORS
330
214
102
}
330
214
100
AcDbXrecord
 10
0.0
 20
0.0
 30
0.0
  0
XRECORD
  5
230
102
{ACAD_REACTORS
330
214
102
}
330
214
100
AcDbXrecord
 10
0.0
 20
0.0
 30
0.0
  0
XRECORD
  5
233
102
{ACAD_REACTORS
330
214
102
}
330
214
100
AcDbXrecord
 10
0.0
 20
0.0
 30
0.0
  0
XRECORD
  5
231
102
{ACAD_REACTORS
330
214
102
}
330
214
100
AcDbXrecord
 10
0.0
 20
0.0
 30
0.0
  0
XRECORD
  5
232
102
{ACAD_REACTORS
330
214
102
}
330
214
100
AcDbXrecord
 10
0.0
 20
0.0
 30
0.0
  0
XRECORD
  5
22F
102
{ACAD_REACTORS
330
214
102
}
330
214
100
AcDbXrecord
 10
0.0
 20
0.0
 30
0.0
  0
XRECORD
  5
22C
102
{ACAD_REACTORS
330
214
102
}
330
214
100
AcDbXrecord
340
0
  0
XRECORD
  5
22D
102
{ACAD_REACTORS
330
214
102
}
330
214
100
AcDbXrecord
 70
     0
  0
XRECORD
  5
220
102
{ACAD_REACTORS
330
214
102
}
330
214
100
AcDbXrecord
  1
{8608E710-5C42-49C3-8F47-F91EE04E1455}
  0
DICTIONARYVAR
  5
96
102
{ACAD_REACTORS
330
94
102
}
330
94
100
DictionaryVariables
280
     0
  1
1
  0
DICTIONARYVAR
  5
95
102
{ACAD_REACTORS
330
94
102
}
330
94
100
DictionaryVariables
280
     0
  1
1
  0
XRECORD
  5
13
102
{ACAD_REACTORS
330
12
102
}
330
12
100
AcDbXrecord
  1
DIM-1_12
  1
DIM-1_12
  1
*
  1
*
 70
     0
  1
*
  1
*
  0
XRECORD
  5
14
102
{ACAD_REACTORS
330
12
102
}
330
12
100
AcDbXrecord
  1
dim-1_16
  1
*
  1
*
  1
*
 70
     0
  1
*
  1
*
  0
ENDSEC
  0
EOF
