  0
SECTION
  2
HEADER
  9
$ACADVER
  1
AC1014
  9
$ACADMAINTVER
 70
     9
  9
$DWGCODEPAGE
  3
ANSI_1252
  9
$INSBASE
 10
58.39133505244063
 20
20.75163878276628
 30
0.0
  9
$EXTMIN
 10
-3.964818004244989
 20
17.47955342458164
 30
-0.9810459455798747
  9
$EXTMAX
 10
67.75523659955513
 20
41.11220422732379
 30
1.487355651279656
  9
$LIMMIN
 10
0.0
 20
0.0
  9
$LIMMAX
 10
187.3118571637889
 20
134.3269220688476
  9
$ORTHOMODE
 70
     1
  9
$REGENMODE
 70
     1
  9
$FILLMODE
 70
     1
  9
$QTEXTMODE
 70
     0
  9
$MIRRTEXT
 70
     1
  9
$DRAGMODE
 70
     2
  9
$LTSCALE
 40
2.0
  9
$OSMODE
 70
    55
  9
$ATTMODE
 70
     1
  9
$TEXTSIZE
 40
0.06
  9
$TRACEWID
 40
1.0
  9
$TEXTSTYLE
  7
CARTOUCHE
  9
$CLAYER
  8
0
  9
$CELTYPE
  6
BYLAYER
  9
$CECOLOR
 62
   256
  9
$CELTSCALE
 40
0.1
  9
$DELOBJ
 70
     1
  9
$DISPSILH
 70
     0
  9
$DIMSCALE
 40
16.0
  9
$DIMASZ
 40
0.1
  9
$DIMEXO
 40
0.0625
  9
$DIMDLI
 40
0.25
  9
$DIMRND
 40
0.0
  9
$DIMDLE
 40
0.0
  9
$DIMEXE
 40
0.1
  9
$DIMTP
 40
0.0
  9
$DIMTM
 40
0.0
  9
$DIMTXT
 40
0.1
  9
$DIMCEN
 40
0.0625
  9
$DIMTSZ
 40
0.0
  9
$DIMTOL
 70
     0
  9
$DIMLIM
 70
     0
  9
$DIMTIH
 70
     1
  9
$DIMTOH
 70
     1
  9
$DIMSE1
 70
     0
  9
$DIMSE2
 70
     0
  9
$DIMTAD
 70
     0
  9
$DIMZIN
 70
    12
  9
$DIMBLK
  1

  9
$DIMASO
 70
     1
  9
$DIMSHO
 70
     1
  9
$DIMPOST
  1
\X
  9
$DIMAPOST
  1
cm
  9
$DIMALT
 70
     1
  9
$DIMALTD
 70
     1
  9
$DIMALTF
 40
2.54
  9
$DIMLFAC
 40
1.0
  9
$DIMTOFL
 70
     0
  9
$DIMTVP
 40
0.0
  9
$DIMTIX
 70
     0
  9
$DIMSOXD
 70
     0
  9
$DIMSAH
 70
     0
  9
$DIMBLK1
  1

  9
$DIMBLK2
  1

  9
$DIMSTYLE
  2
STANDARD
  9
$DIMCLRD
 70
     0
  9
$DIMCLRE
 70
     0
  9
$DIMCLRT
 70
     0
  9
$DIMTFAC
 40
1.0
  9
$DIMGAP
 40
0.08
  9
$DIMJUST
 70
     0
  9
$DIMSD1
 70
     0
  9
$DIMSD2
 70
     0
  9
$DIMTOLJ
 70
     1
  9
$DIMTZIN
 70
     4
  9
$DIMALTZ
 70
    12
  9
$DIMALTTZ
 70
     4
  9
$DIMFIT
 70
     3
  9
$DIMUPT
 70
     0
  9
$DIMUNIT
 70
     5
  9
$DIMDEC
 70
     3
  9
$DIMTDEC
 70
     3
  9
$DIMALTU
 70
     2
  9
$DIMALTTD
 70
     1
  9
$DIMTXSTY
  7
ROMANS
  9
$DIMAUNIT
 70
     0
  9
$LUNITS
 70
     2
  9
$LUPREC
 70
     2
  9
$SKETCHINC
 40
1.0
  9
$FILLETRAD
 40
3.0
  9
$AUNITS
 70
     0
  9
$AUPREC
 70
     0
  9
$MENU
  1
.
  9
$ELEVATION
 40
0.0
  9
$PELEVATION
 40
0.0
  9
$THICKNESS
 40
0.0
  9
$LIMCHECK
 70
     0
  9
$BLIPMODE
 70
     0
  9
$CHAMFERA
 40
10.0
  9
$CHAMFERB
 40
10.0
  9
$CHAMFERC
 40
20.0
  9
$CHAMFERD
 40
0.0
  9
$SKPOLY
 70
     0
  9
$TDCREATE
 40
2452053.367185764
  9
$TDUPDATE
 40
2453689.406113542
  9
$TDINDWG
 40
2.0858252546
  9
$TDUSRTIMER
 40
2.0858221296
  9
$USRTIMER
 70
     1
  9
$ANGBASE
 50
0.0
  9
$ANGDIR
 70
     0
  9
$PDMODE
 70
    33
  9
$PDSIZE
 40
0.25
  9
$PLINEWID
 40
0.0
  9
$COORDS
 70
     1
  9
$SPLFRAME
 70
     0
  9
$SPLINETYPE
 70
     6
  9
$SPLINESEGS
 70
     8
  9
$ATTDIA
 70
     0
  9
$ATTREQ
 70
     1
  9
$HANDLING
 70
 22529
  9
$HANDSEED
  5
19D
  9
$SURFTAB1
 70
     6
  9
$SURFTAB2
 70
     6
  9
$SURFTYPE
 70
     6
  9
$SURFU
 70
     6
  9
$SURFV
 70
     6
  9
$UCSNAME
  2

  9
$UCSORG
 10
0.0
 20
0.0
 30
0.0
  9
$UCSXDIR
 10
1.0
 20
0.0
 30
0.0
  9
$UCSYDIR
 10
0.0
 20
1.0
 30
0.0
  9
$PUCSNAME
  2

  9
$PUCSORG
 10
0.0
 20
0.0
 30
0.0
  9
$PUCSXDIR
 10
1.0
 20
0.0
 30
0.0
  9
$PUCSYDIR
 10
0.0
 20
1.0
 30
0.0
  9
$USERI1
 70
     0
  9
$USERI2
 70
     0
  9
$USERI3
 70
     0
  9
$USERI4
 70
     0
  9
$USERI5
 70
     0
  9
$USERR1
 40
0.0
  9
$USERR2
 40
0.0
  9
$USERR3
 40
0.0
  9
$USERR4
 40
0.0
  9
$USERR5
 40
0.0
  9
$WORLDVIEW
 70
     1
  9
$SHADEDGE
 70
     3
  9
$SHADEDIF
 70
    70
  9
$TILEMODE
 70
     1
  9
$MAXACTVP
 70
    48
  9
$PINSBASE
 10
0.0
 20
0.0
 30
0.0
  9
$PLIMCHECK
 70
     0
  9
$PEXTMIN
 10
0.0
 20
0.0
 30
0.0
  9
$PEXTMAX
 10
0.0
 20
0.0
 30
0.0
  9
$PLIMMIN
 10
0.0
 20
0.0
  9
$PLIMMAX
 10
12.0
 20
9.0
  9
$UNITMODE
 70
     0
  9
$VISRETAIN
 70
     1
  9
$PLINEGEN
 70
     0
  9
$PSLTSCALE
 70
     1
  9
$TREEDEPTH
 70
  3020
  9
$PICKSTYLE
 70
     1
  9
$CMLSTYLE
  2
STANDARD
  9
$CMLJUST
 70
     0
  9
$CMLSCALE
 40
20.0
  9
$PROXYGRAPHICS
 70
     1
  9
$MEASUREMENT
 70
     0
  0
ENDSEC
  0
SECTION
  2
CLASSES
  0
CLASS
  1
ACDBDICTIONARYWDFLT
  2
AcDbDictionaryWithDefault
  3
AutoCAD 2000
 90
        0
280
     0
281
     0
  0
CLASS
  1
ACDBPLACEHOLDER
  2
AcDbPlaceHolder
  3
AutoCAD 2000
 90
        0
280
     0
281
     0
  0
CLASS
  1
LAYOUT
  2
AcDbLayout
  3
AutoCAD 2000
 90
        0
280
     0
281
     0
  0
CLASS
  1
DICTIONARYVAR
  2
AcDbDictionaryVar
  3
AutoCAD 2000
 90
        0
280
     0
281
     0
  0
CLASS
  1
IMAGEDEF
  2
AcDbRasterImageDef
  3
ISM
 90
        0
280
     0
281
     0
  0
CLASS
  1
LONG_TRANSACTION
  2
AcDbLongTransaction
  3
AutoCAD 2000
 90
        0
280
     0
281
     0
  0
CLASS
  1
LWPOLYLINE
  2
AcDbPolyline
  3
AutoCAD 2000
 90
        0
280
     0
281
     1
  0
CLASS
  1
HATCH
  2
AcDbHatch
  3
AutoCAD 2000
 90
        0
280
     0
281
     1
  0
CLASS
  1
XRECORD
  2
AcDbXrecord
  3
AutoCAD 2000
 90
        0
280
     0
281
     0
  0
CLASS
  1
LONG_TRANSACTION
  2
AcDbLongTransaction
  3
AutoCAD 2000
 90
        0
280
     0
281
     0
  0
CLASS
  1
LWPOLYLINE
  2
AcDbPolyline
  3
AutoCAD 2000
 90
        0
280
     0
281
     1
  0
CLASS
  1
HATCH
  2
AcDbHatch
  3
AutoCAD 2000
 90
        0
280
     0
281
     1
  0
CLASS
  1
XRECORD
  2
AcDbXrecord
  3
AutoCAD 2000
 90
        0
280
     0
281
     0
  0
CLASS
  1
LONG_TRANSACTION
  2
AcDbLongTransaction
  3
AutoCAD 2000
 90
        0
280
     0
281
     0
  0
CLASS
  1
LWPOLYLINE
  2
AcDbPolyline
  3
AutoCAD 2000
 90
        0
280
     0
281
     1
  0
CLASS
  1
HATCH
  2
AcDbHatch
  3
AutoCAD 2000
 90
        0
280
     0
281
     1
  0
CLASS
  1
XRECORD
  2
AcDbXrecord
  3
AutoCAD 2000
 90
        0
280
     0
281
     0
  0
ENDSEC
  0
SECTION
  2
TABLES
  0
TABLE
  2
VPORT
  5
1D
330
0
100
AcDbSymbolTable
 70
     3
  0
VPORT
  5
179
330
1D
100
AcDbSymbolTableRecord
100
AcDbViewportTableRecord
  2
*ACTIVE
 70
     0
 10
0.0
 20
0.0
 11
1.0
 21
1.0
 12
31.8952092718313
 22
29.29587874382273
 13
0.0
 23
0.0
 14
10.0
 24
10.0
 15
10.0
 25
10.0
 16
0.0
 26
0.0
 36
1.0
 17
0.0
 27
0.0
 37
0.0
 40
47.66353865205381
 41
1.786792452830188
 42
50.0
 43
0.0
 44
0.0
 50
0.0
 51
0.0
 71
     0
 72
   100
 73
     1
 74
     3
 75
     0
 76
     0
 77
     0
 78
     2
  0
ENDTAB
  0
TABLE
  2
LTYPE
  5
18
330
0
100
AcDbSymbolTable
 70
     3
  0
LTYPE
  5
19
330
18
100
AcDbSymbolTableRecord
100
AcDbLinetypeTableRecord
  2
BYBLOCK
 70
     0
  3

 72
    65
 73
     0
 40
0.0
  0
LTYPE
  5
1A
330
18
100
AcDbSymbolTableRecord
100
AcDbLinetypeTableRecord
  2
BYLAYER
 70
     0
  3

 72
    65
 73
     0
 40
0.0
  0
LTYPE
  5
8
330
18
100
AcDbSymbolTableRecord
100
AcDbLinetypeTableRecord
  2
CONTINUOUS
 70
     0
  3
Solid line
 72
    65
 73
     0
 40
0.0
  0
LTYPE
  5
3B
330
18
100
AcDbSymbolTableRecord
100
AcDbLinetypeTableRecord
  2
CENTER
 70
     0
  3
Center ____ _ ____ _ ____ _ ____ _ ____ _ ____
 72
    65
 73
     4
 40
50.8
 49
31.75
 74
     0
 49
-6.349999999999999
 74
     0
 49
6.349999999999999
 74
     0
 49
-6.349999999999999
 74
     0
  0
LTYPE
  5
42
330
18
100
AcDbSymbolTableRecord
100
AcDbLinetypeTableRecord
  2
HIDDEN
 70
     0
  3
Hidden __ __ __ __ __ __ __ __ __ __ __ __ __ _
 72
    65
 73
     2
 40
0.375
 49
0.25
 74
     0
 49
-0.125
 74
     0
  0
ENDTAB
  0
TABLE
  2
LAYER
  5
10
102
{ACAD_XDICTIONARY
360
11
102
}
330
0
100
AcDbSymbolTable
 70
     3
  0
LAYER
  5
4
330
10
100
AcDbSymbolTableRecord
100
AcDbLayerTableRecord
  2
0
 70
     0
 62
     7
  6
CONTINUOUS
  0
LAYER
  5
3A
330
10
100
AcDbSymbolTableRecord
100
AcDbLayerTableRecord
  2
CENTER
 70
     0
 62
     1
  6
CENTER
  0
LAYER
  5
124
330
10
100
AcDbSymbolTableRecord
100
AcDbLayerTableRecord
  2
DEFPOINTS
 70
     0
 62
     7
  6
CONTINUOUS
  0
ENDTAB
  0
TABLE
  2
STYLE
  5
15
330
0
100
AcDbSymbolTable
 70
     3
  0
STYLE
  5
16
330
15
100
AcDbSymbolTableRecord
100
AcDbTextStyleTableRecord
  2
STANDARD
 70
     0
 40
0.0
 41
1.0
 50
0.0
 71
     0
 42
0.125
  3
txt
  4

  0
STYLE
  5
2A
330
15
100
AcDbSymbolTableRecord
100
AcDbTextStyleTableRecord
  2
CARTOUCHE
 70
     0
 40
0.0
 41
1.0
 50
0.0
 71
     0
 42
0.06
  3
romans.shx
  4

  0
STYLE
  5
23
330
15
100
AcDbSymbolTableRecord
100
AcDbTextStyleTableRecord
  2
ROMANS
 70
     0
 40
0.0
 41
1.0
 50
0.0
 71
     0
 42
1.0
  3
romans.shx
  4

  0
ENDTAB
  0
TABLE
  2
VIEW
  5
1B
330
0
100
AcDbSymbolTable
 70
     0
  0
ENDTAB
  0
TABLE
  2
UCS
  5
1C
330
0
100
AcDbSymbolTable
 70
     0
  0
ENDTAB
  0
TABLE
  2
APPID
  5
1F
330
0
100
AcDbSymbolTable
 70
     3
  0
APPID
  5
20
330
1F
100
AcDbSymbolTableRecord
100
AcDbRegAppTableRecord
  2
ACAD
 70
     0
  0
APPID
  5
78
330
1F
100
AcDbSymbolTableRecord
100
AcDbRegAppTableRecord
  2
DCO15
 70
     0
  0
APPID
  5
114
330
1F
100
AcDbSymbolTableRecord
100
AcDbRegAppTableRecord
  2
ACADASER13
 70
     0
 71
     1
  0
ENDTAB
  0
TABLE
  2
DIMSTYLE
  5
21
330
0
100
AcDbSymbolTable
 70
     1
  0
DIMSTYLE
105
22
330
21
100
AcDbSymbolTableRecord
100
AcDbDimStyleTableRecord
  2
STANDARD
 70
     0
  3
\X
  4
cm
  5

  6

  7

 40
16.0
 41
0.1
 42
0.0625
 43
0.25
 44
0.1
 45
0.0
 46
0.0
 47
0.0
 48
0.0
140
0.1
141
0.0625
142
0.0
143
2.54
144
1.0
145
0.0
146
1.0
147
0.08
 71
     0
 72
     0
 73
     1
 74
     1
 75
     0
 76
     0
 77
     0
 78
    12
170
     1
171
     1
172
     0
173
     0
174
     0
175
     0
176
     0
177
     0
178
     0
270
     5
271
     3
272
     3
273
     2
274
     1
340
23
275
     0
280
     0
281
     0
282
     0
283
     1
284
     4
285
    12
286
     4
287
     3
288
     0
  0
ENDTAB
  0
TABLE
  2
BLOCK_RECORD
  5
1
330
0
100
AcDbSymbolTable
 70
     1
  0
BLOCK_RECORD
  5
2
102
{ACAD_XDICTIONARY
360
8A
102
}
330
1
100
AcDbSymbolTableRecord
100
AcDbBlockTableRecord
  2
*MODEL_SPACE
  0
BLOCK_RECORD
  5
7F
102
{ACAD_XDICTIONARY
360
8C
102
}
330
1
100
AcDbSymbolTableRecord
100
AcDbBlockTableRecord
  2
*PAPER_SPACE
  0
ENDTAB
  0
ENDSEC
  0
SECTION
  2
BLOCKS
  0
BLOCK
  5
3
330
2
100
AcDbEntity
  8
0
100
AcDbBlockBegin
  2
*MODEL_SPACE
 70
     0
 10
0.0
 20
0.0
 30
0.0
  3
*MODEL_SPACE
  1

  0
ENDBLK
  5
9
330
2
100
AcDbEntity
  8
0
100
AcDbBlockEnd
  0
BLOCK
  5
81
330
7F
100
AcDbEntity
 67
     1
  8
0
 48
0.1
100
AcDbBlockBegin
  2
*PAPER_SPACE
 70
     0
 10
0.0
 20
0.0
 30
0.0
  3
*PAPER_SPACE
  1

  0
ENDBLK
  5
82
330
7F
100
AcDbEntity
 67
     1
  8
0
 48
0.1
100
AcDbBlockEnd
  0
ENDSEC
  0
SECTION
  2
ENTITIES
  0
LINE
  5
2C
330
2
100
AcDbEntity
  8
0
 48
0.1
100
AcDbLine
 10
54.18798315475115
 20
20.75163878276628
 30
0.0
 11
11.18936022351241
 21
20.75163878276628
 31
0.0
  0
LINE
  5
2D
330
2
100
AcDbEntity
  8
0
 48
0.1
100
AcDbLine
 10
58.24988723490993
 20
21.76803508659917
 30
0.0
 11
9.125625286442613
 21
22.64295733338864
 31
0.0
  0
LINE
  5
2E
330
2
100
AcDbEntity
  8
0
100
AcDbLine
 10
-3.358664947559361
 20
41.00163878276627
 30
0.0
 11
67.14133505244063
 21
41.00163878276627
 31
0.0
  0
LINE
  5
2F
330
2
100
AcDbEntity
  8
0
100
AcDbLine
 10
-3.858664947559361
 20
39.50163878276627
 30
0.0
 11
67.64133505244064
 21
39.50163878276628
 31
0.0
  0
LINE
  5
30
330
2
100
AcDbEntity
  8
0
 48
0.1
100
AcDbLine
 10
-0.3877194543628519
 20
39.50163878276627
 30
0.0
 11
6.437346132826661
 21
24.42229048963042
 31
0.0
  0
ARC
  5
31
330
2
100
AcDbEntity
  8
0
 48
0.1
100
AcDbCircle
 10
11.18936022351241
 20
21.75163878276628
 30
0.0
 40
1.0
100
AcDbArc
 50
203.9999999999999
 51
270.0
  0
ARC
  5
32
330
2
100
AcDbEntity
  8
0
 48
0.1
100
AcDbCircle
 10
9.177982505754464
 20
25.64250041885782
 30
0.0
 40
3.0
100
AcDbArc
 50
203.9999999999999
 51
269.0
  0
LINE
  5
33
330
2
100
AcDbEntity
  8
0
 48
0.1
100
AcDbLine
 10
9.805097481863242
 20
22.40215046968154
 30
0.0
 11
10.27581476586981
 21
21.34490213969048
 31
0.0
  0
LINE
  5
34
330
2
100
AcDbEntity
  8
0
100
AcDbLine
 10
-3.858664947559361
 20
40.50163878276626
 30
0.0
 11
-3.858664947559361
 21
39.50163878276627
 31
0.0
  0
ARC
  5
35
330
2
100
AcDbEntity
  8
0
100
AcDbCircle
 10
-3.358664947559361
 20
40.50163878276626
 30
0.0
 40
0.5
100
AcDbArc
 50
89.99999999999998
 51
180.0
  0
LINE
  5
36
330
2
100
AcDbEntity
  8
0
 48
0.1
100
AcDbLine
 10
62.28898013552515
 20
24.4857804253965
 30
0.0
 11
63.12641843129402
 21
33.11167410589312
 31
0.0
  0
ARC
  5
37
330
2
100
AcDbEntity
  8
0
 48
0.1
100
AcDbCircle
 10
58.42252511274601
 20
25.87176953412761
 30
0.0
 40
4.107364149024935
100
AcDbArc
 50
267.591073944824
 51
340.2790162001171
  0
ARC
  5
38
330
2
100
AcDbEntity
  8
0
 48
0.5
100
AcDbCircle
 10
54.18789631726962
 20
21.72183827683764
 30
0.0
 40
0.9701994979575433
100
AcDbArc
 50
270.0051282454913
 51
5.931207026521301
  0
LINE
  5
39
330
2
100
AcDbEntity
  8
CENTER
 48
0.05
100
AcDbLine
 10
58.39133505244063
 20
17.48449540217573
 30
0.0
 11
58.39133505244063
 21
25.01088484754869
 31
0.0
  0
ARC
  5
3C
330
2
100
AcDbEntity
  8
0
 48
0.1
100
AcDbCircle
 10
57.6403281769858
 20
21.50401225488896
 30
0.0
 40
0.25
100
AcDbArc
 50
198.7136489003373
 51
271.0
  0
LINE
  5
3D
330
2
100
AcDbEntity
  8
0
 48
0.1
100
AcDbLine
 10
57.40354470823453
 20
21.42380259882361
 30
0.0
 11
57.28539634430904
 21
21.77258329194585
 31
0.0
  0
LINE
  5
3E
330
2
100
AcDbEntity
  8
0
 48
0.1
100
AcDbLine
 10
57.64469127859512
 20
21.25405033109986
 30
0.0
 11
59.13797882628615
 21
21.24132991862457
 31
0.0
  0
LINE
  5
3F
330
2
100
AcDbEntity
  8
0
 48
0.1
100
AcDbLine
 10
59.37465806615867
 20
21.4111202408319
 30
0.0
 11
59.54754118774474
 21
21.92148105305566
 31
0.0
  0
ARC
  5
40
330
2
100
AcDbEntity
  8
0
 48
0.1
100
AcDbCircle
 10
59.13787459740742
 20
21.49132989689725
 30
0.0
 40
0.250000000000006
100
AcDbArc
 50
270.02388750016
 51
341.2863510996606
  0
ARC
  5
41
330
2
100
AcDbEntity
  8
0
  6
HIDDEN
 62
     9
 48
2.0
100
AcDbCircle
 10
51.15404360011783
 20
1.021304329884052
 30
9.088744476806677
 40
1.0
210
0.8202302445011383
220
-0.5717174623095897
230
0.0190128718474049
100
AcDbArc
 50
265.1323187457909
 51
355.1323187457907
  0
LINE
  5
43
330
2
100
AcDbEntity
  8
0
  6
HIDDEN
 62
     9
 48
2.0
100
AcDbLine
 10
34.64854251262818
 20
33.50163878276628
 30
0.522482255222384
 11
36.8106933430937
 21
36.59294618547273
 31
0.2012745557269593
  0
ARC
  5
44
330
2
100
AcDbEntity
  8
0
  6
HIDDEN
 62
     9
 48
2.0
100
AcDbCircle
 10
51.15404360011786
 20
1.021304329884062
 30
9.2762444768065
 40
1.0
210
0.8202302445011383
220
-0.5717174623095897
230
0.0190128718474049
100
AcDbArc
 50
265.1323187457909
 51
355.1323187457907
  0
LINE
  5
45
330
2
100
AcDbEntity
  8
0
  6
HIDDEN
 62
     9
 48
2.0
100
AcDbLine
 10
38.07743145850778
 20
37.53183318564358
 30
0.0835216454977879
 11
38.11041176304264
 21
37.61227907084394
 31
1.079734855140747
  0
LINE
  5
46
330
2
100
AcDbEntity
  8
0
  6
HIDDEN
 62
     9
 48
2.0
100
AcDbLine
 10
38.07743145850778
 20
37.53183318564358
 30
0.0835216454977879
 11
38.11041176304264
 21
37.61227907084394
 31
1.079734855140747
210
0.8202302445011383
220
-0.5717174623095897
230
0.0190128718474049
  0
ARC
  5
47
330
2
100
AcDbEntity
  8
0
  6
HIDDEN
 62
     9
 48
2.0
100
AcDbCircle
 10
51.15404360011786
 20
1.021304329884062
 30
9.2762444768065
 40
1.0
210
0.8202302445011383
220
-0.5717174623095897
230
0.0190128718474049
100
AcDbArc
 50
265.1323187457909
 51
355.1323187457907
  0
LINE
  5
48
330
2
100
AcDbEntity
  8
0
 48
0.1
100
AcDbLine
 10
63.31618653341223
 20
33.50163878276629
 30
0.0
 11
23.13840843305943
 21
33.50163878276628
 31
0.0
  0
LINE
  5
49
330
2
100
AcDbEntity
  8
0
 48
0.1
100
AcDbLine
 10
63.12641843129404
 20
32.61167410589313
 30
0.0
 11
27.89133504418541
 21
32.61167410589313
 31
0.0
  0
LINE
  5
4A
330
2
100
AcDbEntity
  8
0
  6
HIDDEN
 62
     9
 48
2.0
100
AcDbLine
 10
37.20431831307681
 20
36.26686451171775
 30
-0.2873256131708093
 11
37.77540030851915
 21
37.08336166593484
 31
-0.3721651772727288
210
0.8202302445011383
220
-0.5717174623095897
230
0.0190128718474049
  0
LINE
  5
4B
330
2
100
AcDbEntity
  8
0
  6
HIDDEN
 62
     9
 48
2.0
100
AcDbLine
 10
37.20431831307681
 20
36.26686451171775
 30
-0.2873256131708093
 11
37.77540030851915
 21
37.08336166593484
 31
-0.3721651772727288
  0
LINE
  5
4C
330
2
100
AcDbEntity
  8
0
  6
HIDDEN
 62
     9
 48
2.0
100
AcDbLine
 10
36.80137689317404
 20
37.76227615242747
 30
-0.3947429625915237
 11
36.2302948977317
 21
36.94577899821035
 31
-0.3099033984896042
  0
LINE
  5
4D
330
2
100
AcDbEntity
  8
0
  6
HIDDEN
 62
     9
 48
2.0
100
AcDbLine
 10
34.44305850806781
 20
33.50163878276628
 30
-0.4745162440331341
 11
36.65690017224985
 21
36.70014320965565
 31
0.1977096422555649
  0
ARC
  5
4E
330
2
100
AcDbEntity
  8
0
  6
HIDDEN
 62
     9
 48
2.0
100
AcDbCircle
 10
52.06558201624108
 20
-0.0599438913545293
 30
9.77624447680651
 40
0.5000000000000001
210
0.8202302445011383
220
-0.5717174623095897
230
0.0190128718474049
100
AcDbArc
 50
265.13231874579
 51
355.1323187457899
  0
ARC
  5
4F
330
2
100
AcDbEntity
  8
0
  6
HIDDEN
 62
     9
 48
2.0
100
AcDbCircle
 10
52.06558201624108
 20
-0.0599438913545293
 30
9.77624447680651
 40
0.5000000000000001
210
0.8202302445011383
220
-0.5717174623095897
230
0.0190128718474049
100
AcDbArc
 50
265.13231874579
 51
355.1323187457899
  0
ARC
  5
50
330
2
100
AcDbEntity
  8
0
  6
HIDDEN
 62
     9
 48
2.0
100
AcDbCircle
 10
52.06558201624111
 20
-0.0599438913545385
 30
8.588744476806517
 40
0.5000000000000001
210
0.8202302445011383
220
-0.5717174623095897
230
0.0190128718474049
100
AcDbArc
 50
265.13231874579
 51
332.9560743478523
  0
ARC
  5
51
330
2
100
AcDbEntity
  8
0
  6
HIDDEN
 62
     9
 48
2.0
100
AcDbCircle
 10
-9.013467022116131
 20
4.031018118756474
 30
51.88288458727449
 40
0.5
210
0.5710819954423251
220
0.8164971542170921
230
-0.0848395641019135
100
AcDbArc
 50
272.2081784895243
 51
358.9066345756573
  0
ARC
  5
52
330
2
100
AcDbEntity
  8
0
  6
HIDDEN
 62
     9
 48
2.0
100
AcDbCircle
 10
-9.200932883689286
 20
4.034595931585444
 30
51.88288458727451
 40
0.5
210
0.5710819954423251
220
0.8164971542170921
230
-0.0848395641019135
100
AcDbArc
 50
178.9066345756575
 51
268.9066345756575
  0
SPLINE
  5
53
330
2
100
AcDbEntity
  8
0
 48
0.1
100
AcDbSpline
210
0.0
220
0.0
230
1.0
 70
     8
 71
     3
 72
    10
 73
     6
 74
     4
 42
0.0000000001
 43
0.0000000001
 44
0.0000000001
 12
0.0
 22
1.0
 32
0.0
 40
0.0
 40
0.0
 40
0.0
 40
0.0
 40
1.245671856234953
 40
10.10166855827195
 40
16.17385537733286
 40
16.17385537733286
 40
16.17385537733286
 40
16.17385537733286
 10
12.89133505244064
 20
28.50163878276635
 30
0.0
 10
12.89133505244064
 20
28.91686273484467
 30
0.0
 10
15.05343200264435
 20
31.9086481761056
 30
0.0
 10
21.00700409081445
 20
32.61093263062209
 30
0.0
 10
25.90075378905691
 20
32.61145971079944
 30
0.0
 10
27.89133505244064
 20
32.6116741058932
 30
0.0
 11
12.89133505244064
 21
28.50163878276635
 31
0.0
 11
13.4482320454033
 21
29.61589374131263
 31
0.0
 11
21.8201052421266
 21
32.50387171291773
 31
0.0
 11
27.89133505244064
 21
32.6116741058932
 31
0.0
  0
SPLINE
  5
54
330
2
100
AcDbEntity
  8
0
 48
0.1
100
AcDbSpline
210
0.0
220
0.0
230
1.0
 70
     8
 71
     3
 72
    10
 73
     6
 74
     0
 42
0.0000000001
 43
0.0000000001
 40
0.0
 40
0.0
 40
0.0
 40
0.0
 40
3.68477746284648
 40
10.40372585195294
 40
12.33018723847029
 40
12.33018723847029
 40
12.33018723847029
 40
12.33018723847029
 10
12.89133505244064
 20
28.50163878276635
 30
0.0
 10
12.89133505244064
 20
29.72989793704851
 30
0.0
 10
15.17814511663138
 20
33.07899275920643
 30
0.0
 10
19.56569523225387
 20
33.42067478740478
 30
0.0
 10
22.49172229763401
 20
33.49176268921694
 30
0.0
 10
23.13840843305942
 20
33.50163878276628
 30
0.0
  0
ARC
  5
55
330
2
100
AcDbEntity
  8
0
  6
HIDDEN
 62
     9
 48
2.0
100
AcDbCircle
 10
-9.013467022116152
 20
4.031018118756469
 30
50.88288458727445
 40
0.5
210
0.5710819954423251
220
0.8164971542170921
230
-0.0848395641019135
100
AcDbArc
 50
358.9066345756581
 51
88.90663457565761
  0
ARC
  5
56
330
2
100
AcDbEntity
  8
0
  6
HIDDEN
 62
     9
 48
2.0
100
AcDbCircle
 10
-9.013467022116152
 20
4.031018118756469
 30
50.88288458727445
 40
0.5
210
0.5710819954423251
220
0.8164971542170921
230
-0.0848395641019135
100
AcDbArc
 50
358.9066345756581
 51
88.90663457565761
  0
ARC
  5
57
330
2
100
AcDbEntity
  8
0
  6
HIDDEN
 62
     9
 48
2.0
100
AcDbCircle
 10
-9.200932883689294
 20
4.034595931585446
 30
50.88288458727445
 40
0.5
210
0.5710819954423251
220
0.8164971542170921
230
-0.0848395641019135
100
AcDbArc
 50
88.9066345756567
 51
178.9066345756571
  0
ARC
  5
58
330
2
100
AcDbEntity
  8
0
  6
HIDDEN
 62
     9
 48
2.0
100
AcDbCircle
 10
-9.200932883689294
 20
4.034595931585446
 30
50.88288458727445
 40
0.5
210
0.5710819954423251
220
0.8164971542170921
230
-0.0848395641019135
100
AcDbArc
 50
88.9066345756567
 51
178.9066345756571
  0
LINE
  5
59
330
2
100
AcDbEntity
  8
0
  6
HIDDEN
 62
     9
 48
2.0
100
AcDbLine
 10
37.2043183130768
 20
36.26686451171774
 30
-0.287325613170808
 11
35.27023854441885
 21
33.50163878276628
 31
-0.0000000000000053
  0
LINE
  5
5A
330
2
100
AcDbEntity
  8
0
  6
HIDDEN
 62
     9
 48
2.0
100
AcDbLine
 10
36.23029489773171
 20
36.94577899821034
 30
-0.3099033984896033
 11
33.82136247627711
 21
33.50163878276628
 31
0.0479660111892679
210
0.0329803045348973
220
0.0804458852003877
230
0.9962132096429515
  0
LINE
  5
5B
330
2
100
AcDbEntity
  8
CENTER
 48
0.05
100
AcDbLine
 10
66.77790841403998
 20
36.75163878276628
 30
0.0
 11
60.23351532797562
 21
36.75163878276628
 31
0.0
  0
LINE
  5
5C
330
2
100
AcDbEntity
  8
0
 48
0.1
100
AcDbLine
 10
63.38448900172375
 20
34.00163878276627
 30
0.0
 11
63.68546790085152
 21
39.50163878276628
 31
0.0
  0
SPLINE
  5
5D
330
2
100
AcDbEntity
  8
0
 48
0.1
100
AcDbSpline
210
0.0
220
0.0
230
1.0
 70
     8
 71
     3
 72
     9
 73
     5
 74
     3
 42
0.0000000001
 43
0.0000000001
 44
0.0000000001
 40
0.0
 40
0.0
 40
0.0
 40
0.0
 40
0.6680957876950972
 40
0.9314730156964458
 40
0.9314730156964458
 40
0.9314730156964458
 40
0.9314730156964458
 10
63.38417012071693
 20
33.99581164490835
 30
0.0
 10
63.36710671346949
 20
33.76781532832569
 30
0.0
 10
63.34331655687883
 20
33.44993813094417
 30
0.0
 10
63.17422862958166
 20
33.1862366225938
 30
0.0
 10
63.12641843129402
 20
33.11167410589312
 30
0.0
 11
63.38417012071693
 21
33.99581164490835
 31
0.0
 11
63.25823253838177
 21
33.33969297660854
 31
0.0
 11
63.12641843129402
 21
33.11167410589312
 31
0.0
  0
LINE
  5
5E
330
2
100
AcDbEntity
  8
0
100
AcDbLine
 10
67.64133505244064
 20
40.50163878276626
 30
0.0
 11
67.64133505244064
 21
39.50163878276628
 31
0.0
  0
ARC
  5
5F
330
2
100
AcDbEntity
  8
0
100
AcDbCircle
 10
67.14133505244063
 20
40.50163878276626
 30
0.0
 40
0.5
100
AcDbArc
 50
0.0
 51
90.0
  0
LINE
  5
60
330
2
100
AcDbEntity
  8
0
  6
HIDDEN
 62
     9
 48
2.0
100
AcDbLine
 10
37.27333008642756
 20
37.6272534560234
 30
1.482663241412714
 11
37.26096247222695
 21
37.59708624907323
 31
1.109083287796613
  0
LINE
  5
61
330
2
100
AcDbEntity
  8
0
  6
HIDDEN
 62
     9
 48
2.0
100
AcDbLine
 10
37.41475564307092
 20
37.4898892248902
 30
1.112648201267999
 11
37.42712325727149
 21
37.52005643184034
 31
1.486228154884107
  0
LINE
  5
62
330
2
100
AcDbEntity
  8
0
  6
HIDDEN
 62
     9
 48
2.0
100
AcDbLine
 10
37.27333008642756
 20
37.6272534560234
 30
1.482663241412714
 11
37.26096247222695
 21
37.59708624907323
 31
1.109083287796613
210
-0.5710819954423246
220
-0.8164971542170903
230
0.0848395641019324
  0
LINE
  5
63
330
2
100
AcDbEntity
  8
0
  6
HIDDEN
 62
     9
 48
2.0
100
AcDbLine
 10
37.41475564307092
 20
37.4898892248902
 30
1.112648201267999
 11
37.42712325727149
 21
37.52005643184034
 31
1.486228154884107
210
-0.5710819954423246
220
-0.8164971542170903
230
0.0848395641019324
  0
ARC
  5
64
330
2
100
AcDbEntity
  8
0
  6
HIDDEN
 62
     9
 48
2.0
100
AcDbCircle
 10
-20.32384430050165
 20
-49.12752005441928
 30
5.733292195756384
 40
0.5000000000000001
210
0.0329803045348943
220
0.0804458852003833
230
0.996213209642952
100
AcDbArc
 50
257.3684980783403
 51
77.36849807834345
  0
ARC
  5
65
330
2
100
AcDbEntity
  8
0
  6
HIDDEN
 62
     9
 48
2.0
100
AcDbCircle
 10
-20.5068061773662
 20
-49.08651759578326
 30
5.733292195756376
 40
0.5000000000000001
210
0.0329803045348943
220
0.0804458852003833
230
0.996213209642952
100
AcDbArc
 50
77.36849807834243
 51
257.3684980783434
  0
ARC
  5
66
330
2
100
AcDbEntity
  8
0
  6
HIDDEN
 62
     9
 48
2.0
100
AcDbCircle
 10
-20.32384430050165
 20
-49.12752005441928
 30
5.733292195756384
 40
0.5000000000000001
210
0.0329803045348943
220
0.0804458852003833
230
0.996213209642952
100
AcDbArc
 50
257.3684980783403
 51
77.36849807834345
  0
ARC
  5
67
330
2
100
AcDbEntity
  8
0
  6
HIDDEN
 62
     9
 48
2.0
100
AcDbCircle
 10
-20.5068061773662
 20
-49.08651759578326
 30
5.733292195756376
 40
0.5000000000000001
210
0.0329803045348943
220
0.0804458852003833
230
0.996213209642952
100
AcDbArc
 50
77.36849807834243
 51
257.3684980783434
  0
CIRCLE
  5
68
330
2
100
AcDbEntity
  8
0
  6
HIDDEN
 62
     9
 48
2.0
100
AcDbCircle
 10
-20.41508128976385
 20
-49.1070734950465
 30
5.733292195756662
 40
0.125
210
0.0329803045348978
220
0.0804458852003874
230
0.9962132096429517
  0
CIRCLE
  5
69
330
2
100
AcDbEntity
  8
0
  6
HIDDEN
 62
     9
 48
2.0
100
AcDbCircle
 10
-20.41508128976385
 20
-49.1070734950465
 30
5.733292195756662
 40
0.125
210
0.0329803045348978
220
0.0804458852003874
230
0.9962132096429517
  0
CIRCLE
  5
6A
330
2
100
AcDbEntity
  8
0
  6
HIDDEN
 62
     9
 48
2.0
100
AcDbCircle
 10
-20.41508128976389
 20
-49.10707349504651
 30
5.733292195756662
 40
0.234375
210
0.0329803045348977
220
0.0804458852003874
230
0.9962132096429517
  0
CIRCLE
  5
6B
330
2
100
AcDbEntity
  8
0
  6
HIDDEN
 62
     9
 48
2.0
100
AcDbCircle
 10
-20.41508128976389
 20
-49.10707349504651
 30
5.733292195756662
 40
0.234375
210
0.0329803045348977
220
0.0804458852003874
230
0.9962132096429517
  0
LINE
  5
6C
330
2
100
AcDbEntity
  8
0
  6
HIDDEN
 62
     9
 48
2.0
100
AcDbLine
 10
37.42712325727149
 20
37.52005643184034
 30
1.486228154884107
 11
37.27333008642756
 21
37.6272534560234
 31
1.482663241412714
210
0.0329803045348943
220
0.0804458852003833
230
0.996213209642952
  0
LINE
  5
6D
330
2
100
AcDbEntity
  8
0
  6
HIDDEN
 62
     9
 48
2.0
100
AcDbLine
 10
37.42712325727149
 20
37.52005643184034
 30
1.486228154884107
 11
37.27333008642756
 21
37.6272534560234
 31
1.482663241412714
210
-0.5710819954423246
220
-0.8164971542170903
230
0.0848395641019324
  0
LINE
  5
6E
330
2
100
AcDbEntity
  8
0
  6
HIDDEN
 62
     9
 48
2.0
100
AcDbLine
 10
37.99820525271382
 20
38.33655358605745
 30
1.401388590782188
 11
37.8444120818699
 21
38.4437506102405
 31
1.397823677310801
210
0.0329803045348943
220
0.0804458852003833
230
0.996213209642952
  0
ENDSEC
  0
SECTION
  2
OBJECTS
  0
DICTIONARY
  5
7
330
0
100
AcDbDictionary
  3
ACAD_GROUP
350
27
  3
ACAD_LAYOUT
350
B
  3
ACAD_MLINESTYLE
350
28
  3
ACAD_PLOTSETTINGS
350
29
  3
ACAD_PLOTSTYLENAME
350
6
  3
ACDBHEADERROUNDTRIPXREC
350
17A
  3
ACDBVARIABLEDICTIONARY
350
6F
  3
ASE_INDEX_DICTIONARY
350
113
  0
DICTIONARY
  5
11
330
10
100
AcDbDictionary
280
     1
  3
ACAD_LAYERFILTERS
360
12
  0
DICTIONARY
  5
8A
330
2
100
AcDbDictionary
280
     1
  3
ACAD_LAYOUTSELFREF
360
19B
  0
DICTIONARY
  5
8C
330
7F
100
AcDbDictionary
280
     1
  3
ACAD_LAYOUTSELFREF
360
19C
  0
DICTIONARY
  5
27
102
{ACAD_REACTORS
330
7
102
}
330
7
100
AcDbDictionary
  0
DICTIONARY
  5
B
102
{ACAD_REACTORS
330
7
102
}
330
7
100
AcDbDictionary
  0
DICTIONARY
  5
28
102
{ACAD_REACTORS
330
7
102
}
330
7
100
AcDbDictionary
  3
STANDARD
350
2B
  0
DICTIONARY
  5
29
102
{ACAD_REACTORS
330
7
102
}
330
7
100
AcDbDictionary
  0
ACDBDICTIONARYWDFLT
  5
6
102
{ACAD_REACTORS
330
7
102
}
330
7
100
AcDbDictionary
281
     1
  3
Normal
350
5
100
AcDbDictionaryWithDefault
340
5
  0
DICTIONARY
  5
17A
102
{ACAD_REACTORS
330
7
102
}
330
7
100
AcDbDictionary
  3
CEPSNTYPE
350
184
  3
DIMSTYLEDATA
350
188
  3
FINGERPRINTGUID
350
185
  3
HYPERLINKBASE
350
17D
  3
INSUNITS
350
183
  3
LAYOUTDICT
350
17F
  3
LWETCUNION
350
182
  3
PLOTSETDICT
350
180
  3
PLOTSTYLNAMDICT
350
181
  3
PSVPSCALE
350
187
  3
PUCSBASE
350
18B
  3
PUCSORGBACK
350
191
  3
PUCSORGBOTTOM
350
18D
  3
PUCSORGFRONT
350
190
  3
PUCSORGLEFT
350
18E
  3
PUCSORGRIGHT
350
18F
  3
PUCSORGTOP
350
18C
  3
PUCSORTHOREF
350
189
  3
PUCSORTHOVIEW
350
18A
  3
STYLESHEET
350
17E
  3
TSTACKALIGN
350
17B
  3
TSTACKSIZE
350
17C
  3
UCSBASE
350
194
  3
UCSORGBACK
350
19A
  3
UCSORGBOTTOM
350
196
  3
UCSORGFRONT
350
199
  3
UCSORGLEFT
350
197
  3
UCSORGRIGHT
350
198
  3
UCSORGTOP
350
195
  3
UCSORTHOREF
350
192
  3
UCSORTHOVIEW
350
193
  3
VERSIONGUID
350
186
  0
DICTIONARY
  5
6F
102
{ACAD_REACTORS
330
7
102
}
330
7
100
AcDbDictionary
  3
DIMASSOC
350
71
  3
HIDETEXT
350
70
  0
DICTIONARY
  5
113
102
{ACAD_REACTORS
330
7
102
}
330
7
100
AcDbDictionary
  3
ASEBLOCKHIERARCHYINDEXRECORD
350
115
1001
ACADASER13
1040
1544696585.498
  0
DICTIONARY
  5
12
102
{ACAD_REACTORS
330
11
102
}
330
11
100
AcDbDictionary
280
     1
  3
DIM-1_12
360
13
  3
DIM-1_16
360
14
  0
XRECORD
  5
19B
102
{ACAD_REACTORS
330
8A
102
}
330
8A
100
AcDbXrecord
340
2
  0
XRECORD
  5
19C
102
{ACAD_REACTORS
330
8C
102
}
330
8C
100
AcDbXrecord
340
7F
  0
MLINESTYLE
  5
2B
102
{ACAD_REACTORS
330
28
102
}
330
28
100
AcDbMlineStyle
  2
STANDARD
 70
     0
  3

 62
   256
 51
90.0
 52
90.0
 71
     2
 49
0.5
 62
   256
  6
BYLAYER
 49
-0.5
 62
   256
  6
BYLAYER
  0
ACDBPLACEHOLDER
  5
5
102
{ACAD_REACTORS
330
6
102
}
330
6
100
AcDbPlaceHolder
280
     0
  0
XRECORD
  5
184
102
{ACAD_REACTORS
330
17A
102
}
330
17A
100
AcDbXrecord
 90
        0
  0
XRECORD
  5
188
102
{ACAD_REACTORS
330
17A
102
}
330
17A
100
AcDbXrecord
1000
DSTYLE
1002
{
1070
    79
 70
     1
1070
   276
 70
     1
1070
   277
 70
     5
1002
}
  0
XRECORD
  5
185
102
{ACAD_REACTORS
330
17A
102
}
330
17A
100
AcDbXrecord
  1
{6A4AC8E0-4F58-11D5-8420-0003476D26AB}
  0
XRECORD
  5
17D
102
{ACAD_REACTORS
330
17A
102
}
330
17A
100
AcDbXrecord
  1

  0
XRECORD
  5
183
102
{ACAD_REACTORS
330
17A
102
}
330
17A
100
AcDbXrecord
 90
        1
  0
XRECORD
  5
17F
102
{ACAD_REACTORS
330
17A
102
}
330
17A
100
AcDbXrecord
340
B
  0
XRECORD
  5
182
102
{ACAD_REACTORS
330
17A
102
}
330
17A
100
AcDbXrecord
 90
    10781
  0
XRECORD
  5
180
102
{ACAD_REACTORS
330
17A
102
}
330
17A
100
AcDbXrecord
340
29
  0
XRECORD
  5
181
102
{ACAD_REACTORS
330
17A
102
}
330
17A
100
AcDbXrecord
340
6
  0
XRECORD
  5
187
102
{ACAD_REACTORS
330
17A
102
}
330
17A
100
AcDbXrecord
 40
0.0
  0
XRECORD
  5
18B
102
{ACAD_REACTORS
330
17A
102
}
330
17A
100
AcDbXrecord
340
0
  0
XRECORD
  5
191
102
{ACAD_REACTORS
330
17A
102
}
330
17A
100
AcDbXrecord
 10
0.0
 20
0.0
 30
0.0
  0
XRECORD
  5
18D
102
{ACAD_REACTORS
330
17A
102
}
330
17A
100
AcDbXrecord
 10
0.0
 20
0.0
 30
0.0
  0
XRECORD
  5
190
102
{ACAD_REACTORS
330
17A
102
}
330
17A
100
AcDbXrecord
 10
0.0
 20
0.0
 30
0.0
  0
XRECORD
  5
18E
102
{ACAD_REACTORS
330
17A
102
}
330
17A
100
AcDbXrecord
 10
0.0
 20
0.0
 30
0.0
  0
XRECORD
  5
18F
102
{ACAD_REACTORS
330
17A
102
}
330
17A
100
AcDbXrecord
 10
0.0
 20
0.0
 30
0.0
  0
XRECORD
  5
18C
102
{ACAD_REACTORS
330
17A
102
}
330
17A
100
AcDbXrecord
 10
0.0
 20
0.0
 30
0.0
  0
XRECORD
  5
189
102
{ACAD_REACTORS
330
17A
102
}
330
17A
100
AcDbXrecord
340
0
  0
XRECORD
  5
18A
102
{ACAD_REACTORS
330
17A
102
}
330
17A
100
AcDbXrecord
 70
     0
  0
XRECORD
  5
17E
102
{ACAD_REACTORS
330
17A
102
}
330
17A
100
AcDbXrecord
  1

  0
XRECORD
  5
17B
102
{ACAD_REACTORS
330
17A
102
}
330
17A
100
AcDbXrecord
 90
        1
  0
XRECORD
  5
17C
102
{ACAD_REACTORS
330
17A
102
}
330
17A
100
AcDbXrecord
 90
       70
  0
XRECORD
  5
194
102
{ACAD_REACTORS
330
17A
102
}
330
17A
100
AcDbXrecord
340
0
  0
XRECORD
  5
19A
102
{ACAD_REACTORS
330
17A
102
}
330
17A
100
AcDbXrecord
 10
0.0
 20
0.0
 30
0.0
  0
XRECORD
  5
196
102
{ACAD_REACTORS
330
17A
102
}
330
17A
100
AcDbXrecord
 10
0.0
 20
0.0
 30
0.0
  0
XRECORD
  5
199
102
{ACAD_REACTORS
330
17A
102
}
330
17A
100
AcDbXrecord
 10
0.0
 20
0.0
 30
0.0
  0
XRECORD
  5
197
102
{ACAD_REACTORS
330
17A
102
}
330
17A
100
AcDbXrecord
 10
0.0
 20
0.0
 30
0.0
  0
XRECORD
  5
198
102
{ACAD_REACTORS
330
17A
102
}
330
17A
100
AcDbXrecord
 10
0.0
 20
0.0
 30
0.0
  0
XRECORD
  5
195
102
{ACAD_REACTORS
330
17A
102
}
330
17A
100
AcDbXrecord
 10
0.0
 20
0.0
 30
0.0
  0
XRECORD
  5
192
102
{ACAD_REACTORS
330
17A
102
}
330
17A
100
AcDbXrecord
340
0
  0
XRECORD
  5
193
102
{ACAD_REACTORS
330
17A
102
}
330
17A
100
AcDbXrecord
 70
     1
  0
XRECORD
  5
186
102
{ACAD_REACTORS
330
17A
102
}
330
17A
100
AcDbXrecord
  1
{1EF896CC-5E87-4C18-A104-721567BD67F6}
  0
DICTIONARYVAR
  5
71
102
{ACAD_REACTORS
330
6F
102
}
330
6F
100
DictionaryVariables
280
     0
  1
1
  0
DICTIONARYVAR
  5
70
102
{ACAD_REACTORS
330
6F
102
}
330
6F
100
DictionaryVariables
280
     0
  1
1
  0
XRECORD
  5
115
102
{ACAD_REACTORS
330
113
102
}
330
113
100
AcDbXrecord
  0
XRECORD
  5
13
102
{ACAD_REACTORS
330
12
102
}
330
12
100
AcDbXrecord
  1
DIM-1_12
  1
DIM-1_12
  1
*
  1
*
 70
     0
  1
*
  1
*
  0
XRECORD
  5
14
102
{ACAD_REACTORS
330
12
102
}
330
12
100
AcDbXrecord
  1
dim-1_16
  1
*
  1
*
  1
*
 70
     0
  1
*
  1
*
  0
ENDSEC
  0
EOF
