  0
SECTION
  2
HEADER
  9
$ACADVER
  1
AC1015
  9
$ACADMAINTVER
 70
    13
  9
$DWGCODEPAGE
  3
ANSI_1252
  9
$INSBASE
 10
199.8086774922622
 20
-26.61723637802051
 30
0.0
  9
$EXTMIN
 10
156.0467129245747
 20
-29.07202414088709
 30
-0.0000000349181948
  9
$EXTMAX
 10
216.0646789890213
 20
0.5082510109989471
 30
0.0000000814935746
  9
$LIMMIN
 10
0.0
 20
0.0
  9
$LIMMAX
 10
17.0
 20
11.0
  9
$ORTHOMODE
 70
     1
  9
$REGENMODE
 70
     1
  9
$FILLMODE
 70
     1
  9
$QTEXTMODE
 70
     0
  9
$MIRRTEXT
 70
     1
  9
$LTSCALE
 40
8.0
  9
$ATTMODE
 70
     1
  9
$TEXTSIZE
 40
0.2
  9
$TRACEWID
 40
0.05
  9
$TEXTSTYLE
  7
STANDARD
  9
$CLAYER
  8
0
  9
$CELTYPE
  6
BYLAYER
  9
$CECOLOR
 62
   256
  9
$CELTSCALE
 40
1.0
  9
$DISPSILH
 70
     0
  9
$DIMSCALE
 40
16.0
  9
$DIMASZ
 40
0.1875
  9
$DIMEXO
 40
0.10625
  9
$DIMDLI
 40
0.6459999999999999
  9
$DIMRND
 40
0.0
  9
$DIMDLE
 40
0.0
  9
$DIMEXE
 40
0.306
  9
$DIMTP
 40
0.0
  9
$DIMTM
 40
0.0
  9
$DIMTXT
 40
0.125
  9
$DIMCEN
 40
0.153
  9
$DIMTSZ
 40
0.0
  9
$DIMTOL
 70
     0
  9
$DIMLIM
 70
     0
  9
$DIMTIH
 70
     1
  9
$DIMTOH
 70
     1
  9
$DIMSE1
 70
     0
  9
$DIMSE2
 70
     0
  9
$DIMTAD
 70
     0
  9
$DIMZIN
 70
     0
  9
$DIMBLK
  1
_FILLED
  9
$DIMASO
 70
     1
  9
$DIMSHO
 70
     1
  9
$DIMPOST
  1

  9
$DIMAPOST
  1

  9
$DIMALT
 70
     0
  9
$DIMALTD
 70
     2
  9
$DIMALTF
 40
25.4
  9
$DIMLFAC
 40
1.0
  9
$DIMTOFL
 70
     0
  9
$DIMTVP
 40
0.0
  9
$DIMTIX
 70
     0
  9
$DIMSOXD
 70
     0
  9
$DIMSAH
 70
     0
  9
$DIMBLK1
  1

  9
$DIMBLK2
  1

  9
$DIMSTYLE
  2
STANDARD
  9
$DIMCLRD
 70
     0
  9
$DIMCLRE
 70
     0
  9
$DIMCLRT
 70
     0
  9
$DIMTFAC
 40
1.0
  9
$DIMGAP
 40
0.09
  9
$DIMJUST
 70
     0
  9
$DIMSD1
 70
     0
  9
$DIMSD2
 70
     0
  9
$DIMTOLJ
 70
     1
  9
$DIMTZIN
 70
     0
  9
$DIMALTZ
 70
     0
  9
$DIMALTTZ
 70
     0
  9
$DIMUPT
 70
     0
  9
$DIMDEC
 70
     4
  9
$DIMTDEC
 70
     4
  9
$DIMALTU
 70
     2
  9
$DIMALTTD
 70
     2
  9
$DIMTXSTY
  7
STANDARD
  9
$DIMAUNIT
 70
     0
  9
$DIMADEC
 70
     0
  9
$DIMALTRND
 40
0.0
  9
$DIMAZIN
 70
     0
  9
$DIMDSEP
 70
    46
  9
$DIMATFIT
 70
     3
  9
$DIMFRAC
 70
     0
  9
$DIMLDRBLK
  1
_FILLED
  9
$DIMLUNIT
 70
     2
  9
$DIMLWD
 70
    -2
  9
$DIMLWE
 70
    -2
  9
$DIMTMOVE
 70
     0
  9
$LUNITS
 70
     2
  9
$LUPREC
 70
     4
  9
$SKETCHINC
 40
0.1
  9
$FILLETRAD
 40
0.0
  9
$AUNITS
 70
     0
  9
$AUPREC
 70
     0
  9
$MENU
  1
acad
  9
$ELEVATION
 40
0.0
  9
$PELEVATION
 40
0.0
  9
$THICKNESS
 40
0.0
  9
$LIMCHECK
 70
     0
  9
$CHAMFERA
 40
0.0
  9
$CHAMFERB
 40
0.0
  9
$CHAMFERC
 40
0.0
  9
$CHAMFERD
 40
0.0
  9
$SKPOLY
 70
     0
  9
$TDCREATE
 40
2453679.095380312
  9
$TDUCREATE
 40
2453679.303713645
  9
$TDUPDATE
 40
2453689.422037476
  9
$TDUUPDATE
 40
2453689.630370810
  9
$TDINDWG
 40
0.0162079514
  9
$TDUSRTIMER
 40
0.0162079514
  9
$USRTIMER
 70
     1
  9
$ANGBASE
 50
0.0
  9
$ANGDIR
 70
     0
  9
$PDMODE
 70
     3
  9
$PDSIZE
 40
0.3125
  9
$PLINEWID
 40
0.0
  9
$SPLFRAME
 70
     0
  9
$SPLINETYPE
 70
     6
  9
$SPLINESEGS
 70
     8
  9
$HANDSEED
  5
815
  9
$SURFTAB1
 70
     6
  9
$SURFTAB2
 70
     6
  9
$SURFTYPE
 70
     6
  9
$SURFU
 70
     6
  9
$SURFV
 70
     6
  9
$UCSBASE
  2

  9
$UCSNAME
  2

  9
$UCSORG
 10
0.0
 20
0.0
 30
0.0
  9
$UCSXDIR
 10
1.0
 20
0.0
 30
0.0
  9
$UCSYDIR
 10
0.0
 20
1.0
 30
0.0
  9
$UCSORTHOREF
  2

  9
$UCSORTHOVIEW
 70
     0
  9
$UCSORGTOP
 10
0.0
 20
0.0
 30
0.0
  9
$UCSORGBOTTOM
 10
0.0
 20
0.0
 30
0.0
  9
$UCSORGLEFT
 10
0.0
 20
0.0
 30
0.0
  9
$UCSORGRIGHT
 10
0.0
 20
0.0
 30
0.0
  9
$UCSORGFRONT
 10
0.0
 20
0.0
 30
0.0
  9
$UCSORGBACK
 10
0.0
 20
0.0
 30
0.0
  9
$PUCSBASE
  2

  9
$PUCSNAME
  2

  9
$PUCSORG
 10
0.0
 20
0.0
 30
0.0
  9
$PUCSXDIR
 10
1.0
 20
0.0
 30
0.0
  9
$PUCSYDIR
 10
0.0
 20
1.0
 30
0.0
  9
$PUCSORTHOREF
  2

  9
$PUCSORTHOVIEW
 70
     0
  9
$PUCSORGTOP
 10
0.0
 20
0.0
 30
0.0
  9
$PUCSORGBOTTOM
 10
0.0
 20
0.0
 30
0.0
  9
$PUCSORGLEFT
 10
0.0
 20
0.0
 30
0.0
  9
$PUCSORGRIGHT
 10
0.0
 20
0.0
 30
0.0
  9
$PUCSORGFRONT
 10
0.0
 20
0.0
 30
0.0
  9
$PUCSORGBACK
 10
0.0
 20
0.0
 30
0.0
  9
$USERI1
 70
     0
  9
$USERI2
 70
     0
  9
$USERI3
 70
     0
  9
$USERI4
 70
     0
  9
$USERI5
 70
     0
  9
$USERR1
 40
0.0
  9
$USERR2
 40
0.0
  9
$USERR3
 40
0.0
  9
$USERR4
 40
0.0
  9
$USERR5
 40
0.0
  9
$WORLDVIEW
 70
     1
  9
$SHADEDGE
 70
     3
  9
$SHADEDIF
 70
    70
  9
$TILEMODE
 70
     1
  9
$MAXACTVP
 70
    16
  9
$PINSBASE
 10
0.0
 20
0.0
 30
0.0
  9
$PLIMCHECK
 70
     0
  9
$PEXTMIN
 10
1.000000000000000E+20
 20
1.000000000000000E+20
 30
1.000000000000000E+20
  9
$PEXTMAX
 10
-1.000000000000000E+20
 20
-1.000000000000000E+20
 30
-1.000000000000000E+20
  9
$PLIMMIN
 10
0.0
 20
0.0
  9
$PLIMMAX
 10
12.0
 20
9.0
  9
$UNITMODE
 70
     0
  9
$VISRETAIN
 70
     0
  9
$PLINEGEN
 70
     1
  9
$PSLTSCALE
 70
     0
  9
$TREEDEPTH
 70
  3020
  9
$CMLSTYLE
  2
STANDARD
  9
$CMLJUST
 70
     0
  9
$CMLSCALE
 40
1.0
  9
$PROXYGRAPHICS
 70
     1
  9
$MEASUREMENT
 70
     0
  9
$CELWEIGHT
370
    -1
  9
$ENDCAPS
280
     0
  9
$JOINSTYLE
280
     0
  9
$LWDISPLAY
290
     0
  9
$INSUNITS
 70
     0
  9
$HYPERLINKBASE
  1

  9
$STYLESHEET
  1

  9
$XEDIT
290
     1
  9
$CEPSNTYPE
380
     0
  9
$PSTYLEMODE
290
     1
  9
$FINGERPRINTGUID
  2
{86911A27-DEC1-4042-A3C0-7CBD2D35E64C}
  9
$VERSIONGUID
  2
{7EFB5EB5-98E0-4D90-9B66-9AEDB9044C89}
  9
$EXTNAMES
290
     1
  9
$PSVPSCALE
 40
0.0
  9
$OLESTARTUP
290
     0
  0
ENDSEC
  0
SECTION
  2
CLASSES
  0
CLASS
  1
LWPOLYLINE
  2
AcDbPolyline
  3
AutoCAD 2000
 90
    32768
280
     0
281
     1
  0
CLASS
  1
XRECORD
  2
AcDbXrecord
  3
AutoCAD 2000
 90
    32768
280
     0
281
     0
  0
CLASS
  1
ACDBDICTIONARYWDFLT
  2
AcDbDictionaryWithDefault
  3
AutoCAD 2000
 90
        0
280
     0
281
     0
  0
CLASS
  1
ACDBPLACEHOLDER
  2
AcDbPlaceHolder
  3
AutoCAD 2000
 90
        0
280
     0
281
     0
  0
CLASS
  1
LAYOUT
  2
AcDbLayout
  3
AutoCAD 2000
 90
        0
280
     0
281
     0
  0
CLASS
  1
DICTIONARYVAR
  2
AcDbDictionaryVar
  3
AutoCAD 2000
 90
        0
280
     0
281
     0
  0
ENDSEC
  0
SECTION
  2
TABLES
  0
TABLE
  2
VPORT
  5
12
330
0
100
AcDbSymbolTable
 70
     3
  0
VPORT
  5
814
330
12
100
AcDbSymbolTableRecord
100
AcDbViewportTableRecord
  2
*Active
 70
     0
 10
0.0
 20
0.0
 11
1.0
 21
1.0
 12
186.0556959522966
 22
-14.28188661159663
 13
0.0
 23
0.0
 14
1.0
 24
1.0
 15
0.0
 25
0.0
 16
0.0
 26
0.0
 36
1.0
 17
0.0
 27
0.0
 37
0.0
 40
38.87252728192411
 41
1.786792452830188
 42
50.0
 43
0.0
 44
0.0
 50
0.0
 51
0.0
 71
     0
 72
   100
 73
     1
 74
     1
 75
     0
 76
     0
 77
     0
 78
     0
281
     0
 65
     1
110
0.0
120
0.0
130
0.0
111
1.0
121
0.0
131
0.0
112
0.0
122
1.0
132
0.0
 79
     0
146
0.0
  0
ENDTAB
  0
TABLE
  2
LTYPE
  5
D
330
0
100
AcDbSymbolTable
 70
     3
  0
LTYPE
  5
E
330
D
100
AcDbSymbolTableRecord
100
AcDbLinetypeTableRecord
  2
BYBLOCK
 70
     0
  3

 72
    65
 73
     0
 40
0.0
  0
LTYPE
  5
F
330
D
100
AcDbSymbolTableRecord
100
AcDbLinetypeTableRecord
  2
BYLAYER
 70
     0
  3

 72
    65
 73
     0
 40
0.0
  0
LTYPE
  5
5
330
D
100
AcDbSymbolTableRecord
100
AcDbLinetypeTableRecord
  2
CONTINUOUS
 70
     0
  3
Solid line
 72
    65
 73
     0
 40
0.0
  0
LTYPE
  5
25
330
D
100
AcDbSymbolTableRecord
100
AcDbLinetypeTableRecord
  2
CENTER
 70
     0
  3
____ _ ____ _ ____ _ ____ _ ____ _ ____ _ ____
 72
    65
 73
     4
 40
0.6
 49
0.375
 74
     0
 49
-0.075
 74
     0
 49
0.075
 74
     0
 49
-0.075
 74
     0
  0
LTYPE
  5
27
330
D
100
AcDbSymbolTableRecord
100
AcDbLinetypeTableRecord
  2
HIDDEN
 70
     0
  3
- - - - - - - - - - - - - - - - - - - -
 72
    65
 73
     2
 40
0.2
 49
0.1
 74
     0
 49
-0.1
 74
     0
  0
ENDTAB
  0
TABLE
  2
LAYER
  5
A
330
0
100
AcDbSymbolTable
 70
     3
  0
LAYER
  5
4
330
A
100
AcDbSymbolTableRecord
100
AcDbLayerTableRecord
  2
0
 70
     0
 62
     7
  6
CONTINUOUS
370
    -3
390
7D1
  0
LAYER
  5
22
330
A
100
AcDbSymbolTableRecord
100
AcDbLayerTableRecord
  2
CENTER
 70
     0
 62
     1
  6
CENTER
370
    13
390
7D1
  0
LAYER
  5
7AC
330
A
100
AcDbSymbolTableRecord
100
AcDbLayerTableRecord
  2
DEFPOINTS
 70
     0
 62
     7
  6
CONTINUOUS
290
     0
370
    -3
390
7D1
  0
ENDTAB
  0
TABLE
  2
STYLE
  5
B
330
0
100
AcDbSymbolTable
 70
     1
  0
STYLE
  5
C
330
B
100
AcDbSymbolTableRecord
100
AcDbTextStyleTableRecord
  2
STANDARD
 70
     0
 40
0.0
 41
0.8
 50
0.0
 71
     0
 42
0.2
  3
txt
  4

  0
ENDTAB
  0
TABLE
  2
VIEW
  5
10
330
0
100
AcDbSymbolTable
 70
     0
  0
ENDTAB
  0
TABLE
  2
UCS
  5
11
330
0
100
AcDbSymbolTable
 70
     0
  0
ENDTAB
  0
TABLE
  2
APPID
  5
14
330
0
100
AcDbSymbolTable
 70
     1
  0
APPID
  5
15
330
14
100
AcDbSymbolTableRecord
100
AcDbRegAppTableRecord
  2
ACAD
 70
     0
  0
ENDTAB
  0
TABLE
  2
DIMSTYLE
  5
16
330
0
100
AcDbSymbolTable
 70
     1
100
AcDbDimStyleTable
 71
     0
  0
DIMSTYLE
105
1C
330
16
100
AcDbSymbolTableRecord
100
AcDbDimStyleTableRecord
  2
STANDARD
 70
     0
 41
0.1875
 47
0.00001
 48
0.00001
 78
     4
140
0.125
340
C
341
1D
342
1D
343
1D
344
1D
  0
ENDTAB
  0
TABLE
  2
BLOCK_RECORD
  5
1
330
0
100
AcDbSymbolTable
 70
     4
  0
BLOCK_RECORD
  5
2
330
1
100
AcDbSymbolTableRecord
100
AcDbBlockTableRecord
  2
*MODEL_SPACE
340
7D4
  0
BLOCK_RECORD
  5
7
330
1
100
AcDbSymbolTableRecord
100
AcDbBlockTableRecord
  2
*PAPER_SPACE
340
7D5
  0
BLOCK_RECORD
  5
1D
330
1
100
AcDbSymbolTableRecord
100
AcDbBlockTableRecord
  2
_FILLED
340
0
102
{BLKREFS
331
7A9
331
7AA
331
7B8
331
7B9
331
7C6
331
7C7
102
}
  0
ENDTAB
  0
ENDSEC
  0
SECTION
  2
BLOCKS
  0
BLOCK
  5
3
330
2
100
AcDbEntity
  8
0
100
AcDbBlockBegin
  2
*MODEL_SPACE
 70
     0
 10
0.0
 20
0.0
 30
0.0
  3
*MODEL_SPACE
  1

  0
ENDBLK
  5
6
330
2
100
AcDbEntity
  8
0
100
AcDbBlockEnd
  0
BLOCK
  5
8
330
7
100
AcDbEntity
 67
     1
  8
0
100
AcDbBlockBegin
  2
*PAPER_SPACE
 70
     0
 10
0.0
 20
0.0
 30
0.0
  3
*PAPER_SPACE
  1

  0
ENDBLK
  5
9
330
7
100
AcDbEntity
 67
     1
  8
0
100
AcDbBlockEnd
  0
BLOCK
  5
1F
330
1D
100
AcDbEntity
  8
0
100
AcDbBlockBegin
  2
_FILLED
 70
     0
 10
0.0
 20
0.0
 30
0.0
  3
_FILLED
  1

  0
SOLID
  5
1E
330
1D
100
AcDbEntity
  8
0
  6
ByBlock
 62
     0
100
AcDbTrace
 10
0.0
 20
0.0
 30
0.0
 11
-1.0
 21
0.1666666667
 31
0.0
 12
-1.0
 22
-0.1666666667
 32
0.0
 13
-1.0
 23
-0.1666666667
 33
0.0
  0
ENDBLK
  5
20
330
1D
100
AcDbEntity
  8
0
  6
ByBlock
 62
     0
100
AcDbBlockEnd
  0
ENDSEC
  0
SECTION
  2
ENTITIES
  0
LINE
  5
21
330
2
100
AcDbEntity
  8
CENTER
100
AcDbLine
 10
208.9135517182323
 20
-3.965298128420499
 30
0.0
 11
216.0536325576996
 21
-3.965298128420499
 31
0.0
  0
LINE
  5
26
330
2
100
AcDbEntity
  8
0
  6
HIDDEN
 62
     9
100
AcDbLine
 10
211.1113770058622
 20
-9.44004013002052
 30
0.0
 11
210.1971650922622
 21
-13.59219953322049
 31
0.0
  0
ARC
  5
28
330
2
100
AcDbEntity
  8
0
  6
Continuous
100
AcDbCircle
 10
208.8531692266622
 20
-17.55473637802051
 30
0.0
 40
3.0
100
AcDbArc
 50
270.0000261722
 51
358.0597794496999
  0
LWPOLYLINE
  5
29
330
2
100
AcDbEntity
  8
0
  6
HIDDEN
 62
     9
100
AcDbPolyline
 90
        4
 70
     0
 43
0.0
 10
211.7266049258622
 20
-5.168627595620534
 10
210.8972825930622
 20
-9.395155678820501
 10
209.9840177466622
 20
-13.5430135508205
 10
208.9865581338622
 20
-17.67514388202053
  0
LINE
  5
2F
330
2
100
AcDbEntity
  8
0
  6
Continuous
100
AcDbLine
 10
157.9353207989172
 20
0.5077636219794819
 30
0.0
 11
214.2038497856066
 21
0.5077636219794819
 31
0.0
  0
LINE
  5
31
330
2
100
AcDbEntity
  8
0
  6
Continuous
 62
     7
100
AcDbLine
 10
156.0586774922622
 20
-1.992236378020521
 30
0.0
 11
216.0586774922622
 21
-1.992236378020521
 31
0.0
  0
LWPOLYLINE
  5
32
330
2
100
AcDbEntity
  8
0
  6
HIDDEN
 62
     9
100
AcDbPolyline
 90
        4
 70
     0
 43
0.0
 10
159.3867378522335
 20
-0.6958899255046407
 10
161.9829452026622
 20
-6.626406986020498
 10
164.3975709578622
 20
-11.9320858756205
 10
166.8779919882622
 20
-17.2073256020205
  0
LWPOLYLINE
  5
38
330
2
100
AcDbEntity
  8
0
  6
HIDDEN
 62
     9
100
AcDbPolyline
 90
        4
 70
     0
 43
0.0
 10
159.8352458042622
 20
-1.141727518820502
 10
162.1826048538622
 20
-6.537035971620511
 10
164.5961032202622
 20
-11.84023895082052
 10
167.0753676282622
 20
-17.1130162836205
  0
LWPOLYLINE
  5
3E
330
2
100
AcDbEntity
  8
0
  6
Continuous
100
AcDbPolyline
 90
        6
 70
     0
 43
0.0
 10
157.8253940778622
 20
-2.018889648420511
 10
159.6663570634622
 20
-4.960425398820504
 10
161.2821291210622
 20
-8.137818598820501
 10
162.6389777178622
 20
-11.37656872682049
 10
163.7258192602622
 20
-14.71514586602052
 10
164.5357747402622
 20
-18.12780850122051
  0
LINE
  5
46
330
2
100
AcDbEntity
  8
0
  6
Continuous
100
AcDbLine
 10
170.3335160746622
 20
-20.55473637802051
 30
0.0
 11
167.4805308154622
 21
-20.55473637802051
 31
0.0
  0
LWPOLYLINE
  5
47
330
2
100
AcDbEntity
  8
0
  6
HIDDEN
 62
     9
100
AcDbPolyline
 90
       54
 70
     0
 43
0.0
 10
167.0753630330622
 20
-17.11304545482051
 10
167.1059467386622
 20
-17.17484515242049
 10
167.1369694074622
 20
-17.23348506282053
 10
167.1692895274622
 20
-17.2908550516205
 10
167.2028516218622
 20
-17.34693583562052
 10
167.2376006058622
 20
-17.40171024042052
 10
167.2734818570622
 20
-17.4551631588205
 10
167.3104412634622
 20
-17.5072814756205
 10
167.3484252890622
 20
-17.55805401482052
 10
167.3873810186622
 20
-17.60747148042051
 10
167.4272562106622
 20
-17.65552638762051
 10
167.4679993434622
 20
-17.70221301002051
 10
167.5095596506622
 20
-17.74752730762049
 10
167.5518871674622
 20
-17.79146687882051
 10
167.5949327642622
 20
-17.83403088362052
 10
167.6386481786622
 20
-17.87521999722051
 10
167.6829860410622
 20
-17.91503633642052
 10
167.7278999114622
 20
-17.9534834116205
 10
167.7733442954622
 20
-17.99056605482051
 10
167.8192746698622
 20
-18.0262903716205
 10
167.8656474986622
 20
-18.06066367562049
 10
167.9124202522622
 20
-18.09369443562052
 10
167.9595514250622
 20
-18.12539221162051
 10
168.0070005370622
 20
-18.1557676100205
 10
168.0547281562622
 20
-18.1848322196205
 10
168.1026958970622
 20
-18.2125985636205
 10
168.1508663850622
 20
-18.23908001802049
 10
168.1991952122622
 20
-18.2642866820205
 10
168.2476215178622
 20
-18.28822188842049
 10
168.2960823146622
 20
-18.31089088682049
 10
168.3445147418622
 20
-18.33230198282049
 10
168.3928562058622
 20
-18.35246648362049
 10
168.4410445210622
 20
-18.37139862282051
 10
168.4890180442622
 20
-18.38911549162049
 10
168.5367157978622
 20
-18.40563694762051
 10
168.5840775914622
 20
-18.42098552042049
 10
168.6310441338622
 20
-18.43518630602051
 10
168.6775571274622
 20
-18.4482668628205
 10
168.7235559754622
 20
-18.46025623562051
 10
168.7689632762622
 20
-18.47118180202049
 10
168.8136966618622
 20
-18.48107334282049
 10
168.8576747402622
 20
-18.48996450442052
 10
168.9008172618622
 20
-18.4978925684205
 10
168.9430452458622
 20
-18.50489818922051
 10
168.9842799946622
 20
-18.51102497322052
 10
169.0244023066622
 20
-18.5163142212205
 10
169.0632403130622
 20
-18.52080663562049
 10
169.1006197626622
 20
-18.5245505188205
 10
169.1363541402622
 20
-18.52760030282049
 10
169.1700969786622
 20
-18.53000689482049
 10
169.2013862090622
 20
-18.53182894282049
 10
169.2294548730622
 20
-18.5331288516205
 10
169.2508528938622
 20
-18.53390761002052
 10
202.8345792666622
 20
-19.55173301002052
  0
LWPOLYLINE
  5
7F
330
2
100
AcDbEntity
  8
0
  6
HIDDEN
 62
     9
100
AcDbPolyline
 90
       54
 70
     0
 43
0.0
 10
166.879262740111
 20
-17.21009242852122
 10
166.911159548743
 20
-17.27454547922851
 10
166.9449192589999
 20
-17.33835902142788
 10
166.9800682995858
 20
-17.40075049970023
 10
167.0165680169055
 20
-17.46173992243017
 10
167.0543585071796
 20
-17.52130861692401
 10
167.0933803655334
 20
-17.57944015193583
 10
167.1335747452045
 20
-17.63612026715755
 10
167.1748834227037
 20
-17.69133680659744
 10
167.2172488501759
 20
-17.74507965973433
 10
167.2606142159214
 20
-17.79734069026658
 10
167.3049234876654
 20
-17.84811366957816
 10
167.3501214526862
 20
-17.89739420131261
 10
167.3961537761971
 20
-17.94517967774321
 10
167.4429670297782
 20
-17.99146918696717
 10
167.4905087221694
 20
-18.03626345909101
 10
167.5387273386267
 20
-18.07956479760174
 10
167.5875723768187
 20
-18.12137702264001
 10
167.6369943602518
 20
-18.16170538924066
 10
167.6869448653392
 20
-18.20055653494488
 10
167.7373765443603
 20
-18.23793841306344
 10
167.7882431528318
 20
-18.27386023949275
 10
167.8394995489708
 20
-18.30833240869333
 10
167.8911017060038
 20
-18.34136645321177
 10
167.9430067440006
 20
-18.37297497865139
 10
167.9951729142857
 20
-18.40317160257272
 10
168.0475594026636
 20
-18.4319707794289
 10
168.100117712292
 20
-18.45938339686587
 10
168.1527819720514
 20
-18.48541325629088
 10
168.205483734584
 20
-18.51006609424275
 10
168.2581546331614
 20
-18.53335094142135
 10
168.3107265968859
 20
-18.55528009533741
 10
168.3631319994488
 20
-18.575869036288
 10
168.4153037967924
 20
-18.59513634931682
 10
168.4671756763532
 20
-18.61310363102554
 10
168.5186821877578
 20
-18.62979538570533
 10
168.5697588443653
 20
-18.64523890384785
 10
168.6203421668399
 20
-18.65946413365037
 10
168.6703659468537
 20
-18.6725025851232
 10
168.7197462659949
 20
-18.68438410959445
 10
168.7683936755892
 20
-18.69514112765525
 10
168.8162196597046
 20
-18.70481023028357
 10
168.8631369461215
 20
-18.71343196206065
 10
168.909059614835
 20
-18.72105053090179
 10
168.9539011866839
 20
-18.72771322760634
 10
168.9975317740892
 20
-18.7334649648734
 10
169.039765559688
 20
-18.73835017099431
 10
169.0804128185288
 20
-18.74242135425489
 10
169.1192674749587
 20
-18.74573744138062
 10
169.1559537143776
 20
-18.748353961344
 10
169.1899648711411
 20
-18.75033451373744
 10
169.2204147077411
 20
-18.75174469879489
 10
169.2435598877895
 20
-18.75258704321315
 10
202.8279511162266
 20
-19.77043259306037
  0
ARC
  5
B7
330
2
100
AcDbEntity
  8
0
  6
Continuous
100
AcDbCircle
 10
167.4805309050622
 20
-17.55473637802051
 30
0.0
 40
3.0
100
AcDbArc
 50
191.0125517725999
 51
269.9999982963
  0
LWPOLYLINE
  5
B8
330
2
100
AcDbEntity
  8
0
  6
Continuous
100
AcDbPolyline
 90
        9
 70
     0
 43
0.0
 10
204.2373354522622
 20
-25.21710374602052
 10
204.3248027930622
 20
-25.32708902762049
 10
204.4062870122622
 20
-25.4569435428205
 10
204.4855954058622
 20
-25.59887808362051
 10
204.5656825866622
 20
-25.74585992842052
 10
204.6473411066622
 20
-25.8896322436205
 10
204.7376580890622
 20
-26.03433584682051
 10
204.8411048538622
 20
-26.17798359242049
 10
204.9610519258622
 20
-26.31462203242049
  0
LINE
  5
C3
330
2
100
AcDbEntity
  8
CENTER
100
AcDbLine
 10
205.7706124538622
 20
-29.07039763593803
 30
0.0
 11
205.7706124538622
 21
-22.9536379757475
 31
0.0
  0
LWPOLYLINE
  5
C4
330
2
100
AcDbEntity
  8
0
  6
Continuous
100
AcDbPolyline
 90
        7
 70
     0
 43
0.0
 10
206.4898360874622
 20
-24.81626380682049
 10
206.5866841498622
 20
-25.0122992132205
 10
206.6581995034622
 20
-25.21344603562052
 10
206.7008141306622
 20
-25.4077168980205
 10
206.7152733066622
 20
-25.6003651908205
 10
206.7006530218622
 20
-25.78224934282053
 10
206.6572148970622
 20
-25.95243468202049
  0
LWPOLYLINE
  5
CD
330
2
100
AcDbEntity
  8
0
  6
Continuous
100
AcDbPolyline
 90
        9
 70
     0
 43
0.0
 10
172.5169595322622
 20
-25.21710374602052
 10
172.4294921914622
 20
-25.32708902762049
 10
172.3480079722622
 20
-25.4569435428205
 10
172.2686995786622
 20
-25.59887808362051
 10
172.1886123978622
 20
-25.74585992842052
 10
172.1069538778622
 20
-25.8896322436205
 10
172.0166368954622
 20
-26.03433584682051
 10
171.9131901306622
 20
-26.17798359242049
 10
171.7932430586622
 20
-26.31462203242049
  0
LINE
  5
D8
330
2
100
AcDbEntity
  8
CENTER
100
AcDbLine
 10
170.9836825306622
 20
-29.07039763593803
 30
0.0
 11
170.9836825306622
 21
-22.9536379757475
 31
0.0
  0
LWPOLYLINE
  5
D9
330
2
100
AcDbEntity
  8
0
  6
Continuous
100
AcDbPolyline
 90
        7
 70
     0
 43
0.0
 10
170.2644588970622
 20
-24.81626380682049
 10
170.1676108346622
 20
-25.0122992132205
 10
170.0960954810622
 20
-25.21344603562052
 10
170.0534808538622
 20
-25.4077168980205
 10
170.0390216778622
 20
-25.6003651908205
 10
170.0536419626622
 20
-25.78224934282053
 10
170.0970800874622
 20
-25.95243468202049
  0
LWPOLYLINE
  5
E2
330
2
100
AcDbEntity
  8
0
  6
Continuous
100
AcDbPolyline
 90
        4
 70
     0
 43
0.0
 10
171.7932430586622
 20
-26.31462203242049
 10
171.7763852138622
 20
-26.33135134122051
 10
171.7590363082622
 20
-26.34795960842049
 10
171.7411808746622
 20
-26.36442711402052
  0
LINE
  5
E8
330
2
100
AcDbEntity
  8
0
  6
Continuous
100
AcDbLine
 10
171.6129508874622
 20
-26.48319857962052
 30
0.0
 11
171.4716774026622
 21
-26.61723637802051
 31
0.0
  0
LWPOLYLINE
  5
E9
330
2
100
AcDbEntity
  8
0
  6
Continuous
100
AcDbPolyline
 90
        4
 70
     0
 43
0.0
 10
171.7411808746622
 20
-26.36442711402052
 10
171.6976206570622
 20
-26.4041494356205
 10
171.6548379578622
 20
-26.44377728522052
 10
171.6129508874622
 20
-26.48319857962052
  0
LINE
  5
EF
330
2
100
AcDbEntity
  8
0
  6
Continuous
100
AcDbLine
 10
170.6129142298622
 20
-26.61723637802051
 30
0.0
 11
171.4716774010622
 21
-26.61723637802051
 31
0.0
  0
LWPOLYLINE
  5
F0
330
2
100
AcDbEntity
  8
0
  6
Continuous
100
AcDbPolyline
 90
        3
 70
     0
 43
0.0
 10
170.3887772250622
 20
-26.37669638602051
 10
170.4363888282622
 20
-26.42596066122052
 10
170.4708004090622
 20
-26.46200720522049
  0
LINE
  5
F5
330
2
100
AcDbEntity
  8
0
  6
Continuous
100
AcDbLine
 10
170.3249333418622
 20
-26.31113632842049
 30
0.0
 11
170.3405590666622
 21
-26.3273454708205
 31
0.0
  0
LWPOLYLINE
  5
F6
330
2
100
AcDbEntity
  8
0
  6
Continuous
100
AcDbPolyline
 90
        3
 70
     0
 43
0.0
 10
170.3157853130622
 20
-26.30148940842049
 10
170.3312949642622
 20
-26.3177594516205
 10
170.3887772250622
 20
-26.37669638602051
  0
LINE
  5
FB
330
2
100
AcDbEntity
  8
0
  6
Continuous
100
AcDbLine
 10
170.2976556186622
 20
-26.28197194762051
 30
0.0
 11
170.3157637738622
 21
-26.30146654762052
 31
0.0
  0
LINE
  5
FC
330
2
100
AcDbEntity
  8
0
  6
Continuous
100
AcDbLine
 10
170.2976556186622
 20
-26.28197194762051
 30
0.0
 11
170.2980627994622
 21
-26.28242575082051
 31
0.0
  0
LINE
  5
FD
330
2
100
AcDbEntity
  8
0
  6
Continuous
100
AcDbLine
 10
170.1907363770622
 20
-26.14320280202051
 30
0.0
 11
170.2976556186622
 21
-26.28197194762051
 31
0.0
  0
LWPOLYLINE
  5
FE
330
2
100
AcDbEntity
  8
0
  6
Continuous
100
AcDbPolyline
 90
        3
 70
     0
 43
0.0
 10
170.1515021658622
 20
-26.0759187300205
 10
170.2227028410622
 20
-26.1901329940205
 10
170.2980627994622
 20
-26.28242575082051
  0
LINE
  5
103
330
2
100
AcDbEntity
  8
0
  6
Continuous
100
AcDbLine
 10
170.1520540154622
 20
-26.07695955722051
 30
0.0
 11
170.1907363770622
 21
-26.14320280202051
 31
0.0
  0
LINE
  5
104
330
2
100
AcDbEntity
  8
0
  6
Continuous
100
AcDbLine
 10
170.1515021658622
 20
-26.0759187300205
 30
0.0
 11
170.1520540154622
 21
-26.07695955722051
 31
0.0
  0
LINE
  5
105
330
2
100
AcDbEntity
  8
0
  6
Continuous
100
AcDbLine
 10
170.0970800874622
 20
-25.95243468202049
 30
0.0
 11
170.1520540154622
 21
-26.07695955722051
 31
0.0
  0
LINE
  5
106
330
2
100
AcDbEntity
  8
0
  6
Continuous
100
AcDbLine
 10
170.3418713578622
 20
-26.31918185322052
 30
0.0
 11
170.3472959066622
 21
-26.33423890762049
 31
0.0
  0
LWPOLYLINE
  5
107
330
2
100
AcDbEntity
  8
0
  6
Continuous
100
AcDbPolyline
 90
        4
 70
     0
 43
0.0
 10
170.4707985290622
 20
-26.46200522442049
 10
170.5147367290622
 20
-26.50880349322051
 10
170.5686561194622
 20
-26.56766749002051
 10
170.6129151450622
 20
-26.61723637802051
  0
LINE
  5
10D
330
2
100
AcDbEntity
  8
0
  6
Continuous
100
AcDbLine
 10
206.1413807546622
 20
-26.61723637802051
 30
0.0
 11
205.2826175834622
 21
-26.61723637802051
 31
0.0
  0
LWPOLYLINE
  5
10E
330
2
100
AcDbEntity
  8
0
  6
Continuous
100
AcDbPolyline
 90
        4
 70
     0
 43
0.0
 10
205.0131141098622
 20
-26.36442711402052
 10
205.0566743274622
 20
-26.4041494356205
 10
205.0994570266622
 20
-26.44377728522052
 10
205.1413440970622
 20
-26.48319857962052
  0
LINE
  5
114
330
2
100
AcDbEntity
  8
0
  6
Continuous
100
AcDbLine
 10
205.1413440970622
 20
-26.48319857962052
 30
0.0
 11
205.2826175818622
 21
-26.61723637802051
 31
0.0
  0
LWPOLYLINE
  5
115
330
2
100
AcDbEntity
  8
0
  6
Continuous
100
AcDbPolyline
 90
        4
 70
     0
 43
0.0
 10
204.9610519258622
 20
-26.31462203242049
 10
204.9779097706622
 20
-26.33135134122051
 10
204.9952586762622
 20
-26.34795960842049
 10
205.0131141098622
 20
-26.36442711402052
  0
LINE
  5
11B
330
2
100
AcDbEntity
  8
0
  6
Continuous
100
AcDbLine
 10
206.4124236266622
 20
-26.31918185322052
 30
0.0
 11
206.4069990778622
 21
-26.33423890762049
 31
0.0
  0
LINE
  5
11C
330
2
100
AcDbEntity
  8
0
  6
Continuous
100
AcDbLine
 10
206.6027928186622
 20
-26.0759187300205
 30
0.0
 11
206.6022409690622
 21
-26.07695955722051
 31
0.0
  0
LINE
  5
11D
330
2
100
AcDbEntity
  8
0
  6
Continuous
100
AcDbLine
 10
206.6022409690622
 20
-26.07695955722051
 30
0.0
 11
206.5635586074622
 21
-26.14320280202051
 31
0.0
  0
LWPOLYLINE
  5
11E
330
2
100
AcDbEntity
  8
0
  6
Continuous
100
AcDbPolyline
 90
        3
 70
     0
 43
0.0
 10
206.6027928186622
 20
-26.0759187300205
 10
206.5315921434622
 20
-26.1901329940205
 10
206.4562321850622
 20
-26.28242575082051
  0
LINE
  5
123
330
2
100
AcDbEntity
  8
0
  6
Continuous
100
AcDbLine
 10
206.5635586074622
 20
-26.14320280202051
 30
0.0
 11
206.4566393658622
 21
-26.28197194762051
 31
0.0
  0
LINE
  5
124
330
2
100
AcDbEntity
  8
0
  6
Continuous
100
AcDbLine
 10
206.4566393658622
 20
-26.28197194762051
 30
0.0
 11
206.4562321850622
 21
-26.28242575082051
 31
0.0
  0
LINE
  5
125
330
2
100
AcDbEntity
  8
0
  6
Continuous
100
AcDbLine
 10
206.4566393658622
 20
-26.28197194762051
 30
0.0
 11
206.4385312106622
 21
-26.30146654762052
 31
0.0
  0
LWPOLYLINE
  5
126
330
2
100
AcDbEntity
  8
0
  6
Continuous
100
AcDbPolyline
 90
        4
 70
     0
 43
0.0
 10
206.2834964554622
 20
-26.46200522442049
 10
206.2395582554622
 20
-26.50880349322051
 10
206.1856388650622
 20
-26.56766749002051
 10
206.1413798394622
 20
-26.61723637802051
  0
LWPOLYLINE
  5
12C
330
2
100
AcDbEntity
  8
0
  6
Continuous
100
AcDbPolyline
 90
        3
 70
     0
 43
0.0
 10
206.4385096714622
 20
-26.30148940842049
 10
206.4230000202622
 20
-26.3177594516205
 10
206.3655177594622
 20
-26.37669638602051
  0
LINE
  5
131
330
2
100
AcDbEntity
  8
0
  6
Continuous
100
AcDbLine
 10
206.4293616426622
 20
-26.31113632842049
 30
0.0
 11
206.4137359178622
 21
-26.3273454708205
 31
0.0
  0
LWPOLYLINE
  5
132
330
2
100
AcDbEntity
  8
0
  6
Continuous
100
AcDbPolyline
 90
        3
 70
     0
 43
0.0
 10
206.3655177594622
 20
-26.37669638602051
 10
206.3179061562622
 20
-26.42596066122052
 10
206.2834945754622
 20
-26.46200720522049
  0
LINE
  5
137
330
2
100
AcDbEntity
  8
0
  6
Continuous
100
AcDbLine
 10
206.6572148970622
 20
-25.95243468202049
 30
0.0
 11
206.6022409690622
 21
-26.07695955722051
 31
0.0
  0
LINE
  5
139
330
2
100
AcDbEntity
  8
0
  6
Continuous
100
AcDbLine
 10
173.5019044554622
 20
-20.55473637802051
 30
0.0
 11
198.6836774922622
 21
-20.55473637802051
 31
0.0
  0
LWPOLYLINE
  5
13A
330
2
100
AcDbEntity
  8
0
  6
Continuous
100
AcDbPolyline
 90
        9
 70
     0
 43
0.0
 10
174.7816887498622
 20
-21.30643390602049
 10
174.8116586090622
 20
-21.23941694282051
 10
174.8298657018622
 20
-21.16988749642052
 10
174.8346202938622
 20
-21.1024037124205
 10
174.8257064314622
 20
-21.03917959082049
 10
174.8029669898622
 20
-20.9820704628205
 10
174.7676827738622
 20
-20.93474929162051
 10
174.7215233178622
 20
-20.8989122468205
 10
174.7093878138622
 20
-20.89234726122052
  0
LWPOLYLINE
  5
145
330
2
100
AcDbEntity
  8
0
  6
Continuous
100
AcDbPolyline
 90
        5
 70
     0
 43
0.0
 10
171.6328948922622
 20
-21.46371511722049
 10
171.6027446954622
 20
-21.3824308180205
 10
171.5716423434622
 20
-21.29347444362049
 10
171.5395980426622
 20
-21.19557592362049
 10
171.5067172858622
 20
-21.0873709716205
  0
LWPOLYLINE
  5
14C
330
2
100
AcDbEntity
  8
0
  6
Continuous
100
AcDbPolyline
 90
        5
 70
     0
 43
0.0
 10
171.6975404794622
 20
-21.4238096692205
 10
171.6670422842622
 20
-21.34400584202051
 10
171.6356530634622
 20
-21.25669962762052
 10
171.6033788426622
 20
-21.16064195082051
 10
171.5703216730622
 20
-21.05449409002051
  0
LWPOLYLINE
  5
153
330
2
100
AcDbEntity
  8
0
  6
Continuous
100
AcDbPolyline
 90
        3
 70
     0
 43
0.0
 10
170.3196594474622
 20
-20.81843776202049
 10
170.4619628458622
 20
-21.27151176202049
 10
170.6610741354622
 20
-21.74214644842052
  0
LWPOLYLINE
  5
158
330
2
100
AcDbEntity
  8
0
  6
Continuous
100
AcDbPolyline
 90
        4
 70
     0
 43
0.0
 10
170.3125138650622
 20
-20.7220118772205
 10
170.4574727434622
 20
-21.21822083562052
 10
170.6500432538622
 20
-21.68937363242051
 10
170.8806196698622
 20
-22.11770230922051
  0
LWPOLYLINE
  5
15E
330
2
100
AcDbEntity
  8
0
  6
Continuous
100
AcDbPolyline
 90
        5
 70
     0
 43
0.0
 10
171.5581821060426
 20
-19.5214150542175
 10
171.5483014410622
 20
-19.9232667636205
 10
171.5626950282622
 20
-20.3323710148205
 10
171.6011319098622
 20
-20.72940370282051
 10
171.6621447098622
 20
-21.1044990900205
  0
LWPOLYLINE
  5
165
330
2
100
AcDbEntity
  8
0
  6
Continuous
100
AcDbPolyline
 90
        5
 70
     0
 43
0.0
 10
171.7317179386622
 20
-19.62108523882051
 10
171.7123217322622
 20
-20.02722893802052
 10
171.7162165242622
 20
-20.43147749642052
 10
171.7430666842622
 20
-20.8234758884205
 10
171.7915490794622
 20
-21.19338446122049
  0
LWPOLYLINE
  5
16C
330
2
100
AcDbEntity
  8
0
  6
Continuous
100
AcDbPolyline
 90
        5
 70
     0
 43
0.0
 10
171.6328948922622
 20
-21.46371511722049
 10
171.5048098074622
 20
-21.08502543082051
 10
171.4031871082622
 20
-20.6797225844205
 10
171.3293656538622
 20
-20.25315173482052
 10
171.2847373578622
 20
-19.81368035082051
  0
LWPOLYLINE
  5
173
330
2
100
AcDbEntity
  8
0
  6
Continuous
100
AcDbPolyline
 90
        5
 70
     0
 43
0.0
 10
170.7304746634622
 20
-19.62108523882051
 10
170.7688822186622
 20
-20.0287500372205
 10
170.8366222714622
 20
-20.43396918442051
 10
170.9323892154622
 20
-20.82624705642052
 10
171.0535819402622
 20
-21.19565604202049
  0
LWPOLYLINE
  5
17A
330
2
100
AcDbEntity
  8
0
  6
Continuous
100
AcDbPolyline
 90
        5
 70
     0
 43
0.0
 10
170.8077878602622
 20
-19.51246087882051
 10
170.8405843274622
 20
-19.92441199402049
 10
170.9021844794622
 20
-20.3342407188205
 10
170.9914392986622
 20
-20.7314752660205
 10
171.1059692650622
 20
-21.10618961162051
  0
LWPOLYLINE
  5
181
330
2
100
AcDbEntity
  8
0
  6
Continuous
100
AcDbPolyline
 90
        7
 70
     0
 43
0.0
 10
171.6188445226622
 20
-22.2228653364205
 10
171.4340403114622
 20
-21.9088600948205
 10
171.2721449882622
 20
-21.55300617002049
 10
171.1355530170622
 20
-21.1602046612205
 10
171.0270725370622
 20
-20.7383455204205
 10
170.9482091594622
 20
-20.29328118122051
 10
170.9005088682622
 20
-19.83405839562049
  0
LWPOLYLINE
  5
18A
330
2
100
AcDbEntity
  8
0
  6
Continuous
100
AcDbPolyline
 90
        8
 70
     0
 43
0.0
 10
171.9306517642622
 20
-22.2281929972205
 10
171.7455026634622
 20
-21.91360171882049
 10
171.5833054778622
 20
-21.55708427882049
 10
171.4464594010622
 20
-21.16355242122049
 10
171.3377763978622
 20
-20.74090665482052
 10
171.2587653770622
 20
-20.29501002602052
 10
171.2109759530622
 20
-19.83492961322049
 10
171.1949619402622
 20
-19.36723637802051
  0
LWPOLYLINE
  5
194
330
2
100
AcDbEntity
  8
0
  6
Continuous
100
AcDbPolyline
 90
        4
 70
     0
 43
0.0
 10
173.3920234106622
 20
-23.23556464842052
 10
173.3626863418622
 20
-23.27122673642049
 10
173.3349302618622
 20
-23.30724378922051
 10
173.3083548586622
 20
-23.34399458122051
  0
LWPOLYLINE
  5
19A
330
2
100
AcDbEntity
  8
0
  6
Continuous
100
AcDbPolyline
 90
        5
 70
     0
 43
0.0
 10
172.0419560314622
 20
-22.9193320852205
 10
172.0033790906622
 20
-23.0717676260205
 10
171.9537365818622
 20
-23.21180296362052
 10
171.8939023738622
 20
-23.33641610122052
 10
171.8252646650622
 20
-23.44242778282049
  0
LINE
  5
1A1
330
2
100
AcDbEntity
  8
0
  6
Continuous
100
AcDbLine
 10
170.9031755850622
 20
-24.15039022282051
 30
0.0
 11
171.7311688762622
 21
-23.25348101322052
 31
0.0
  0
LINE
  5
1A2
330
2
100
AcDbEntity
  8
0
  6
Continuous
100
AcDbLine
 10
170.5909244490622
 20
-24.1562848228205
 30
0.0
 11
171.4189177418622
 21
-23.25937561322052
 31
0.0
  0
LWPOLYLINE
  5
1A3
330
2
100
AcDbEntity
  8
0
  6
Continuous
100
AcDbPolyline
 90
        4
 70
     0
 43
0.0
 10
172.6601222410622
 20
-25.05564568682051
 10
172.6155646298622
 20
-25.10821164522052
 10
172.5685498314622
 20
-25.1612850708205
 10
172.5190260506622
 20
-25.2149121412205
  0
LINE
  5
1A9
330
2
100
AcDbEntity
  8
0
  6
Continuous
100
AcDbLine
 10
171.8252646650622
 20
-23.44242778282049
 30
0.0
 11
171.8183174906622
 21
-23.45145754762052
 31
0.0
  0
LWPOLYLINE
  5
1AA
330
2
100
AcDbEntity
  8
0
  6
Continuous
100
AcDbPolyline
 90
        4
 70
     0
 43
0.0
 10
171.8183174906622
 20
-23.45145754762052
 10
171.8057633754622
 20
-23.46706548682049
 10
171.7929842330622
 20
-23.48205187082052
 10
171.7799918826622
 20
-23.49640238602052
  0
LINE
  5
1B0
330
2
100
AcDbEntity
  8
0
  6
Continuous
100
AcDbLine
 10
171.5130998938622
 20
-23.78092713322049
 30
0.0
 11
171.3511606970622
 21
-23.95213665002052
 31
0.0
  0
LWPOLYLINE
  5
1B1
330
2
100
AcDbEntity
  8
0
  6
Continuous
100
AcDbPolyline
 90
        3
 70
     0
 43
0.0
 10
171.7799918826622
 20
-23.49640238602052
 10
171.6458879322622
 20
-23.6397176740205
 10
171.5130998938622
 20
-23.78092713322049
  0
LINE
  5
1B6
330
2
100
AcDbEntity
  8
0
  6
Continuous
100
AcDbLine
 10
171.3511606970622
 20
-23.95213665002052
 30
0.0
 11
171.2960990186622
 21
-24.0100103796205
 31
0.0
  0
LWPOLYLINE
  5
1B7
330
2
100
AcDbEntity
  8
0
  6
Continuous
100
AcDbPolyline
 90
        3
 70
     0
 43
0.0
 10
170.9905589386622
 20
-24.32829941482052
 10
170.9253621146622
 20
-24.40515134282049
 10
170.8649200858622
 20
-24.49580094602049
  0
LWPOLYLINE
  5
1BC
330
2
100
AcDbEntity
  8
0
  6
Continuous
100
AcDbPolyline
 90
        4
 70
     0
 43
0.0
 10
170.7955194762622
 20
-24.6985372772205
 10
170.8024486026622
 20
-24.67052347242051
 10
170.8106427770622
 20
-24.6406924692205
 10
170.8202711450622
 20
-24.60921634602049
  0
LINE
  5
1C2
330
2
100
AcDbEntity
  8
0
  6
Continuous
100
AcDbLine
 10
170.8202711450622
 20
-24.60921633962049
 30
0.0
 11
170.8217882602622
 21
-24.6045576308205
 31
0.0
  0
LWPOLYLINE
  5
1C3
330
2
100
AcDbEntity
  8
0
  6
Continuous
100
AcDbPolyline
 90
        4
 70
     0
 43
0.0
 10
170.6431044698622
 20
-25.09861151562049
 10
170.6426190442622
 20
-25.09396894922049
 10
170.6420247946622
 20
-25.0892645780205
 10
170.6413278538622
 20
-25.08454709482052
  0
LWPOLYLINE
  5
1C9
330
2
100
AcDbEntity
  8
0
  6
Continuous
100
AcDbPolyline
 90
        3
 70
     0
 43
0.0
 10
170.6431044698622
 20
-25.09861151562049
 10
170.6544315722622
 20
-25.0950804548205
 10
170.6657770730622
 20
-25.0878597924205
  0
LWPOLYLINE
  5
1CE
330
2
100
AcDbEntity
  8
0
  6
Continuous
100
AcDbPolyline
 90
       11
 70
     0
 43
0.0
 10
170.6657807658622
 20
-25.08786430282053
 10
170.6863861466622
 20
-25.0651289636205
 10
170.7026868298622
 20
-25.03740358282049
 10
170.7165460586622
 20
-25.0060831796205
 10
170.7287227354622
 20
-24.97206938602051
 10
170.7400295018622
 20
-24.9347253876205
 10
170.7508400682622
 20
-24.8939257668205
 10
170.7614106138622
 20
-24.84989779882052
 10
170.7720946858622
 20
-24.80262143082049
 10
170.7832796602622
 20
-24.75221484682052
 10
170.7955194762622
 20
-24.6985372708205
  0
LWPOLYLINE
  5
1DB
330
2
100
AcDbEntity
  8
0
  6
Continuous
100
AcDbPolyline
 90
        3
 70
     0
 43
0.0
 10
170.8217882570622
 20
-24.6045576644205
 10
170.8421149498622
 20
-24.54831531402052
 10
170.8649201002622
 20
-24.49580084842052
  0
LWPOLYLINE
  5
1E0
330
2
100
AcDbEntity
  8
0
  6
Continuous
100
AcDbPolyline
 90
       13
 70
     0
 43
0.0
 10
170.6413278314622
 20
-25.0845471044205
 10
170.6398892250622
 20
-25.03386907082052
 10
170.6399375146622
 20
-24.97630160042052
 10
170.6420736682622
 20
-24.91269418602049
 10
170.6468819418622
 20
-24.84384360362052
 10
170.6549541802622
 20
-24.7703922148205
 10
170.6670655466622
 20
-24.69211020042049
 10
170.6843678298622
 20
-24.60822693002052
 10
170.7082470362622
 20
-24.51898445802051
 10
170.7399713226622
 20
-24.42642276682052
 10
170.7815589546622
 20
-24.33173624522049
 10
170.8353209482622
 20
-24.2378206548205
 10
170.9031755850622
 20
-24.15039022282051
  0
LWPOLYLINE
  5
1EF
330
2
100
AcDbEntity
  8
0
  6
Continuous
100
AcDbPolyline
 90
        4
 70
     0
 43
0.0
 10
171.2960990186622
 20
-24.0100103796205
 10
171.1935065354622
 20
-24.11736962442051
 10
171.0916770138622
 20
-24.22344616042051
 10
170.9905589386622
 20
-24.32829941482052
  0
LINE
  5
1F5
330
2
100
AcDbEntity
  8
0
  6
Continuous
100
AcDbLine
 10
170.5199570698622
 20
-24.24859360042052
 30
0.0
 11
170.5909244490622
 21
-24.1562848228205
 31
0.0
  0
LINE
  5
1F6
330
2
100
AcDbEntity
  8
0
  6
Continuous
100
AcDbLine
 10
170.3640726711984
 20
-24.65894524729137
 30
0.0
 11
170.2675391562622
 21
-24.8108545908205
 31
0.0
  0
LINE
  5
1F7
330
2
100
AcDbEntity
  8
0
  6
Continuous
100
AcDbLine
 10
170.3189574794622
 20
-25.06585861962052
 30
0.0
 11
170.3189588218622
 21
-25.06589918122049
 31
0.0
  0
LWPOLYLINE
  5
1F8
330
2
100
AcDbEntity
  8
0
  6
Continuous
100
AcDbPolyline
 90
        4
 70
     0
 43
0.0
 10
170.3319711050622
 20
-25.1298408196205
 10
170.3325428282622
 20
-25.12509962762052
 10
170.3327128266622
 20
-25.12030822122051
 10
170.3324793194622
 20
-25.11551679882051
  0
LWPOLYLINE
  5
1FE
330
2
100
AcDbEntity
  8
0
  6
Continuous
100
AcDbPolyline
 90
        7
 70
     0
 43
0.0
 10
170.3319711050622
 20
-25.1298408196205
 10
170.3479240986622
 20
-25.12928423082049
 10
170.3663051226622
 20
-25.12848307242052
 10
170.3876186250622
 20
-25.12729941802052
 10
170.4124005066622
 20
-25.1255517204205
 10
170.4412313386622
 20
-25.12306408362051
 10
170.4747783930622
 20
-25.11970273962051
  0
LINE
  5
207
330
2
100
AcDbEntity
  8
0
  6
Continuous
100
AcDbLine
 10
170.2675390922622
 20
-24.81085470122051
 30
0.0
 11
170.2643495018622
 21
-24.81645657322052
 31
0.0
  0
LWPOLYLINE
  5
208
330
2
100
AcDbEntity
  8
0
  6
Continuous
100
AcDbPolyline
 90
        7
 70
     0
 43
0.0
 10
170.3324792282622
 20
-25.1155156324205
 10
170.3300173930622
 20
-24.9535593396205
 10
170.3417926874622
 20
-24.7929761668205
 10
170.3676186394622
 20
-24.63761357162051
 10
170.4066610554622
 20
-24.49271237802052
 10
170.4580283386622
 20
-24.36157951562051
 10
170.5199570698622
 20
-24.24859360042052
  0
LWPOLYLINE
  5
211
330
2
100
AcDbEntity
  8
0
  6
Continuous
100
AcDbPolyline
 90
        5
 70
     0
 43
0.0
 10
170.4747783530622
 20
-25.11970272522052
 10
170.5186586282622
 20
-25.11488705322052
 10
170.5624760538622
 20
-25.10957860842052
 10
170.6045150970622
 20
-25.10410546762052
 10
170.6431044730622
 20
-25.09861151882051
  0
LINE
  5
218
330
2
100
AcDbEntity
  8
0
  6
Continuous
100
AcDbLine
 10
172.5190260506622
 20
-25.2149121412205
 30
0.0
 11
172.5169595322622
 21
-25.21710374602052
 31
0.0
  0
LWPOLYLINE
  5
219
330
2
100
AcDbEntity
  8
0
  6
Continuous
100
AcDbPolyline
 90
        4
 70
     0
 43
0.0
 10
173.3083548586622
 20
-23.34399458122051
 10
173.2739240202622
 20
-23.39522624362052
 10
173.2406514106622
 20
-23.4488978868205
 10
173.2094851098622
 20
-23.50333217002052
  0
LWPOLYLINE
  5
21F
330
2
100
AcDbEntity
  8
0
  6
Continuous
100
AcDbPolyline
 90
        4
 70
     0
 43
0.0
 10
172.9564161770622
 20
-24.3505706900205
 10
172.9548935706622
 20
-24.37273030122051
 10
172.9538002330622
 20
-24.38676599402052
 10
172.9525959482622
 20
-24.40066880202051
  0
LINE
  5
225
330
2
100
AcDbEntity
  8
0
  6
Continuous
100
AcDbLine
 10
172.8637954650622
 20
-24.7629013188205
 30
0.0
 11
172.8619184682622
 21
-24.76696389482052
 31
0.0
  0
LWPOLYLINE
  5
226
330
2
100
AcDbEntity
  8
0
  6
Continuous
100
AcDbPolyline
 90
        4
 70
     0
 43
0.0
 10
172.8619184682622
 20
-24.76696389482052
 10
172.8527114282622
 20
-24.7856975588205
 10
172.8426545242622
 20
-24.8041669668205
 10
172.8316773146622
 20
-24.82247495562052
  0
LINE
  5
22C
330
2
100
AcDbEntity
  8
0
  6
Continuous
100
AcDbLine
 10
172.8316773146622
 20
-24.82247495562052
 30
0.0
 11
172.8293376762622
 21
-24.82616593642049
 31
0.0
  0
LWPOLYLINE
  5
22D
330
2
100
AcDbEntity
  8
0
  6
Continuous
100
AcDbPolyline
 90
        4
 70
     0
 43
0.0
 10
172.8293376762622
 20
-24.82616593642049
 10
172.7795055642622
 20
-24.90020904842052
 10
172.7231141594622
 20
-24.97673553642052
 10
172.6601222410622
 20
-25.05564568682051
  0
LWPOLYLINE
  5
233
330
2
100
AcDbEntity
  8
0
  6
Continuous
100
AcDbPolyline
 90
        4
 70
     0
 43
0.0
 10
172.9525959482622
 20
-24.40066880202051
 10
172.9339815482622
 20
-24.53533984842052
 10
172.9041035338622
 20
-24.65659980842049
 10
172.8637954650622
 20
-24.7629013188205
  0
LWPOLYLINE
  5
239
330
2
100
AcDbEntity
  8
0
  6
Continuous
100
AcDbPolyline
 90
        6
 70
     0
 43
0.0
 10
173.2094851098622
 20
-23.50333217002052
 10
173.1339080410622
 20
-23.65660926922049
 10
173.0667502058622
 20
-23.82831098442049
 10
173.0140047498622
 20
-24.00508121002052
 10
172.9773085434622
 20
-24.17824762282052
 10
172.9564161770622
 20
-24.3505706900205
  0
LWPOLYLINE
  5
241
330
2
100
AcDbEntity
  8
0
  6
Continuous
100
AcDbPolyline
 90
        4
 70
     0
 43
0.0
 10
171.3801977578622
 20
-21.88832406922049
 10
171.4429984730622
 20
-21.99131587722051
 10
171.5077593770622
 20
-22.09015300682052
 10
171.6425030314622
 20
-22.2665059572205
  0
LWPOLYLINE
  5
247
330
2
100
AcDbEntity
  8
0
  6
Continuous
100
AcDbPolyline
 90
        3
 70
     0
 43
0.0
 10
172.1141651450622
 20
-22.31221814442051
 10
172.1162271706622
 20
-22.28881173482052
 10
172.1176770202622
 20
-22.2612439124205
  0
LWPOLYLINE
  5
24C
330
2
100
AcDbEntity
  8
0
  6
Continuous
100
AcDbPolyline
 90
        4
 70
     0
 43
0.0
 10
171.9628147338622
 20
-21.8831435028205
 10
172.0000884394622
 20
-21.98512567082049
 10
172.0397154650622
 20
-22.08300218602051
 10
172.1176770202622
 20
-22.2612439124205
  0
LINE
  5
252
330
2
100
AcDbEntity
  8
0
  6
Continuous
100
AcDbLine
 10
171.8708992554622
 20
-21.81220728202049
 30
0.0
 11
171.8656872938622
 21
-21.80154656202051
 31
0.0
  0
LINE
  5
253
330
2
100
AcDbEntity
  8
0
  6
Continuous
100
AcDbLine
 10
171.8037201818622
 20
-21.85313307882051
 30
0.0
 11
171.7984582138622
 21
-21.84251931882052
 31
0.0
  0
LWPOLYLINE
  5
254
330
2
100
AcDbEntity
  8
0
  6
Continuous
100
AcDbPolyline
 90
        3
 70
     0
 43
0.0
 10
171.7984582138622
 20
-21.84251931882052
 10
171.7848146874622
 20
-21.81464085962049
 10
171.7713136954622
 20
-21.78653142922049
  0
LWPOLYLINE
  5
259
330
2
100
AcDbEntity
  8
0
  6
Continuous
100
AcDbPolyline
 90
        3
 70
     0
 43
0.0
 10
171.8656872938622
 20
-21.80154656202051
 10
171.8521718474622
 20
-21.77355951242051
 10
171.8054804506622
 20
-21.6754024260205
  0
LWPOLYLINE
  5
25E
330
2
100
AcDbEntity
  8
0
  6
Continuous
100
AcDbPolyline
 90
       12
 70
     0
 43
0.0
 10
171.9886821082622
 20
-22.47264039402049
 10
171.9889686922622
 20
-22.45417457002051
 10
171.9885170202622
 20
-22.43282038282049
 10
171.9870405482622
 20
-22.40932941802051
 10
171.9843222234622
 20
-22.38443554922051
 10
171.9802137738622
 20
-22.35880559082049
 10
171.9746035898622
 20
-22.33294541642051
 10
171.9674260522622
 20
-22.30736989002049
 10
171.9587022282622
 20
-22.28269416042051
 10
171.9488667466622
 20
-22.26019969962051
 10
171.9390256778622
 20
-22.24162733642052
 10
171.9306517642622
 20
-22.2281929972205
  0
LWPOLYLINE
  5
26C
330
2
100
AcDbEntity
  8
0
  6
Continuous
100
AcDbPolyline
 90
        4
 70
     0
 43
0.0
 10
172.1084984026622
 20
-22.47709203242052
 10
172.1098295354622
 20
-22.44175257162051
 10
172.1098943594622
 20
-22.4059908036205
 10
172.1086189706622
 20
-22.36977066122051
  0
LWPOLYLINE
  5
272
330
2
100
AcDbEntity
  8
0
  6
Continuous
100
AcDbPolyline
 90
        3
 70
     0
 43
0.0
 10
171.9947567370622
 20
-22.19453169482051
 10
171.9901279418622
 20
-22.18678879562051
 10
171.9854568938622
 20
-22.17918562762051
  0
LINE
  5
277
330
2
100
AcDbEntity
  8
0
  6
Continuous
100
AcDbLine
 10
172.0853081946622
 20
-22.20145712202053
 30
0.0
 11
172.0499926986622
 21
-22.1426751716205
 31
0.0
  0
LWPOLYLINE
  5
278
330
2
100
AcDbEntity
  8
0
  6
Continuous
100
AcDbPolyline
 90
        3
 70
     0
 43
0.0
 10
172.0014238938622
 20
-22.2060611428205
 10
171.9981065914622
 20
-22.20026796842051
 10
171.9947567370622
 20
-22.19453169482051
  0
LWPOLYLINE
  5
27D
330
2
100
AcDbEntity
  8
0
  6
Continuous
100
AcDbPolyline
 90
        4
 70
     0
 43
0.0
 10
172.1176770202622
 20
-22.2612439124205
 10
172.1071615978622
 20
-22.23963232682051
 10
172.0960184106622
 20
-22.2196532084205
 10
172.0853081946622
 20
-22.20145712202053
  0
LWPOLYLINE
  5
283
330
2
100
AcDbEntity
  8
0
  6
Continuous
100
AcDbPolyline
 90
        6
 70
     0
 43
0.0
 10
172.0467100858622
 20
-22.30441977642049
 10
172.0382514458622
 20
-22.28104827722052
 10
172.0288300170622
 20
-22.2592922116205
 10
172.0193636378622
 20
-22.23962484522049
 10
172.0101967978622
 20
-22.22196665642052
 10
172.0014238938622
 20
-22.2060611428205
  0
LWPOLYLINE
  5
28B
330
2
100
AcDbEntity
  8
0
  6
Continuous
100
AcDbPolyline
 90
        3
 70
     0
 43
0.0
 10
172.0488787498622
 20
-22.3121648612205
 10
172.0478017594622
 20
-22.30811707562049
 10
172.0467100858622
 20
-22.30441977642049
  0
LWPOLYLINE
  5
290
330
2
100
AcDbEntity
  8
0
  6
Continuous
100
AcDbPolyline
 90
        5
 70
     0
 43
0.0
 10
172.0610949770622
 20
-22.38203892362052
 10
172.0584746650622
 20
-22.36028023082051
 10
172.0553147706622
 20
-22.34059492522051
 10
172.0520265082622
 20
-22.3245057204205
 10
172.0488787498622
 20
-22.3121648612205
  0
LINE
  5
297
330
2
100
AcDbEntity
  8
0
  6
Continuous
100
AcDbLine
 10
172.1086189818622
 20
-22.36977056362052
 30
0.0
 11
172.1141651450622
 21
-22.31221814442051
 31
0.0
  0
LINE
  5
298
330
2
100
AcDbEntity
  8
0
  6
Continuous
100
AcDbLine
 10
171.9596401978622
 20
-21.87394947722052
 30
0.0
 11
171.9628147338622
 21
-21.8831435028205
 31
0.0
  0
LWPOLYLINE
  5
299
330
2
100
AcDbEntity
  8
0
  6
Continuous
100
AcDbPolyline
 90
        4
 70
     0
 43
0.0
 10
171.9854568938622
 20
-22.17918562762051
 10
171.9226551386622
 20
-22.0746386324205
 10
171.8619786106622
 20
-21.96582240202053
 10
171.8037201818622
 20
-21.85313307882051
  0
LWPOLYLINE
  5
29F
330
2
100
AcDbEntity
  8
0
  6
Continuous
100
AcDbPolyline
 90
        4
 70
     0
 43
0.0
 10
172.0499927050622
 20
-22.14267516202049
 10
171.9882890122622
 20
-22.03601364042051
 10
171.9284884330622
 20
-21.9257449540205
 10
171.8708992618622
 20
-21.81220727402049
  0
LINE
  5
2A5
330
2
100
AcDbEntity
  8
0
  6
Continuous
100
AcDbLine
 10
171.3368630458622
 20
-22.8196048436205
 30
0.0
 11
171.3368920602622
 21
-22.81964440522052
 31
0.0
  0
LINE
  5
2A6
330
2
100
AcDbEntity
  8
0
  6
Continuous
100
AcDbLine
 10
171.3340362154622
 20
-22.81446784522052
 30
0.0
 11
171.3435825322622
 21
-22.82876899722051
 31
0.0
  0
LWPOLYLINE
  5
2A7
330
2
100
AcDbEntity
  8
0
  6
Continuous
100
AcDbPolyline
 90
       12
 70
     0
 43
0.0
 10
171.6782381194622
 20
-22.47305530442051
 10
171.6785126650622
 20
-22.4503333140205
 10
171.6775881130622
 20
-22.42261722762052
 10
171.6750217818622
 20
-22.39282783082051
 10
171.6708094010622
 20
-22.36341720522051
 10
171.6651906554622
 20
-22.33573456042051
 10
171.6584122378622
 20
-22.31019109322049
 10
171.6507443754622
 20
-22.28704190282051
 10
171.6425030314622
 20
-22.2665059572205
 10
171.6341002010622
 20
-22.24884215562049
 10
171.6260307114622
 20
-22.23425681642051
 10
171.6188445226622
 20
-22.2228653364205
  0
LINE
  5
2B5
330
2
100
AcDbEntity
  8
0
  6
Continuous
100
AcDbLine
 10
171.6660551178622
 20
-22.6316687684205
 30
0.0
 11
171.6782381194622
 21
-22.47305530442051
 31
0.0
  0
LWPOLYLINE
  5
2B6
330
2
100
AcDbEntity
  8
0
  6
Continuous
100
AcDbPolyline
 90
        4
 70
     0
 43
0.0
 10
171.8054804506622
 20
-21.6754024260205
 10
171.7707138218622
 20
-21.59888632682051
 10
171.7346591738622
 20
-21.51522361002052
 10
171.6975404410622
 20
-21.42380971882051
  0
LWPOLYLINE
  5
2BC
330
2
100
AcDbEntity
  8
0
  6
Continuous
100
AcDbPolyline
 90
        5
 70
     0
 43
0.0
 10
171.7713136954622
 20
-21.78653142922049
 10
171.7388447242622
 20
-21.71675512842049
 10
171.7048333834622
 20
-21.64009572522051
 10
171.6694434490622
 20
-21.5559512084205
 10
171.6328948922622
 20
-21.46371511722049
  0
LWPOLYLINE
  5
2C3
330
2
100
AcDbEntity
  8
0
  6
Continuous
100
AcDbPolyline
 90
        4
 70
     0
 43
0.0
 10
171.7927507802622
 20
-21.20064601322052
 10
171.8383248202622
 20
-21.43751918282049
 10
171.8942336602622
 20
-21.66283094442052
 10
171.9596401978622
 20
-21.87394947722052
  0
LWPOLYLINE
  5
2C9
330
2
100
AcDbEntity
  8
0
  6
Continuous
100
AcDbPolyline
 90
        4
 70
     0
 43
0.0
 10
171.6636093146622
 20
-21.11185966442052
 10
171.7133302490622
 20
-21.33345044842052
 10
171.7719528762622
 20
-21.5453336340205
 10
171.8387883482622
 20
-21.7453723684205
  0
LINE
  5
2CF
330
2
100
AcDbEntity
  8
0
  6
Continuous
100
AcDbLine
 10
170.9131668346622
 20
-22.19659102602052
 30
0.0
 11
170.9131841882622
 21
-22.19661860682051
 31
0.0
  0
LINE
  5
2D0
330
2
100
AcDbEntity
  8
0
  6
Continuous
100
AcDbLine
 10
170.9092252426622
 20
-22.1903228820205
 30
0.0
 11
170.9131397610622
 21
-22.19654801002052
 31
0.0
  0
LINE
  5
2D1
330
2
100
AcDbEntity
  8
0
  6
Continuous
100
AcDbLine
 10
170.8806196698622
 20
-22.11770230922051
 30
0.0
 11
170.8845192986622
 21
-22.12408253642049
 31
0.0
  0
LINE
  5
2D2
330
2
100
AcDbEntity
  8
0
  6
Continuous
100
AcDbLine
 10
170.8845192986622
 20
-22.12408253642049
 30
0.0
 11
170.9131668346622
 21
-22.19659102602052
 31
0.0
  0
LINE
  5
2D3
330
2
100
AcDbEntity
  8
0
  6
Continuous
100
AcDbLine
 10
170.8806196698622
 20
-22.11770230922051
 30
0.0
 11
170.9092474442622
 21
-22.19035821482052
 31
0.0
  0
LINE
  5
2D4
330
2
100
AcDbEntity
  8
0
  6
Continuous
100
AcDbLine
 10
170.6610741354622
 20
-21.74214644842052
 30
0.0
 11
170.9092539978622
 21
-22.19036864362049
 31
0.0
  0
LWPOLYLINE
  5
2D5
330
2
100
AcDbEntity
  8
0
  6
Continuous
100
AcDbPolyline
 90
        3
 70
     0
 43
0.0
 10
170.9131668346622
 20
-22.19659102602052
 10
171.0315747722622
 20
-22.38059012522052
 10
171.1782250810622
 20
-22.59743763722049
  0
LINE
  5
2DA
330
2
100
AcDbEntity
  8
0
  6
Continuous
100
AcDbLine
 10
171.1782250810622
 20
-22.59743763722049
 30
0.0
 11
171.3368920602622
 21
-22.81964440522052
 31
0.0
  0
LWPOLYLINE
  5
2DB
330
2
100
AcDbEntity
  8
0
  6
Continuous
100
AcDbPolyline
 90
        4
 70
     0
 43
0.0
 10
171.0563081962622
 20
-21.20292893482051
 10
171.1526802474622
 20
-21.4404011124205
 10
171.2592083498622
 20
-21.66667299882049
 10
171.3801977578622
 20
-21.88832406922049
  0
LINE
  5
2E1
330
2
100
AcDbEntity
  8
0
  6
Continuous
100
AcDbLine
 10
171.3368630458622
 20
-22.8196048436205
 30
0.0
 11
171.5333688049143
 21
-23.08765173439137
 31
0.0
  0
LWPOLYLINE
  5
2E2
330
2
100
AcDbEntity
  8
0
  6
Continuous
100
AcDbPolyline
 90
        4
 70
     0
 43
0.0
 10
172.0419568378622
 20
-22.91933136522052
 10
172.0753866794622
 20
-22.76498946282049
 10
172.0971617994622
 20
-22.61369000362051
 10
172.1084984682622
 20
-22.47709210922052
  0
LWPOLYLINE
  5
2E8
330
2
100
AcDbEntity
  8
0
  6
Continuous
100
AcDbPolyline
 90
        7
 70
     0
 43
0.0
 10
171.7311688762622
 20
-23.25348101322052
 10
171.8009000314622
 20
-23.16286994762052
 10
171.8618393818622
 20
-23.0519879380205
 10
171.9123001642622
 20
-22.9238439140205
 10
171.9509016490622
 20
-22.78191523242049
 10
171.9765877754622
 20
-22.63011944042051
 10
171.9886821082622
 20
-22.47264039402049
  0
LWPOLYLINE
  5
2F1
330
2
100
AcDbEntity
  8
0
  6
Continuous
100
AcDbPolyline
 90
        6
 70
     0
 43
0.0
 10
171.4189177418622
 20
-23.25937561322052
 10
171.4891202042622
 20
-23.16815613802052
 10
171.5504882170622
 20
-23.05650525642052
 10
171.6013122986622
 20
-22.92744903882051
 10
171.6401844026622
 20
-22.78453801002051
 10
171.6660551178622
 20
-22.6316687684205
  0
LWPOLYLINE
  5
2F9
330
2
100
AcDbEntity
  8
0
  6
Continuous
100
AcDbPolyline
 90
        4
 70
     0
 43
0.0
 10
174.7816897722622
 20
-21.30643201642049
 10
174.5921364474622
 20
-21.63520298442049
 10
174.3868388874622
 20
-21.95097321642051
 10
174.1668190714622
 20
-22.2522203940205
  0
LWPOLYLINE
  5
2FF
330
2
100
AcDbEntity
  8
0
  6
Continuous
100
AcDbPolyline
 90
        4
 70
     0
 43
0.0
 10
173.6619445994622
 20
-22.90332298442051
 10
173.5767288890622
 20
-23.01156081642052
 10
173.4896942570622
 20
-23.11884516522052
 10
173.4013263082622
 20
-23.22460861642051
  0
LINE
  5
305
330
2
100
AcDbEntity
  8
0
  6
Continuous
100
AcDbLine
 10
173.4013263082622
 20
-23.22460861642051
 30
0.0
 11
173.3920234106622
 21
-23.23556464842052
 31
0.0
  0
LINE
  5
306
330
2
100
AcDbEntity
  8
0
  6
Continuous
100
AcDbLine
 10
174.1668190714622
 20
-22.2522203940205
 30
0.0
 11
173.6619445994622
 21
-22.90332298442051
 31
0.0
  0
LWPOLYLINE
  5
307
330
2
100
AcDbEntity
  8
0
  6
Continuous
100
AcDbPolyline
 90
        4
 70
     0
 43
0.0
 10
173.0790046746622
 20
-20.3583401300205
 10
172.8273341802622
 20
-20.23026618922052
 10
172.2869658890622
 20
-19.93999151242051
 10
171.5581821060426
 20
-19.52141505421751
  0
LINE
  5
30D
330
2
100
AcDbEntity
  8
0
100
AcDbLine
 10
171.3336571146622
 20
-19.4023828884205
 30
0.0
 11
171.5581821060426
 21
-19.52141505421751
 31
0.0
  0
LINE
  5
30E
330
2
100
AcDbEntity
  8
0
  6
Continuous
100
AcDbLine
 10
171.2847373578622
 20
-19.81368035082051
 30
0.0
 11
171.2697851706622
 21
-19.36723637802051
 31
0.0
  0
LWPOLYLINE
  5
30F
330
2
100
AcDbEntity
  8
0
  6
Continuous
100
AcDbPolyline
 90
        3
 70
     0
 43
0.0
 10
170.8869487887829
 20
-19.43803262849378
 10
170.8481055738622
 20
-19.46881690762052
 10
170.8077878602622
 20
-19.51246087882051
  0
LWPOLYLINE
  5
314
330
2
100
AcDbEntity
  8
0
  6
Continuous
100
AcDbPolyline
 90
        4
 70
     0
 43
0.0
 10
170.8077878602622
 20
-19.51246087882051
 10
170.7789813098622
 20
-19.5500136356205
 10
170.7529697930622
 20
-19.58658078122051
 10
170.7304746634622
 20
-19.62108523882051
  0
LINE
  5
31A
330
2
100
AcDbEntity
  8
0
  6
Continuous
100
AcDbLine
 10
170.9005088682622
 20
-19.83405839562049
 30
0.0
 11
170.8845246970622
 21
-19.36723637802051
 31
0.0
  0
LWPOLYLINE
  5
31B
330
2
100
AcDbEntity
  8
0
100
AcDbPolyline
 90
        4
 70
   128
 43
0.0
 10
171.3336571146622
 20
-19.4023828884205
 10
171.2697851706622
 20
-19.36723637802051
 10
171.1949619402622
 20
-19.36723637802051
 10
170.8845246970622
 20
-19.36723637802051
  0
LWPOLYLINE
  5
31C
330
2
100
AcDbEntity
  8
0
  6
Continuous
100
AcDbPolyline
 90
        3
 70
     0
 43
0.0
 10
170.3125138650622
 20
-20.7220118772205
 10
170.3137501578622
 20
-20.78090810762051
 10
170.3196594474622
 20
-20.81843776202049
  0
LWPOLYLINE
  5
321
330
2
100
AcDbEntity
  8
0
  6
Continuous
100
AcDbPolyline
 90
       11
 70
     0
 43
0.0
 10
171.5680066442622
 20
-21.0467292276205
 10
171.5394421562622
 20
-20.94687365002051
 10
171.5104215098622
 20
-20.8365781668205
 10
171.4812517194622
 20
-20.71455443722052
 10
171.4523810186622
 20
-20.57949356042049
 10
171.4244097578622
 20
-20.43002981802052
 10
171.3981025306622
 20
-20.2646422052205
 10
171.3744287770622
 20
-20.0815849124205
 10
171.3546232650622
 20
-19.8787343684205
 10
171.3402943098622
 20
-19.65325983242049
 10
171.3336571146622
 20
-19.4023828884205
  0
LWPOLYLINE
  5
32E
330
2
100
AcDbEntity
  8
0
  6
Continuous
100
AcDbPolyline
 90
       11
 70
     0
 43
0.0
 10
171.5044127530622
 20
-21.07945445322052
 10
171.4758337770622
 20
-20.97714835402052
 10
171.4467651946622
 20
-20.86409449162053
 10
171.4175256298622
 20
-20.73896350282049
 10
171.3885804570622
 20
-20.60040423562049
 10
171.3605536506622
 20
-20.44700459562051
 10
171.3342413738622
 20
-20.27718807722052
 10
171.3106549770622
 20
-20.08914049802051
 10
171.2910852474622
 20
-19.8806454516205
 10
171.2772188378622
 20
-19.6487540932205
 10
171.2713831098622
 20
-19.39064269962052
  0
LWPOLYLINE
  5
33B
330
2
100
AcDbEntity
  8
0
  6
Continuous
100
AcDbPolyline
 90
        5
 70
     0
 43
0.0
 10
170.7304746634622
 20
-19.62108523882051
 10
170.5511695562622
 20
-19.93741067882051
 10
170.4208512842622
 20
-20.22941005802051
 10
170.3413598218622
 20
-20.49226357322051
 10
170.3125138650622
 20
-20.7220118772205
  0
LINE
  5
342
330
2
100
AcDbEntity
  8
0
  6
Continuous
100
AcDbLine
 10
174.7093878138622
 20
-20.89234726122052
 30
0.0
 11
174.6668523786622
 21
-20.8759840116205
 31
0.0
  0
LINE
  5
343
330
2
100
AcDbEntity
  8
0
  6
Continuous
100
AcDbLine
 10
174.7093747994622
 20
-20.89234072842052
 30
0.0
 11
174.6696144874622
 21
-20.87248298442051
 31
0.0
  0
LINE
  5
344
330
2
100
AcDbEntity
  8
0
  6
Continuous
100
AcDbLine
 10
174.5639244890622
 20
-20.82216053642051
 30
0.0
 11
174.5866322762622
 21
-20.83173064842049
 31
0.0
  0
LINE
  5
345
330
2
100
AcDbEntity
  8
0
  6
Continuous
100
AcDbLine
 10
174.5595672090622
 20
-20.84660029962051
 30
0.0
 11
174.6011228810622
 21
-20.86647187082049
 31
0.0
  0
LINE
  5
346
330
2
100
AcDbEntity
  8
0
  6
Continuous
100
AcDbLine
 10
174.6120226378622
 20
-20.84410241482049
 30
0.0
 11
174.5866121258622
 21
-20.8317208708205
 31
0.0
  0
LWPOLYLINE
  5
347
330
2
100
AcDbEntity
  8
0
  6
Continuous
100
AcDbPolyline
 90
        3
 70
     0
 43
0.0
 10
174.6668523786622
 20
-20.8759840116205
 10
174.6342693514622
 20
-20.86917454442049
 10
174.6011228810622
 20
-20.86647187082049
  0
LINE
  5
34C
330
2
100
AcDbEntity
  8
0
  6
Continuous
100
AcDbLine
 10
174.6696144874622
 20
-20.87248298442051
 30
0.0
 11
174.6120226378622
 21
-20.84410241482049
 31
0.0
  0
LWPOLYLINE
  5
34D
330
2
100
AcDbEntity
  8
0
  6
Continuous
100
AcDbPolyline
 90
        3
 70
     0
 43
0.0
 10
174.4749810442622
 20
-20.80687957322052
 10
174.5175230234622
 20
-20.8267320500205
 10
174.5595672090622
 20
-20.84660029962051
  0
LWPOLYLINE
  5
352
330
2
100
AcDbEntity
  8
0
  6
Continuous
100
AcDbPolyline
 90
        3
 70
     0
 43
0.0
 10
174.4749810442622
 20
-20.80687957322052
 10
174.5201436986622
 20
-20.81073213482051
 10
174.5639244890622
 20
-20.82216053642051
  0
LINE
  5
357
330
2
100
AcDbEntity
  8
0
  6
Continuous
100
AcDbLine
 10
173.9377582938622
 20
-20.7365748644205
 30
0.0
 11
173.7899109626622
 21
-20.6838529876205
 31
0.0
  0
LINE
  5
358
330
2
100
AcDbEntity
  8
0
  6
Continuous
100
AcDbLine
 10
173.8539239626622
 20
-20.7220118772205
 30
0.0
 11
173.7899109626622
 21
-20.6838529876205
 31
0.0
  0
LWPOLYLINE
  5
359
330
2
100
AcDbEntity
  8
0
  6
Continuous
100
AcDbPolyline
 90
        4
 70
     0
 43
0.0
 10
174.4749775178622
 20
-20.8068795540205
 10
174.2818986986622
 20
-20.79827385002051
 10
174.1023067722622
 20
-20.77481883402052
 10
173.9377582938622
 20
-20.7365748644205
  0
LWPOLYLINE
  5
35F
330
2
100
AcDbEntity
  8
0
  6
Continuous
100
AcDbPolyline
 90
        5
 70
     0
 43
0.0
 10
174.6011251226622
 20
-20.86647192202049
 10
174.3902853898622
 20
-20.85369866442052
 10
174.1943468586622
 20
-20.82517311882049
 10
174.0147713210622
 20
-20.78108149802051
 10
173.8539239626622
 20
-20.7220118772205
  0
LWPOLYLINE
  5
366
330
2
100
AcDbEntity
  8
0
  6
Continuous
100
AcDbPolyline
 90
        3
 70
     0
 43
0.0
 10
173.7899109626622
 20
-20.6838529876205
 10
173.2995183690622
 20
-20.46400438122051
 10
173.0794009226622
 20
-20.35752102282052
  0
LWPOLYLINE
  5
36B
330
2
100
AcDbEntity
  8
0
  6
Continuous
100
AcDbPolyline
 90
        3
 70
     0
 43
0.0
 10
173.8539239626622
 20
-20.7220118772205
 10
173.3503350218622
 20
-20.49111150602049
 10
173.0790046746622
 20
-20.3583401300205
  0
LINE
  5
370
330
2
100
AcDbEntity
  8
0
  6
HIDDEN
 62
     9
100
AcDbLine
 10
210.1971650922622
 20
-13.59219953322049
 30
0.0
 11
209.1986171274622
 21
-17.72859949482051
 31
0.0
  0
LINE
  5
371
330
2
100
AcDbEntity
  8
0
  6
HIDDEN
100
AcDbLine
 10
198.6836774922622
 20
-20.42973637802051
 30
0.0
 11
200.9336774922622
 21
-20.42973637802051
 31
0.0
  0
LINE
  5
372
330
2
100
AcDbEntity
  8
0
  6
Continuous
100
AcDbLine
 10
200.9024274922622
 20
-21.33598637802051
 30
0.0
 11
198.7149274922622
 21
-21.33598637802051
 31
0.0
  0
LINE
  5
373
330
2
100
AcDbEntity
  8
0
  6
Continuous
100
AcDbLine
 10
200.9336774922622
 20
-21.30473637802051
 30
0.0
 11
198.6836774922622
 21
-21.30473637802051
 31
0.0
  0
LINE
  5
374
330
2
100
AcDbEntity
  8
0
  6
Continuous
100
AcDbLine
 10
198.9486774922622
 20
-22.05473637802052
 30
0.0
 11
200.6686774922622
 21
-22.05473637802052
 31
0.0
  0
LINE
  5
375
330
2
100
AcDbEntity
  8
CENTER
100
AcDbLine
 10
199.8086774922622
 20
-18.82973637802052
 30
0.0
 11
199.8086774922622
 21
-23.65473637802049
 31
0.0
  0
LINE
  5
376
330
2
100
AcDbEntity
  8
0
  6
Continuous
100
AcDbLine
 10
198.6836774922622
 20
-21.30473637802051
 30
0.0
 11
198.6836774922622
 21
-20.55473637802051
 31
0.0
  0
LINE
  5
377
330
2
100
AcDbEntity
  8
0
  6
HIDDEN
100
AcDbLine
 10
198.9485993130622
 20
-21.43490875242051
 30
0.0
 11
198.9491358042622
 21
-21.43515207402051
 31
0.0
  0
LINE
  5
378
330
2
100
AcDbEntity
  8
0
  6
HIDDEN
100
AcDbLine
 10
198.9491358042622
 20
-21.43515207402051
 30
0.0
 11
198.9486774922622
 21
-21.4347363780205
 31
0.0
  0
LINE
  5
379
330
2
100
AcDbEntity
  8
0
  6
Continuous
100
AcDbLine
 10
198.9486774922622
 20
-21.45473637802052
 30
0.0
 11
198.9486774922622
 21
-21.4347363780205
 31
0.0
  0
LINE
  5
37A
330
2
100
AcDbEntity
  8
0
  6
HIDDEN
100
AcDbLine
 10
198.9221812106622
 20
-21.3865456836205
 30
0.0
 11
198.9220141514622
 21
-21.38682303562049
 31
0.0
  0
LINE
  5
37B
330
2
100
AcDbEntity
  8
0
  6
HIDDEN
100
AcDbLine
 10
198.9491358042622
 20
-21.45432068202049
 30
0.0
 11
198.9486774922622
 21
-21.45473637802052
 31
0.0
  0
LWPOLYLINE
  5
37C
330
2
100
AcDbEntity
  8
0
  6
Continuous
100
AcDbPolyline
 90
        5
 70
     0
 43
0.0
 10
198.8929775770622
 20
-21.39979030282053
 10
198.8914227674622
 20
-21.4007988132205
 10
198.8896089770622
 20
-21.40461911242051
 10
198.8912657770622
 20
-21.40852625162052
 10
198.8929679162622
 20
-21.4096780676205
  0
LWPOLYLINE
  5
383
330
2
100
AcDbEntity
  8
0
  6
Continuous
100
AcDbPolyline
 90
        5
 70
     0
 43
0.0
 10
198.8929775770622
 20
-21.4797903028205
 10
198.8914227674622
 20
-21.4807988132205
 10
198.8896089770622
 20
-21.48461911242049
 10
198.8912657770622
 20
-21.48852625162052
 10
198.8929679162622
 20
-21.48967806762049
  0
LINE
  5
38A
330
2
100
AcDbEntity
  8
0
  6
Continuous
100
AcDbLine
 10
198.8929734266622
 20
-21.40968057482052
 30
0.0
 11
198.9485993130622
 21
-21.43490875242051
 31
0.0
  0
LINE
  5
38B
330
2
100
AcDbEntity
  8
0
  6
Continuous
100
AcDbLine
 10
198.9221812106622
 20
-21.3865456836205
 30
0.0
 11
198.8929734266622
 21
-21.39979218122051
 31
0.0
  0
LINE
  5
38C
330
2
100
AcDbEntity
  8
0
  6
Continuous
100
AcDbLine
 10
198.9491358042622
 20
-21.45432068202049
 30
0.0
 11
198.8929734266622
 21
-21.4797921812205
 31
0.0
  0
LINE
  5
38D
330
2
100
AcDbEntity
  8
0
  6
Continuous
100
AcDbLine
 10
198.9220141514622
 20
-21.38682303562049
 30
0.0
 11
198.8711774922622
 21
-21.33598637802051
 31
0.0
  0
ARC
  5
38E
330
2
100
AcDbEntity
  8
0
  6
Continuous
100
AcDbCircle
 10
198.7149274922622
 20
-21.30473637802051
 30
0.0
 40
0.03125
100
AcDbArc
 50
180.0
 51
270.0
  0
LINE
  5
38F
330
2
100
AcDbEntity
  8
0
  6
HIDDEN
100
AcDbLine
 10
198.9485993130622
 20
-21.51490875242049
 30
0.0
 11
198.9491358042622
 21
-21.51515207402052
 31
0.0
  0
LINE
  5
390
330
2
100
AcDbEntity
  8
0
  6
HIDDEN
100
AcDbLine
 10
198.9491358042622
 20
-21.51515207402052
 30
0.0
 11
198.9486774922622
 21
-21.5147363780205
 31
0.0
  0
LINE
  5
391
330
2
100
AcDbEntity
  8
0
  6
Continuous
100
AcDbLine
 10
198.9486774922622
 20
-21.5347363780205
 30
0.0
 11
198.9486774922622
 21
-21.5147363780205
 31
0.0
  0
LINE
  5
392
330
2
100
AcDbEntity
  8
0
  6
HIDDEN
100
AcDbLine
 10
198.9491358042622
 20
-21.53432068202053
 30
0.0
 11
198.9486774922622
 21
-21.5347363780205
 31
0.0
  0
LWPOLYLINE
  5
393
330
2
100
AcDbEntity
  8
0
  6
Continuous
100
AcDbPolyline
 90
        5
 70
     0
 43
0.0
 10
198.8929775770622
 20
-21.5597903028205
 10
198.8914227674622
 20
-21.56079881322051
 10
198.8896089770622
 20
-21.5646191124205
 10
198.8912657770622
 20
-21.5685262516205
 10
198.8929679162622
 20
-21.56967806762052
  0
LINE
  5
39A
330
2
100
AcDbEntity
  8
0
  6
Continuous
100
AcDbLine
 10
198.9491358042622
 20
-21.53432068202053
 30
0.0
 11
198.8929734266622
 21
-21.5597921812205
 31
0.0
  0
LINE
  5
39B
330
2
100
AcDbEntity
  8
0
  6
HIDDEN
100
AcDbLine
 10
198.9485993130622
 20
-21.75490875242051
 30
0.0
 11
198.9491358042622
 21
-21.75515207402051
 31
0.0
  0
LINE
  5
39C
330
2
100
AcDbEntity
  8
0
  6
HIDDEN
100
AcDbLine
 10
198.9485993130622
 20
-21.67490875242053
 30
0.0
 11
198.9491358042622
 21
-21.6751520740205
 31
0.0
  0
LINE
  5
39D
330
2
100
AcDbEntity
  8
0
  6
HIDDEN
100
AcDbLine
 10
198.9485993130622
 20
-21.59490875242049
 30
0.0
 11
198.9491358042622
 21
-21.5951520740205
 31
0.0
  0
LINE
  5
39E
330
2
100
AcDbEntity
  8
0
  6
HIDDEN
100
AcDbLine
 10
198.9491358042622
 20
-21.75515207402051
 30
0.0
 11
198.9486774922622
 21
-21.7547363780205
 31
0.0
  0
LINE
  5
39F
330
2
100
AcDbEntity
  8
0
  6
HIDDEN
100
AcDbLine
 10
198.9491358042622
 20
-21.6751520740205
 30
0.0
 11
198.9486774922622
 21
-21.67473637802051
 31
0.0
  0
LINE
  5
3A0
330
2
100
AcDbEntity
  8
0
  6
HIDDEN
100
AcDbLine
 10
198.9491358042622
 20
-21.5951520740205
 30
0.0
 11
198.9486774922622
 21
-21.59473637802052
 31
0.0
  0
LINE
  5
3A1
330
2
100
AcDbEntity
  8
0
  6
Continuous
100
AcDbLine
 10
198.9486774922622
 20
-21.77473637802052
 30
0.0
 11
198.9486774922622
 21
-21.7547363780205
 31
0.0
  0
LINE
  5
3A2
330
2
100
AcDbEntity
  8
0
  6
Continuous
100
AcDbLine
 10
198.9486774922622
 20
-21.69473637802052
 30
0.0
 11
198.9486774922622
 21
-21.67473637802051
 31
0.0
  0
LINE
  5
3A3
330
2
100
AcDbEntity
  8
0
  6
Continuous
100
AcDbLine
 10
198.9486774922622
 20
-21.61473637802049
 30
0.0
 11
198.9486774922622
 21
-21.59473637802052
 31
0.0
  0
LINE
  5
3A4
330
2
100
AcDbEntity
  8
0
  6
HIDDEN
100
AcDbLine
 10
198.9491358042622
 20
-21.61432068202051
 30
0.0
 11
198.9486774922622
 21
-21.61473637802049
 31
0.0
  0
LINE
  5
3A5
330
2
100
AcDbEntity
  8
0
  6
HIDDEN
100
AcDbLine
 10
198.9491358042622
 20
-21.6943206820205
 30
0.0
 11
198.9486774922622
 21
-21.69473637802052
 31
0.0
  0
LINE
  5
3A6
330
2
100
AcDbEntity
  8
0
  6
HIDDEN
100
AcDbLine
 10
198.9491358042622
 20
-21.77432068202049
 30
0.0
 11
198.9486774922622
 21
-21.77473637802052
 31
0.0
  0
LWPOLYLINE
  5
3A7
330
2
100
AcDbEntity
  8
0
  6
Continuous
100
AcDbPolyline
 90
        5
 70
     0
 43
0.0
 10
198.8929775770622
 20
-21.63979030282051
 10
198.8914227674622
 20
-21.64079881322052
 10
198.8896089770622
 20
-21.64461911242052
 10
198.8912657770622
 20
-21.64852625162049
 10
198.8929679162622
 20
-21.64967806762052
  0
LWPOLYLINE
  5
3AE
330
2
100
AcDbEntity
  8
0
  6
Continuous
100
AcDbPolyline
 90
        5
 70
     0
 43
0.0
 10
198.8929775770622
 20
-21.71979030282053
 10
198.8914227674622
 20
-21.7207988132205
 10
198.8896089770622
 20
-21.72461911242051
 10
198.8912657770622
 20
-21.72852625162052
 10
198.8929679162622
 20
-21.7296780676205
  0
LINE
  5
3B5
330
2
100
AcDbEntity
  8
0
  6
Continuous
100
AcDbLine
 10
198.8929734266622
 20
-21.72968057482052
 30
0.0
 11
198.9485993130622
 21
-21.75490875242051
 31
0.0
  0
LINE
  5
3B6
330
2
100
AcDbEntity
  8
0
  6
Continuous
100
AcDbLine
 10
198.8929734266622
 20
-21.64968057482052
 30
0.0
 11
198.9485993130622
 21
-21.67490875242053
 31
0.0
  0
LINE
  5
3B7
330
2
100
AcDbEntity
  8
0
  6
Continuous
100
AcDbLine
 10
198.9491358042622
 20
-21.61432068202051
 30
0.0
 11
198.8929734266622
 21
-21.63979218122051
 31
0.0
  0
LINE
  5
3B8
330
2
100
AcDbEntity
  8
0
  6
Continuous
100
AcDbLine
 10
198.9491358042622
 20
-21.6943206820205
 30
0.0
 11
198.8929734266622
 21
-21.71979218122051
 31
0.0
  0
LINE
  5
3B9
330
2
100
AcDbEntity
  8
0
  6
HIDDEN
100
AcDbLine
 10
198.9485993130622
 20
-21.91490875242049
 30
0.0
 11
198.9491358042622
 21
-21.9151520740205
 31
0.0
  0
LINE
  5
3BA
330
2
100
AcDbEntity
  8
0
  6
HIDDEN
100
AcDbLine
 10
198.9485993130622
 20
-21.83490875242049
 30
0.0
 11
198.9491358042622
 21
-21.83515207402052
 31
0.0
  0
LINE
  5
3BB
330
2
100
AcDbEntity
  8
0
  6
HIDDEN
100
AcDbLine
 10
198.9491358042622
 20
-21.9151520740205
 30
0.0
 11
198.9486774922622
 21
-21.91473637802052
 31
0.0
  0
LINE
  5
3BC
330
2
100
AcDbEntity
  8
0
  6
HIDDEN
100
AcDbLine
 10
198.9491358042622
 20
-21.83515207402052
 30
0.0
 11
198.9486774922622
 21
-21.8347363780205
 31
0.0
  0
LINE
  5
3BD
330
2
100
AcDbEntity
  8
0
  6
Continuous
100
AcDbLine
 10
198.9237552138622
 20
-21.9501231732205
 30
0.0
 11
198.9237552138622
 21
-21.9747919604205
 31
0.0
  0
LINE
  5
3BE
330
2
100
AcDbEntity
  8
0
  6
Continuous
100
AcDbLine
 10
198.9486774922622
 20
-21.93473637802049
 30
0.0
 11
198.9486774922622
 21
-21.91473637802052
 31
0.0
  0
LINE
  5
3BF
330
2
100
AcDbEntity
  8
0
  6
Continuous
100
AcDbLine
 10
198.9486774922622
 20
-21.8547363780205
 30
0.0
 11
198.9486774922622
 21
-21.8347363780205
 31
0.0
  0
LWPOLYLINE
  5
3C0
330
2
100
AcDbEntity
  8
0
  6
Continuous
100
AcDbPolyline
 90
        4
 70
     0
 43
0.0
 10
198.9405711578622
 20
-21.9382093044205
 10
198.9310820330622
 20
-21.94301945642052
 10
198.9239162922622
 20
-21.9493669172205
 10
198.9237552138622
 20
-21.95026887242049
  0
LINE
  5
3C6
330
2
100
AcDbEntity
  8
0
  6
Continuous
100
AcDbLine
 10
198.9491358042622
 20
-21.93432068202051
 30
0.0
 11
198.9405710410622
 21
-21.9382051924205
 31
0.0
  0
LINE
  5
3C7
330
2
100
AcDbEntity
  8
0
  6
HIDDEN
100
AcDbLine
 10
198.9486774922622
 20
-21.93473637802049
 30
0.0
 11
198.9405711578622
 21
-21.9382093044205
 31
0.0
  0
LWPOLYLINE
  5
3C8
330
2
100
AcDbEntity
  8
0
  6
Continuous
100
AcDbPolyline
 90
        4
 70
     0
 43
0.0
 10
198.9237552138622
 20
-21.9746452804205
 10
198.9239152298622
 20
-21.97590691242051
 10
198.9310761322622
 20
-21.98434836842051
 10
198.9486774922622
 20
-21.99473637802051
  0
LINE
  5
3CE
330
2
100
AcDbEntity
  8
0
  6
HIDDEN
100
AcDbLine
 10
198.9491358042622
 20
-21.85432068202053
 30
0.0
 11
198.9486774922622
 21
-21.8547363780205
 31
0.0
  0
LINE
  5
3CF
330
2
100
AcDbEntity
  8
0
  6
HIDDEN
100
AcDbLine
 10
198.9491358042622
 20
-21.93432068202051
 30
0.0
 11
198.9486774922622
 21
-21.93473637802049
 31
0.0
  0
LWPOLYLINE
  5
3D0
330
2
100
AcDbEntity
  8
0
  6
Continuous
100
AcDbPolyline
 90
        5
 70
     0
 43
0.0
 10
198.8929775770622
 20
-21.7997903028205
 10
198.8914227674622
 20
-21.8007988132205
 10
198.8896089770622
 20
-21.8046191124205
 10
198.8912657770622
 20
-21.80852625162053
 10
198.8929679162622
 20
-21.80967806762049
  0
LWPOLYLINE
  5
3D7
330
2
100
AcDbEntity
  8
0
  6
Continuous
100
AcDbPolyline
 90
        5
 70
     0
 43
0.0
 10
198.8929775770622
 20
-21.8797903028205
 10
198.8914227674622
 20
-21.88079881322049
 10
198.8896089770622
 20
-21.8846191124205
 10
198.8912657770622
 20
-21.8885262516205
 10
198.8929679162622
 20
-21.88967806762049
  0
LINE
  5
3DE
330
2
100
AcDbEntity
  8
0
  6
Continuous
100
AcDbLine
 10
198.8929734266622
 20
-21.88968057482049
 30
0.0
 11
198.9485993130622
 21
-21.91490875242049
 31
0.0
  0
LINE
  5
3DF
330
2
100
AcDbEntity
  8
0
  6
Continuous
100
AcDbLine
 10
198.8929734266622
 20
-21.8096805748205
 30
0.0
 11
198.9485993130622
 21
-21.83490875242049
 31
0.0
  0
LINE
  5
3E0
330
2
100
AcDbEntity
  8
0
  6
Continuous
100
AcDbLine
 10
198.9491358042622
 20
-21.85432068202053
 30
0.0
 11
198.8929734266622
 21
-21.8797921812205
 31
0.0
  0
LINE
  5
3E1
330
2
100
AcDbEntity
  8
0
  6
Continuous
100
AcDbLine
 10
198.9491358042622
 20
-21.77432068202049
 30
0.0
 11
198.8929734266622
 21
-21.7997921812205
 31
0.0
  0
LINE
  5
3E2
330
2
100
AcDbEntity
  8
0
  6
Continuous
100
AcDbLine
 10
198.8929734266622
 20
-21.56968057482049
 30
0.0
 11
198.9485993130622
 21
-21.59490875242049
 31
0.0
  0
LINE
  5
3E3
330
2
100
AcDbEntity
  8
0
  6
Continuous
100
AcDbLine
 10
198.9486774922622
 20
-22.05473637802052
 30
0.0
 11
198.9486774922622
 21
-21.99473637802051
 31
0.0
  0
LINE
  5
3E4
330
2
100
AcDbEntity
  8
0
  6
Continuous
100
AcDbLine
 10
198.8929734266622
 20
-21.4896805748205
 30
0.0
 11
198.9485993130622
 21
-21.51490875242049
 31
0.0
  0
LINE
  5
3E5
330
2
100
AcDbEntity
  8
0
  6
HIDDEN
100
AcDbLine
 10
198.6836774922622
 20
-20.55473637802051
 30
0.0
 11
198.6836774922622
 21
-20.42973637802051
 31
0.0
  0
LWPOLYLINE
  5
3E6
330
2
100
AcDbEntity
  8
0
  6
Continuous
100
AcDbPolyline
 90
        4
 70
     0
 43
0.0
 10
206.4417811194622
 20
-20.7220118772205
 10
206.2968222410622
 20
-21.21822083562052
 10
206.1042517306622
 20
-21.68937363242051
 10
205.8736753146622
 20
-22.11770230922051
  0
LWPOLYLINE
  5
3EC
330
2
100
AcDbEntity
  8
0
  6
Continuous
100
AcDbPolyline
 90
        3
 70
     0
 43
0.0
 10
206.4346355370622
 20
-20.81843776202049
 10
206.2923321386622
 20
-21.27151176202049
 10
206.0932208490622
 20
-21.74214644842052
  0
LWPOLYLINE
  5
3F1
330
2
100
AcDbEntity
  8
0
  6
Continuous
100
AcDbPolyline
 90
        5
 70
     0
 43
0.0
 10
205.0567545050622
 20
-21.4238096692205
 10
205.0872527002622
 20
-21.34400584202051
 10
205.1186419210622
 20
-21.25669962762052
 10
205.1509161418622
 20
-21.16064195082051
 10
205.1839733114622
 20
-21.05449409002051
  0
LWPOLYLINE
  5
3F8
330
2
100
AcDbEntity
  8
0
  6
Continuous
100
AcDbPolyline
 90
        5
 70
     0
 43
0.0
 10
205.1214000922622
 20
-21.46371511722049
 10
205.1515502890622
 20
-21.3824308180205
 10
205.1826526410622
 20
-21.29347444362049
 10
205.2146969418622
 20
-21.19557592362049
 10
205.2475776986622
 20
-21.0873709716205
  0
LWPOLYLINE
  5
3FF
330
2
100
AcDbEntity
  8
0
  6
Continuous
100
AcDbPolyline
 90
        5
 70
     0
 43
0.0
 10
205.9465071242622
 20
-19.51246087882051
 10
205.9137106570622
 20
-19.92441199402049
 10
205.8521105050622
 20
-20.3342407188205
 10
205.7628556858622
 20
-20.7314752660205
 10
205.6483257194622
 20
-21.10618961162051
  0
LWPOLYLINE
  5
406
330
2
100
AcDbEntity
  8
0
  6
Continuous
100
AcDbPolyline
 90
        5
 70
     0
 43
0.0
 10
206.0238203210622
 20
-19.62108523882051
 10
205.9854127658622
 20
-20.0287500372205
 10
205.9176727130622
 20
-20.43396918442051
 10
205.8219057690622
 20
-20.82624705642052
 10
205.7007130442622
 20
-21.19565604202049
  0
LWPOLYLINE
  5
40D
330
2
100
AcDbEntity
  8
0
  6
Continuous
100
AcDbPolyline
 90
        5
 70
     0
 43
0.0
 10
205.0225770458622
 20
-19.62108523882051
 10
205.0419732522622
 20
-20.02722893802052
 10
205.0380784602622
 20
-20.43147749642052
 10
205.0112283002622
 20
-20.8234758884205
 10
204.9627459050622
 20
-21.19338446122049
  0
LWPOLYLINE
  5
414
330
2
100
AcDbEntity
  8
0
  6
Continuous
100
AcDbPolyline
 90
        5
 70
     0
 43
0.0
 10
205.1961128784819
 20
-19.5214150542175
 10
205.2059935434622
 20
-19.9232667636205
 10
205.1915999562622
 20
-20.3323710148205
 10
205.1531630746622
 20
-20.72940370282051
 10
205.0921502746622
 20
-21.1044990900205
  0
LWPOLYLINE
  5
41B
330
2
100
AcDbEntity
  8
0
  6
Continuous
100
AcDbPolyline
 90
        5
 70
     0
 43
0.0
 10
205.1214000922622
 20
-21.46371511722049
 10
205.2494851770622
 20
-21.08502543082051
 10
205.3511078762622
 20
-20.6797225844205
 10
205.4249293306622
 20
-20.25315173482052
 10
205.4695576266622
 20
-19.81368035082051
  0
LWPOLYLINE
  5
422
330
2
100
AcDbEntity
  8
0
  6
Continuous
100
AcDbPolyline
 90
        8
 70
     0
 43
0.0
 10
204.8236432202622
 20
-22.2281929972205
 10
205.0087923210622
 20
-21.91360171882049
 10
205.1709895066622
 20
-21.55708427882049
 10
205.3078355834622
 20
-21.16355242122049
 10
205.4165185866622
 20
-20.74090665482052
 10
205.4955296074622
 20
-20.29501002602052
 10
205.5433190314622
 20
-19.83492961322049
 10
205.5593330442622
 20
-19.36723637802051
  0
LWPOLYLINE
  5
42C
330
2
100
AcDbEntity
  8
0
  6
Continuous
100
AcDbPolyline
 90
        7
 70
     0
 43
0.0
 10
205.1354504618622
 20
-22.2228653364205
 10
205.3202546730622
 20
-21.9088600948205
 10
205.4821499962622
 20
-21.55300617002049
 10
205.6187419674622
 20
-21.1602046612205
 10
205.7272224474622
 20
-20.7383455204205
 10
205.8060858250622
 20
-20.29328118122051
 10
205.8537861162622
 20
-19.83405839562049
  0
LWPOLYLINE
  5
435
330
2
100
AcDbEntity
  8
0
  6
Continuous
100
AcDbPolyline
 90
        9
 70
     0
 43
0.0
 10
201.9726062346622
 20
-21.30643390602049
 10
201.9426363754622
 20
-21.23941694282051
 10
201.9244292826622
 20
-21.16988749642052
 10
201.9196746906622
 20
-21.1024037124205
 10
201.9285885530622
 20
-21.03917959082049
 10
201.9513279946622
 20
-20.9820704628205
 10
201.9866122106622
 20
-20.93474929162051
 10
202.0327716666622
 20
-20.8989122468205
 10
202.0449071706622
 20
-20.89234726122052
  0
LINE
  5
440
330
2
100
AcDbEntity
  8
0
  6
Continuous
100
AcDbLine
 10
200.9336774922622
 20
-21.30473637802051
 30
0.0
 11
200.9336774922622
 21
-20.55473637802051
 31
0.0
  0
LINE
  5
441
330
2
100
AcDbEntity
  8
0
  6
Continuous
100
AcDbLine
 10
205.5760699034622
 20
-22.59743763722049
 30
0.0
 11
205.4174029242622
 21
-22.81964440522052
 31
0.0
  0
LWPOLYLINE
  5
442
330
2
100
AcDbEntity
  8
0
  6
Continuous
100
AcDbPolyline
 90
        4
 70
     0
 43
0.0
 10
205.6979867882622
 20
-21.20292893482051
 10
205.6016147370622
 20
-21.4404011124205
 10
205.4950866346622
 20
-21.66667299882049
 10
205.3740972266622
 20
-21.88832406922049
  0
LWPOLYLINE
  5
448
330
2
100
AcDbEntity
  8
0
  6
Continuous
100
AcDbPolyline
 90
        4
 70
     0
 43
0.0
 10
205.4581959658622
 20
-24.0100103796205
 10
205.5607884490622
 20
-24.11736962442051
 10
205.6626179706622
 20
-24.22344616042051
 10
205.7637360458622
 20
-24.32829941482052
  0
LINE
  5
44E
330
2
100
AcDbEntity
  8
0
  6
Continuous
100
AcDbLine
 10
205.8511193994622
 20
-24.15039022282051
 30
0.0
 11
205.0231261082622
 21
-23.25348101322052
 31
0.0
  0
LINE
  5
44F
330
2
100
AcDbEntity
  8
0
  6
Continuous
100
AcDbLine
 10
206.1633705354622
 20
-24.1562848228205
 30
0.0
 11
205.3353772426622
 21
-23.25937561322052
 31
0.0
  0
LWPOLYLINE
  5
450
330
2
100
AcDbEntity
  8
0
  6
Continuous
100
AcDbPolyline
 90
        4
 70
     0
 43
0.0
 10
203.3622715738622
 20
-23.23556464842052
 10
203.3916086426622
 20
-23.27122673642049
 10
203.4193647226622
 20
-23.30724378922051
 10
203.4459401258622
 20
-23.34399458122051
  0
LWPOLYLINE
  5
456
330
2
100
AcDbEntity
  8
0
  6
Continuous
100
AcDbPolyline
 90
        5
 70
     0
 43
0.0
 10
204.7123389530622
 20
-22.9193320852205
 10
204.7509158938622
 20
-23.0717676260205
 10
204.8005584026622
 20
-23.21180296362052
 10
204.8603926106622
 20
-23.33641610122052
 10
204.9290303194622
 20
-23.44242778282049
  0
LWPOLYLINE
  5
45D
330
2
100
AcDbEntity
  8
0
  6
Continuous
100
AcDbPolyline
 90
        3
 70
     0
 43
0.0
 10
204.9743031018622
 20
-23.49640238602052
 10
205.1084070522622
 20
-23.6397176740205
 10
205.2411950906622
 20
-23.78092713322049
  0
LINE
  5
462
330
2
100
AcDbEntity
  8
0
  6
Continuous
100
AcDbLine
 10
205.2411950906622
 20
-23.78092713322049
 30
0.0
 11
205.4031342874622
 21
-23.95213665002052
 31
0.0
  0
LWPOLYLINE
  5
463
330
2
100
AcDbEntity
  8
0
  6
Continuous
100
AcDbPolyline
 90
        4
 70
     0
 43
0.0
 10
204.9359774938622
 20
-23.45145754762052
 10
204.9485316090622
 20
-23.46706548682049
 10
204.9613107514622
 20
-23.48205187082052
 10
204.9743031018622
 20
-23.49640238602052
  0
LINE
  5
469
330
2
100
AcDbEntity
  8
0
  6
Continuous
100
AcDbLine
 10
204.9290303194622
 20
-23.44242778282049
 30
0.0
 11
204.9359774938622
 21
-23.45145754762052
 31
0.0
  0
LINE
  5
46A
330
2
100
AcDbEntity
  8
0
  6
Continuous
100
AcDbLine
 10
205.4031342874622
 20
-23.95213665002052
 30
0.0
 11
205.4581959658622
 21
-24.0100103796205
 31
0.0
  0
LWPOLYLINE
  5
46B
330
2
100
AcDbEntity
  8
0
  6
Continuous
100
AcDbPolyline
 90
        4
 70
     0
 43
0.0
 10
203.7978788074622
 20
-24.3505706900205
 10
203.7994014138622
 20
-24.37273030122051
 10
203.8004947514622
 20
-24.38676599402052
 10
203.8016990362622
 20
-24.40066880202051
  0
LWPOLYLINE
  5
471
330
2
100
AcDbEntity
  8
0
  6
Continuous
100
AcDbPolyline
 90
        4
 70
     0
 43
0.0
 10
203.9249573082622
 20
-24.82616593642049
 10
203.9747894202622
 20
-24.90020904842052
 10
204.0311808250622
 20
-24.97673553642052
 10
204.0941727434622
 20
-25.05564568682051
  0
LINE
  5
477
330
2
100
AcDbEntity
  8
0
  6
Continuous
100
AcDbLine
 10
203.9226176698622
 20
-24.82247495562052
 30
0.0
 11
203.9249573082622
 21
-24.82616593642049
 31
0.0
  0
LWPOLYLINE
  5
478
330
2
100
AcDbEntity
  8
0
  6
Continuous
100
AcDbPolyline
 90
        4
 70
     0
 43
0.0
 10
203.8923765162622
 20
-24.76696389482052
 10
203.9015835562622
 20
-24.7856975588205
 10
203.9116404602622
 20
-24.8041669668205
 10
203.9226176698622
 20
-24.82247495562052
  0
LINE
  5
47E
330
2
100
AcDbEntity
  8
0
  6
Continuous
100
AcDbLine
 10
203.8904995194622
 20
-24.7629013188205
 30
0.0
 11
203.8923765162622
 21
-24.76696389482052
 31
0.0
  0
LWPOLYLINE
  5
47F
330
2
100
AcDbEntity
  8
0
  6
Continuous
100
AcDbPolyline
 90
        4
 70
     0
 43
0.0
 10
203.8016990362622
 20
-24.40066880202051
 10
203.8203134362622
 20
-24.53533984842052
 10
203.8501914506622
 20
-24.65659980842049
 10
203.8904995194622
 20
-24.7629013188205
  0
LWPOLYLINE
  5
485
330
2
100
AcDbEntity
  8
0
  6
Continuous
100
AcDbPolyline
 90
        4
 70
     0
 43
0.0
 10
203.4459401258622
 20
-23.34399458122051
 10
203.4803709642622
 20
-23.39522624362052
 10
203.5136435738623
 20
-23.4488978868205
 10
203.5448098746622
 20
-23.50333217002052
  0
LWPOLYLINE
  5
48B
330
2
100
AcDbEntity
  8
0
  6
Continuous
100
AcDbPolyline
 90
        6
 70
     0
 43
0.0
 10
203.5448098746622
 20
-23.50333217002052
 10
203.6203869434622
 20
-23.65660926922049
 10
203.6875447786622
 20
-23.82831098442049
 10
203.7402902346622
 20
-24.00508121002052
 10
203.7769864410622
 20
-24.17824762282052
 10
203.7978788074622
 20
-24.3505706900205
  0
LINE
  5
493
330
2
100
AcDbEntity
  8
0
  6
Continuous
100
AcDbLine
 10
204.2352689338622
 20
-25.2149121412205
 30
0.0
 11
204.2373354522622
 21
-25.21710374602052
 31
0.0
  0
LWPOLYLINE
  5
494
330
2
100
AcDbEntity
  8
0
  6
Continuous
100
AcDbPolyline
 90
        4
 70
     0
 43
0.0
 10
204.0941727434622
 20
-25.05564568682051
 10
204.1387303546622
 20
-25.10821164522052
 10
204.1857451530622
 20
-25.1612850708205
 10
204.2352689338622
 20
-25.2149121412205
  0
LINE
  5
49A
330
2
100
AcDbEntity
  8
0
  6
Continuous
100
AcDbLine
 10
202.5874759130622
 20
-22.2522203940205
 30
0.0
 11
203.0923503850622
 21
-22.90332298442051
 31
0.0
  0
LWPOLYLINE
  5
49B
330
2
100
AcDbEntity
  8
0
  6
Continuous
100
AcDbPolyline
 90
        4
 70
     0
 43
0.0
 10
201.9726052122622
 20
-21.30643201642049
 10
202.1621585370622
 20
-21.63520298442049
 10
202.3674560970622
 20
-21.95097321642051
 10
202.5874759130622
 20
-22.2522203940205
  0
ARC
  5
4A1
330
2
100
AcDbEntity
  8
0
  6
Continuous
100
AcDbCircle
 10
200.9024274922622
 20
-21.30473637802051
 30
0.0
 40
0.03125
100
AcDbArc
 50
270.0
 51
0.0
  0
LINE
  5
4A2
330
2
100
AcDbEntity
  8
0
  6
HIDDEN
100
AcDbLine
 10
200.6645363578622
 20
-21.41348637802051
 30
0.0
 11
200.6682191802622
 21
-21.41432068202049
 31
0.0
  0
LINE
  5
4A3
330
2
100
AcDbEntity
  8
0
  6
HIDDEN
100
AcDbLine
 10
200.6687556714622
 20
-21.49456400362049
 30
0.0
 11
200.6682191802622
 21
-21.49432068202052
 31
0.0
  0
LINE
  5
4A4
330
2
100
AcDbEntity
  8
0
  6
Continuous
100
AcDbLine
 10
200.7243815594622
 20
-21.4397921812205
 30
0.0
 11
200.6687556714622
 21
-21.41456400362051
 31
0.0
  0
LINE
  5
4A5
330
2
100
AcDbEntity
  8
0
  6
HIDDEN
100
AcDbLine
 10
200.6687556714622
 20
-21.41456400362051
 30
0.0
 11
200.6682191802622
 21
-21.41432068202049
 31
0.0
  0
LINE
  5
4A6
330
2
100
AcDbEntity
  8
0
  6
Continuous
100
AcDbLine
 10
200.7243815594622
 20
-21.35979218122051
 30
0.0
 11
200.7227022362622
 21
-21.35903057482049
 31
0.0
  0
LINE
  5
4A7
330
2
100
AcDbEntity
  8
0
  6
HIDDEN
100
AcDbLine
 10
200.6682191802622
 20
-21.41432068202049
 30
0.0
 11
200.6686774922622
 21
-21.4147362468205
 31
0.0
  0
LINE
  5
4A8
330
2
100
AcDbEntity
  8
0
  6
HIDDEN
100
AcDbLine
 10
200.6682191802622
 20
-21.49432068202052
 30
0.0
 11
200.6686774922622
 21
-21.49473637802051
 31
0.0
  0
LINE
  5
4A9
330
2
100
AcDbEntity
  8
0
  6
HIDDEN
100
AcDbLine
 10
200.7227022362622
 20
-21.35903057482049
 30
0.0
 11
200.7228642826622
 21
-21.35929958762051
 31
0.0
  0
LINE
  5
4AA
330
2
100
AcDbEntity
  8
0
  6
Continuous
100
AcDbLine
 10
200.7018016122622
 20
-21.37992113642052
 30
0.0
 11
200.7243815594622
 21
-21.36968057482052
 31
0.0
  0
LINE
  5
4AB
330
2
100
AcDbEntity
  8
0
  6
Continuous
100
AcDbLine
 10
200.6682191802622
 20
-21.47515207402052
 30
0.0
 11
200.7243815594622
 21
-21.44968057482051
 31
0.0
  0
LINE
  5
4AC
330
2
100
AcDbEntity
  8
0
  6
Continuous
100
AcDbLine
 10
200.6686774922622
 20
-21.49473637802051
 30
0.0
 11
200.6686774922622
 21
-21.4747363780205
 31
0.0
  0
LINE
  5
4AD
330
2
100
AcDbEntity
  8
0
  6
Continuous
100
AcDbLine
 10
200.6686774922622
 20
-21.41473637802052
 30
0.0
 11
200.6686774922622
 21
-21.41348637802051
 31
0.0
  0
LINE
  5
4AE
330
2
100
AcDbEntity
  8
0
  6
HIDDEN
100
AcDbLine
 10
200.7026088314622
 20
-21.37955503882052
 30
0.0
 11
200.7029745722622
 21
-21.37918929802052
 31
0.0
  0
LINE
  5
4AF
330
2
100
AcDbEntity
  8
0
  6
Continuous
100
AcDbLine
 10
200.6686774922622
 20
-21.41348637802051
 30
0.0
 11
200.7026088314622
 21
-21.37955503882052
 31
0.0
  0
LINE
  5
4B0
330
2
100
AcDbEntity
  8
0
  6
HIDDEN
100
AcDbLine
 10
200.6682191802622
 20
-21.47515207402052
 30
0.0
 11
200.6686774922622
 21
-21.4747363780205
 31
0.0
  0
LINE
  5
4B1
330
2
100
AcDbEntity
  8
0
  6
Continuous
100
AcDbLine
 10
200.7223362922622
 20
-21.36111864202051
 30
0.0
 11
200.7243815594622
 21
-21.35979218122051
 31
0.0
  0
LINE
  5
4B2
330
2
100
AcDbEntity
  8
0
  6
HIDDEN
100
AcDbLine
 10
200.7018016122622
 20
-21.37992113642052
 30
0.0
 11
200.7029749258622
 21
-21.37918894442051
 31
0.0
  0
LINE
  5
4B3
330
2
100
AcDbEntity
  8
0
  6
Continuous
100
AcDbLine
 10
200.6686774922622
 20
-21.4147362468205
 30
0.0
 11
200.6676453162622
 21
-21.41536025162051
 31
0.0
  0
LWPOLYLINE
  5
4B4
330
2
100
AcDbEntity
  8
0
  6
Continuous
100
AcDbPolyline
 90
        3
 70
     0
 43
0.0
 10
200.7276095226622
 20
-21.36359573322052
 10
200.7256028794622
 20
-21.36052264042051
 10
200.7243790746622
 20
-21.35979105642051
  0
LWPOLYLINE
  5
4B9
330
2
100
AcDbEntity
  8
0
  6
Continuous
100
AcDbPolyline
 90
        4
 70
     0
 43
0.0
 10
200.7243991194622
 20
-21.36967252842049
 10
200.7247109178622
 20
-21.3695203012205
 10
200.7265714426622
 20
-21.36799069162051
 10
200.7276095226622
 20
-21.36359573322052
  0
LINE
  5
4BF
330
2
100
AcDbEntity
  8
0
  6
Continuous
100
AcDbLine
 10
200.7228642826622
 20
-21.35929958762051
 30
0.0
 11
200.7461774922622
 21
-21.33598637802051
 31
0.0
  0
LWPOLYLINE
  5
4C0
330
2
100
AcDbEntity
  8
0
  6
Continuous
100
AcDbPolyline
 90
        5
 70
     0
 43
0.0
 10
200.7243870698622
 20
-21.44967806762049
 10
200.7260892074622
 20
-21.44852625162053
 10
200.7277460090622
 20
-21.44461911242049
 10
200.7259322186622
 20
-21.4407988132205
 10
200.7243774074622
 20
-21.43979030282051
  0
LINE
  5
4C7
330
2
100
AcDbEntity
  8
0
  6
Continuous
100
AcDbLine
 10
200.6682191802622
 20
-21.55515207402051
 30
0.0
 11
200.7243815594622
 21
-21.5296805748205
 31
0.0
  0
LINE
  5
4C8
330
2
100
AcDbEntity
  8
0
  6
HIDDEN
100
AcDbLine
 10
200.6682191802622
 20
-21.55515207402051
 30
0.0
 11
200.6686774922622
 21
-21.55473637802051
 31
0.0
  0
LINE
  5
4C9
330
2
100
AcDbEntity
  8
0
  6
Continuous
100
AcDbLine
 10
200.7218922554622
 20
-21.52119918762049
 30
0.0
 11
200.7243815594622
 21
-21.5197921812205
 31
0.0
  0
LWPOLYLINE
  5
4CA
330
2
100
AcDbEntity
  8
0
  6
Continuous
100
AcDbPolyline
 90
        5
 70
     0
 43
0.0
 10
200.7243870698622
 20
-21.52967806762049
 10
200.7260892074622
 20
-21.52852625162051
 10
200.7277460090622
 20
-21.52461911242049
 10
200.7259322186622
 20
-21.5207988132205
 10
200.7243774074622
 20
-21.5197903028205
  0
LINE
  5
4D1
330
2
100
AcDbEntity
  8
0
  6
Continuous
100
AcDbLine
 10
200.7243815594622
 20
-21.7597921812205
 30
0.0
 11
200.6687556714622
 21
-21.73456400362051
 31
0.0
  0
LINE
  5
4D2
330
2
100
AcDbEntity
  8
0
  6
HIDDEN
100
AcDbLine
 10
200.6687556714622
 20
-21.73456400362051
 30
0.0
 11
200.6682191802622
 21
-21.73432068202049
 31
0.0
  0
LINE
  5
4D3
330
2
100
AcDbEntity
  8
0
  6
Continuous
100
AcDbLine
 10
200.7243815594622
 20
-21.67979218122051
 30
0.0
 11
200.6687556714622
 21
-21.65456400362052
 31
0.0
  0
LINE
  5
4D4
330
2
100
AcDbEntity
  8
0
  6
HIDDEN
100
AcDbLine
 10
200.6687556714622
 20
-21.65456400362052
 30
0.0
 11
200.6682191802622
 21
-21.6543206820205
 31
0.0
  0
LINE
  5
4D5
330
2
100
AcDbEntity
  8
0
  6
Continuous
100
AcDbLine
 10
200.7243815594622
 20
-21.59979218122051
 30
0.0
 11
200.6687556714622
 21
-21.57456400362049
 31
0.0
  0
LINE
  5
4D6
330
2
100
AcDbEntity
  8
0
  6
HIDDEN
100
AcDbLine
 10
200.6687556714622
 20
-21.57456400362049
 30
0.0
 11
200.6682191802622
 21
-21.57432068202053
 31
0.0
  0
LINE
  5
4D7
330
2
100
AcDbEntity
  8
0
  6
HIDDEN
100
AcDbLine
 10
200.6682191802622
 20
-21.73432068202049
 30
0.0
 11
200.6686774922622
 21
-21.73473637802052
 31
0.0
  0
LINE
  5
4D8
330
2
100
AcDbEntity
  8
0
  6
HIDDEN
100
AcDbLine
 10
200.6682191802622
 20
-21.6543206820205
 30
0.0
 11
200.6686774922622
 21
-21.65473637802049
 31
0.0
  0
LINE
  5
4D9
330
2
100
AcDbEntity
  8
0
  6
HIDDEN
100
AcDbLine
 10
200.6682191802622
 20
-21.57432068202053
 30
0.0
 11
200.6686774922622
 21
-21.5747363780205
 31
0.0
  0
LINE
  5
4DA
330
2
100
AcDbEntity
  8
0
  6
Continuous
100
AcDbLine
 10
200.6682191802622
 20
-21.6351520740205
 30
0.0
 11
200.7243815594622
 21
-21.60968057482049
 31
0.0
  0
LINE
  5
4DB
330
2
100
AcDbEntity
  8
0
  6
Continuous
100
AcDbLine
 10
200.6682191802622
 20
-21.7151520740205
 30
0.0
 11
200.7243815594622
 21
-21.68968057482052
 31
0.0
  0
LINE
  5
4DC
330
2
100
AcDbEntity
  8
0
  6
Continuous
100
AcDbLine
 10
200.6686774922622
 20
-21.73473637802052
 30
0.0
 11
200.6686774922622
 21
-21.7147363780205
 31
0.0
  0
LINE
  5
4DD
330
2
100
AcDbEntity
  8
0
  6
Continuous
100
AcDbLine
 10
200.6686774922622
 20
-21.65473637802049
 30
0.0
 11
200.6686774922622
 21
-21.63473637802052
 31
0.0
  0
LINE
  5
4DE
330
2
100
AcDbEntity
  8
0
  6
HIDDEN
100
AcDbLine
 10
200.6682191802622
 20
-21.6351520740205
 30
0.0
 11
200.6686774922622
 21
-21.63473637802052
 31
0.0
  0
LINE
  5
4DF
330
2
100
AcDbEntity
  8
0
  6
HIDDEN
100
AcDbLine
 10
200.6682191802622
 20
-21.7151520740205
 30
0.0
 11
200.6686774922622
 21
-21.7147363780205
 31
0.0
  0
LINE
  5
4E0
330
2
100
AcDbEntity
  8
0
  6
Continuous
100
AcDbLine
 10
200.7168724698622
 20
-21.92185988202053
 30
0.0
 11
200.7243815594622
 21
-21.91979218122051
 31
0.0
  0
LWPOLYLINE
  5
4E1
330
2
100
AcDbEntity
  8
0
  6
Continuous
100
AcDbPolyline
 90
        3
 70
     0
 43
0.0
 10
200.7136249530622
 20
-21.84217420842049
 10
200.7247865914622
 20
-21.84027693002052
 10
200.7243815594622
 20
-21.8397921812205
  0
LINE
  5
4E6
330
2
100
AcDbEntity
  8
0
  6
Continuous
100
AcDbLine
 10
200.7243815594622
 20
-21.91979218122051
 30
0.0
 11
200.6687556714622
 21
-21.8945640036205
 31
0.0
  0
LINE
  5
4E7
330
2
100
AcDbEntity
  8
0
  6
HIDDEN
100
AcDbLine
 10
200.6687556714622
 20
-21.8945640036205
 30
0.0
 11
200.6682191802622
 21
-21.89432068202053
 31
0.0
  0
LINE
  5
4E8
330
2
100
AcDbEntity
  8
0
  6
Continuous
100
AcDbLine
 10
200.7243815594622
 20
-21.8397921812205
 30
0.0
 11
200.6687556714622
 21
-21.8145640036205
 31
0.0
  0
LINE
  5
4E9
330
2
100
AcDbEntity
  8
0
  6
HIDDEN
100
AcDbLine
 10
200.6687556714622
 20
-21.8145640036205
 30
0.0
 11
200.6682191802622
 21
-21.81432068202052
 31
0.0
  0
LINE
  5
4EA
330
2
100
AcDbEntity
  8
0
  6
HIDDEN
100
AcDbLine
 10
200.6682191802622
 20
-21.89432068202053
 30
0.0
 11
200.6686774922622
 21
-21.8947363780205
 31
0.0
  0
LINE
  5
4EB
330
2
100
AcDbEntity
  8
0
  6
HIDDEN
100
AcDbLine
 10
200.6682191802622
 20
-21.81432068202052
 30
0.0
 11
200.6686774922622
 21
-21.81473637802051
 31
0.0
  0
LINE
  5
4EC
330
2
100
AcDbEntity
  8
0
  6
Continuous
100
AcDbLine
 10
200.6686774922622
 20
-21.8947363780205
 30
0.0
 11
200.6686774922622
 21
-21.87473637802051
 31
0.0
  0
LINE
  5
4ED
330
2
100
AcDbEntity
  8
0
  6
Continuous
100
AcDbLine
 10
200.6686774922622
 20
-21.81473637802051
 30
0.0
 11
200.6686774922622
 21
-21.7947363780205
 31
0.0
  0
LINE
  5
4EE
330
2
100
AcDbEntity
  8
0
  6
HIDDEN
100
AcDbLine
 10
200.6682191802622
 20
-21.79515207402052
 30
0.0
 11
200.6686774922622
 21
-21.7947363780205
 31
0.0
  0
LINE
  5
4EF
330
2
100
AcDbEntity
  8
0
  6
HIDDEN
100
AcDbLine
 10
200.6682191802622
 20
-21.87515207402051
 30
0.0
 11
200.6686774922622
 21
-21.87473637802051
 31
0.0
  0
LINE
  5
4F0
330
2
100
AcDbEntity
  8
0
  6
HIDDEN
100
AcDbLine
 10
200.6682191802622
 20
-21.9551520740205
 30
0.0
 11
200.6686774922622
 21
-21.95473637802052
 31
0.0
  0
LINE
  5
4F1
330
2
100
AcDbEntity
  8
0
  6
Continuous
100
AcDbLine
 10
200.6682191802622
 20
-21.87515207402051
 30
0.0
 11
200.7243815594622
 21
-21.8496805748205
 31
0.0
  0
LINE
  5
4F2
330
2
100
AcDbEntity
  8
0
  6
Continuous
100
AcDbLine
 10
200.6682191802622
 20
-21.9551520740205
 30
0.0
 11
200.7243815594622
 21
-21.92968057482049
 31
0.0
  0
LINE
  5
4F3
330
2
100
AcDbEntity
  8
0
  6
Continuous
100
AcDbLine
 10
200.6682191802622
 20
-21.79515207402052
 30
0.0
 11
200.7243815594622
 21
-21.76968057482051
 31
0.0
  0
LWPOLYLINE
  5
4F4
330
2
100
AcDbEntity
  8
0
  6
Continuous
100
AcDbPolyline
 90
        5
 70
     0
 43
0.0
 10
200.7243870698622
 20
-21.60967806762052
 10
200.7260892074622
 20
-21.60852625162049
 10
200.7277460090622
 20
-21.60461911242051
 10
200.7259322186622
 20
-21.60079881322052
 10
200.7243774074622
 20
-21.5997903028205
  0
LWPOLYLINE
  5
4FB
330
2
100
AcDbEntity
  8
0
  6
Continuous
100
AcDbPolyline
 90
        5
 70
     0
 43
0.0
 10
200.7243870698622
 20
-21.68967806762051
 10
200.7260892074622
 20
-21.68852625162049
 10
200.7277460090622
 20
-21.68461911242053
 10
200.7259322186622
 20
-21.68079881322051
 10
200.7243774074622
 20
-21.67979030282052
  0
LWPOLYLINE
  5
502
330
2
100
AcDbEntity
  8
0
  6
Continuous
100
AcDbPolyline
 90
        5
 70
     0
 43
0.0
 10
200.7243870698622
 20
-21.76967806762049
 10
200.7260892074622
 20
-21.76852625162053
 10
200.7277460090622
 20
-21.76461911242051
 10
200.7259322186622
 20
-21.7607988132205
 10
200.7243774074622
 20
-21.75979030282051
  0
LWPOLYLINE
  5
509
330
2
100
AcDbEntity
  8
0
  6
Continuous
100
AcDbPolyline
 90
        5
 70
     0
 43
0.0
 10
200.7243870698622
 20
-21.84967806762049
 10
200.7260892074622
 20
-21.84852625162051
 10
200.7277460090622
 20
-21.8446191124205
 10
200.7259322186622
 20
-21.8407988132205
 10
200.7243774074622
 20
-21.8397903028205
  0
LWPOLYLINE
  5
510
330
2
100
AcDbEntity
  8
0
  6
Continuous
100
AcDbPolyline
 90
        5
 70
     0
 43
0.0
 10
200.7243870698622
 20
-21.92967806762051
 10
200.7260892074622
 20
-21.92852625162049
 10
200.7277460090622
 20
-21.9246191124205
 10
200.7259322186622
 20
-21.92079881322051
 10
200.7243774074622
 20
-21.9197903028205
  0
LINE
  5
517
330
2
100
AcDbEntity
  8
0
  6
Continuous
100
AcDbLine
 10
200.6686774922622
 20
-21.5747363780205
 30
0.0
 11
200.6686774922622
 21
-21.55473637802051
 31
0.0
  0
LINE
  5
518
330
2
100
AcDbEntity
  8
0
  6
Continuous
100
AcDbLine
 10
200.6686774922622
 20
-22.05473637802052
 30
0.0
 11
200.6686774922622
 21
-21.95473637802052
 31
0.0
  0
LINE
  5
519
330
2
100
AcDbEntity
  8
0
  6
Continuous
100
AcDbLine
 10
200.7243815594622
 20
-21.5197921812205
 30
0.0
 11
200.6687556714622
 21
-21.49456400362049
 31
0.0
  0
LINE
  5
51A
330
2
100
AcDbEntity
  8
0
  6
Continuous
100
AcDbLine
 10
205.0882398666622
 20
-22.6316687684205
 30
0.0
 11
205.0760568650622
 21
-22.47305530442051
 31
0.0
  0
LWPOLYLINE
  5
51B
330
2
100
AcDbEntity
  8
0
  6
Continuous
100
AcDbPolyline
 90
       12
 70
     0
 43
0.0
 10
205.0760568650622
 20
-22.47305530442051
 10
205.0757823194622
 20
-22.4503333140205
 10
205.0767068714622
 20
-22.42261722762052
 10
205.0792732026622
 20
-22.39282783082051
 10
205.0834855834622
 20
-22.36341720522051
 10
205.0891043290622
 20
-22.33573456042051
 10
205.0958827466622
 20
-22.31019109322049
 10
205.1035506090622
 20
-22.28704190282051
 10
205.1117919530622
 20
-22.2665059572205
 10
205.1201947834622
 20
-22.24884215562049
 10
205.1282642730622
 20
-22.23425681642051
 10
205.1354504618622
 20
-22.2228653364205
  0
LINE
  5
529
330
2
100
AcDbEntity
  8
0
  6
Continuous
100
AcDbLine
 10
205.4202587690622
 20
-22.81446784522052
 30
0.0
 11
205.4107124522622
 21
-22.82876899722051
 31
0.0
  0
LINE
  5
52A
330
2
100
AcDbEntity
  8
0
  6
Continuous
100
AcDbLine
 10
205.4174319386622
 20
-22.8196048436205
 30
0.0
 11
205.4174029242622
 21
-22.81964440522052
 31
0.0
  0
LWPOLYLINE
  5
52B
330
2
100
AcDbEntity
  8
0
  6
Continuous
100
AcDbPolyline
 90
        3
 70
     0
 43
0.0
 10
204.8886076906622
 20
-21.80154656202051
 10
204.9021231370622
 20
-21.77355951242051
 10
204.9488145338622
 20
-21.6754024260205
  0
LWPOLYLINE
  5
530
330
2
100
AcDbEntity
  8
0
  6
Continuous
100
AcDbPolyline
 90
        3
 70
     0
 43
0.0
 10
204.9558367706622
 20
-21.84251931882052
 10
204.9694802970622
 20
-21.81464085962049
 10
204.9829812890622
 20
-21.78653142922049
  0
LINE
  5
535
330
2
100
AcDbEntity
  8
0
  6
Continuous
100
AcDbLine
 10
204.9505748026622
 20
-21.85313307882051
 30
0.0
 11
204.9558367706622
 21
-21.84251931882052
 31
0.0
  0
LINE
  5
536
330
2
100
AcDbEntity
  8
0
  6
Continuous
100
AcDbLine
 10
204.8833957290622
 20
-21.81220728202049
 30
0.0
 11
204.8886076906622
 21
-21.80154656202051
 31
0.0
  0
LWPOLYLINE
  5
537
330
2
100
AcDbEntity
  8
0
  6
Continuous
100
AcDbPolyline
 90
        4
 70
     0
 43
0.0
 10
205.3740972266622
 20
-21.88832406922049
 10
205.3112965114622
 20
-21.99131587722051
 10
205.2465356074622
 20
-22.09015300682052
 10
205.1117919530622
 20
-22.2665059572205
  0
LWPOLYLINE
  5
53D
330
2
100
AcDbEntity
  8
0
  6
Continuous
100
AcDbPolyline
 90
        4
 70
     0
 43
0.0
 10
205.0906856698622
 20
-21.11185966442052
 10
205.0409647354622
 20
-21.33345044842052
 10
204.9823421082622
 20
-21.5453336340205
 10
204.9155066362622
 20
-21.7453723684205
  0
LWPOLYLINE
  5
543
330
2
100
AcDbEntity
  8
0
  6
Continuous
100
AcDbPolyline
 90
        5
 70
     0
 43
0.0
 10
204.9829812890622
 20
-21.78653142922049
 10
205.0154502602622
 20
-21.71675512842049
 10
205.0494616010622
 20
-21.64009572522051
 10
205.0848515354622
 20
-21.5559512084205
 10
205.1214000922622
 20
-21.46371511722049
  0
LWPOLYLINE
  5
54A
330
2
100
AcDbEntity
  8
0
  6
Continuous
100
AcDbPolyline
 90
        4
 70
     0
 43
0.0
 10
204.9488145338622
 20
-21.6754024260205
 10
204.9835811626622
 20
-21.59888632682051
 10
205.0196358106622
 20
-21.51522361002052
 10
205.0567545434622
 20
-21.42380971882051
  0
LWPOLYLINE
  5
550
330
2
100
AcDbEntity
  8
0
  6
Continuous
100
AcDbPolyline
 90
        6
 70
     0
 43
0.0
 10
205.3353772426622
 20
-23.25937561322052
 10
205.2651747802622
 20
-23.16815613802052
 10
205.2038067674622
 20
-23.05650525642052
 10
205.1529826858622
 20
-22.92744903882051
 10
205.1141105818622
 20
-22.78453801002051
 10
205.0882398666622
 20
-22.6316687684205
  0
LINE
  5
558
330
2
100
AcDbEntity
  8
0
  6
Continuous
100
AcDbLine
 10
205.4174319386622
 20
-22.8196048436205
 30
0.0
 11
205.2209261796102
 21
-23.08765173439137
 31
0.0
  0
LINE
  5
559
330
2
100
AcDbEntity
  8
0
  6
Continuous
100
AcDbLine
 10
204.7946547866622
 20
-21.87394947722052
 30
0.0
 11
204.7914802506622
 21
-21.8831435028205
 31
0.0
  0
LINE
  5
55A
330
2
100
AcDbEntity
  8
0
  6
Continuous
100
AcDbLine
 10
204.6456760026622
 20
-22.36977056362052
 30
0.0
 11
204.6401298394622
 21
-22.31221814442051
 31
0.0
  0
LWPOLYLINE
  5
55B
330
2
100
AcDbEntity
  8
0
  6
Continuous
100
AcDbPolyline
 90
        5
 70
     0
 43
0.0
 10
204.6932000074622
 20
-22.38203892362052
 10
204.6958203194622
 20
-22.36028023082051
 10
204.6989802138622
 20
-22.34059492522051
 10
204.7022684762622
 20
-22.3245057204205
 10
204.7054162346622
 20
-22.3121648612205
  0
LWPOLYLINE
  5
562
330
2
100
AcDbEntity
  8
0
  6
Continuous
100
AcDbPolyline
 90
        3
 70
     0
 43
0.0
 10
204.7054162346622
 20
-22.3121648612205
 10
204.7064932250622
 20
-22.30811707562049
 10
204.7075848986622
 20
-22.30441977642049
  0
LWPOLYLINE
  5
567
330
2
100
AcDbEntity
  8
0
  6
Continuous
100
AcDbPolyline
 90
        6
 70
     0
 43
0.0
 10
204.7075848986622
 20
-22.30441977642049
 10
204.7160435386622
 20
-22.28104827722052
 10
204.7254649674622
 20
-22.2592922116205
 10
204.7349313466622
 20
-22.23962484522049
 10
204.7440981866622
 20
-22.22196665642052
 10
204.7528710906622
 20
-22.2060611428205
  0
LWPOLYLINE
  5
56F
330
2
100
AcDbEntity
  8
0
  6
Continuous
100
AcDbPolyline
 90
        4
 70
     0
 43
0.0
 10
204.6366179642622
 20
-22.2612439124205
 10
204.6471333866622
 20
-22.23963232682051
 10
204.6582765738622
 20
-22.2196532084205
 10
204.6689867898622
 20
-22.20145712202053
  0
LWPOLYLINE
  5
575
330
2
100
AcDbEntity
  8
0
  6
Continuous
100
AcDbPolyline
 90
        3
 70
     0
 43
0.0
 10
204.7528710906622
 20
-22.2060611428205
 10
204.7561883930622
 20
-22.20026796842051
 10
204.7595382474622
 20
-22.19453169482051
  0
LINE
  5
57A
330
2
100
AcDbEntity
  8
0
  6
Continuous
100
AcDbLine
 10
204.6689867898622
 20
-22.20145712202053
 30
0.0
 11
204.7043022858622
 21
-22.1426751716205
 31
0.0
  0
LWPOLYLINE
  5
57B
330
2
100
AcDbEntity
  8
0
  6
Continuous
100
AcDbPolyline
 90
        3
 70
     0
 43
0.0
 10
204.7595382474622
 20
-22.19453169482051
 10
204.7641670426622
 20
-22.18678879562051
 10
204.7688380906622
 20
-22.17918562762051
  0
LWPOLYLINE
  5
580
330
2
100
AcDbEntity
  8
0
  6
Continuous
100
AcDbPolyline
 90
        4
 70
     0
 43
0.0
 10
204.6457965818622
 20
-22.47709203242052
 10
204.6444654490622
 20
-22.44175257162051
 10
204.6444006250622
 20
-22.4059908036205
 10
204.6456760138622
 20
-22.36977066122051
  0
LWPOLYLINE
  5
586
330
2
100
AcDbEntity
  8
0
  6
Continuous
100
AcDbPolyline
 90
        4
 70
     0
 43
0.0
 10
204.7914802506622
 20
-21.8831435028205
 10
204.7542065450622
 20
-21.98512567082049
 10
204.7145795194622
 20
-22.08300218602051
 10
204.6366179642622
 20
-22.2612439124205
  0
LWPOLYLINE
  5
58C
330
2
100
AcDbEntity
  8
0
  6
Continuous
100
AcDbPolyline
 90
        3
 70
     0
 43
0.0
 10
204.6401298394622
 20
-22.31221814442051
 10
204.6380678138622
 20
-22.28881173482052
 10
204.6366179642622
 20
-22.2612439124205
  0
LINE
  5
591
330
2
100
AcDbEntity
  8
0
  6
Continuous
100
AcDbLine
 10
203.3529686762622
 20
-23.22460861642051
 30
0.0
 11
203.3622715738622
 21
-23.23556464842052
 31
0.0
  0
LWPOLYLINE
  5
592
330
2
100
AcDbEntity
  8
0
  6
Continuous
100
AcDbPolyline
 90
        4
 70
     0
 43
0.0
 10
203.0923503850622
 20
-22.90332298442051
 10
203.1775660954622
 20
-23.01156081642052
 10
203.2646007274622
 20
-23.11884516522052
 10
203.3529686762622
 20
-23.22460861642051
  0
LWPOLYLINE
  5
598
330
2
100
AcDbEntity
  8
0
  6
Continuous
100
AcDbPolyline
 90
        4
 70
     0
 43
0.0
 10
204.7123381466622
 20
-22.91933136522052
 10
204.6789083050622
 20
-22.76498946282049
 10
204.6571331850622
 20
-22.61369000362051
 10
204.6457965162622
 20
-22.47709210922052
  0
LWPOLYLINE
  5
59E
330
2
100
AcDbEntity
  8
0
  6
Continuous
100
AcDbPolyline
 90
        4
 70
     0
 43
0.0
 10
204.7043022794622
 20
-22.14267516202049
 10
204.7660059722622
 20
-22.03601364042051
 10
204.8258065514622
 20
-21.9257449540205
 10
204.8833957226622
 20
-21.81220727402049
  0
LWPOLYLINE
  5
5A4
330
2
100
AcDbEntity
  8
0
  6
Continuous
100
AcDbPolyline
 90
        4
 70
     0
 43
0.0
 10
204.7688380906622
 20
-22.17918562762051
 10
204.8316398458622
 20
-22.0746386324205
 10
204.8923163738622
 20
-21.96582240202053
 10
204.9505748026622
 20
-21.85313307882051
  0
LWPOLYLINE
  5
5AA
330
2
100
AcDbEntity
  8
0
  6
Continuous
100
AcDbPolyline
 90
       12
 70
     0
 43
0.0
 10
204.7656128762622
 20
-22.47264039402049
 10
204.7653262922622
 20
-22.45417457002051
 10
204.7657779642622
 20
-22.43282038282049
 10
204.7672544362622
 20
-22.40932941802051
 10
204.7699727610622
 20
-22.38443554922051
 10
204.7740812106622
 20
-22.35880559082049
 10
204.7796913946622
 20
-22.33294541642051
 10
204.7868689322622
 20
-22.30736989002049
 10
204.7955927562622
 20
-22.28269416042051
 10
204.8054282378622
 20
-22.26019969962051
 10
204.8152693066622
 20
-22.24162733642052
 10
204.8236432202622
 20
-22.2281929972205
  0
LWPOLYLINE
  5
5B8
330
2
100
AcDbEntity
  8
0
  6
Continuous
100
AcDbPolyline
 90
        4
 70
     0
 43
0.0
 10
204.9615442042622
 20
-21.20064601322052
 10
204.9159701642622
 20
-21.43751918282049
 10
204.8600613242622
 20
-21.66283094442052
 10
204.7946547866622
 20
-21.87394947722052
  0
LWPOLYLINE
  5
5BE
330
2
100
AcDbEntity
  8
0
  6
Continuous
100
AcDbPolyline
 90
        7
 70
     0
 43
0.0
 10
205.0231261082622
 20
-23.25348101322052
 10
204.9533949530622
 20
-23.16286994762052
 10
204.8924556026622
 20
-23.0519879380205
 10
204.8419948202622
 20
-22.9238439140205
 10
204.8033933354622
 20
-22.78191523242049
 10
204.7777072090622
 20
-22.63011944042051
 10
204.7656128762622
 20
-22.47264039402049
  0
LINE
  5
5C7
330
2
100
AcDbEntity
  8
0
  6
Continuous
100
AcDbLine
 10
206.2343379146622
 20
-24.24859360042052
 30
0.0
 11
206.1633705354622
 21
-24.1562848228205
 31
0.0
  0
LWPOLYLINE
  5
5C8
330
2
100
AcDbEntity
  8
0
  6
Continuous
100
AcDbPolyline
 90
        3
 70
     0
 43
0.0
 10
205.7637360458622
 20
-24.32829941482052
 10
205.8289328698622
 20
-24.40515134282049
 10
205.8893748986622
 20
-24.49580094602049
  0
LWPOLYLINE
  5
5CD
330
2
100
AcDbEntity
  8
0
  6
Continuous
100
AcDbPolyline
 90
       11
 70
     0
 43
0.0
 10
206.0885142186622
 20
-25.08786430282053
 10
206.0679088378622
 20
-25.0651289636205
 10
206.0516081546622
 20
-25.03740358282049
 10
206.0377489258622
 20
-25.0060831796205
 10
206.0255722490622
 20
-24.97206938602051
 10
206.0142654826622
 20
-24.9347253876205
 10
206.0034549162622
 20
-24.8939257668205
 10
205.9928843706622
 20
-24.84989779882052
 10
205.9822002986622
 20
-24.80262143082049
 10
205.9710153242622
 20
-24.75221484682052
 10
205.9587755082622
 20
-24.6985372708205
  0
LWPOLYLINE
  5
5DA
330
2
100
AcDbEntity
  8
0
  6
Continuous
100
AcDbPolyline
 90
        3
 70
     0
 43
0.0
 10
206.1111905146622
 20
-25.09861151562049
 10
206.0998634122622
 20
-25.0950804548205
 10
206.0885179114622
 20
-25.0878597924205
  0
LINE
  5
5DF
330
2
100
AcDbEntity
  8
0
  6
Continuous
100
AcDbLine
 10
206.4867558922622
 20
-24.81085470122051
 30
0.0
 11
206.4899454826622
 21
-24.81645657322052
 31
0.0
  0
LWPOLYLINE
  5
5E0
330
2
100
AcDbEntity
  8
0
  6
Continuous
100
AcDbPolyline
 90
        7
 70
     0
 43
0.0
 10
206.4223238794622
 20
-25.1298408196205
 10
206.4063708858622
 20
-25.12928423082049
 10
206.3879898618622
 20
-25.12848307242052
 10
206.3666763594622
 20
-25.12729941802052
 10
206.3418944778622
 20
-25.1255517204205
 10
206.3130636458622
 20
-25.12306408362051
 10
206.2795165914622
 20
-25.11970273962051
  0
LWPOLYLINE
  5
5E9
330
2
100
AcDbEntity
  8
0
  6
Continuous
100
AcDbPolyline
 90
        5
 70
     0
 43
0.0
 10
206.2795166314622
 20
-25.11970272522052
 10
206.2356363562622
 20
-25.11488705322052
 10
206.1918189306622
 20
-25.10957860842052
 10
206.1497798874622
 20
-25.10410546762052
 10
206.1111905114622
 20
-25.09861151882051
  0
LWPOLYLINE
  5
5F0
330
2
100
AcDbEntity
  8
0
  6
Continuous
100
AcDbPolyline
 90
        4
 70
     0
 43
0.0
 10
206.4223238794622
 20
-25.1298408196205
 10
206.4217521562622
 20
-25.12509962762052
 10
206.4215821578622
 20
-25.12030822122051
 10
206.4218156650622
 20
-25.11551679882051
  0
LINE
  5
5F6
330
2
100
AcDbEntity
  8
0
  6
Continuous
100
AcDbLine
 10
206.4353375050622
 20
-25.06585861962052
 30
0.0
 11
206.4353361626622
 21
-25.06589918122049
 31
0.0
  0
LWPOLYLINE
  5
5F7
330
2
100
AcDbEntity
  8
0
  6
Continuous
100
AcDbPolyline
 90
        4
 70
     0
 43
0.0
 10
206.1111905146622
 20
-25.09861151562049
 10
206.1116759402622
 20
-25.09396894922049
 10
206.1122701898622
 20
-25.0892645780205
 10
206.1129671306622
 20
-25.08454709482052
  0
LINE
  5
5FD
330
2
100
AcDbEntity
  8
0
  6
Continuous
100
AcDbLine
 10
206.390222313326
 20
-24.65894524729137
 30
0.0
 11
206.4867558282622
 21
-24.8108545908205
 31
0.0
  0
LINE
  5
5FE
330
2
100
AcDbEntity
  8
0
  6
Continuous
100
AcDbLine
 10
205.9340238394622
 20
-24.60921633962049
 30
0.0
 11
205.9325067242622
 21
-24.6045576308205
 31
0.0
  0
LWPOLYLINE
  5
5FF
330
2
100
AcDbEntity
  8
0
  6
Continuous
100
AcDbPolyline
 90
        4
 70
     0
 43
0.0
 10
205.9587755082622
 20
-24.6985372772205
 10
205.9518463818622
 20
-24.67052347242051
 10
205.9436522074622
 20
-24.6406924692205
 10
205.9340238394622
 20
-24.60921634602049
  0
LWPOLYLINE
  5
605
330
2
100
AcDbEntity
  8
0
  6
Continuous
100
AcDbPolyline
 90
       13
 70
     0
 43
0.0
 10
206.1129671530622
 20
-25.0845471044205
 10
206.1144057594622
 20
-25.03386907082052
 10
206.1143574698622
 20
-24.97630160042052
 10
206.1122213162622
 20
-24.91269418602049
 10
206.1074130426622
 20
-24.84384360362052
 10
206.0993408042622
 20
-24.7703922148205
 10
206.0872294378622
 20
-24.69211020042049
 10
206.0699271546622
 20
-24.60822693002052
 10
206.0460479482622
 20
-24.51898445802051
 10
206.0143236618622
 20
-24.42642276682052
 10
205.9727360298622
 20
-24.33173624522049
 10
205.9189740362622
 20
-24.2378206548205
 10
205.8511193994622
 20
-24.15039022282051
  0
LWPOLYLINE
  5
614
330
2
100
AcDbEntity
  8
0
  6
Continuous
100
AcDbPolyline
 90
        7
 70
     0
 43
0.0
 10
206.4218157562622
 20
-25.1155156324205
 10
206.4242775914622
 20
-24.9535593396205
 10
206.4125022970622
 20
-24.7929761668205
 10
206.3866763450622
 20
-24.63761357162051
 10
206.3476339290622
 20
-24.49271237802052
 10
206.2962666458622
 20
-24.36157951562051
 10
206.2343379146622
 20
-24.24859360042052
  0
LWPOLYLINE
  5
61D
330
2
100
AcDbEntity
  8
0
  6
Continuous
100
AcDbPolyline
 90
        3
 70
     0
 43
0.0
 10
205.9325067274623
 20
-24.6045576644205
 10
205.9121800346622
 20
-24.54831531402052
 10
205.8893748842622
 20
-24.49580084842052
  0
LINE
  5
622
330
2
100
AcDbEntity
  8
0
  6
Continuous
100
AcDbLine
 10
206.0932208490622
 20
-21.74214644842052
 30
0.0
 11
205.8450409866622
 21
-22.19036864362049
 31
0.0
  0
LINE
  5
623
330
2
100
AcDbEntity
  8
0
  6
Continuous
100
AcDbLine
 10
205.8736753146622
 20
-22.11770230922051
 30
0.0
 11
205.8450475402622
 21
-22.19035821482052
 31
0.0
  0
LINE
  5
624
330
2
100
AcDbEntity
  8
0
  6
Continuous
100
AcDbLine
 10
205.8697756858622
 20
-22.12408253642049
 30
0.0
 11
205.8411281498622
 21
-22.19659102602052
 31
0.0
  0
LINE
  5
625
330
2
100
AcDbEntity
  8
0
  6
Continuous
100
AcDbLine
 10
205.8736753146622
 20
-22.11770230922051
 30
0.0
 11
205.8697756858622
 21
-22.12408253642049
 31
0.0
  0
LINE
  5
626
330
2
100
AcDbEntity
  8
0
  6
Continuous
100
AcDbLine
 10
205.8450697418622
 20
-22.1903228820205
 30
0.0
 11
205.8411552234622
 21
-22.19654801002052
 31
0.0
  0
LINE
  5
627
330
2
100
AcDbEntity
  8
0
  6
Continuous
100
AcDbLine
 10
205.8411281498622
 20
-22.19659102602052
 30
0.0
 11
205.8411107962622
 21
-22.19661860682051
 31
0.0
  0
LWPOLYLINE
  5
628
330
2
100
AcDbEntity
  8
0
  6
Continuous
100
AcDbPolyline
 90
        3
 70
     0
 43
0.0
 10
205.8411281498622
 20
-22.19659102602052
 10
205.7227202122622
 20
-22.38059012522052
 10
205.5760699034622
 20
-22.59743763722049
  0
LWPOLYLINE
  5
62E
330
2
100
AcDbEntity
  8
0
100
AcDbPolyline
 90
        4
 70
   128
 43
0.0
 10
205.4206378698622
 20
-19.4023828884205
 10
205.4845098138622
 20
-19.36723637802051
 10
205.5593330442622
 20
-19.36723637802051
 10
205.8697702874622
 20
-19.36723637802051
  0
LWPOLYLINE
  5
62F
330
2
100
AcDbEntity
  8
0
  6
Continuous
100
AcDbPolyline
 90
       11
 70
     0
 43
0.0
 10
205.2498822314622
 20
-21.07945445322052
 10
205.2784612074622
 20
-20.97714835402052
 10
205.3075297898622
 20
-20.86409449162053
 10
205.3367693546622
 20
-20.73896350282049
 10
205.3657145274622
 20
-20.60040423562049
 10
205.3937413338622
 20
-20.44700459562051
 10
205.4200536106622
 20
-20.27718807722052
 10
205.4436400074622
 20
-20.08914049802051
 10
205.4632097370622
 20
-19.8806454516205
 10
205.4770761466622
 20
-19.6487540932205
 10
205.4829118746622
 20
-19.39064269962052
  0
LINE
  5
63C
330
2
100
AcDbEntity
  8
0
  6
HIDDEN
100
AcDbLine
 10
204.7084868826622
 20
-19.72599468202053
 30
0.0
 11
205.8263740458623
 21
-19.76671108202053
 31
0.0
  0
LWPOLYLINE
  5
63D
330
2
100
AcDbEntity
  8
0
  6
HIDDEN
 62
     9
100
AcDbPolyline
 90
        3
 70
     0
 43
0.0
 10
203.5968824490622
 20
-19.68513755242053
 10
204.7088508202622
 20
-19.72601734282051
 10
205.8253072858622
 20
-19.76688000522052
  0
LINE
  5
642
330
2
100
AcDbEntity
  8
0
  6
HIDDEN
 62
     9
100
AcDbLine
 10
206.1319007978622
 20
-20.27348637802051
 30
0.0
 11
203.4854541882622
 21
-20.27348637802051
 31
0.0
  0
LINE
  5
643
330
2
100
AcDbEntity
  8
0
  6
HIDDEN
 62
     9
100
AcDbLine
 10
206.1319007978622
 20
-20.05473637802051
 30
0.0
 11
203.4854541882622
 21
-20.05473637802051
 31
0.0
  0
LWPOLYLINE
  5
644
330
2
100
AcDbEntity
  8
0
  6
HIDDEN
 62
     9
100
AcDbPolyline
 90
        3
 70
     0
 43
0.0
 10
202.8345792618622
 20
-19.55173319082051
 10
202.8625504010622
 20
-19.55172438922049
 10
202.9559063818622
 20
-19.55169191722049
  0
ARC
  5
649
330
2
100
AcDbEntity
  8
0
  6
HIDDEN
 62
     9
100
AcDbCircle
 10
202.8270089098622
 20
-19.80161827882052
 30
0.0
 40
0.249999816
100
AcDbArc
 50
45.00047239839999
 51
88.2647362558
  0
LWPOLYLINE
  5
64A
330
2
100
AcDbEntity
  8
0
  6
HIDDEN
 62
     9
100
AcDbPolyline
 90
        3
 70
     0
 43
0.0
 10
203.2996231786622
 20
-19.55150513962049
 10
202.9136088810622
 20
-19.5517016484205
 10
202.8345792586622
 20
-19.55173328042051
  0
LINE
  5
64F
330
2
100
AcDbEntity
  8
0
  6
HIDDEN
 62
     9
100
AcDbLine
 10
203.2423862314622
 20
-20.17280433322051
 30
0.0
 11
202.8491030858623
 21
-19.7795211876205
 31
0.0
  0
LINE
  5
650
330
2
100
AcDbEntity
  8
0
  6
Continuous
100
AcDbLine
 10
200.9336774922622
 20
-20.55473637802051
 30
0.0
 11
203.2523905282276
 21
-20.55473637802051
 31
0.0
  0
LINE
  5
651
330
2
100
AcDbEntity
  8
0
  6
Continuous
100
AcDbLine
 10
202.9003710218622
 20
-20.7220118772205
 30
0.0
 11
202.9643840218622
 21
-20.6838529876205
 31
0.0
  0
LINE
  5
652
330
2
100
AcDbEntity
  8
0
  6
Continuous
100
AcDbLine
 10
202.8165366906622
 20
-20.7365748644205
 30
0.0
 11
202.9643840218622
 21
-20.6838529876205
 31
0.0
  0
LWPOLYLINE
  5
653
330
2
100
AcDbEntity
  8
0
  6
Continuous
100
AcDbPolyline
 90
        3
 70
     0
 43
0.0
 10
202.9003710218622
 20
-20.7220118772205
 10
203.4039599626622
 20
-20.49111150602049
 10
203.6752903098622
 20
-20.3583401300205
  0
ARC
  5
658
330
2
100
AcDbEntity
  8
0
  6
HIDDEN
 62
     9
100
AcDbCircle
 10
202.8270089098622
 20
-19.80161827882052
 30
0.0
 40
0.0312499104
100
AcDbArc
 50
45.0004723748
 51
88.2647362294
  0
LINE
  5
659
330
2
100
AcDbEntity
  8
0
  6
HIDDEN
100
AcDbLine
 10
200.9336774922622
 20
-20.55473637802051
 30
0.0
 11
200.9336774922622
 21
-20.42973637802051
 31
0.0
  0
LWPOLYLINE
  5
65A
330
2
100
AcDbEntity
  8
0
  6
Continuous
100
AcDbPolyline
 90
        5
 70
     0
 43
0.0
 10
202.1531698618622
 20
-20.86647192202049
 10
202.3640095946622
 20
-20.85369866442052
 10
202.5599481258622
 20
-20.82517311882049
 10
202.7395236634622
 20
-20.78108149802051
 10
202.9003710218622
 20
-20.7220118772205
  0
LWPOLYLINE
  5
661
330
2
100
AcDbEntity
  8
0
  6
Continuous
100
AcDbPolyline
 90
        4
 70
     0
 43
0.0
 10
202.2793174666622
 20
-20.8068795540205
 10
202.4723962858622
 20
-20.79827385002051
 10
202.6519882122622
 20
-20.77481883402052
 10
202.8165366906622
 20
-20.7365748644205
  0
LWPOLYLINE
  5
667
330
2
100
AcDbEntity
  8
0
  6
Continuous
100
AcDbPolyline
 90
        3
 70
     0
 43
0.0
 10
202.2793139402622
 20
-20.80687957322052
 10
202.2341512858622
 20
-20.81073213482051
 10
202.1903704954622
 20
-20.82216053642051
  0
LWPOLYLINE
  5
66C
330
2
100
AcDbEntity
  8
0
  6
Continuous
100
AcDbPolyline
 90
        3
 70
     0
 43
0.0
 10
202.2793139402622
 20
-20.80687957322052
 10
202.2367719610622
 20
-20.8267320500205
 10
202.1947277754622
 20
-20.84660029962051
  0
LINE
  5
671
330
2
100
AcDbEntity
  8
0
  6
Continuous
100
AcDbLine
 10
202.0846804970622
 20
-20.87248298442051
 30
0.0
 11
202.1422723466622
 21
-20.84410241482049
 31
0.0
  0
LWPOLYLINE
  5
672
330
2
100
AcDbEntity
  8
0
  6
Continuous
100
AcDbPolyline
 90
        3
 70
     0
 43
0.0
 10
202.0874426058622
 20
-20.8759840116205
 10
202.1200256330622
 20
-20.86917454442049
 10
202.1531721034622
 20
-20.86647187082049
  0
LINE
  5
677
330
2
100
AcDbEntity
  8
0
  6
Continuous
100
AcDbLine
 10
202.1422723466622
 20
-20.84410241482049
 30
0.0
 11
202.1676828586622
 21
-20.8317208708205
 31
0.0
  0
LINE
  5
678
330
2
100
AcDbEntity
  8
0
  6
Continuous
100
AcDbLine
 10
202.1947277754622
 20
-20.84660029962051
 30
0.0
 11
202.1531721034622
 21
-20.86647187082049
 31
0.0
  0
LINE
  5
679
330
2
100
AcDbEntity
  8
0
  6
Continuous
100
AcDbLine
 10
202.1903704954622
 20
-20.82216053642051
 30
0.0
 11
202.1676627082622
 21
-20.83173064842049
 31
0.0
  0
LINE
  5
67A
330
2
100
AcDbEntity
  8
0
  6
Continuous
100
AcDbLine
 10
202.0449201850622
 20
-20.89234072842052
 30
0.0
 11
202.0846804970622
 21
-20.87248298442051
 31
0.0
  0
LINE
  5
67B
330
2
100
AcDbEntity
  8
0
  6
Continuous
100
AcDbLine
 10
202.0449071706622
 20
-20.89234726122052
 30
0.0
 11
202.0874426058622
 21
-20.8759840116205
 31
0.0
  0
LINE
  5
67C
330
2
100
AcDbEntity
  8
0
100
AcDbLine
 10
205.4206378698622
 20
-19.4023828884205
 30
0.0
 11
205.1961128784819
 21
-19.52141505421751
 31
0.0
  0
LWPOLYLINE
  5
67D
330
2
100
AcDbEntity
  8
0
  6
Continuous
100
AcDbPolyline
 90
       11
 70
     0
 43
0.0
 10
205.1862883402622
 20
-21.0467292276205
 10
205.2148528282622
 20
-20.94687365002051
 10
205.2438734746622
 20
-20.8365781668205
 10
205.2730432650622
 20
-20.71455443722052
 10
205.3019139658622
 20
-20.57949356042049
 10
205.3298852266622
 20
-20.43002981802052
 10
205.3561924538622
 20
-20.2646422052205
 10
205.3798662074622
 20
-20.0815849124205
 10
205.3996717194622
 20
-19.8787343684205
 10
205.4140006746622
 20
-19.65325983242049
 10
205.4206378698622
 20
-19.4023828884205
  0
LINE
  5
68A
330
2
100
AcDbEntity
  8
0
  6
HIDDEN
 62
     9
100
AcDbLine
 10
204.1956306698622
 20
-19.55032297002049
 30
0.0
 11
203.7406626634622
 21
-19.55103474602051
 31
0.0
  0
ARC
  5
68B
330
2
100
AcDbEntity
  8
0
  6
HIDDEN
 62
     9
100
AcDbCircle
 10
203.4854541882622
 20
-19.92973637802051
 30
0.0
 40
0.125
100
AcDbArc
 50
225.0000024403
 51
270.0
  0
ARC
  5
68C
330
2
100
AcDbEntity
  8
0
  6
HIDDEN
 62
     9
100
AcDbCircle
 10
203.4854541882622
 20
-19.92973637802051
 30
0.0
 40
0.34375
100
AcDbArc
 50
225.0000024403
 51
270.0
  0
LINE
  5
68D
330
2
100
AcDbEntity
  8
0
  6
HIDDEN
 62
     9
100
AcDbLine
 10
203.8511698042622
 20
-19.5508800708205
 30
0.0
 11
203.1447813130622
 21
-19.55159843402051
 31
0.0
  0
LINE
  5
68E
330
2
100
AcDbEntity
  8
0
  6
HIDDEN
 62
     9
100
AcDbLine
 10
203.3970658410622
 20
-20.0181247252205
 30
0.0
 11
203.0037826938622
 21
-19.62484157962052
 31
0.0
  0
LWPOLYLINE
  5
68F
330
2
100
AcDbEntity
  8
0
  6
Continuous
100
AcDbPolyline
 90
        3
 70
     0
 43
0.0
 10
202.9643840218622
 20
-20.6838529876205
 10
203.4547766154622
 20
-20.46400438122051
 10
203.6748940618622
 20
-20.35752102282052
  0
LWPOLYLINE
  5
694
330
2
100
AcDbEntity
  8
0
  6
Continuous
100
AcDbPolyline
 90
        4
 70
     0
 43
0.0
 10
203.6752903098622
 20
-20.3583401300205
 10
203.9269608042622
 20
-20.23026618922052
 10
204.4673290954622
 20
-19.93999151242051
 10
205.1961128784819
 20
-19.52141505421751
  0
LINE
  5
69A
330
2
100
AcDbEntity
  8
0
  6
HIDDEN
 62
     9
100
AcDbLine
 10
205.3625846362622
 20
-19.54760761482052
 30
0.0
 11
204.1953435370622
 21
-19.5503249412205
 31
0.0
  0
ARC
  5
69B
330
2
100
AcDbEntity
  8
0
  6
HIDDEN
 62
     9
100
AcDbCircle
 10
206.5623154794622
 20
-17.06437075722049
 30
0.0
 40
2.500001625599999
100
AcDbArc
 50
274.6808837381
 51
345.8444611651
  0
LINE
  5
69C
330
2
100
AcDbEntity
  8
0
  6
HIDDEN
 62
     9
100
AcDbLine
 10
208.3195181498622
 20
-19.13893270922051
 30
0.0
 11
207.6014598154622
 21
-19.57667578282049
 31
0.0
  0
LINE
  5
69D
330
2
100
AcDbEntity
  8
0
  6
Continuous
100
AcDbLine
 10
208.8531705962622
 20
-20.55473637802051
 30
0.0
 11
206.4285459258622
 21
-20.55473637802051
 31
0.0
  0
LINE
  5
69E
330
2
100
AcDbEntity
  8
0
  6
HIDDEN
 62
     9
100
AcDbLine
 10
206.7138226314622
 20
-19.55508008522049
 30
0.0
 11
206.7660778954622
 21
-19.55603128522052
 31
0.0
  0
LINE
  5
69F
330
2
100
AcDbEntity
  8
0
  6
HIDDEN
 62
     9
100
AcDbLine
 10
206.7660840410622
 20
-19.55602144522049
 30
0.0
 11
206.7663464010622
 21
-19.55602837802052
 31
0.0
  0
LINE
  5
6A0
330
2
100
AcDbEntity
  8
0
  6
HIDDEN
 62
     9
100
AcDbLine
 10
206.7719457498622
 20
-19.77549657802049
 30
0.0
 11
206.7024724410622
 21
-19.78244566922051
 31
0.0
  0
LINE
  5
6A1
330
2
100
AcDbEntity
  8
0
  6
HIDDEN
 62
     9
100
AcDbLine
 10
206.7839176634622
 20
-19.77404380042051
 30
0.0
 11
206.7841987434622
 21
-19.77404920042051
 31
0.0
  0
ARC
  5
6A2
330
2
100
AcDbEntity
  8
0
  6
HIDDEN
 62
     9
100
AcDbCircle
 10
206.7867510154622
 20
-19.80519922602051
 30
0.0
 40
0.0312493984
100
AcDbArc
 50
94.68150848080002
 51
134.9973290014999
  0
LINE
  5
6A3
330
2
100
AcDbEntity
  8
0
  6
HIDDEN
 62
     9
100
AcDbLine
 10
206.7663305738622
 20
-19.55603405482051
 30
0.0
 11
206.6359892938622
 21
-19.55402221802052
 31
0.0
  0
LINE
  5
6A4
330
2
100
AcDbEntity
  8
0
  6
HIDDEN
 62
     9
100
AcDbLine
 10
206.8763711098622
 20
-19.54453584842049
 30
0.0
 11
206.7660840410622
 21
-19.55602144522049
 31
0.0
  0
LINE
  5
6A5
330
2
100
AcDbEntity
  8
0
  6
HIDDEN
 62
     9
100
AcDbLine
 10
206.9091888346622
 20
-19.76087239242049
 30
0.0
 11
206.7839176634622
 21
-19.77404380042051
 31
0.0
  0
LINE
  5
6A6
330
2
100
AcDbEntity
  8
0
  6
HIDDEN
 62
     9
100
AcDbLine
 10
206.7841997658622
 20
-19.77404922122049
 30
0.0
 11
207.4079336058622
 21
-19.64826856522051
 31
0.0
  0
LINE
  5
6A7
330
2
100
AcDbEntity
  8
0
  6
Continuous
100
AcDbLine
 10
205.4695576266622
 20
-19.81368035082051
 30
0.0
 11
205.4845098138622
 21
-19.36723637802051
 31
0.0
  0
LINE
  5
6A8
330
2
100
AcDbEntity
  8
0
  6
Continuous
100
AcDbLine
 10
205.8537861162622
 20
-19.83405839562049
 30
0.0
 11
205.8697702874622
 21
-19.36723637802051
 31
0.0
  0
LWPOLYLINE
  5
6A9
330
2
100
AcDbEntity
  8
0
  6
Continuous
100
AcDbPolyline
 90
        4
 70
     0
 43
0.0
 10
205.9465071242622
 20
-19.51246087882051
 10
205.9753136746622
 20
-19.5500136356205
 10
206.0013251914622
 20
-19.58658078122051
 10
206.0238203210622
 20
-19.62108523882051
  0
LWPOLYLINE
  5
6AF
330
2
100
AcDbEntity
  8
0
  6
Continuous
100
AcDbPolyline
 90
        3
 70
     0
 43
0.0
 10
205.8673461957416
 20
-19.43803262849378
 10
205.9061894106622
 20
-19.46881690762052
 10
205.9465071242622
 20
-19.51246087882051
  0
ARC
  5
6BD
330
2
100
AcDbEntity
  8
0
  6
HIDDEN
 62
     9
100
AcDbCircle
 10
206.1319007978622
 20
-19.92973637802051
 30
0.0
 40
0.125
100
AcDbArc
 50
270.0
 51
314.9999977589999
  0
LINE
  5
6BE
330
2
100
AcDbEntity
  8
0
  6
HIDDEN
 62
     9
100
AcDbLine
 10
206.5437409530622
 20
-19.7727507060205
 30
0.0
 11
206.2288129802622
 21
-19.77838144042049
 31
0.0
  0
LINE
  5
6BF
330
2
100
AcDbEntity
  8
0
  6
HIDDEN
 62
     9
100
AcDbLine
 10
206.5545623690622
 20
-19.5529633348205
 30
0.0
 11
206.2222296042622
 21
-19.55044483562049
 31
0.0
  0
LINE
  5
6C0
330
2
100
AcDbEntity
  8
0
  6
HIDDEN
 62
     9
100
AcDbLine
 10
206.2202891450622
 20
-20.0181247252205
 30
0.0
 11
206.6099910698622
 21
-19.6284228004205
 31
0.0
  0
ARC
  5
6C3
330
2
100
AcDbEntity
  8
0
  6
HIDDEN
 62
     9
100
AcDbCircle
 10
206.1319007978622
 20
-19.92973637802051
 30
0.0
 40
0.34375
100
AcDbArc
 50
270.0
 51
314.9999977589999
  0
LINE
  5
6C4
330
2
100
AcDbEntity
  8
0
  6
HIDDEN
 62
     9
100
AcDbLine
 10
206.5545601706622
 20
-19.55296431242053
 30
0.0
 11
206.6482191514622
 21
-19.55409648842051
 31
0.0
  0
LINE
  5
6C5
330
2
100
AcDbEntity
  8
0
  6
HIDDEN
 62
     9
100
AcDbLine
 10
206.6359892938622
 20
-19.55402221802052
 30
0.0
 11
206.5285862474622
 21
-19.5527403172205
 31
0.0
  0
LINE
  5
6C6
330
2
100
AcDbEntity
  8
0
  6
HIDDEN
 62
     9
100
AcDbLine
 10
206.7024724410622
 20
-19.78244566922051
 30
0.0
 11
206.5437409530622
 21
-19.7727507060205
 31
0.0
  0
ARC
  5
6C7
330
2
100
AcDbEntity
  8
0
  6
HIDDEN
 62
     9
100
AcDbCircle
 10
206.7867510154622
 20
-19.80519922602051
 30
0.0
 40
0.2499989056
100
AcDbArc
 50
94.68150867029999
 51
134.9973293799
  0
LINE
  5
6C8
330
2
100
AcDbEntity
  8
0
  6
HIDDEN
 62
     9
100
AcDbLine
 10
206.3749687530622
 20
-20.17280433322051
 30
0.0
 11
206.7646706778622
 21
-19.7831024100205
 31
0.0
  0
LWPOLYLINE
  5
6C9
330
2
100
AcDbEntity
  8
0
  6
Continuous
100
AcDbPolyline
 90
        3
 70
     0
 43
0.0
 10
206.4417811194622
 20
-20.7220118772205
 10
206.4405448266622
 20
-20.78090810762051
 10
206.4346355370622
 20
-20.81843776202049
  0
LWPOLYLINE
  5
6CE
330
2
100
AcDbEntity
  8
0
  6
Continuous
100
AcDbPolyline
 90
        5
 70
     0
 43
0.0
 10
206.0238203210622
 20
-19.62108523882051
 10
206.2031254282622
 20
-19.93741067882051
 10
206.3334437002622
 20
-20.22941005802051
 10
206.4129351626622
 20
-20.49226357322051
 10
206.4417811194622
 20
-20.7220118772205
  0
LINE
  5
6D5
330
2
100
AcDbEntity
  8
0
  6
HIDDEN
 62
     9
100
AcDbLine
 10
208.6254959178623
 20
-18.83493912362052
 30
0.0
 11
209.0260705930622
 21
-18.21395897962051
 31
0.0
  0
ELLIPSE
  5
6D6
330
2
100
AcDbEntity
  8
0
  6
Continuous
100
AcDbEllipse
 10
157.9209224323089
 20
-1.176543523701853
 30
0.0
 11
1.758182724004233
 21
0.1259267506062748
 31
0.0
210
0.0
220
0.0
230
-0.9999999999999998
 40
0.9553019657879509
 41
3.215578488723761
 42
4.788874666495461
  0
SPLINE
  5
6D7
330
2
100
AcDbEntity
  8
0
  6
HIDDEN
 62
     9
100
AcDbSpline
210
0.0
220
0.0
230
1.0
 70
     8
 71
     3
 72
    18
 73
    14
 74
     0
 42
0.0000000001
 43
0.0000000001
 40
3.141592653589793
 40
3.141592653589793
 40
3.141592653589793
 40
3.141592653589793
 40
3.504327783744122
 40
3.504327783744122
 40
4.100827019681519
 40
4.100827019681519
 40
4.697326255618916
 40
4.697326255618916
 40
5.293825491556313
 40
5.293825491556313
 40
5.890324727493711
 40
5.890324727493711
 40
5.953219430164994
 40
5.953219430164994
 40
5.953219430164994
 40
5.953219430164994
 10
156.3989903703833
 20
-1.176346502616808
 30
0.0
 10
156.3983974122853
 20
-1.000967480842517
 30
0.0
 10
156.431392464233
 20
-0.8255014963625361
 30
0.0
 10
156.602519719077
 20
-0.3901212217997682
 30
0.0
 10
156.7961692184777
 20
-0.1496569432177356
 30
0.0
 10
157.2957961874473
 20
0.1877729510922585
 30
0.0
 10
157.6007807270633
 20
0.2836385139573204
 30
0.0
 10
158.2159507329238
 20
0.294578834223949
 30
0.0
 10
158.5205755328097
 20
0.2096153291790629
 30
0.0
 10
159.0330421502287
 20
-0.1099876202698917
 30
0.0
 10
159.2358970971335
 20
-0.343565402828616
 30
0.0
 10
159.364961481042
 20
-0.6385974418326754
 30
0.0
 10
159.3763286225606
 20
-0.6670970630178691
 30
0.0
 10
159.3867416440986
 20
-0.6958986579573454
 30
0.0
  0
LINE
  5
6D8
330
2
100
AcDbEntity
  8
0
  6
HIDDEN
 62
     9
100
AcDbLine
 10
156.3008859217932
 20
-1.992236378020521
 30
0.0
 11
156.400868127193
 21
-1.177960626087942
 31
0.0
  0
LINE
  5
6D9
330
2
100
AcDbEntity
  8
0
  6
Continuous
 62
     7
100
AcDbLine
 10
156.0586774922622
 20
-1.992236378020521
 30
0.0
 11
156.1587664298622
 21
-1.17708438442051
 31
0.0
  0
ELLIPSE
  5
6DD
330
2
100
AcDbEntity
  8
0
  6
HIDDEN
 62
     9
100
AcDbEllipse
 10
157.9329791985137
 20
-1.169483817463838
 30
0.0
 11
1.753927857959086
 21
0.038120946960498
 31
0.0
210
0.0
220
0.0
230
-0.9999999999999998
 40
0.9562036516866394
 41
-1.277870720158724
 42
-0.2968399321475303
  0
LINE
  5
6E4
330
2
100
AcDbEntity
  8
0
  6
HIDDEN
 62
     9
100
AcDbLine
 10
211.9415605098622
 20
-5.209191904420535
 30
0.0
 11
211.1113770058622
 21
-9.44004013002052
 31
0.0
  0
LWPOLYLINE
  5
6E5
330
2
100
AcDbEntity
  8
0
  6
Continuous
100
AcDbPolyline
 90
       32
 70
     0
 43
0.0
 10
212.0662121098622
 20
-13.7374251876205
 10
212.0713469914622
 20
-13.55581898922051
 10
212.0767986522622
 20
-13.33114546602049
 10
212.0812654618622
 20
-13.11318381002049
 10
212.0849171114622
 20
-12.91241127242053
 10
212.0882853594622
 20
-12.7179461924205
 10
212.0918102714622
 20
-12.52173467882051
 10
212.0957596954622
 20
-12.32279684042049
 10
212.1005126906622
 20
-12.1122488180205
 10
212.1064303722622
 20
-11.8834595988205
 10
212.1137631338622
 20
-11.6354204884205
 10
212.1226293722622
 20
-11.37118032362052
 10
212.1330884618622
 20
-11.09400842762049
 10
212.1454167258622
 20
-10.80105373482052
 10
212.1600712810622
 20
-10.4869688580205
 10
212.1773963882622
 20
-10.15073103722049
 10
212.1975181386622
 20
-9.795907309220524
 10
212.2205289610622
 20
-9.426106709220519
 10
212.2465207354622
 20
-9.044628354020503
 10
212.2757495802622
 20
-8.65291196362051
 10
212.3091213754622
 20
-8.246061965220519
 10
212.3479818154622
 20
-7.817267568420518
 10
212.3940638906622
 20
-7.359678555620519
 10
212.4494908810622
 20
-6.867264872420534
 10
212.5165676810622
 20
-6.274411224420504
 10
212.5972442170622
 20
-5.708793037220502
 10
212.6934502042622
 20
-5.109857304420501
 10
212.8054429450622
 20
-4.485496350820511
 10
212.9334007546622
 20
-3.841912638820502
 10
213.0776895802622
 20
-3.183662150820524
 10
213.2383742106622
 20
-2.5163666404205
 10
213.3683517498622
 20
-2.018886400420498
  0
LWPOLYLINE
  5
707
330
2
100
AcDbEntity
  8
0
  6
Continuous
100
AcDbPolyline
 90
        8
 70
     0
 43
0.0
 10
212.4784700122622
 20
-4.040813059620504
 10
212.1330758186622
 20
-5.878908597220501
 10
211.9214272250622
 20
-7.585765334820521
 10
211.8065345498622
 20
-9.049267811620524
 10
211.7602627802622
 20
-10.34245095562052
 10
211.7606546874622
 20
-11.47326175562052
 10
211.7903463770622
 20
-12.44734804682049
 10
211.8355267066622
 20
-13.2678325828205
  0
LWPOLYLINE
  5
711
330
2
100
AcDbEntity
  8
0
  6
Continuous
100
AcDbPolyline
 90
        3
 70
     0
 43
0.0
 10
211.9919343834622
 20
-15.05474150922052
 10
211.9086268602622
 20
-16.3548900100205
 10
211.8514506810622
 20
-17.6563067204205
  0
LWPOLYLINE
  5
716
330
2
100
AcDbEntity
  8
0
  6
Continuous
100
AcDbPolyline
 90
        4
 70
     0
 43
0.0
 10
211.8851953178622
 20
-13.9349421316205
 10
211.9306138122622
 20
-14.44612974922049
 10
211.9652823658622
 20
-14.79839234282053
 10
211.9919343834622
 20
-15.05474150922052
  0
LWPOLYLINE
  5
71C
330
2
100
AcDbEntity
  8
0
  6
Continuous
100
AcDbPolyline
 90
        3
 70
     0
 43
0.0
 10
211.9918651946622
 20
-15.05473637802051
 10
212.0514314570622
 20
-14.13433166282051
 10
212.0627496730622
 20
-13.8471462964205
  0
LINE
  5
721
330
2
100
AcDbEntity
  8
0
  6
Continuous
100
AcDbLine
 10
212.0627545546622
 20
-13.84699947882052
 30
0.0
 11
212.0662121098622
 21
-13.7374251876205
 31
0.0
  0
LINE
  5
722
330
2
100
AcDbEntity
  8
0
  6
Continuous
100
AcDbLine
 10
211.8355267066622
 20
-13.2678325828205
 30
0.0
 11
211.8851953178622
 21
-13.9349421316205
 31
0.0
  0
LWPOLYLINE
  5
72A
330
2
100
AcDbEntity
  8
0
  6
HIDDEN
 62
     9
100
AcDbPolyline
 90
        8
 70
     0
 43
0.0
 10
212.4100526394622
 20
-2.657221190820521
 10
212.3978786042622
 20
-2.7197312324205
 10
212.3728272538622
 20
-2.837497006820498
 10
212.3385522538622
 20
-2.9965009108205
 10
212.2975193354622
 20
-3.191141533220502
 10
212.2524176906622
 20
-3.414446794020534
 10
212.2059254554622
 20
-3.657884269220502
 10
212.1605136282622
 20
-3.911410568420521
  0
LINE
  5
734
330
2
100
AcDbEntity
  8
0
  6
Continuous
100
AcDbLine
 10
213.0013009914622
 20
-2.018886141220519
 30
0.0
 11
212.4784700122622
 21
-4.040813059620504
 31
0.0
  0
LWPOLYLINE
  5
735
330
2
100
AcDbEntity
  8
0
  6
HIDDEN
 62
     9
100
AcDbPolyline
 90
        5
 70
     0
 43
0.0
 10
211.9033954810622
 20
-3.868022270820503
 10
211.9676589754622
 20
-3.538901083620501
 10
212.0353279578622
 20
-3.229593757220499
 10
212.0988917322622
 20
-2.963797803620522
 10
212.1510923162622
 20
-2.759277829220522
  0
LINE
  5
745
330
2
100
AcDbEntity
  8
0
  6
HIDDEN
 62
     9
100
AcDbLine
 10
211.7661605274622
 20
-6.19782795562051
 30
0.0
 11
211.9731664058622
 21
-5.096425040420498
 31
0.0
  0
LWPOLYLINE
  5
74E
330
2
100
AcDbEntity
  8
0
  6
HIDDEN
 62
     9
100
AcDbPolyline
 90
        4
 70
     0
 43
0.0
 10
211.9731652746622
 20
-5.096431152420521
 10
211.9703401546622
 20
-5.111456538020519
 10
211.9537430698622
 20
-5.185176917220502
 10
211.9415605098622
 20
-5.209191904420535
  0
LINE
  5
754
330
2
100
AcDbEntity
  8
0
  6
HIDDEN
 62
     9
100
AcDbLine
 10
211.7266049258622
 20
-5.168627595620534
 30
0.0
 11
211.9415605098622
 21
-5.209191904420535
 31
0.0
  0
LWPOLYLINE
  5
765
330
2
100
AcDbEntity
  8
0
  6
HIDDEN
 62
     9
100
AcDbPolyline
 90
        5
 70
     0
 43
0.0
 10
211.7266049258622
 20
-5.168627595620534
 10
211.7660758778622
 20
-4.787836414820503
 10
211.8001296090622
 20
-4.517096968420503
 10
211.8463042746622
 20
-4.202521056420522
 10
211.9033954810622
 20
-3.868022270820503
  0
LINE
  5
76C
330
2
100
AcDbEntity
  8
0
  6
HIDDEN
 62
     9
100
AcDbLine
 10
211.9033954810622
 20
-3.868022270820503
 30
0.0
 11
212.1174926762622
 21
-3.9071565252205
 31
0.0
  0
LINE
  5
76D
330
2
100
AcDbEntity
  8
0
  6
HIDDEN
 62
     9
100
AcDbLine
 10
211.9454563914622
 20
-3.874169290020503
 30
0.0
 11
212.1605136282622
 21
-3.911410568420521
 31
0.0
  0
LWPOLYLINE
  5
76E
330
2
100
AcDbEntity
  8
0
  6
HIDDEN
 62
     9
100
AcDbPolyline
 90
        7
 70
     0
 43
0.0
 10
212.1605136282622
 20
-3.911410568420521
 10
212.1179033530622
 20
-4.165122757220501
 10
212.0792408234622
 20
-4.409633277220521
 10
212.0451469402622
 20
-4.6347146724205
 10
212.0157810826622
 20
-4.831349291620497
 10
211.9909575962622
 20
-4.992124750820522
 10
211.9731652746622
 20
-5.096431152420521
  0
ELLIPSE
  5
77D
330
2
100
AcDbEntity
  8
0
  6
Continuous
100
AcDbEllipse
 10
214.2025631938622
 20
-1.171147805220506
 30
0.0
 11
-1.756015771999984
 21
0.0059371055997782
 31
0.0
210
0.0
220
0.0
230
1.0
 40
0.9560858495958035
 41
3.141592653589657
 42
4.714888831361343
  0
SPLINE
  5
77E
330
2
100
AcDbEntity
  8
0
  6
HIDDEN
 62
     9
100
AcDbSpline
210
0.0
220
0.0
230
1.0
 70
     8
 71
     3
 72
    18
 73
    14
 74
     0
 42
0.0000000001
 43
0.0000000001
 40
3.177378069353825
 40
3.177378069353825
 40
3.177378069353825
 40
3.177378069353825
 40
3.504327783744122
 40
3.504327783744122
 40
4.100827019681519
 40
4.100827019681519
 40
4.697326255618916
 40
4.697326255618916
 40
5.293825491556313
 40
5.293825491556313
 40
5.890324727493711
 40
5.890324727493711
 40
5.953219430164994
 40
5.953219430164994
 40
5.953219430164994
 40
5.953219430164994
 10
215.7393767994773
 20
-1.124448707164094
 30
0.0
 10
215.7339542681494
 20
-0.9664518711352158
 30
0.0
 10
215.7013940079414
 20
-0.809259100665052
 30
0.0
 10
215.5366508654474
 20
-0.3901212217997682
 30
0.0
 10
215.3430013660468
 20
-0.1496569432177356
 30
0.0
 10
214.8433743970772
 20
0.1877729510922585
 30
0.0
 10
214.5383898574611
 20
0.2836385139573204
 30
0.0
 10
213.9232198516006
 20
0.294578834223949
 30
0.0
 10
213.6107350517147
 20
0.2096153291790629
 30
0.0
 10
213.0982684342956
 20
-0.1099876202698917
 30
0.0
 10
212.8954134873909
 20
-0.343565402828616
 30
0.0
 10
212.7663491034823
 20
-0.6385974418326754
 30
0.0
 10
212.7549819619638
 20
-0.6670970630178691
 30
0.0
 10
212.7445689404257
 20
-0.6958986579573454
 30
0.0
  0
LINE
  5
77F
330
2
100
AcDbEntity
  8
0
  6
HIDDEN
 62
     9
100
AcDbLine
 10
212.1944069978622
 20
-2.620521360420511
 30
0.0
 11
212.5317725672546
 21
-0.6424750648164539
 31
0.0
  0
LINE
  5
780
330
2
100
AcDbEntity
  8
0
  6
HIDDEN
 62
     9
100
AcDbLine
 10
212.4100526394622
 20
-2.657221190820521
 30
0.0
 11
212.7445689404257
 21
-0.6958986579573528
 31
0.0
  0
LINE
  5
781
330
2
100
AcDbEntity
  8
0
  6
HIDDEN
 62
     9
100
AcDbLine
 10
212.4422509034622
 20
-1.16519998122051
 30
0.0
 11
212.4145737037056
 21
-1.327449187313902
 31
0.0
  0
LINE
  5
782
330
2
100
AcDbEntity
  8
0
  6
HIDDEN
 62
     9
100
AcDbLine
 10
212.6579434394622
 20
-1.201615046820521
 30
0.0
 11
212.6365531219317
 21
-1.327449187313902
 31
0.0
  0
LINE
  5
786
330
2
100
AcDbEntity
  8
0
  6
HIDDEN
 62
     9
100
AcDbLine
 10
212.1976327402622
 20
-2.584581270820521
 30
0.0
 11
212.1944054666622
 21
-2.620530184420502
 31
0.0
  0
LWPOLYLINE
  5
787
330
2
100
AcDbEntity
  8
0
  6
HIDDEN
 62
     9
100
AcDbPolyline
 90
        3
 70
     0
 43
0.0
 10
212.1510923162622
 20
-2.759277829220522
 10
212.1856218154622
 20
-2.629113989220499
 10
212.1976327402622
 20
-2.584581270820521
  0
LINE
  5
78C
330
2
100
AcDbEntity
  8
0
  6
HIDDEN
 62
     9
100
AcDbLine
 10
212.1976327402622
 20
-2.584581270820521
 30
0.0
 11
212.4130765386622
 21
-2.622468861220511
 31
0.0
  0
LINE
  5
792
330
2
100
AcDbEntity
  8
0
  6
HIDDEN
 62
     9
100
AcDbLine
 10
212.3211524330622
 20
-1.875103109220503
 30
0.0
 11
212.1976327402622
 21
-2.584581270820521
 31
0.0
  0
ELLIPSE
  5
793
330
2
100
AcDbEntity
  8
0
  6
HIDDEN
 62
     9
100
AcDbEllipse
 10
214.198938849553
 20
-1.172802856024256
 30
0.0
 11
1.757579963478526
 21
0.0260635088940286
 31
0.0
210
0.0
220
0.0
230
0.9999999999999998
 40
0.9559000341048726
 41
1.823939752169358
 42
2.804970540180554
  0
LINE
  5
794
330
2
100
AcDbEntity
  8
0
  6
Continuous
100
AcDbLine
 10
216.0586774922622
 20
-1.992236378020521
 30
0.0
 11
215.9585876298622
 21
-1.177083846820522
 31
0.0
  0
LINE
  5
795
330
2
100
AcDbEntity
  8
0
  6
HIDDEN
 62
     9
100
AcDbLine
 10
215.8382846627313
 20
-1.992236378020521
 30
0.0
 11
215.7670433750049
 21
-1.412032601758028
 31
0.0
  0
ENDSEC
  0
SECTION
  2
OBJECTS
  0
DICTIONARY
  5
1A
330
0
100
AcDbDictionary
281
     1
  3
ACAD_GROUP
350
18
  3
ACAD_LAYOUT
350
7D2
  3
ACAD_MLINESTYLE
350
19
  3
ACAD_PLOTSETTINGS
350
7D3
  3
ACAD_PLOTSTYLENAME
350
7D0
  3
AcDbVariableDictionary
350
812
  0
DICTIONARY
  5
18
102
{ACAD_REACTORS
330
1A
102
}
330
1A
100
AcDbDictionary
281
     1
  0
DICTIONARY
  5
7D2
102
{ACAD_REACTORS
330
1A
102
}
330
1A
100
AcDbDictionary
281
     1
  3
Layout1
350
7D5
  3
Model
350
7D4
  0
DICTIONARY
  5
19
102
{ACAD_REACTORS
330
1A
102
}
330
1A
100
AcDbDictionary
281
     1
  3
STANDARD
350
1B
  0
DICTIONARY
  5
7D3
102
{ACAD_REACTORS
330
1A
102
}
330
1A
100
AcDbDictionary
281
     1
  0
ACDBDICTIONARYWDFLT
  5
7D0
102
{ACAD_REACTORS
330
1A
102
}
330
1A
100
AcDbDictionary
281
     1
  3
Normal
350
7D1
100
AcDbDictionaryWithDefault
340
7D1
  0
DICTIONARY
  5
812
102
{ACAD_REACTORS
330
1A
102
}
330
1A
100
AcDbDictionary
281
     1
  3
DIMASSOC
350
813
  0
LAYOUT
  5
7D5
102
{ACAD_REACTORS
330
7D2
102
}
330
7D2
100
AcDbPlotSettings
  1

  2
HP DeskJet 1120C
  4

  6

 40
0.0
 41
0.0
 42
0.0
 43
0.0
 44
0.0
 45
0.0
 46
0.0
 47
0.0
 48
0.0
 49
0.0
140
0.0
141
0.0
142
1.0
143
1.0
 70
   688
 72
     0
 73
     0
 74
     5
  7

 75
    16
147
1.0
148
0.0
149
0.0
100
AcDbLayout
  1
Layout1
 70
     0
 71
     1
 10
0.0
 20
0.0
 11
12.0
 21
9.0
 12
0.0
 22
0.0
 32
0.0
 14
1.000000000000000E+20
 24
1.000000000000000E+20
 34
1.000000000000000E+20
 15
-1.000000000000000E+20
 25
-1.000000000000000E+20
 35
-1.000000000000000E+20
146
0.0
 13
0.0
 23
0.0
 33
0.0
 16
1.0
 26
0.0
 36
0.0
 17
0.0
 27
1.0
 37
0.0
 76
     0
330
7
  0
LAYOUT
  5
7D4
102
{ACAD_REACTORS
330
7D2
102
}
330
7D2
100
AcDbPlotSettings
  1

  2
HP DeskJet 1120C
  4

  6

 40
0.0
 41
0.0
 42
0.0
 43
0.0
 44
0.0
 45
0.0
 46
0.0
 47
0.0
 48
0.0
 49
0.0
140
0.0
141
0.0
142
1.0
143
1.0
 70
  1712
 72
     0
 73
     0
 74
     0
  7

 75
     0
147
1.0
148
0.0
149
0.0
100
AcDbLayout
  1
Model
 70
     1
 71
     0
 10
0.0
 20
0.0
 11
12.0
 21
9.0
 12
0.0
 22
0.0
 32
0.0
 14
0.0
 24
0.0
 34
0.0
 15
0.0
 25
0.0
 35
0.0
146
0.0
 13
0.0
 23
0.0
 33
0.0
 16
1.0
 26
0.0
 36
0.0
 17
0.0
 27
1.0
 37
0.0
 76
     0
330
2
  0
MLINESTYLE
  5
1B
102
{ACAD_REACTORS
330
19
102
}
330
19
100
AcDbMlineStyle
  2
STANDARD
 70
     0
  3

 62
   256
 51
90.0
 52
90.0
 71
     2
 49
0.5
 62
   256
  6
BYLAYER
 49
-0.5
 62
   256
  6
BYLAYER
  0
ACDBPLACEHOLDER
  5
7D1
102
{ACAD_REACTORS
330
7D0
102
}
330
7D0
  0
DICTIONARYVAR
  5
813
102
{ACAD_REACTORS
330
812
102
}
330
812
100
DictionaryVariables
280
     0
  1
1
  0
ENDSEC
  0
EOF
