  0
SECTION
  2
HEADER
  9
$ACADVER
  1
AC1014
  9
$ACADMAINTVER
 70
     9
  9
$DWGCODEPAGE
  3
ANSI_1252
  9
$INSBASE
 10
1.570931450300889
 20
-26.61723637802051
 30
0.0
  9
$EXTMIN
 10
-42.18025050485638
 20
-29.0729629849444
 30
-0.0000000000008893
  9
$EXTMAX
 10
17.99639008807062
 20
-0.4529124540464125
 30
0.0000000000007471
  9
$LIMMIN
 10
0.0
 20
0.0
  9
$LIMMAX
 10
17.0
 20
11.0
  9
$ORTHOMODE
 70
     1
  9
$REGENMODE
 70
     1
  9
$FILLMODE
 70
     1
  9
$QTEXTMODE
 70
     0
  9
$MIRRTEXT
 70
     1
  9
$DRAGMODE
 70
     2
  9
$LTSCALE
 40
8.0
  9
$OSMODE
 70
    55
  9
$ATTMODE
 70
     1
  9
$TEXTSIZE
 40
0.2
  9
$TRACEWID
 40
0.05
  9
$TEXTSTYLE
  7
STANDARD
  9
$CLAYER
  8
0
  9
$CELTYPE
  6
BYLAYER
  9
$CECOLOR
 62
   256
  9
$CELTSCALE
 40
1.0
  9
$DELOBJ
 70
     1
  9
$DISPSILH
 70
     0
  9
$DIMSCALE
 40
16.0
  9
$DIMASZ
 40
0.1875
  9
$DIMEXO
 40
0.10625
  9
$DIMDLI
 40
0.6459999999999999
  9
$DIMRND
 40
0.0
  9
$DIMDLE
 40
0.0
  9
$DIMEXE
 40
0.306
  9
$DIMTP
 40
0.0
  9
$DIMTM
 40
0.0
  9
$DIMTXT
 40
0.125
  9
$DIMCEN
 40
0.153
  9
$DIMTSZ
 40
0.0
  9
$DIMTOL
 70
     0
  9
$DIMLIM
 70
     0
  9
$DIMTIH
 70
     1
  9
$DIMTOH
 70
     1
  9
$DIMSE1
 70
     0
  9
$DIMSE2
 70
     0
  9
$DIMTAD
 70
     0
  9
$DIMZIN
 70
     0
  9
$DIMBLK
  1
_FILLED
  9
$DIMASO
 70
     1
  9
$DIMSHO
 70
     1
  9
$DIMPOST
  1

  9
$DIMAPOST
  1

  9
$DIMALT
 70
     0
  9
$DIMALTD
 70
     2
  9
$DIMALTF
 40
25.4
  9
$DIMLFAC
 40
1.0
  9
$DIMTOFL
 70
     0
  9
$DIMTVP
 40
0.0
  9
$DIMTIX
 70
     0
  9
$DIMSOXD
 70
     0
  9
$DIMSAH
 70
     0
  9
$DIMBLK1
  1

  9
$DIMBLK2
  1

  9
$DIMSTYLE
  2
STANDARD
  9
$DIMCLRD
 70
     0
  9
$DIMCLRE
 70
     0
  9
$DIMCLRT
 70
     0
  9
$DIMTFAC
 40
1.0
  9
$DIMGAP
 40
0.09
  9
$DIMJUST
 70
     0
  9
$DIMSD1
 70
     0
  9
$DIMSD2
 70
     0
  9
$DIMTOLJ
 70
     1
  9
$DIMTZIN
 70
     0
  9
$DIMALTZ
 70
     0
  9
$DIMALTTZ
 70
     0
  9
$DIMFIT
 70
     3
  9
$DIMUPT
 70
     0
  9
$DIMUNIT
 70
     2
  9
$DIMDEC
 70
     4
  9
$DIMTDEC
 70
     4
  9
$DIMALTU
 70
     2
  9
$DIMALTTD
 70
     2
  9
$DIMTXSTY
  7
STANDARD
  9
$DIMAUNIT
 70
     0
  9
$LUNITS
 70
     2
  9
$LUPREC
 70
     4
  9
$SKETCHINC
 40
0.1
  9
$FILLETRAD
 40
0.0
  9
$AUNITS
 70
     0
  9
$AUPREC
 70
     0
  9
$MENU
  1
acad
  9
$ELEVATION
 40
0.0
  9
$PELEVATION
 40
0.0
  9
$THICKNESS
 40
0.0
  9
$LIMCHECK
 70
     0
  9
$BLIPMODE
 70
     0
  9
$CHAMFERA
 40
0.0
  9
$CHAMFERB
 40
0.0
  9
$CHAMFERC
 40
0.0
  9
$CHAMFERD
 40
0.0
  9
$SKPOLY
 70
     0
  9
$TDCREATE
 40
2453679.095380312
  9
$TDUPDATE
 40
2453689.424813113
  9
$TDINDWG
 40
0.0116435301
  9
$TDUSRTIMER
 40
0.0116435301
  9
$USRTIMER
 70
     1
  9
$ANGBASE
 50
0.0
  9
$ANGDIR
 70
     0
  9
$PDMODE
 70
     3
  9
$PDSIZE
 40
0.3125
  9
$PLINEWID
 40
0.0
  9
$COORDS
 70
     1
  9
$SPLFRAME
 70
     0
  9
$SPLINETYPE
 70
     6
  9
$SPLINESEGS
 70
     8
  9
$ATTDIA
 70
     0
  9
$ATTREQ
 70
     1
  9
$HANDLING
 70
 22529
  9
$HANDSEED
  5
875
  9
$SURFTAB1
 70
     6
  9
$SURFTAB2
 70
     6
  9
$SURFTYPE
 70
     6
  9
$SURFU
 70
     6
  9
$SURFV
 70
     6
  9
$UCSNAME
  2

  9
$UCSORG
 10
0.0
 20
0.0
 30
0.0
  9
$UCSXDIR
 10
1.0
 20
0.0
 30
0.0
  9
$UCSYDIR
 10
0.0
 20
1.0
 30
0.0
  9
$PUCSNAME
  2

  9
$PUCSORG
 10
0.0
 20
0.0
 30
0.0
  9
$PUCSXDIR
 10
1.0
 20
0.0
 30
0.0
  9
$PUCSYDIR
 10
0.0
 20
1.0
 30
0.0
  9
$USERI1
 70
     0
  9
$USERI2
 70
     0
  9
$USERI3
 70
     0
  9
$USERI4
 70
     0
  9
$USERI5
 70
     0
  9
$USERR1
 40
0.0
  9
$USERR2
 40
0.0
  9
$USERR3
 40
0.0
  9
$USERR4
 40
0.0
  9
$USERR5
 40
0.0
  9
$WORLDVIEW
 70
     1
  9
$SHADEDGE
 70
     3
  9
$SHADEDIF
 70
    70
  9
$TILEMODE
 70
     1
  9
$MAXACTVP
 70
    16
  9
$PINSBASE
 10
0.0
 20
0.0
 30
0.0
  9
$PLIMCHECK
 70
     0
  9
$PEXTMIN
 10
1.000000000000000E+20
 20
1.000000000000000E+20
 30
1.000000000000000E+20
  9
$PEXTMAX
 10
-1.000000000000000E+20
 20
-1.000000000000000E+20
 30
-1.000000000000000E+20
  9
$PLIMMIN
 10
0.0
 20
0.0
  9
$PLIMMAX
 10
12.0
 20
9.0
  9
$UNITMODE
 70
     0
  9
$VISRETAIN
 70
     0
  9
$PLINEGEN
 70
     1
  9
$PSLTSCALE
 70
     0
  9
$TREEDEPTH
 70
  3020
  9
$PICKSTYLE
 70
     1
  9
$CMLSTYLE
  2
STANDARD
  9
$CMLJUST
 70
     0
  9
$CMLSCALE
 40
1.0
  9
$PROXYGRAPHICS
 70
     1
  9
$MEASUREMENT
 70
     0
  0
ENDSEC
  0
SECTION
  2
CLASSES
  0
CLASS
  1
LWPOLYLINE
  2
AcDbPolyline
  3
AutoCAD 2000
 90
        0
280
     0
281
     1
  0
CLASS
  1
XRECORD
  2
AcDbXrecord
  3
AutoCAD 2000
 90
        0
280
     0
281
     0
  0
CLASS
  1
ACDBDICTIONARYWDFLT
  2
AcDbDictionaryWithDefault
  3
AutoCAD 2000
 90
        0
280
     0
281
     0
  0
CLASS
  1
ACDBPLACEHOLDER
  2
AcDbPlaceHolder
  3
AutoCAD 2000
 90
        0
280
     0
281
     0
  0
CLASS
  1
LAYOUT
  2
AcDbLayout
  3
AutoCAD 2000
 90
        0
280
     0
281
     0
  0
CLASS
  1
DICTIONARYVAR
  2
AcDbDictionaryVar
  3
AutoCAD 2000
 90
        0
280
     0
281
     0
  0
CLASS
  1
LONG_TRANSACTION
  2
AcDbLongTransaction
  3
AutoCAD 2000
 90
        0
280
     0
281
     0
  0
CLASS
  1
LWPOLYLINE
  2
AcDbPolyline
  3
AutoCAD 2000
 90
        0
280
     0
281
     1
  0
CLASS
  1
HATCH
  2
AcDbHatch
  3
AutoCAD 2000
 90
        0
280
     0
281
     1
  0
CLASS
  1
XRECORD
  2
AcDbXrecord
  3
AutoCAD 2000
 90
        0
280
     0
281
     0
  0
ENDSEC
  0
SECTION
  2
TABLES
  0
TABLE
  2
VPORT
  5
12
330
0
100
AcDbSymbolTable
 70
     3
  0
VPORT
  5
84F
330
12
100
AcDbSymbolTableRecord
100
AcDbViewportTableRecord
  2
*ACTIVE
 70
     0
 10
0.0
 20
0.0
 11
1.0
 21
1.0
 12
-12.09193038871723
 22
-14.76293783361346
 13
0.0
 23
0.0
 14
1.0
 24
1.0
 15
0.0
 25
0.0
 16
0.0
 26
0.0
 36
1.0
 17
0.0
 27
0.0
 37
0.0
 40
42.02553856193428
 41
1.786792452830188
 42
50.0
 43
0.0
 44
0.0
 50
0.0
 51
0.0
 71
     0
 72
   100
 73
     1
 74
     1
 75
     0
 76
     0
 77
     0
 78
     0
  0
ENDTAB
  0
TABLE
  2
LTYPE
  5
D
330
0
100
AcDbSymbolTable
 70
     3
  0
LTYPE
  5
E
330
D
100
AcDbSymbolTableRecord
100
AcDbLinetypeTableRecord
  2
BYBLOCK
 70
     0
  3

 72
    65
 73
     0
 40
0.0
  0
LTYPE
  5
F
330
D
100
AcDbSymbolTableRecord
100
AcDbLinetypeTableRecord
  2
BYLAYER
 70
     0
  3

 72
    65
 73
     0
 40
0.0
  0
LTYPE
  5
5
330
D
100
AcDbSymbolTableRecord
100
AcDbLinetypeTableRecord
  2
CONTINUOUS
 70
     0
  3
Solid line
 72
    65
 73
     0
 40
0.0
  0
LTYPE
  5
B3
330
D
100
AcDbSymbolTableRecord
100
AcDbLinetypeTableRecord
  2
CENTER
 70
     0
  3
____ _ ____ _ ____ _ ____ _ ____ _ ____ _ ____
 72
    65
 73
     4
 40
0.6
 49
0.375
 74
     0
 49
-0.075
 74
     0
 49
0.075
 74
     0
 49
-0.075
 74
     0
  0
LTYPE
  5
25
330
D
100
AcDbSymbolTableRecord
100
AcDbLinetypeTableRecord
  2
HIDDEN
 70
     0
  3
- - - - - - - - - - - - - - - - - - - -
 72
    65
 73
     2
 40
0.2
 49
0.1
 74
     0
 49
-0.1
 74
     0
  0
ENDTAB
  0
TABLE
  2
LAYER
  5
A
330
0
100
AcDbSymbolTable
 70
     3
  0
LAYER
  5
4
330
A
100
AcDbSymbolTableRecord
100
AcDbLayerTableRecord
  2
0
 70
     0
 62
     7
  6
CONTINUOUS
  0
LAYER
  5
33E
330
A
100
AcDbSymbolTableRecord
100
AcDbLayerTableRecord
  2
DEFAULT_2
 70
     0
 62
     8
  6
HIDDEN
  0
LAYER
  5
B0
330
A
100
AcDbSymbolTableRecord
100
AcDbLayerTableRecord
  2
CENTER
 70
     0
 62
     1
  6
CENTER
  0
ENDTAB
  0
TABLE
  2
STYLE
  5
B
330
0
100
AcDbSymbolTable
 70
     1
  0
STYLE
  5
C
330
B
100
AcDbSymbolTableRecord
100
AcDbTextStyleTableRecord
  2
STANDARD
 70
     0
 40
0.0
 41
0.8
 50
0.0
 71
     0
 42
0.2
  3
txt
  4

  0
ENDTAB
  0
TABLE
  2
VIEW
  5
10
330
0
100
AcDbSymbolTable
 70
     0
  0
ENDTAB
  0
TABLE
  2
UCS
  5
11
330
0
100
AcDbSymbolTable
 70
     0
  0
ENDTAB
  0
TABLE
  2
APPID
  5
14
330
0
100
AcDbSymbolTable
 70
     1
  0
APPID
  5
15
330
14
100
AcDbSymbolTableRecord
100
AcDbRegAppTableRecord
  2
ACAD
 70
     0
  0
ENDTAB
  0
TABLE
  2
DIMSTYLE
  5
16
330
0
100
AcDbSymbolTable
 70
     1
  0
DIMSTYLE
105
1C
330
16
100
AcDbSymbolTableRecord
100
AcDbDimStyleTableRecord
  2
STANDARD
 70
     0
  3

  4

  5
_FILLED
  6
_FILLED
  7
_FILLED
 40
1.0
 41
0.1875
 42
0.0625
 43
0.38
 44
0.18
 45
0.0
 46
0.0
 47
0.00001
 48
0.00001
140
0.125
141
0.09
142
0.0
143
25.4
144
1.0
145
0.0
146
1.0
147
0.09
 71
     0
 72
     0
 73
     1
 74
     1
 75
     0
 76
     0
 77
     0
 78
     4
170
     0
171
     2
172
     0
173
     0
174
     0
175
     0
176
     0
177
     0
178
     0
270
     2
271
     4
272
     4
273
     2
274
     2
340
C
275
     0
280
     0
281
     0
282
     0
283
     1
284
     0
285
     0
286
     0
287
     3
288
     0
  0
ENDTAB
  0
TABLE
  2
BLOCK_RECORD
  5
1
330
0
100
AcDbSymbolTable
 70
     1
  0
BLOCK_RECORD
  5
2
102
{ACAD_XDICTIONARY
360
871
102
}
330
1
100
AcDbSymbolTableRecord
100
AcDbBlockTableRecord
  2
*MODEL_SPACE
  0
BLOCK_RECORD
  5
7
102
{ACAD_XDICTIONARY
360
873
102
}
330
1
100
AcDbSymbolTableRecord
100
AcDbBlockTableRecord
  2
*PAPER_SPACE
  0
BLOCK_RECORD
  5
1D
330
1
100
AcDbSymbolTableRecord
100
AcDbBlockTableRecord
  2
_FILLED
  0
ENDTAB
  0
ENDSEC
  0
SECTION
  2
BLOCKS
  0
BLOCK
  5
3
330
2
100
AcDbEntity
  8
0
100
AcDbBlockBegin
  2
*MODEL_SPACE
 70
     0
 10
0.0
 20
0.0
 30
0.0
  3
*MODEL_SPACE
  1

  0
ENDBLK
  5
6
330
2
100
AcDbEntity
  8
0
100
AcDbBlockEnd
  0
BLOCK
  5
8
330
7
100
AcDbEntity
 67
     1
  8
0
100
AcDbBlockBegin
  2
*PAPER_SPACE
 70
     0
 10
0.0
 20
0.0
 30
0.0
  3
*PAPER_SPACE
  1

  0
ENDBLK
  5
9
330
7
100
AcDbEntity
 67
     1
  8
0
100
AcDbBlockEnd
  0
BLOCK
  5
1F
330
1D
100
AcDbEntity
  8
0
100
AcDbBlockBegin
  2
_FILLED
 70
     0
 10
0.0
 20
0.0
 30
0.0
  3
_FILLED
  1

  0
SOLID
  5
1E
330
1D
100
AcDbEntity
  8
0
  6
BYBLOCK
 62
     0
100
AcDbTrace
 10
0.0
 20
0.0
 30
0.0
 11
-1.0
 21
0.1666666667
 31
0.0
 12
-1.0
 22
-0.1666666667
 32
0.0
 13
-1.0
 23
-0.1666666667
 33
0.0
  0
ENDBLK
  5
20
330
1D
100
AcDbEntity
  8
0
  6
BYBLOCK
 62
     0
100
AcDbBlockEnd
  0
ENDSEC
  0
SECTION
  2
ENTITIES
  0
LINE
  5
23
330
2
100
AcDbEntity
  8
0
  6
CONTINUOUS
 62
     7
100
AcDbLine
 10
-42.17906854969911
 20
-1.992236378020518
 30
0.0
 11
17.82093145030088
 21
-1.992236378020518
 31
0.0
  0
LWPOLYLINE
  5
26
330
2
100
AcDbEntity
  8
0
  6
HIDDEN
 62
     9
100
AcDbPolyline
 90
       54
 70
     0
 43
0.0
 10
-31.16238300889913
 20
-17.11304545482051
 10
-31.13179930329911
 20
-17.17484515242049
 10
-31.10077663449912
 20
-17.23348506282053
 10
-31.06845651449911
 20
-17.2908550516205
 10
-31.03489442009913
 20
-17.34693583562052
 10
-31.00014543609911
 20
-17.40171024042052
 10
-30.96426418489913
 20
-17.4551631588205
 10
-30.92730477849913
 20
-17.5072814756205
 10
-30.8893207528991
 20
-17.55805401482052
 10
-30.85036502329912
 20
-17.60747148042051
 10
-30.8104898312991
 20
-17.65552638762051
 10
-30.76974669849912
 20
-17.70221301002051
 10
-30.72818639129911
 20
-17.74752730762049
 10
-30.68585887449911
 20
-17.79146687882051
 10
-30.64281327769912
 20
-17.83403088362052
 10
-30.59909786329912
 20
-17.87521999722051
 10
-30.5547600008991
 20
-17.91503633642052
 10
-30.50984613049913
 20
-17.9534834116205
 10
-30.46440174649913
 20
-17.99056605482051
 10
-30.41847137209913
 20
-18.0262903716205
 10
-30.37209854329911
 20
-18.06066367562049
 10
-30.32532578969912
 20
-18.09369443562052
 10
-30.27819461689913
 20
-18.12539221162051
 10
-30.23074550489912
 20
-18.1557676100205
 10
-30.1830178856991
 20
-18.1848322196205
 10
-30.13505014489911
 20
-18.2125985636205
 10
-30.08687965689912
 20
-18.23908001802049
 10
-30.03855082969912
 20
-18.2642866820205
 10
-29.9901245240991
 20
-18.28822188842049
 10
-29.9416637272991
 20
-18.31089088682049
 10
-29.89323130009911
 20
-18.33230198282049
 10
-29.84488983609913
 20
-18.35246648362049
 10
-29.79670152089913
 20
-18.37139862282051
 10
-29.74872799769913
 20
-18.38911549162049
 10
-29.7010302440991
 20
-18.40563694762051
 10
-29.65366845049911
 20
-18.42098552042049
 10
-29.60670190809912
 20
-18.43518630602051
 10
-29.56018891449912
 20
-18.4482668628205
 10
-29.51419006649911
 20
-18.46025623562051
 10
-29.46878276569911
 20
-18.47118180202049
 10
-29.42404938009913
 20
-18.48107334282049
 10
-29.38007130169911
 20
-18.48996450442052
 10
-29.33692878009912
 20
-18.4978925684205
 10
-29.29470079609912
 20
-18.50489818922051
 10
-29.25346604729913
 20
-18.51102497322052
 10
-29.21334373529912
 20
-18.5163142212205
 10
-29.17450572889913
 20
-18.52080663562049
 10
-29.13712627929911
 20
-18.5245505188205
 10
-29.1013919016991
 20
-18.52760030282049
 10
-29.06764906329912
 20
-18.53000689482049
 10
-29.03635983289911
 20
-18.53182894282049
 10
-29.00829116889913
 20
-18.5331288516205
 10
-28.98689314809913
 20
-18.53390761002052
 10
4.596833224700873
 20
-19.55173301002052
  0
LINE
  5
5F
330
2
100
AcDbEntity
  8
0
  6
CONTINUOUS
100
AcDbLine
 10
-41.34917720729909
 20
-0.4922363780205182
 30
0.0
 11
16.99104010950088
 21
-0.4922363780205182
 31
0.0
  0
LINE
  5
61
330
2
100
AcDbEntity
  8
0
  6
CONTINUOUS
100
AcDbLine
 10
-24.73584158649911
 20
-20.55473637802051
 30
0.0
 11
0.4459314503008898
 21
-20.55473637802051
 31
0.0
  0
LWPOLYLINE
  5
62
330
2
100
AcDbEntity
  8
0
  6
HIDDEN
 62
     9
100
AcDbPolyline
 90
       54
 70
     0
 43
0.0
 10
-31.3584833018503
 20
-17.21009242852122
 10
-31.32658649321837
 20
-17.27454547922851
 10
-31.29282678296146
 20
-17.33835902142788
 10
-31.25767774237546
 20
-17.40075049970023
 10
-31.22117802505582
 20
-17.46173992243017
 10
-31.18338753478175
 20
-17.52130861692401
 10
-31.14436567642791
 20
-17.57944015193583
 10
-31.1041712967568
 20
-17.63612026715755
 10
-31.06286261925764
 20
-17.69133680659744
 10
-31.02049719178539
 20
-17.74507965973433
 10
-30.9771318260399
 20
-17.79734069026658
 10
-30.93282255429587
 20
-17.84811366957816
 10
-30.88762458927513
 20
-17.89739420131261
 10
-30.84159226576421
 20
-17.94517967774321
 10
-30.79477901218317
 20
-17.99146918696717
 10
-30.74723731979189
 20
-18.03626345909101
 10
-30.69901870333465
 20
-18.07956479760174
 10
-30.65017366514259
 20
-18.12137702264001
 10
-30.60075168170957
 20
-18.16170538924066
 10
-30.55080117662208
 20
-18.20055653494488
 10
-30.50036949760101
 20
-18.23793841306344
 10
-30.44950288912948
 20
-18.27386023949275
 10
-30.39824649299051
 20
-18.30833240869333
 10
-30.34664433595757
 20
-18.34136645321177
 10
-30.2947392979607
 20
-18.37297497865139
 10
-30.24257312767565
 20
-18.40317160257272
 10
-30.19018663929776
 20
-18.4319707794289
 10
-30.13762832966927
 20
-18.45938339686587
 10
-30.08496406990994
 20
-18.48541325629088
 10
-30.0322623073773
 20
-18.51006609424275
 10
-29.97959140879986
 20
-18.53335094142135
 10
-29.92701944507543
 20
-18.55528009533741
 10
-29.87461404251254
 20
-18.575869036288
 10
-29.82244224516893
 20
-18.59513634931682
 10
-29.7705703656081
 20
-18.61310363102554
 10
-29.71906385420352
 20
-18.62979538570533
 10
-29.66798719759605
 20
-18.64523890384785
 10
-29.61740387512146
 20
-18.65946413365037
 10
-29.56738009510766
 20
-18.6725025851232
 10
-29.51799977596645
 20
-18.68438410959445
 10
-29.46935236637217
 20
-18.69514112765525
 10
-29.42152638225675
 20
-18.70481023028357
 10
-29.37460909583986
 20
-18.71343196206065
 10
-29.32868642712632
 20
-18.72105053090179
 10
-29.28384485527738
 20
-18.72771322760634
 10
-29.24021426787214
 20
-18.7334649648734
 10
-29.19798048227328
 20
-18.73835017099431
 10
-29.15733322343248
 20
-18.74242135425489
 10
-29.11847856700263
 20
-18.74573744138062
 10
-29.08179232758367
 20
-18.748353961344
 10
-29.04778117082019
 20
-18.75033451373744
 10
-29.01733133422025
 20
-18.75174469879489
 10
-28.99418615417178
 20
-18.75258704321315
 10
4.590205074265259
 20
-19.77043259306037
  0
LWPOLYLINE
  5
A6
330
2
100
AcDbEntity
  8
0
  6
CONTINUOUS
100
AcDbPolyline
 90
        6
 70
     0
 43
0.0
 10
-40.43299854882788
 20
-1.992236378020517
 10
-38.5713889784991
 20
-4.9604253988205
 10
-36.95561692089911
 20
-8.137818598820498
 10
-35.59876832409912
 20
-11.37656872682049
 10
-34.51192678169911
 20
-14.71514586602052
 10
-33.70197130169911
 20
-18.12780850122051
  0
ARC
  5
AE
330
2
100
AcDbEntity
  8
0
  6
CONTINUOUS
100
AcDbCircle
 10
-30.75721513689913
 20
-17.55473637802051
 30
0.0
 40
3.0
100
AcDbArc
 50
191.0125517725999
 51
269.9999982963
  0
LINE
  5
AF
330
2
100
AcDbEntity
  8
CENTER
100
AcDbLine
 10
-27.2540635112991
 20
-29.07039763593803
 30
0.0
 11
-27.2540635112991
 21
-22.9536379757475
 31
0.0
  0
LWPOLYLINE
  5
B4
330
2
100
AcDbEntity
  8
0
  6
CONTINUOUS
100
AcDbPolyline
 90
        4
 70
     0
 43
0.0
 10
-25.57762380089912
 20
-25.05564568682051
 10
-25.6221814120991
 20
-25.10821164522052
 10
-25.66919621049911
 20
-25.1612850708205
 10
-25.71871999129911
 20
-25.2149121412205
  0
LWPOLYLINE
  5
BA
330
2
100
AcDbEntity
  8
0
  6
CONTINUOUS
100
AcDbPolyline
 90
        7
 70
     0
 43
0.0
 10
-27.97328714489911
 20
-24.81626380682049
 10
-28.07013520729911
 20
-25.0122992132205
 10
-28.1416505608991
 20
-25.21344603562052
 10
-28.18426518809911
 20
-25.4077168980205
 10
-28.19872436409912
 20
-25.6003651908205
 10
-28.18410407929912
 20
-25.78224934282053
 10
-28.14066595449912
 20
-25.95243468202049
  0
LINE
  5
C3
330
2
100
AcDbEntity
  8
0
  6
CONTINUOUS
100
AcDbLine
 10
-27.62483181209911
 20
-26.61723637802051
 30
0.0
 11
-26.76606864089913
 21
-26.61723637802051
 31
0.0
  0
LWPOLYLINE
  5
C4
330
2
100
AcDbEntity
  8
0
  6
CONTINUOUS
100
AcDbPolyline
 90
        3
 70
     0
 43
0.0
 10
-27.84896881689911
 20
-26.37669638602051
 10
-27.80135721369913
 20
-26.42596066122052
 10
-27.76694563289911
 20
-26.46200720522049
  0
LINE
  5
C9
330
2
100
AcDbEntity
  8
0
  6
CONTINUOUS
100
AcDbLine
 10
-27.9128127000991
 20
-26.31113632842049
 30
0.0
 11
-27.89718697529914
 21
-26.3273454708205
 31
0.0
  0
LWPOLYLINE
  5
CA
330
2
100
AcDbEntity
  8
0
  6
CONTINUOUS
100
AcDbPolyline
 90
        3
 70
     0
 43
0.0
 10
-27.92196072889911
 20
-26.30148940842049
 10
-27.90645107769911
 20
-26.3177594516205
 10
-27.84896881689911
 20
-26.37669638602051
  0
LWPOLYLINE
  5
CF
330
2
100
AcDbEntity
  8
0
  6
CONTINUOUS
100
AcDbPolyline
 90
        4
 70
     0
 43
0.0
 10
-27.76694751289911
 20
-26.46200522442049
 10
-27.7230093128991
 20
-26.50880349322051
 10
-27.66908992249911
 20
-26.56766749002051
 10
-27.62483089689912
 20
-26.61723637802051
  0
LINE
  5
D5
330
2
100
AcDbEntity
  8
0
  6
CONTINUOUS
100
AcDbLine
 10
-27.94009042329911
 20
-26.28197194762051
 30
0.0
 11
-27.92198226809912
 21
-26.30146654762052
 31
0.0
  0
LINE
  5
D6
330
2
100
AcDbEntity
  8
0
  6
CONTINUOUS
100
AcDbLine
 10
-27.94009042329911
 20
-26.28197194762051
 30
0.0
 11
-27.93968324249912
 21
-26.28242575082051
 31
0.0
  0
LINE
  5
D7
330
2
100
AcDbEntity
  8
0
  6
CONTINUOUS
100
AcDbLine
 10
-28.04700966489912
 20
-26.14320280202051
 30
0.0
 11
-27.94009042329911
 21
-26.28197194762051
 31
0.0
  0
LWPOLYLINE
  5
D8
330
2
100
AcDbEntity
  8
0
  6
CONTINUOUS
100
AcDbPolyline
 90
        3
 70
     0
 43
0.0
 10
-28.08624387609911
 20
-26.0759187300205
 10
-28.01504320089912
 20
-26.1901329940205
 10
-27.93968324249912
 20
-26.28242575082051
  0
LINE
  5
DD
330
2
100
AcDbEntity
  8
0
  6
CONTINUOUS
100
AcDbLine
 10
-28.08569202649911
 20
-26.07695955722051
 30
0.0
 11
-28.04700966489912
 21
-26.14320280202051
 31
0.0
  0
LINE
  5
DE
330
2
100
AcDbEntity
  8
0
  6
CONTINUOUS
100
AcDbLine
 10
-28.08624387609911
 20
-26.0759187300205
 30
0.0
 11
-28.08569202649911
 21
-26.07695955722051
 31
0.0
  0
LINE
  5
DF
330
2
100
AcDbEntity
  8
0
  6
CONTINUOUS
100
AcDbLine
 10
-28.14066595449912
 20
-25.95243468202049
 30
0.0
 11
-28.08569202649911
 21
-26.07695955722051
 31
0.0
  0
LINE
  5
E0
330
2
100
AcDbEntity
  8
0
  6
CONTINUOUS
100
AcDbLine
 10
-27.89587468409912
 20
-26.31918185322052
 30
0.0
 11
-27.89045013529912
 21
-26.33423890762049
 31
0.0
  0
LINE
  5
E1
330
2
100
AcDbEntity
  8
0
  6
CONTINUOUS
100
AcDbLine
 10
-25.71871999129911
 20
-25.2149121412205
 30
0.0
 11
-25.72078650969911
 21
-25.21710374602052
 31
0.0
  0
LWPOLYLINE
  5
E2
330
2
100
AcDbEntity
  8
0
  6
CONTINUOUS
100
AcDbPolyline
 90
        4
 70
     0
 43
0.0
 10
-26.4445029832991
 20
-26.31462203242049
 10
-26.46136082809911
 20
-26.33135134122051
 10
-26.47870973369911
 20
-26.34795960842049
 10
-26.49656516729911
 20
-26.36442711402052
  0
LINE
  5
E8
330
2
100
AcDbEntity
  8
0
  6
CONTINUOUS
100
AcDbLine
 10
-26.62479515449911
 20
-26.48319857962052
 30
0.0
 11
-26.76606863929913
 21
-26.61723637802051
 31
0.0
  0
LWPOLYLINE
  5
E9
330
2
100
AcDbEntity
  8
0
  6
CONTINUOUS
100
AcDbPolyline
 90
        4
 70
     0
 43
0.0
 10
-26.49656516729911
 20
-26.36442711402052
 10
-26.54012538489914
 20
-26.4041494356205
 10
-26.58290808409911
 20
-26.44377728522052
 10
-26.62479515449911
 20
-26.48319857962052
  0
LWPOLYLINE
  5
EF
330
2
100
AcDbEntity
  8
0
  6
CONTINUOUS
100
AcDbPolyline
 90
        9
 70
     0
 43
0.0
 10
-25.72078650969911
 20
-25.21710374602052
 10
-25.80825385049913
 20
-25.32708902762049
 10
-25.88973806969913
 20
-25.4569435428205
 10
-25.96904646329912
 20
-25.59887808362051
 10
-26.04913364409912
 20
-25.74585992842052
 10
-26.13079216409913
 20
-25.8896322436205
 10
-26.22110914649911
 20
-26.03433584682051
 10
-26.32455591129912
 20
-26.17798359242049
 10
-26.4445029832991
 20
-26.31462203242049
  0
LWPOLYLINE
  5
FA
330
2
100
AcDbEntity
  8
0
  6
CONTINUOUS
100
AcDbPolyline
 90
        4
 70
     0
 43
0.0
 10
-25.15874136729912
 20
-20.3583401300205
 10
-25.41041186169911
 20
-20.23026618922052
 10
-25.95078015289913
 20
-19.93999151242051
 10
-26.67956393591875
 20
-19.52141505421751
  0
LWPOLYLINE
  5
100
330
2
100
AcDbEntity
  8
0
  6
CONTINUOUS
100
AcDbPolyline
 90
       11
 70
     0
 43
0.0
 10
-26.66973939769912
 20
-21.0467292276205
 10
-26.69830388569912
 20
-20.94687365002051
 10
-26.72732453209912
 20
-20.8365781668205
 10
-26.7564943224991
 20
-20.71455443722052
 10
-26.78536502329912
 20
-20.57949356042049
 10
-26.81333628409911
 20
-20.43002981802052
 10
-26.8396435112991
 20
-20.2646422052205
 10
-26.8633172648991
 20
-20.0815849124205
 10
-26.88312277689913
 20
-19.8787343684205
 10
-26.89745173209913
 20
-19.65325983242049
 10
-26.90408892729913
 20
-19.4023828884205
  0
LWPOLYLINE
  5
10D
330
2
100
AcDbEntity
  8
0
  6
CONTINUOUS
100
AcDbPolyline
 90
        5
 70
     0
 43
0.0
 10
-26.67956393591875
 20
-19.5214150542175
 10
-26.6894446008991
 20
-19.9232667636205
 10
-26.67505101369912
 20
-20.3323710148205
 10
-26.63661413209912
 20
-20.72940370282051
 10
-26.57560133209911
 20
-21.1044990900205
  0
LWPOLYLINE
  5
114
330
2
100
AcDbEntity
  8
0
  6
CONTINUOUS
100
AcDbPolyline
 90
        5
 70
     0
 43
0.0
 10
-26.5060281032991
 20
-19.62108523882051
 10
-26.52542430969912
 20
-20.02722893802052
 10
-26.52152951769912
 20
-20.43147749642052
 10
-26.49467935769913
 20
-20.8234758884205
 10
-26.44619696249911
 20
-21.19338446122049
  0
LWPOLYLINE
  5
11B
330
2
100
AcDbEntity
  8
0
  6
CONTINUOUS
100
AcDbPolyline
 90
        5
 70
     0
 43
0.0
 10
-26.6048511496991
 20
-21.46371511722049
 10
-26.73293623449913
 20
-21.08502543082051
 10
-26.83455893369913
 20
-20.6797225844205
 10
-26.90838038809912
 20
-20.25315173482052
 10
-26.95300868409911
 20
-19.81368035082051
  0
LWPOLYLINE
  5
122
330
2
100
AcDbEntity
  8
0
  6
CONTINUOUS
100
AcDbPolyline
 90
       11
 70
     0
 43
0.0
 10
-26.7333332888991
 20
-21.07945445322052
 10
-26.76191226489911
 20
-20.97714835402052
 10
-26.79098084729911
 20
-20.86409449162053
 10
-26.82022041209911
 20
-20.73896350282049
 10
-26.84916558489911
 20
-20.60040423562049
 10
-26.87719239129911
 20
-20.44700459562051
 10
-26.90350466809911
 20
-20.27718807722052
 10
-26.9270910648991
 20
-20.08914049802051
 10
-26.94666079449911
 20
-19.8806454516205
 10
-26.96052720409911
 20
-19.6487540932205
 10
-26.96636293209911
 20
-19.39064269962052
  0
LWPOLYLINE
  5
12F
330
2
100
AcDbEntity
  8
0
  6
CONTINUOUS
100
AcDbPolyline
 90
        5
 70
     0
 43
0.0
 10
-27.50727137849912
 20
-19.62108523882051
 10
-27.68657648569914
 20
-19.93741067882051
 10
-27.81689475769911
 20
-20.22941005802051
 10
-27.89638622009911
 20
-20.49226357322051
 10
-27.92523217689911
 20
-20.7220118772205
  0
LWPOLYLINE
  5
136
330
2
100
AcDbEntity
  8
0
  6
CONTINUOUS
100
AcDbPolyline
 90
        5
 70
     0
 43
0.0
 10
-27.50727137849912
 20
-19.62108523882051
 10
-27.46886382329911
 20
-20.0287500372205
 10
-27.40112377049912
 20
-20.43396918442051
 10
-27.30535682649912
 20
-20.82624705642052
 10
-27.18416410169911
 20
-21.19565604202049
  0
LWPOLYLINE
  5
13D
330
2
100
AcDbEntity
  8
0
  6
CONTINUOUS
100
AcDbPolyline
 90
        5
 70
     0
 43
0.0
 10
-27.42995818169913
 20
-19.51246087882051
 10
-27.39716171449912
 20
-19.92441199402049
 10
-27.3355615624991
 20
-20.3342407188205
 10
-27.2463067432991
 20
-20.7314752660205
 10
-27.13177677689911
 20
-21.10618961162051
  0
LWPOLYLINE
  5
144
330
2
100
AcDbEntity
  8
0
  6
CONTINUOUS
100
AcDbPolyline
 90
        7
 70
     0
 43
0.0
 10
-26.61890151929912
 20
-22.2228653364205
 10
-26.80370573049911
 20
-21.9088600948205
 10
-26.96560105369912
 20
-21.55300617002049
 10
-27.1021930248991
 20
-21.1602046612205
 10
-27.21067350489914
 20
-20.7383455204205
 10
-27.28953688249913
 20
-20.29328118122051
 10
-27.3372371736991
 20
-19.83405839562049
  0
LWPOLYLINE
  5
14D
330
2
100
AcDbEntity
  8
0
  6
CONTINUOUS
100
AcDbPolyline
 90
        8
 70
     0
 43
0.0
 10
-26.30709427769912
 20
-22.2281929972205
 10
-26.4922433784991
 20
-21.91360171882049
 10
-26.65444056409911
 20
-21.55708427882049
 10
-26.79128664089911
 20
-21.16355242122049
 10
-26.8999696440991
 20
-20.74090665482052
 10
-26.97898066489912
 20
-20.29501002602052
 10
-27.02677008889913
 20
-19.83492961322049
 10
-27.04278410169912
 20
-19.36723637802051
  0
LINE
  5
157
330
2
100
AcDbEntity
  8
0
  6
CONTINUOUS
100
AcDbLine
 10
-26.90088299609913
 20
-22.8196048436205
 30
0.0
 11
-26.70437723704706
 21
-23.08765173439137
 31
0.0
  0
LWPOLYLINE
  5
158
330
2
100
AcDbEntity
  8
0
  6
CONTINUOUS
100
AcDbPolyline
 90
        4
 70
     0
 43
0.0
 10
-26.19578920409912
 20
-22.91933136522052
 10
-26.16235936249911
 20
-22.76498946282049
 10
-26.14058424249911
 20
-22.61369000362051
 10
-26.12924757369911
 20
-22.47709210922052
  0
LWPOLYLINE
  5
15E
330
2
100
AcDbEntity
  8
0
  6
CONTINUOUS
100
AcDbPolyline
 90
        7
 70
     0
 43
0.0
 10
-26.50657716569914
 20
-23.25348101322052
 10
-26.43684601049911
 20
-23.16286994762052
 10
-26.37590666009911
 20
-23.0519879380205
 10
-26.32544587769911
 20
-22.9238439140205
 10
-26.28684439289913
 20
-22.78191523242049
 10
-26.26115826649911
 20
-22.63011944042051
 10
-26.24906393369912
 20
-22.47264039402049
  0
LWPOLYLINE
  5
167
330
2
100
AcDbEntity
  8
0
  6
CONTINUOUS
100
AcDbPolyline
 90
        6
 70
     0
 43
0.0
 10
-26.81882830009913
 20
-23.25937561322052
 10
-26.74862583769911
 20
-23.16815613802052
 10
-26.68725782489914
 20
-23.05650525642052
 10
-26.63643374329912
 20
-22.92744903882051
 10
-26.59756163929911
 20
-22.78453801002051
 10
-26.5716909240991
 20
-22.6316687684205
  0
LWPOLYLINE
  5
16F
330
2
100
AcDbEntity
  8
0
  6
CONTINUOUS
100
AcDbPolyline
 90
       11
 70
     0
 43
0.0
 10
-27.57196527609913
 20
-25.08786430282053
 10
-27.55135989529912
 20
-25.0651289636205
 10
-27.53505921209913
 20
-25.03740358282049
 10
-27.52119998329912
 20
-25.0060831796205
 10
-27.5090233064991
 20
-24.97206938602051
 10
-27.49771654009912
 20
-24.9347253876205
 10
-27.48690597369911
 20
-24.8939257668205
 10
-27.47633542809913
 20
-24.84989779882052
 10
-27.46565135609911
 20
-24.80262143082049
 10
-27.45446638169913
 20
-24.75221484682052
 10
-27.44222656569911
 20
-24.6985372708205
  0
LWPOLYLINE
  5
17C
330
2
100
AcDbEntity
  8
0
  6
CONTINUOUS
100
AcDbPolyline
 90
       13
 70
     0
 43
0.0
 10
-27.5964182104991
 20
-25.0845471044205
 10
-27.59785681689911
 20
-25.03386907082052
 10
-27.59780852729912
 20
-24.97630160042052
 10
-27.5956723736991
 20
-24.91269418602049
 10
-27.59086410009912
 20
-24.84384360362052
 10
-27.58279186169913
 20
-24.7703922148205
 10
-27.57068049529912
 20
-24.69211020042049
 10
-27.55337821209912
 20
-24.60822693002052
 10
-27.52949900569911
 20
-24.51898445802051
 10
-27.49777471929911
 20
-24.42642276682052
 10
-27.45618708729913
 20
-24.33173624522049
 10
-27.4024250936991
 20
-24.2378206548205
 10
-27.3345704568991
 20
-24.15039022282051
  0
LINE
  5
18B
330
2
100
AcDbEntity
  8
0
  6
CONTINUOUS
100
AcDbLine
 10
-27.64682159289911
 20
-24.1562848228205
 30
0.0
 11
-26.81882830009913
 21
-23.25937561322052
 31
0.0
  0
LINE
  5
18C
330
2
100
AcDbEntity
  8
0
  6
CONTINUOUS
100
AcDbLine
 10
-27.71778897209912
 20
-24.24859360042052
 30
0.0
 11
-27.64682159289911
 21
-24.1562848228205
 31
0.0
  0
LINE
  5
18D
330
2
100
AcDbEntity
  8
0
  6
CONTINUOUS
100
AcDbLine
 10
-27.87367337076288
 20
-24.65894524729137
 30
0.0
 11
-27.97020688569914
 21
-24.8108545908205
 31
0.0
  0
LWPOLYLINE
  5
18E
330
2
100
AcDbEntity
  8
0
  6
CONTINUOUS
100
AcDbPolyline
 90
        4
 70
     0
 43
0.0
 10
-27.59464157209913
 20
-25.09861151562049
 10
-27.59512699769911
 20
-25.09396894922049
 10
-27.59572124729911
 20
-25.0892645780205
 10
-27.59641818809912
 20
-25.08454709482052
  0
LINE
  5
194
330
2
100
AcDbEntity
  8
0
  6
CONTINUOUS
100
AcDbLine
 10
-27.91878856249911
 20
-25.06585861962052
 30
0.0
 11
-27.91878722009912
 21
-25.06589918122049
 31
0.0
  0
LWPOLYLINE
  5
195
330
2
100
AcDbEntity
  8
0
  6
CONTINUOUS
100
AcDbPolyline
 90
        4
 70
     0
 43
0.0
 10
-27.90577493689913
 20
-25.1298408196205
 10
-27.90520321369911
 20
-25.12509962762052
 10
-27.90503321529914
 20
-25.12030822122051
 10
-27.90526672249913
 20
-25.11551679882051
  0
LWPOLYLINE
  5
19B
330
2
100
AcDbEntity
  8
0
  6
CONTINUOUS
100
AcDbPolyline
 90
        5
 70
     0
 43
0.0
 10
-27.76296768889911
 20
-25.11970272522052
 10
-27.71908741369912
 20
-25.11488705322052
 10
-27.67526998809911
 20
-25.10957860842052
 10
-27.63323094489911
 20
-25.10410546762052
 10
-27.59464156889913
 20
-25.09861151882051
  0
LWPOLYLINE
  5
1A2
330
2
100
AcDbEntity
  8
0
  6
CONTINUOUS
100
AcDbPolyline
 90
        7
 70
     0
 43
0.0
 10
-27.90577493689913
 20
-25.1298408196205
 10
-27.88982194329911
 20
-25.12928423082049
 10
-27.87144091929912
 20
-25.12848307242052
 10
-27.85012741689913
 20
-25.12729941802052
 10
-27.82534553529914
 20
-25.1255517204205
 10
-27.79651470329911
 20
-25.12306408362051
 10
-27.76296764889913
 20
-25.11970273962051
  0
LINE
  5
1AB
330
2
100
AcDbEntity
  8
0
  6
CONTINUOUS
100
AcDbLine
 10
-27.97020694969912
 20
-24.81085470122051
 30
0.0
 11
-27.97339654009911
 21
-24.81645657322052
 31
0.0
  0
LWPOLYLINE
  5
1AC
330
2
100
AcDbEntity
  8
0
  6
CONTINUOUS
100
AcDbPolyline
 90
        3
 70
     0
 43
0.0
 10
-27.59464157209913
 20
-25.09861151562049
 10
-27.58331446969911
 20
-25.0950804548205
 10
-27.57196896889913
 20
-25.0878597924205
  0
LWPOLYLINE
  5
1B1
330
2
100
AcDbEntity
  8
0
  6
CONTINUOUS
100
AcDbPolyline
 90
        7
 70
     0
 43
0.0
 10
-27.90526681369912
 20
-25.1155156324205
 10
-27.90772864889911
 20
-24.9535593396205
 10
-27.89595335449913
 20
-24.7929761668205
 10
-27.87012740249912
 20
-24.63761357162051
 10
-27.83108498649913
 20
-24.49271237802052
 10
-27.77971770329913
 20
-24.36157951562051
 10
-27.71778897209912
 20
-24.24859360042052
  0
LWPOLYLINE
  5
1BA
330
2
100
AcDbEntity
  8
0
  6
CONTINUOUS
100
AcDbPolyline
 90
        5
 70
     0
 43
0.0
 10
-26.19579001049911
 20
-22.9193320852205
 10
-26.2343669512991
 20
-23.0717676260205
 10
-26.28400946009913
 20
-23.21180296362052
 10
-26.34384366809912
 20
-23.33641610122052
 10
-26.41248137689911
 20
-23.44242778282049
  0
LINE
  5
1C1
330
2
100
AcDbEntity
  8
0
  6
CONTINUOUS
100
AcDbLine
 10
-26.41248137689911
 20
-23.44242778282049
 30
0.0
 11
-26.41942855129913
 21
-23.45145754762052
 31
0.0
  0
LWPOLYLINE
  5
1C2
330
2
100
AcDbEntity
  8
0
  6
CONTINUOUS
100
AcDbPolyline
 90
        4
 70
     0
 43
0.0
 10
-26.41942855129913
 20
-23.45145754762052
 10
-26.4319826664991
 20
-23.46706548682049
 10
-26.44476180889911
 20
-23.48205187082052
 10
-26.45775415929913
 20
-23.49640238602052
  0
LINE
  5
1C8
330
2
100
AcDbEntity
  8
0
  6
CONTINUOUS
100
AcDbLine
 10
-26.7246461480991
 20
-23.78092713322049
 30
0.0
 11
-26.88658534489912
 21
-23.95213665002052
 31
0.0
  0
LWPOLYLINE
  5
1C9
330
2
100
AcDbEntity
  8
0
  6
CONTINUOUS
100
AcDbPolyline
 90
        3
 70
     0
 43
0.0
 10
-26.45775415929913
 20
-23.49640238602052
 10
-26.59185810969911
 20
-23.6397176740205
 10
-26.7246461480991
 20
-23.78092713322049
  0
LINE
  5
1CE
330
2
100
AcDbEntity
  8
0
  6
CONTINUOUS
100
AcDbLine
 10
-26.88658534489912
 20
-23.95213665002052
 30
0.0
 11
-26.94164702329912
 21
-24.0100103796205
 31
0.0
  0
LWPOLYLINE
  5
1CF
330
2
100
AcDbEntity
  8
0
  6
CONTINUOUS
100
AcDbPolyline
 90
        3
 70
     0
 43
0.0
 10
-27.24718710329912
 20
-24.32829941482052
 10
-27.31238392729911
 20
-24.40515134282049
 10
-27.37282595609914
 20
-24.49580094602049
  0
LWPOLYLINE
  5
1D4
330
2
100
AcDbEntity
  8
0
  6
CONTINUOUS
100
AcDbPolyline
 90
        4
 70
     0
 43
0.0
 10
-27.44222656569911
 20
-24.6985372772205
 10
-27.43529743929913
 20
-24.67052347242051
 10
-27.42710326489911
 20
-24.6406924692205
 10
-27.4174748968991
 20
-24.60921634602049
  0
LINE
  5
1DA
330
2
100
AcDbEntity
  8
0
  6
CONTINUOUS
100
AcDbLine
 10
-27.4174748968991
 20
-24.60921633962049
 30
0.0
 11
-27.41595778169913
 21
-24.6045576308205
 31
0.0
  0
LWPOLYLINE
  5
1DB
330
2
100
AcDbEntity
  8
0
  6
CONTINUOUS
100
AcDbPolyline
 90
        3
 70
     0
 43
0.0
 10
-27.41595778489914
 20
-24.6045576644205
 10
-27.3956310920991
 20
-24.54831531402052
 10
-27.37282594169912
 20
-24.49580084842052
  0
LWPOLYLINE
  5
1E0
330
2
100
AcDbEntity
  8
0
  6
CONTINUOUS
100
AcDbPolyline
 90
        4
 70
     0
 43
0.0
 10
-26.94164702329912
 20
-24.0100103796205
 10
-27.04423950649911
 20
-24.11736962442051
 10
-27.14606902809913
 20
-24.22344616042051
 10
-27.24718710329912
 20
-24.32829941482052
  0
LINE
  5
1E6
330
2
100
AcDbEntity
  8
0
  6
CONTINUOUS
100
AcDbLine
 10
-27.3345704568991
 20
-24.15039022282051
 30
0.0
 11
-26.50657716569914
 21
-23.25348101322052
 31
0.0
  0
LINE
  5
1E7
330
2
100
AcDbEntity
  8
0
  6
CONTINUOUS
100
AcDbLine
 10
-27.57667190649912
 20
-21.74214644842052
 30
0.0
 11
-27.32849204409912
 21
-22.19036864362049
 31
0.0
  0
LWPOLYLINE
  5
1E8
330
2
100
AcDbEntity
  8
0
  6
CONTINUOUS
100
AcDbPolyline
 90
        4
 70
     0
 43
0.0
 10
-27.92523217689911
 20
-20.7220118772205
 10
-27.7802732984991
 20
-21.21822083562052
 10
-27.58770278809912
 20
-21.68937363242051
 10
-27.3571263720991
 20
-22.11770230922051
  0
LWPOLYLINE
  5
1EE
330
2
100
AcDbEntity
  8
0
  6
CONTINUOUS
100
AcDbPolyline
 90
        3
 70
     0
 43
0.0
 10
-27.92523217689911
 20
-20.7220118772205
 10
-27.92399588409912
 20
-20.78090810762051
 10
-27.91808659449911
 20
-20.81843776202049
  0
LWPOLYLINE
  5
1F3
330
2
100
AcDbEntity
  8
0
  6
CONTINUOUS
100
AcDbPolyline
 90
        3
 70
     0
 43
0.0
 10
-27.91808659449911
 20
-20.81843776202049
 10
-27.77578319609914
 20
-21.27151176202049
 10
-27.57667190649912
 20
-21.74214644842052
  0
LWPOLYLINE
  5
1F8
330
2
100
AcDbEntity
  8
0
  6
CONTINUOUS
100
AcDbPolyline
 90
        5
 70
     0
 43
0.0
 10
-26.6048511496991
 20
-21.46371511722049
 10
-26.63500134649911
 20
-21.3824308180205
 10
-26.66610369849912
 20
-21.29347444362049
 10
-26.69814799929911
 20
-21.19557592362049
 10
-26.73102875609912
 20
-21.0873709716205
  0
LWPOLYLINE
  5
1FF
330
2
100
AcDbEntity
  8
0
  6
CONTINUOUS
100
AcDbPolyline
 90
        5
 70
     0
 43
0.0
 10
-26.54020556249911
 20
-21.4238096692205
 10
-26.57070375769913
 20
-21.34400584202051
 10
-26.60209297849911
 20
-21.25669962762052
 10
-26.63436719929913
 20
-21.16064195082051
 10
-26.66742436889911
 20
-21.05449409002051
  0
LWPOLYLINE
  5
206
330
2
100
AcDbEntity
  8
0
  6
CONTINUOUS
100
AcDbPolyline
 90
        4
 70
     0
 43
0.0
 10
-26.85754828409911
 20
-21.88832406922049
 10
-26.79474756889912
 20
-21.99131587722051
 10
-26.72998666489911
 20
-22.09015300682052
 10
-26.59524301049911
 20
-22.2665059572205
  0
LWPOLYLINE
  5
20C
330
2
100
AcDbEntity
  8
0
  6
CONTINUOUS
100
AcDbPolyline
 90
        3
 70
     0
 43
0.0
 10
-26.12358089689913
 20
-22.31221814442051
 10
-26.12151887129911
 20
-22.28881173482052
 10
-26.12006902169911
 20
-22.2612439124205
  0
LWPOLYLINE
  5
211
330
2
100
AcDbEntity
  8
0
  6
CONTINUOUS
100
AcDbPolyline
 90
        4
 70
     0
 43
0.0
 10
-26.27493130809913
 20
-21.8831435028205
 10
-26.23765760249912
 20
-21.98512567082049
 10
-26.19803057689912
 20
-22.08300218602051
 10
-26.12006902169911
 20
-22.2612439124205
  0
LINE
  5
217
330
2
100
AcDbEntity
  8
0
  6
CONTINUOUS
100
AcDbLine
 10
-26.36684678649911
 20
-21.81220728202049
 30
0.0
 11
-26.37205874809912
 21
-21.80154656202051
 31
0.0
  0
LINE
  5
218
330
2
100
AcDbEntity
  8
0
  6
CONTINUOUS
100
AcDbLine
 10
-26.43402586009912
 20
-21.85313307882051
 30
0.0
 11
-26.43928782809911
 21
-21.84251931882052
 31
0.0
  0
LWPOLYLINE
  5
219
330
2
100
AcDbEntity
  8
0
  6
CONTINUOUS
100
AcDbPolyline
 90
        3
 70
     0
 43
0.0
 10
-26.43928782809911
 20
-21.84251931882052
 10
-26.45293135449913
 20
-21.81464085962049
 10
-26.46643234649912
 20
-21.78653142922049
  0
LWPOLYLINE
  5
21E
330
2
100
AcDbEntity
  8
0
  6
CONTINUOUS
100
AcDbPolyline
 90
        3
 70
     0
 43
0.0
 10
-26.37205874809912
 20
-21.80154656202051
 10
-26.38557419449913
 20
-21.77355951242051
 10
-26.43226559129913
 20
-21.6754024260205
  0
LWPOLYLINE
  5
223
330
2
100
AcDbEntity
  8
0
  6
CONTINUOUS
100
AcDbPolyline
 90
       12
 70
     0
 43
0.0
 10
-26.24906393369912
 20
-22.47264039402049
 10
-26.24877734969912
 20
-22.45417457002051
 10
-26.24922902169912
 20
-22.43282038282049
 10
-26.2507054936991
 20
-22.40932941802051
 10
-26.25342381849911
 20
-22.38443554922051
 10
-26.25753226809912
 20
-22.35880559082049
 10
-26.26314245209912
 20
-22.33294541642051
 10
-26.27031998969912
 20
-22.30736989002049
 10
-26.27904381369911
 20
-22.28269416042051
 10
-26.28887929529911
 20
-22.26019969962051
 10
-26.29872036409911
 20
-22.24162733642052
 10
-26.30709427769912
 20
-22.2281929972205
  0
LWPOLYLINE
  5
231
330
2
100
AcDbEntity
  8
0
  6
CONTINUOUS
100
AcDbPolyline
 90
        4
 70
     0
 43
0.0
 10
-26.1292476392991
 20
-22.47709203242052
 10
-26.12791650649911
 20
-22.44175257162051
 10
-26.12785168249913
 20
-22.4059908036205
 10
-26.12912707129911
 20
-22.36977066122051
  0
LWPOLYLINE
  5
237
330
2
100
AcDbEntity
  8
0
  6
CONTINUOUS
100
AcDbPolyline
 90
        3
 70
     0
 43
0.0
 10
-26.24298930489912
 20
-22.19453169482051
 10
-26.24761810009912
 20
-22.18678879562051
 10
-26.25228914809911
 20
-22.17918562762051
  0
LINE
  5
23C
330
2
100
AcDbEntity
  8
0
  6
CONTINUOUS
100
AcDbLine
 10
-26.15243784729912
 20
-22.20145712202053
 30
0.0
 11
-26.18775334329912
 21
-22.1426751716205
 31
0.0
  0
LWPOLYLINE
  5
23D
330
2
100
AcDbEntity
  8
0
  6
CONTINUOUS
100
AcDbPolyline
 90
        3
 70
     0
 43
0.0
 10
-26.23632214809911
 20
-22.2060611428205
 10
-26.23963945049912
 20
-22.20026796842051
 10
-26.24298930489912
 20
-22.19453169482051
  0
LWPOLYLINE
  5
242
330
2
100
AcDbEntity
  8
0
  6
CONTINUOUS
100
AcDbPolyline
 90
        4
 70
     0
 43
0.0
 10
-26.12006902169911
 20
-22.2612439124205
 10
-26.13058444409912
 20
-22.23963232682051
 10
-26.14172763129912
 20
-22.2196532084205
 10
-26.15243784729912
 20
-22.20145712202053
  0
LWPOLYLINE
  5
248
330
2
100
AcDbEntity
  8
0
  6
CONTINUOUS
100
AcDbPolyline
 90
        6
 70
     0
 43
0.0
 10
-26.19103595609913
 20
-22.30441977642049
 10
-26.19949459609912
 20
-22.28104827722052
 10
-26.20891602489911
 20
-22.2592922116205
 10
-26.2183824040991
 20
-22.23962484522049
 10
-26.2275492440991
 20
-22.22196665642052
 10
-26.23632214809911
 20
-22.2060611428205
  0
LWPOLYLINE
  5
250
330
2
100
AcDbEntity
  8
0
  6
CONTINUOUS
100
AcDbPolyline
 90
        3
 70
     0
 43
0.0
 10
-26.18886729209911
 20
-22.3121648612205
 10
-26.18994428249913
 20
-22.30811707562049
 10
-26.19103595609913
 20
-22.30441977642049
  0
LWPOLYLINE
  5
255
330
2
100
AcDbEntity
  8
0
  6
CONTINUOUS
100
AcDbPolyline
 90
        5
 70
     0
 43
0.0
 10
-26.17665106489912
 20
-22.38203892362052
 10
-26.1792713768991
 20
-22.36028023082051
 10
-26.18243127129911
 20
-22.34059492522051
 10
-26.18571953369912
 20
-22.3245057204205
 10
-26.18886729209911
 20
-22.3121648612205
  0
LINE
  5
25C
330
2
100
AcDbEntity
  8
0
  6
CONTINUOUS
100
AcDbLine
 10
-26.12912706009911
 20
-22.36977056362052
 30
0.0
 11
-26.12358089689913
 21
-22.31221814442051
 31
0.0
  0
LINE
  5
25D
330
2
100
AcDbEntity
  8
0
  6
CONTINUOUS
100
AcDbLine
 10
-26.2781058440991
 20
-21.87394947722052
 30
0.0
 11
-26.27493130809913
 21
-21.8831435028205
 31
0.0
  0
LWPOLYLINE
  5
25E
330
2
100
AcDbEntity
  8
0
  6
CONTINUOUS
100
AcDbPolyline
 90
        4
 70
     0
 43
0.0
 10
-26.25228914809911
 20
-22.17918562762051
 10
-26.31509090329912
 20
-22.0746386324205
 10
-26.37576743129911
 20
-21.96582240202053
 10
-26.43402586009912
 20
-21.85313307882051
  0
LWPOLYLINE
  5
264
330
2
100
AcDbEntity
  8
0
  6
CONTINUOUS
100
AcDbPolyline
 90
        4
 70
     0
 43
0.0
 10
-26.18775333689913
 20
-22.14267516202049
 10
-26.24945702969911
 20
-22.03601364042051
 10
-26.30925760889911
 20
-21.9257449540205
 10
-26.36684678009911
 20
-21.81220727402049
  0
LINE
  5
26A
330
2
100
AcDbEntity
  8
0
  6
CONTINUOUS
100
AcDbLine
 10
-26.90088299609913
 20
-22.8196048436205
 30
0.0
 11
-26.90085398169912
 21
-22.81964440522052
 31
0.0
  0
LINE
  5
26B
330
2
100
AcDbEntity
  8
0
  6
CONTINUOUS
100
AcDbLine
 10
-26.90370982649911
 20
-22.81446784522052
 30
0.0
 11
-26.89416350969912
 21
-22.82876899722051
 31
0.0
  0
LWPOLYLINE
  5
26C
330
2
100
AcDbEntity
  8
0
  6
CONTINUOUS
100
AcDbPolyline
 90
       12
 70
     0
 43
0.0
 10
-26.5595079224991
 20
-22.47305530442051
 10
-26.55923337689911
 20
-22.4503333140205
 10
-26.56015792889911
 20
-22.42261722762052
 10
-26.56272426009911
 20
-22.39282783082051
 10
-26.5669366408991
 20
-22.36341720522051
 10
-26.57255538649912
 20
-22.33573456042051
 10
-26.57933380409912
 20
-22.31019109322049
 10
-26.58700166649911
 20
-22.28704190282051
 10
-26.59524301049911
 20
-22.2665059572205
 10
-26.60364584089911
 20
-22.24884215562049
 10
-26.61171533049911
 20
-22.23425681642051
 10
-26.61890151929912
 20
-22.2228653364205
  0
LINE
  5
27A
330
2
100
AcDbEntity
  8
0
  6
CONTINUOUS
100
AcDbLine
 10
-26.5716909240991
 20
-22.6316687684205
 30
0.0
 11
-26.5595079224991
 21
-22.47305530442051
 31
0.0
  0
LWPOLYLINE
  5
27B
330
2
100
AcDbEntity
  8
0
  6
CONTINUOUS
100
AcDbPolyline
 90
        4
 70
     0
 43
0.0
 10
-26.43226559129913
 20
-21.6754024260205
 10
-26.46703222009913
 20
-21.59888632682051
 10
-26.50308686809911
 20
-21.51522361002052
 10
-26.54020560089913
 20
-21.42380971882051
  0
LWPOLYLINE
  5
281
330
2
100
AcDbEntity
  8
0
  6
CONTINUOUS
100
AcDbPolyline
 90
        5
 70
     0
 43
0.0
 10
-26.46643234649912
 20
-21.78653142922049
 10
-26.49890131769912
 20
-21.71675512842049
 10
-26.53291265849912
 20
-21.64009572522051
 10
-26.56830259289911
 20
-21.5559512084205
 10
-26.6048511496991
 20
-21.46371511722049
  0
LWPOLYLINE
  5
288
330
2
100
AcDbEntity
  8
0
  6
CONTINUOUS
100
AcDbPolyline
 90
        4
 70
     0
 43
0.0
 10
-26.44499526169913
 20
-21.20064601322052
 10
-26.39942122169912
 20
-21.43751918282049
 10
-26.34351238169913
 20
-21.66283094442052
 10
-26.2781058440991
 20
-21.87394947722052
  0
LWPOLYLINE
  5
28E
330
2
100
AcDbEntity
  8
0
  6
CONTINUOUS
100
AcDbPolyline
 90
        4
 70
     0
 43
0.0
 10
-26.57413672729911
 20
-21.11185966442052
 10
-26.52441579289911
 20
-21.33345044842052
 10
-26.46579316569911
 20
-21.5453336340205
 10
-26.3989576936991
 20
-21.7453723684205
  0
LINE
  5
294
330
2
100
AcDbEntity
  8
0
  6
CONTINUOUS
100
AcDbLine
 10
-27.32457920729911
 20
-22.19659102602052
 30
0.0
 11
-27.3245618536991
 21
-22.19661860682051
 31
0.0
  0
LINE
  5
295
330
2
100
AcDbEntity
  8
0
  6
CONTINUOUS
100
AcDbLine
 10
-27.32852079929913
 20
-22.1903228820205
 30
0.0
 11
-27.32460628089911
 21
-22.19654801002052
 31
0.0
  0
LINE
  5
296
330
2
100
AcDbEntity
  8
0
  6
CONTINUOUS
100
AcDbLine
 10
-27.3571263720991
 20
-22.11770230922051
 30
0.0
 11
-27.35322674329911
 21
-22.12408253642049
 31
0.0
  0
LINE
  5
297
330
2
100
AcDbEntity
  8
0
  6
CONTINUOUS
100
AcDbLine
 10
-27.35322674329911
 20
-22.12408253642049
 30
0.0
 11
-27.32457920729911
 21
-22.19659102602052
 31
0.0
  0
LINE
  5
298
330
2
100
AcDbEntity
  8
0
  6
CONTINUOUS
100
AcDbLine
 10
-27.3571263720991
 20
-22.11770230922051
 30
0.0
 11
-27.32849859769911
 21
-22.19035821482052
 31
0.0
  0
LWPOLYLINE
  5
299
330
2
100
AcDbEntity
  8
0
  6
CONTINUOUS
100
AcDbPolyline
 90
        3
 70
     0
 43
0.0
 10
-27.32457920729911
 20
-22.19659102602052
 10
-27.20617126969912
 20
-22.38059012522052
 10
-27.05952096089913
 20
-22.59743763722049
  0
LINE
  5
29E
330
2
100
AcDbEntity
  8
0
  6
CONTINUOUS
100
AcDbLine
 10
-27.05952096089913
 20
-22.59743763722049
 30
0.0
 11
-26.90085398169912
 21
-22.81964440522052
 31
0.0
  0
LWPOLYLINE
  5
29F
330
2
100
AcDbEntity
  8
0
  6
CONTINUOUS
100
AcDbPolyline
 90
        4
 70
     0
 43
0.0
 10
-27.18143784569912
 20
-21.20292893482051
 10
-27.08506579449911
 20
-21.4404011124205
 10
-26.97853769209911
 20
-21.66667299882049
 10
-26.85754828409911
 20
-21.88832406922049
  0
LINE
  5
2A5
330
2
100
AcDbEntity
  8
0
  6
CONTINUOUS
100
AcDbLine
 10
-27.90422996729911
 20
-20.55473637802051
 30
0.0
 11
-30.75721522649913
 21
-20.55473637802051
 31
0.0
  0
LWPOLYLINE
  5
2A6
330
2
100
AcDbEntity
  8
0
  6
CONTINUOUS
100
AcDbPolyline
 90
        4
 70
     0
 43
0.0
 10
-27.42995818169913
 20
-19.51246087882051
 10
-27.45876473209913
 20
-19.5500136356205
 10
-27.48477624889911
 20
-19.58658078122051
 10
-27.50727137849912
 20
-19.62108523882051
  0
LINE
  5
2AC
330
2
100
AcDbEntity
  8
0
100
AcDbLine
 10
-26.90408892729913
 20
-19.4023828884205
 30
0.0
 11
-26.67956393591875
 21
-19.52141505421751
 31
0.0
  0
LINE
  5
2AD
330
2
100
AcDbEntity
  8
0
  6
CONTINUOUS
100
AcDbLine
 10
-26.95300868409911
 20
-19.81368035082051
 30
0.0
 11
-26.96796087129913
 21
-19.36723637802051
 31
0.0
  0
LWPOLYLINE
  5
2AE
330
2
100
AcDbEntity
  8
0
  6
CONTINUOUS
100
AcDbPolyline
 90
        3
 70
     0
 43
0.0
 10
-27.35079725317845
 20
-19.43803262849378
 10
-27.38964046809911
 20
-19.46881690762052
 10
-27.42995818169913
 20
-19.51246087882051
  0
LINE
  5
2B3
330
2
100
AcDbEntity
  8
0
  6
CONTINUOUS
100
AcDbLine
 10
-27.3372371736991
 20
-19.83405839562049
 30
0.0
 11
-27.35322134489911
 21
-19.36723637802051
 31
0.0
  0
LWPOLYLINE
  5
2B4
330
2
100
AcDbEntity
  8
0
100
AcDbPolyline
 90
        4
 70
   128
 43
0.0
 10
-26.90408892729913
 20
-19.4023828884205
 10
-26.96796087129913
 20
-19.36723637802051
 10
-27.04278410169912
 20
-19.36723637802051
 10
-27.35322134489911
 20
-19.36723637802051
  0
LWPOLYLINE
  5
2B5
330
2
100
AcDbEntity
  8
0
  6
CONTINUOUS
100
AcDbPolyline
 90
        3
 70
     0
 43
0.0
 10
-24.44783507929912
 20
-20.6838529876205
 10
-24.93822767289911
 20
-20.46400438122051
 10
-25.15834511929913
 20
-20.35752102282052
  0
LWPOLYLINE
  5
2BA
330
2
100
AcDbEntity
  8
0
  6
CONTINUOUS
100
AcDbPolyline
 90
        3
 70
     0
 43
0.0
 10
-24.3838220792991
 20
-20.7220118772205
 10
-24.8874110200991
 20
-20.49111150602049
 10
-25.15874136729912
 20
-20.3583401300205
  0
LINE
  5
2BF
330
2
100
AcDbEntity
  8
0
  6
CONTINUOUS
100
AcDbLine
 10
-24.07092697049913
 20
-22.2522203940205
 30
0.0
 11
-24.57580144249913
 21
-22.90332298442051
 31
0.0
  0
LWPOLYLINE
  5
2C0
330
2
100
AcDbEntity
  8
0
  6
CONTINUOUS
100
AcDbPolyline
 90
        4
 70
     0
 43
0.0
 10
-24.9293911832991
 20
-23.34399458122051
 10
-24.96382202169911
 20
-23.39522624362052
 10
-24.99709463129913
 20
-23.4488978868205
 10
-25.02826093209911
 20
-23.50333217002052
  0
LWPOLYLINE
  5
2C6
330
2
100
AcDbEntity
  8
0
  6
CONTINUOUS
100
AcDbPolyline
 90
        4
 70
     0
 43
0.0
 10
-24.57580144249913
 20
-22.90332298442051
 10
-24.66101715289913
 20
-23.01156081642052
 10
-24.74805178489911
 20
-23.11884516522052
 10
-24.83641973369911
 20
-23.22460861642051
  0
LWPOLYLINE
  5
2CC
330
2
100
AcDbEntity
  8
0
  6
CONTINUOUS
100
AcDbPolyline
 90
        4
 70
     0
 43
0.0
 10
-24.84572263129911
 20
-23.23556464842052
 10
-24.87505970009912
 20
-23.27122673642049
 10
-24.90281578009911
 20
-23.30724378922051
 10
-24.9293911832991
 20
-23.34399458122051
  0
LINE
  5
2D2
330
2
100
AcDbEntity
  8
0
  6
CONTINUOUS
100
AcDbLine
 10
-24.83641973369911
 20
-23.22460861642051
 30
0.0
 11
-24.84572263129911
 21
-23.23556464842052
 31
0.0
  0
LWPOLYLINE
  5
2D3
330
2
100
AcDbEntity
  8
0
  6
CONTINUOUS
100
AcDbPolyline
 90
        4
 70
     0
 43
0.0
 10
-25.28132986489914
 20
-24.3505706900205
 10
-25.28285247129911
 20
-24.37273030122051
 10
-25.28394580889912
 20
-24.38676599402052
 10
-25.28515009369911
 20
-24.40066880202051
  0
LINE
  5
2D9
330
2
100
AcDbEntity
  8
0
  6
CONTINUOUS
100
AcDbLine
 10
-25.37395057689912
 20
-24.7629013188205
 30
0.0
 11
-25.37582757369913
 21
-24.76696389482052
 31
0.0
  0
LWPOLYLINE
  5
2DA
330
2
100
AcDbEntity
  8
0
  6
CONTINUOUS
100
AcDbPolyline
 90
        4
 70
     0
 43
0.0
 10
-25.37582757369913
 20
-24.76696389482052
 10
-25.38503461369911
 20
-24.7856975588205
 10
-25.39509151769912
 20
-24.8041669668205
 10
-25.40606872729912
 20
-24.82247495562052
  0
LINE
  5
2E0
330
2
100
AcDbEntity
  8
0
  6
CONTINUOUS
100
AcDbLine
 10
-25.40606872729912
 20
-24.82247495562052
 30
0.0
 11
-25.40840836569911
 21
-24.82616593642049
 31
0.0
  0
LWPOLYLINE
  5
2E1
330
2
100
AcDbEntity
  8
0
  6
CONTINUOUS
100
AcDbPolyline
 90
        4
 70
     0
 43
0.0
 10
-25.40840836569911
 20
-24.82616593642049
 10
-25.45824047769913
 20
-24.90020904842052
 10
-25.51463188249911
 20
-24.97673553642052
 10
-25.57762380089912
 20
-25.05564568682051
  0
LWPOLYLINE
  5
2E7
330
2
100
AcDbEntity
  8
0
  6
CONTINUOUS
100
AcDbPolyline
 90
        4
 70
     0
 43
0.0
 10
-25.28515009369911
 20
-24.40066880202051
 10
-25.30376449369911
 20
-24.53533984842052
 10
-25.33364250809911
 20
-24.65659980842049
 10
-25.37395057689912
 20
-24.7629013188205
  0
LWPOLYLINE
  5
2ED
330
2
100
AcDbEntity
  8
0
  6
CONTINUOUS
100
AcDbPolyline
 90
        6
 70
     0
 43
0.0
 10
-25.02826093209911
 20
-23.50333217002052
 10
-25.10383800089911
 20
-23.65660926922049
 10
-25.17099583609911
 20
-23.82831098442049
 10
-25.22374129209913
 20
-24.00508121002052
 10
-25.26043749849911
 20
-24.17824762282052
 10
-25.28132986489914
 20
-24.3505706900205
  0
LWPOLYLINE
  5
2F5
330
2
100
AcDbEntity
  8
0
  6
CONTINUOUS
100
AcDbPolyline
 90
        4
 70
     0
 43
0.0
 10
-23.76276852409913
 20
-20.8068795540205
 10
-23.95584734329912
 20
-20.79827385002051
 10
-24.1354392696991
 20
-20.77481883402052
 10
-24.29998774809913
 20
-20.7365748644205
  0
LWPOLYLINE
  5
2FB
330
2
100
AcDbEntity
  8
0
  6
CONTINUOUS
100
AcDbPolyline
 90
        5
 70
     0
 43
0.0
 10
-23.6366209192991
 20
-20.86647192202049
 10
-23.84746065209913
 20
-20.85369866442052
 10
-24.04339918329913
 20
-20.82517311882049
 10
-24.22297472089911
 20
-20.78108149802051
 10
-24.3838220792991
 20
-20.7220118772205
  0
LWPOLYLINE
  5
302
330
2
100
AcDbEntity
  8
0
  6
CONTINUOUS
100
AcDbPolyline
 90
        4
 70
     0
 43
0.0
 10
-23.45605626969911
 20
-21.30643201642049
 10
-23.6456095944991
 20
-21.63520298442049
 10
-23.85090715449911
 20
-21.95097321642051
 10
-24.07092697049913
 20
-22.2522203940205
  0
LINE
  5
308
330
2
100
AcDbEntity
  8
0
  6
CONTINUOUS
100
AcDbLine
 10
-24.29998774809913
 20
-20.7365748644205
 30
0.0
 11
-24.44783507929912
 21
-20.6838529876205
 31
0.0
  0
LINE
  5
309
330
2
100
AcDbEntity
  8
0
  6
CONTINUOUS
100
AcDbLine
 10
-24.3838220792991
 20
-20.7220118772205
 30
0.0
 11
-24.44783507929912
 21
-20.6838529876205
 31
0.0
  0
LINE
  5
30A
330
2
100
AcDbEntity
  8
0
  6
CONTINUOUS
100
AcDbLine
 10
-23.52835822809911
 20
-20.89234726122052
 30
0.0
 11
-23.57089366329913
 21
-20.8759840116205
 31
0.0
  0
LINE
  5
30B
330
2
100
AcDbEntity
  8
0
  6
CONTINUOUS
100
AcDbLine
 10
-23.5283712424991
 20
-20.89234072842052
 30
0.0
 11
-23.56813155449911
 21
-20.87248298442051
 31
0.0
  0
LINE
  5
30C
330
2
100
AcDbEntity
  8
0
  6
CONTINUOUS
100
AcDbLine
 10
-23.67382155289913
 20
-20.82216053642051
 30
0.0
 11
-23.6511137656991
 21
-20.83173064842049
 31
0.0
  0
LINE
  5
30D
330
2
100
AcDbEntity
  8
0
  6
CONTINUOUS
100
AcDbLine
 10
-23.6781788328991
 20
-20.84660029962051
 30
0.0
 11
-23.6366231608991
 21
-20.86647187082049
 31
0.0
  0
LINE
  5
30E
330
2
100
AcDbEntity
  8
0
  6
CONTINUOUS
100
AcDbLine
 10
-23.6257234040991
 20
-20.84410241482049
 30
0.0
 11
-23.65113391609914
 21
-20.8317208708205
 31
0.0
  0
LWPOLYLINE
  5
30F
330
2
100
AcDbEntity
  8
0
  6
CONTINUOUS
100
AcDbPolyline
 90
        3
 70
     0
 43
0.0
 10
-23.57089366329913
 20
-20.8759840116205
 10
-23.60347669049911
 20
-20.86917454442049
 10
-23.6366231608991
 20
-20.86647187082049
  0
LINE
  5
314
330
2
100
AcDbEntity
  8
0
  6
CONTINUOUS
100
AcDbLine
 10
-23.56813155449911
 20
-20.87248298442051
 30
0.0
 11
-23.6257234040991
 21
-20.84410241482049
 31
0.0
  0
LWPOLYLINE
  5
315
330
2
100
AcDbEntity
  8
0
  6
CONTINUOUS
100
AcDbPolyline
 90
        3
 70
     0
 43
0.0
 10
-23.76276499769911
 20
-20.80687957322052
 10
-23.72022301849912
 20
-20.8267320500205
 10
-23.6781788328991
 20
-20.84660029962051
  0
LWPOLYLINE
  5
31A
330
2
100
AcDbEntity
  8
0
  6
CONTINUOUS
100
AcDbPolyline
 90
        3
 70
     0
 43
0.0
 10
-23.76276499769911
 20
-20.80687957322052
 10
-23.7176023432991
 20
-20.81073213482051
 10
-23.67382155289913
 20
-20.82216053642051
  0
LWPOLYLINE
  5
31F
330
2
100
AcDbEntity
  8
0
  6
CONTINUOUS
100
AcDbPolyline
 90
        9
 70
     0
 43
0.0
 10
-23.45605729209911
 20
-21.30643390602049
 10
-23.42608743289911
 20
-21.23941694282051
 10
-23.40788034009912
 20
-21.16988749642052
 10
-23.40312574809912
 20
-21.1024037124205
 10
-23.4120396104991
 20
-21.03917959082049
 10
-23.43477905209913
 20
-20.9820704628205
 10
-23.47006326809911
 20
-20.93474929162051
 10
-23.5162227240991
 20
-20.8989122468205
 10
-23.52835822809911
 20
-20.89234726122052
  0
ARC
  5
33B
330
2
100
AcDbEntity
  8
0
  6
CONTINUOUS
 62
     7
100
AcDbCircle
 10
-42.05628398809911
 20
-0.4922363780205182
 30
0.0
 40
0.5
100
AcDbArc
 50
287.4929138223
 51
340.5287793654999
  0
LINE
  5
33F
330
2
100
AcDbEntity
  8
0
  6
HIDDEN
 62
     9
100
AcDbLine
 10
-41.95867574714864
 20
-1.992236378020518
 30
0.0
 11
-41.86186016889909
 21
-1.203743528420499
 31
0.0
  0
ARC
  5
341
330
2
100
AcDbEntity
  8
0
  6
CONTINUOUS
 62
     7
100
AcDbCircle
 10
-41.83083434329911
 20
-1.20755049962052
 30
0.0
 40
0.2500000416
100
AcDbArc
 50
107.4949307829
 51
173.0005217356
  0
LINE
  5
343
330
2
100
AcDbEntity
  8
0
  6
CONTINUOUS
 62
     7
100
AcDbLine
 10
-42.17906854969911
 20
-1.992236378020518
 30
0.0
 11
-42.07897961209908
 21
-1.177084384420506
 31
0.0
  0
ARC
  5
346
330
2
100
AcDbEntity
  8
0
  6
HIDDEN
 62
     9
100
AcDbCircle
 10
-42.05628398809911
 20
-0.4922363780205182
 30
0.0
 40
0.71875
100
AcDbArc
 50
287.4929138223
 51
340.5287793654999
  0
ARC
  5
347
330
2
100
AcDbEntity
  8
0
  6
CONTINUOUS
100
AcDbCircle
 10
-41.34917752249909
 20
-0.7422363780205182
 30
0.0
 40
0.25
100
AcDbArc
 50
89.9999278804
 51
160.5287553255999
  0
ARC
  5
349
330
2
100
AcDbEntity
  8
0
  6
HIDDEN
 62
     9
100
AcDbCircle
 10
-38.58924854969913
 20
-0.4922363780205182
 30
0.0
 40
0.71875
100
AcDbArc
 50
199.4712206344999
 51
268.6317726956004
  0
ARC
  5
352
330
2
100
AcDbEntity
  8
0
  6
HIDDEN
 62
     9
100
AcDbCircle
 10
-38.63193649849911
 20
-1.241020544420518
 30
0.0
 40
0.2500000736
100
AcDbArc
 50
23.4014914776
 51
86.73708510909998
  0
ARC
  5
353
330
2
100
AcDbEntity
  8
0
  6
HIDDEN
 62
     9
100
AcDbCircle
 10
-38.58924854969913
 20
-0.4922363780205182
 30
0.0
 40
0.5
100
AcDbArc
 50
199.4712206344999
 51
266.7371337194999
  0
ARC
  5
354
330
2
100
AcDbEntity
  8
0
  6
HIDDEN
 62
     9
100
AcDbCircle
 10
-39.29635479929911
 20
-0.7422363780205182
 30
0.0
 40
0.2499999904
100
AcDbArc
 50
19.4712612376
 51
90.00012180909999
  0
LWPOLYLINE
  5
35C
330
2
100
AcDbEntity
  8
0
  6
CONTINUOUS
100
AcDbPolyline
 90
       32
 70
     0
 43
0.0
 10
13.82846606790089
 20
-13.7374251876205
 10
13.83360094950089
 20
-13.55581898922051
 10
13.83905261030088
 20
-13.33114546602049
 10
13.84351941990087
 20
-13.11318381002049
 10
13.84717106950087
 20
-12.91241127242053
 10
13.85053931750088
 20
-12.7179461924205
 10
13.85406422950089
 20
-12.52173467882051
 10
13.85801365350089
 20
-12.32279684042049
 10
13.86276664870087
 20
-12.1122488180205
 10
13.86868433030089
 20
-11.88345959882051
 10
13.87601709190089
 20
-11.63542048842051
 10
13.88488333030089
 20
-11.37118032362052
 10
13.89534241990087
 20
-11.09400842762049
 10
13.90767068390089
 20
-10.80105373482052
 10
13.92232523910087
 20
-10.4869688580205
 10
13.93965034630089
 20
-10.15073103722049
 10
13.95977209670087
 20
-9.79590730922052
 10
13.98278291910087
 20
-9.426106709220515
 10
14.00877469350088
 20
-9.044628354020499
 10
14.03800353830087
 20
-8.652911963620507
 10
14.07137533350088
 20
-8.246061965220516
 10
14.11023577350088
 20
-7.817267568420515
 10
14.15631784870089
 20
-7.359678555620515
 10
14.21174483910087
 20
-6.86726487242053
 10
14.27882163910086
 20
-6.2744112244205
 10
14.35949817510088
 20
-5.708793037220498
 10
14.45570416230089
 20
-5.109857304420497
 10
14.56769690310089
 20
-4.485496350820508
 10
14.69565471270087
 20
-3.841912638820499
 10
14.83994353830087
 20
-3.18366215082052
 10
15.00062816870087
 20
-2.516366640420496
 10
15.13756860622859
 20
-1.992236378020517
  0
LWPOLYLINE
  5
37E
330
2
100
AcDbEntity
  8
0
  6
HIDDEN
 62
     9
100
AcDbPolyline
 90
        4
 70
     0
 43
0.0
 10
13.48885888390087
 20
-5.168627595620531
 10
12.65953655110087
 20
-9.395155678820497
 10
11.74627170470087
 20
-13.5430135508205
 10
10.74881209190087
 20
-17.67514388202053
  0
LWPOLYLINE
  5
384
330
2
100
AcDbEntity
  8
0
  6
CONTINUOUS
100
AcDbPolyline
 90
        8
 70
     0
 43
0.0
 10
14.24072397030089
 20
-4.0408130596205
 10
13.89532977670089
 20
-5.878908597220497
 10
13.68368118310088
 20
-7.585765334820518
 10
13.56878850790089
 20
-9.04926781162052
 10
13.52251673830089
 20
-10.34245095562052
 10
13.52290864550089
 20
-11.47326175562052
 10
13.55260033510089
 20
-12.44734804682049
 10
13.59778066470089
 20
-13.2678325828205
  0
LINE
  5
38E
330
2
100
AcDbEntity
  8
CENTER
100
AcDbLine
 10
7.532866411900869
 20
-29.07039763593803
 30
0.0
 11
7.532866411900869
 21
-22.9536379757475
 31
0.0
  0
LWPOLYLINE
  5
38F
330
2
100
AcDbEntity
  8
0
  6
CONTINUOUS
100
AcDbPolyline
 90
        7
 70
     0
 43
0.0
 10
8.252090045500871
 20
-24.81626380682049
 10
8.34893810790087
 20
-25.0122992132205
 10
8.420453461500869
 20
-25.21344603562052
 10
8.463068088700872
 20
-25.4077168980205
 10
8.477527264700889
 20
-25.6003651908205
 10
8.462906979900878
 20
-25.78224934282053
 10
8.419468855100888
 20
-25.95243468202049
  0
LWPOLYLINE
  5
398
330
2
100
AcDbEntity
  8
0
  6
CONTINUOUS
100
AcDbPolyline
 90
        4
 70
     0
 43
0.0
 10
5.856426701500886
 20
-25.05564568682051
 10
5.90098431270087
 20
-25.10821164522052
 10
5.94799911110087
 20
-25.1612850708205
 10
5.997522891900871
 20
-25.2149121412205
  0
LWPOLYLINE
  5
39E
330
2
100
AcDbEntity
  8
0
  6
CONTINUOUS
100
AcDbPolyline
 90
        4
 70
     0
 43
0.0
 10
6.72330588390087
 20
-26.31462203242049
 10
6.740163728700871
 20
-26.33135134122051
 10
6.757512634300873
 20
-26.34795960842049
 10
6.77536806790087
 20
-26.36442711402052
  0
LWPOLYLINE
  5
3A4
330
2
100
AcDbEntity
  8
0
  6
CONTINUOUS
100
AcDbPolyline
 90
        9
 70
     0
 43
0.0
 10
5.99958941030087
 20
-25.21710374602052
 10
6.087056751100895
 20
-25.32708902762049
 10
6.168540970300895
 20
-25.4569435428205
 10
6.247849363900883
 20
-25.59887808362051
 10
6.327936544700882
 20
-25.74585992842052
 10
6.409595064700887
 20
-25.8896322436205
 10
6.49991204710087
 20
-26.03433584682051
 10
6.603358811900882
 20
-26.17798359242049
 10
6.72330588390087
 20
-26.31462203242049
  0
LINE
  5
3AF
330
2
100
AcDbEntity
  8
0
  6
CONTINUOUS
100
AcDbLine
 10
5.997522891900871
 20
-25.2149121412205
 30
0.0
 11
5.99958941030087
 21
-25.21710374602052
 31
0.0
  0
LINE
  5
3B0
330
2
100
AcDbEntity
  8
0
  6
CONTINUOUS
100
AcDbLine
 10
8.174677584700887
 20
-26.31918185322052
 30
0.0
 11
8.169253035900887
 21
-26.33423890762049
 31
0.0
  0
LINE
  5
3B1
330
2
100
AcDbEntity
  8
0
  6
CONTINUOUS
100
AcDbLine
 10
8.419468855100888
 20
-25.95243468202049
 30
0.0
 11
8.364494927100871
 21
-26.07695955722051
 31
0.0
  0
LINE
  5
3B2
330
2
100
AcDbEntity
  8
0
  6
CONTINUOUS
100
AcDbLine
 10
8.365046776700872
 20
-26.0759187300205
 30
0.0
 11
8.364494927100871
 21
-26.07695955722051
 31
0.0
  0
LINE
  5
3B3
330
2
100
AcDbEntity
  8
0
  6
CONTINUOUS
100
AcDbLine
 10
8.364494927100871
 20
-26.07695955722051
 30
0.0
 11
8.325812565500882
 21
-26.14320280202051
 31
0.0
  0
LWPOLYLINE
  5
3B4
330
2
100
AcDbEntity
  8
0
  6
CONTINUOUS
100
AcDbPolyline
 90
        3
 70
     0
 43
0.0
 10
8.365046776700872
 20
-26.0759187300205
 10
8.293846101500882
 20
-26.1901329940205
 10
8.218486143100882
 20
-26.28242575082051
  0
LINE
  5
3B9
330
2
100
AcDbEntity
  8
0
  6
CONTINUOUS
100
AcDbLine
 10
8.325812565500882
 20
-26.14320280202051
 30
0.0
 11
8.218893323900871
 21
-26.28197194762051
 31
0.0
  0
LINE
  5
3BA
330
2
100
AcDbEntity
  8
0
  6
CONTINUOUS
100
AcDbLine
 10
8.218893323900871
 20
-26.28197194762051
 30
0.0
 11
8.218486143100882
 21
-26.28242575082051
 31
0.0
  0
LINE
  5
3BB
330
2
100
AcDbEntity
  8
0
  6
CONTINUOUS
100
AcDbLine
 10
8.218893323900871
 20
-26.28197194762051
 30
0.0
 11
8.200785168700882
 21
-26.30146654762052
 31
0.0
  0
LWPOLYLINE
  5
3BC
330
2
100
AcDbEntity
  8
0
  6
CONTINUOUS
100
AcDbPolyline
 90
        4
 70
     0
 43
0.0
 10
8.045750413500869
 20
-26.46200522442049
 10
8.001812213500869
 20
-26.50880349322051
 10
7.947892823100872
 20
-26.56766749002051
 10
7.903633797500887
 20
-26.61723637802051
  0
LWPOLYLINE
  5
3C2
330
2
100
AcDbEntity
  8
0
  6
CONTINUOUS
100
AcDbPolyline
 90
        3
 70
     0
 43
0.0
 10
8.200763629500869
 20
-26.30148940842049
 10
8.18525397830087
 20
-26.3177594516205
 10
8.12777171750087
 20
-26.37669638602051
  0
LINE
  5
3C7
330
2
100
AcDbEntity
  8
0
  6
CONTINUOUS
100
AcDbLine
 10
8.19161560070087
 20
-26.31113632842049
 30
0.0
 11
8.175989875900903
 21
-26.3273454708205
 31
0.0
  0
LWPOLYLINE
  5
3C8
330
2
100
AcDbEntity
  8
0
  6
CONTINUOUS
100
AcDbPolyline
 90
        3
 70
     0
 43
0.0
 10
8.12777171750087
 20
-26.37669638602051
 10
8.080160114300895
 20
-26.42596066122052
 10
8.045748533500869
 20
-26.46200720522049
  0
LWPOLYLINE
  5
3CD
330
2
100
AcDbEntity
  8
0
  6
CONTINUOUS
100
AcDbPolyline
 90
        4
 70
     0
 43
0.0
 10
6.77536806790087
 20
-26.36442711402052
 10
6.818928285500902
 20
-26.4041494356205
 10
6.86171098470087
 20
-26.44377728522052
 10
6.903598055100871
 20
-26.48319857962052
  0
LINE
  5
3D3
330
2
100
AcDbEntity
  8
0
  6
CONTINUOUS
100
AcDbLine
 10
6.903598055100871
 20
-26.48319857962052
 30
0.0
 11
7.044871539900896
 21
-26.61723637802051
 31
0.0
  0
LINE
  5
3D4
330
2
100
AcDbEntity
  8
0
  6
CONTINUOUS
100
AcDbLine
 10
7.903634712700871
 20
-26.61723637802051
 30
0.0
 11
7.044871541500896
 21
-26.61723637802051
 31
0.0
  0
LINE
  5
3D5
330
2
100
AcDbEntity
  8
0
  6
CONTINUOUS
100
AcDbLine
 10
10.61542455430087
 20
-20.55473637802051
 30
0.0
 11
8.190799883900893
 21
-20.55473637802051
 31
0.0
  0
ARC
  5
3D6
330
2
100
AcDbEntity
  8
0
  6
HIDDEN
 62
     9
100
AcDbCircle
 10
8.324569437500869
 20
-17.06437075722049
 30
0.0
 40
2.500001625599999
100
AcDbArc
 50
274.6808837381
 51
345.8444611651
  0
LINE
  5
3D7
330
2
100
AcDbEntity
  8
0
  6
CONTINUOUS
100
AcDbLine
 10
2.695931450300891
 20
-20.55473637802051
 30
0.0
 11
5.014644486266332
 21
-20.55473637802051
 31
0.0
  0
LINE
  5
3D8
330
2
100
AcDbEntity
  8
CENTER
100
AcDbLine
 10
1.570931450300889
 20
-18.82973637802052
 30
0.0
 11
1.570931450300889
 21
-23.65473637802049
 31
0.0
  0
LINE
  5
3D9
330
2
100
AcDbEntity
  8
0
  6
CONTINUOUS
100
AcDbLine
 10
2.695931450300889
 20
-21.30473637802051
 30
0.0
 11
2.695931450300889
 21
-20.55473637802051
 31
0.0
  0
LINE
  5
3DA
330
2
100
AcDbEntity
  8
0
  6
CONTINUOUS
100
AcDbLine
 10
0.4459314503008898
 20
-21.30473637802051
 30
0.0
 11
0.4459314503008898
 21
-20.55473637802051
 31
0.0
  0
LINE
  5
3DB
330
2
100
AcDbEntity
  8
0
  6
CONTINUOUS
100
AcDbLine
 10
2.664681450300889
 20
-21.33598637802051
 30
0.0
 11
0.4771814503008898
 21
-21.33598637802051
 31
0.0
  0
LINE
  5
3DC
330
2
100
AcDbEntity
  8
0
  6
CONTINUOUS
100
AcDbLine
 10
2.695931450300889
 20
-21.30473637802051
 30
0.0
 11
0.4459314503008898
 21
-21.30473637802051
 31
0.0
  0
LINE
  5
3DD
330
2
100
AcDbEntity
  8
0
  6
CONTINUOUS
100
AcDbLine
 10
0.7109314503008904
 20
-22.05473637802052
 30
0.0
 11
2.430931450300889
 21
-22.05473637802052
 31
0.0
  0
LINE
  5
3DE
330
2
100
AcDbEntity
  8
0
  6
HIDDEN
100
AcDbLine
 10
0.7108532711008735
 20
-21.43490875242051
 30
0.0
 11
0.7113897623008825
 21
-21.43515207402051
 31
0.0
  0
LINE
  5
3DF
330
2
100
AcDbEntity
  8
0
  6
HIDDEN
100
AcDbLine
 10
0.7113897623008825
 20
-21.43515207402051
 30
0.0
 11
0.7109314503008904
 21
-21.4347363780205
 31
0.0
  0
LINE
  5
3E0
330
2
100
AcDbEntity
  8
0
  6
CONTINUOUS
100
AcDbLine
 10
0.7109314503008904
 20
-21.45473637802052
 30
0.0
 11
0.7109314503008904
 21
-21.4347363780205
 31
0.0
  0
LINE
  5
3E1
330
2
100
AcDbEntity
  8
0
  6
HIDDEN
100
AcDbLine
 10
0.6844351687008725
 20
-21.3865456836205
 30
0.0
 11
0.6842681095008914
 21
-21.38682303562049
 31
0.0
  0
LINE
  5
3E2
330
2
100
AcDbEntity
  8
0
  6
HIDDEN
100
AcDbLine
 10
0.7113897623008825
 20
-21.45432068202049
 30
0.0
 11
0.7109314503008904
 21
-21.45473637802052
 31
0.0
  0
LWPOLYLINE
  5
3E3
330
2
100
AcDbEntity
  8
0
  6
CONTINUOUS
100
AcDbPolyline
 90
        5
 70
     0
 43
0.0
 10
0.6552315351008815
 20
-21.39979030282053
 10
0.6536767255008727
 20
-21.4007988132205
 10
0.651862935100894
 20
-21.40461911242051
 10
0.653519735100872
 20
-21.40852625162052
 10
0.6552218743008922
 20
-21.4096780676205
  0
LWPOLYLINE
  5
3EA
330
2
100
AcDbEntity
  8
0
  6
CONTINUOUS
100
AcDbPolyline
 90
        5
 70
     0
 43
0.0
 10
0.6552315351008815
 20
-21.4797903028205
 10
0.6536767255008727
 20
-21.4807988132205
 10
0.651862935100894
 20
-21.48461911242049
 10
0.653519735100872
 20
-21.48852625162052
 10
0.6552218743008922
 20
-21.48967806762049
  0
LINE
  5
3F1
330
2
100
AcDbEntity
  8
0
  6
CONTINUOUS
100
AcDbLine
 10
0.6552273847008934
 20
-21.40968057482052
 30
0.0
 11
0.7108532711008735
 21
-21.43490875242051
 31
0.0
  0
LINE
  5
3F2
330
2
100
AcDbEntity
  8
0
  6
CONTINUOUS
100
AcDbLine
 10
0.6844351687008725
 20
-21.3865456836205
 30
0.0
 11
0.6552273847008934
 21
-21.39979218122051
 31
0.0
  0
LINE
  5
3F3
330
2
100
AcDbEntity
  8
0
  6
CONTINUOUS
100
AcDbLine
 10
0.7113897623008825
 20
-21.45432068202049
 30
0.0
 11
0.6552273847008934
 21
-21.4797921812205
 31
0.0
  0
LINE
  5
3F4
330
2
100
AcDbEntity
  8
0
  6
CONTINUOUS
100
AcDbLine
 10
0.6842681095008914
 20
-21.38682303562049
 30
0.0
 11
0.6334314503008898
 21
-21.33598637802051
 31
0.0
  0
ARC
  5
3F5
330
2
100
AcDbEntity
  8
0
  6
CONTINUOUS
100
AcDbCircle
 10
0.4771814503008898
 20
-21.30473637802051
 30
0.0
 40
0.03125
100
AcDbArc
 50
180.0
 51
270.0
  0
LINE
  5
3F6
330
2
100
AcDbEntity
  8
0
  6
HIDDEN
100
AcDbLine
 10
0.7108532711008735
 20
-21.51490875242049
 30
0.0
 11
0.7113897623008825
 21
-21.51515207402052
 31
0.0
  0
LINE
  5
3F7
330
2
100
AcDbEntity
  8
0
  6
HIDDEN
100
AcDbLine
 10
0.7113897623008825
 20
-21.51515207402052
 30
0.0
 11
0.7109314503008904
 21
-21.5147363780205
 31
0.0
  0
LINE
  5
3F8
330
2
100
AcDbEntity
  8
0
  6
CONTINUOUS
100
AcDbLine
 10
0.7109314503008904
 20
-21.5347363780205
 30
0.0
 11
0.7109314503008904
 21
-21.5147363780205
 31
0.0
  0
LINE
  5
3F9
330
2
100
AcDbEntity
  8
0
  6
HIDDEN
100
AcDbLine
 10
0.7113897623008825
 20
-21.53432068202053
 30
0.0
 11
0.7109314503008904
 21
-21.5347363780205
 31
0.0
  0
LWPOLYLINE
  5
3FA
330
2
100
AcDbEntity
  8
0
  6
CONTINUOUS
100
AcDbPolyline
 90
        5
 70
     0
 43
0.0
 10
0.6552315351008815
 20
-21.5597903028205
 10
0.6536767255008727
 20
-21.56079881322051
 10
0.651862935100894
 20
-21.5646191124205
 10
0.653519735100872
 20
-21.5685262516205
 10
0.6552218743008922
 20
-21.56967806762052
  0
LINE
  5
401
330
2
100
AcDbEntity
  8
0
  6
CONTINUOUS
100
AcDbLine
 10
0.7113897623008825
 20
-21.53432068202053
 30
0.0
 11
0.6552273847008934
 21
-21.5597921812205
 31
0.0
  0
LINE
  5
402
330
2
100
AcDbEntity
  8
0
  6
HIDDEN
100
AcDbLine
 10
0.7108532711008735
 20
-21.75490875242051
 30
0.0
 11
0.7113897623008825
 21
-21.75515207402051
 31
0.0
  0
LINE
  5
403
330
2
100
AcDbEntity
  8
0
  6
HIDDEN
100
AcDbLine
 10
0.7108532711008735
 20
-21.67490875242053
 30
0.0
 11
0.7113897623008825
 21
-21.6751520740205
 31
0.0
  0
LINE
  5
404
330
2
100
AcDbEntity
  8
0
  6
HIDDEN
100
AcDbLine
 10
0.7108532711008735
 20
-21.59490875242049
 30
0.0
 11
0.7113897623008825
 21
-21.5951520740205
 31
0.0
  0
LINE
  5
405
330
2
100
AcDbEntity
  8
0
  6
HIDDEN
100
AcDbLine
 10
0.7113897623008825
 20
-21.75515207402051
 30
0.0
 11
0.7109314503008904
 21
-21.7547363780205
 31
0.0
  0
LINE
  5
406
330
2
100
AcDbEntity
  8
0
  6
HIDDEN
100
AcDbLine
 10
0.7113897623008825
 20
-21.6751520740205
 30
0.0
 11
0.7109314503008904
 21
-21.67473637802051
 31
0.0
  0
LINE
  5
407
330
2
100
AcDbEntity
  8
0
  6
HIDDEN
100
AcDbLine
 10
0.7113897623008825
 20
-21.5951520740205
 30
0.0
 11
0.7109314503008904
 21
-21.59473637802052
 31
0.0
  0
LINE
  5
408
330
2
100
AcDbEntity
  8
0
  6
CONTINUOUS
100
AcDbLine
 10
0.7109314503008904
 20
-21.77473637802052
 30
0.0
 11
0.7109314503008904
 21
-21.7547363780205
 31
0.0
  0
LINE
  5
409
330
2
100
AcDbEntity
  8
0
  6
CONTINUOUS
100
AcDbLine
 10
0.7109314503008904
 20
-21.69473637802052
 30
0.0
 11
0.7109314503008904
 21
-21.67473637802051
 31
0.0
  0
LINE
  5
40A
330
2
100
AcDbEntity
  8
0
  6
CONTINUOUS
100
AcDbLine
 10
0.7109314503008904
 20
-21.61473637802049
 30
0.0
 11
0.7109314503008904
 21
-21.59473637802052
 31
0.0
  0
LINE
  5
40B
330
2
100
AcDbEntity
  8
0
  6
HIDDEN
100
AcDbLine
 10
0.7113897623008825
 20
-21.61432068202051
 30
0.0
 11
0.7109314503008904
 21
-21.61473637802049
 31
0.0
  0
LINE
  5
40C
330
2
100
AcDbEntity
  8
0
  6
HIDDEN
100
AcDbLine
 10
0.7113897623008825
 20
-21.6943206820205
 30
0.0
 11
0.7109314503008904
 21
-21.69473637802052
 31
0.0
  0
LINE
  5
40D
330
2
100
AcDbEntity
  8
0
  6
HIDDEN
100
AcDbLine
 10
0.7113897623008825
 20
-21.77432068202049
 30
0.0
 11
0.7109314503008904
 21
-21.77473637802052
 31
0.0
  0
LWPOLYLINE
  5
40E
330
2
100
AcDbEntity
  8
0
  6
CONTINUOUS
100
AcDbPolyline
 90
        5
 70
     0
 43
0.0
 10
0.6552315351008815
 20
-21.63979030282051
 10
0.6536767255008727
 20
-21.64079881322052
 10
0.651862935100894
 20
-21.64461911242052
 10
0.653519735100872
 20
-21.64852625162049
 10
0.6552218743008922
 20
-21.64967806762052
  0
LWPOLYLINE
  5
415
330
2
100
AcDbEntity
  8
0
  6
CONTINUOUS
100
AcDbPolyline
 90
        5
 70
     0
 43
0.0
 10
0.6552315351008815
 20
-21.71979030282053
 10
0.6536767255008727
 20
-21.7207988132205
 10
0.651862935100894
 20
-21.72461911242051
 10
0.653519735100872
 20
-21.72852625162052
 10
0.6552218743008922
 20
-21.7296780676205
  0
LINE
  5
41C
330
2
100
AcDbEntity
  8
0
  6
CONTINUOUS
100
AcDbLine
 10
0.6552273847008934
 20
-21.72968057482052
 30
0.0
 11
0.7108532711008735
 21
-21.75490875242051
 31
0.0
  0
LINE
  5
41D
330
2
100
AcDbEntity
  8
0
  6
CONTINUOUS
100
AcDbLine
 10
0.6552273847008934
 20
-21.64968057482052
 30
0.0
 11
0.7108532711008735
 21
-21.67490875242053
 31
0.0
  0
LINE
  5
41E
330
2
100
AcDbEntity
  8
0
  6
CONTINUOUS
100
AcDbLine
 10
0.7113897623008825
 20
-21.61432068202051
 30
0.0
 11
0.6552273847008934
 21
-21.63979218122051
 31
0.0
  0
LINE
  5
41F
330
2
100
AcDbEntity
  8
0
  6
CONTINUOUS
100
AcDbLine
 10
0.7113897623008825
 20
-21.6943206820205
 30
0.0
 11
0.6552273847008934
 21
-21.71979218122051
 31
0.0
  0
LINE
  5
420
330
2
100
AcDbEntity
  8
0
  6
HIDDEN
100
AcDbLine
 10
0.7108532711008735
 20
-21.91490875242049
 30
0.0
 11
0.7113897623008825
 21
-21.9151520740205
 31
0.0
  0
LINE
  5
421
330
2
100
AcDbEntity
  8
0
  6
HIDDEN
100
AcDbLine
 10
0.7108532711008735
 20
-21.83490875242049
 30
0.0
 11
0.7113897623008825
 21
-21.83515207402052
 31
0.0
  0
LINE
  5
422
330
2
100
AcDbEntity
  8
0
  6
HIDDEN
100
AcDbLine
 10
0.7113897623008825
 20
-21.9151520740205
 30
0.0
 11
0.7109314503008904
 21
-21.91473637802052
 31
0.0
  0
LINE
  5
423
330
2
100
AcDbEntity
  8
0
  6
HIDDEN
100
AcDbLine
 10
0.7113897623008825
 20
-21.83515207402052
 30
0.0
 11
0.7109314503008904
 21
-21.8347363780205
 31
0.0
  0
LINE
  5
424
330
2
100
AcDbEntity
  8
0
  6
CONTINUOUS
100
AcDbLine
 10
0.6860091719008921
 20
-21.9501231732205
 30
0.0
 11
0.6860091719008921
 21
-21.9747919604205
 31
0.0
  0
LINE
  5
425
330
2
100
AcDbEntity
  8
0
  6
CONTINUOUS
100
AcDbLine
 10
0.7109314503008904
 20
-21.93473637802049
 30
0.0
 11
0.7109314503008904
 21
-21.91473637802052
 31
0.0
  0
LINE
  5
426
330
2
100
AcDbEntity
  8
0
  6
CONTINUOUS
100
AcDbLine
 10
0.7109314503008904
 20
-21.8547363780205
 30
0.0
 11
0.7109314503008904
 21
-21.8347363780205
 31
0.0
  0
LWPOLYLINE
  5
427
330
2
100
AcDbEntity
  8
0
  6
CONTINUOUS
100
AcDbPolyline
 90
        4
 70
     0
 43
0.0
 10
0.7028251159008932
 20
-21.9382093044205
 10
0.693335991100895
 20
-21.94301945642052
 10
0.68617025030089
 20
-21.9493669172205
 10
0.6860091719008921
 20
-21.95026887242049
  0
LINE
  5
42D
330
2
100
AcDbEntity
  8
0
  6
CONTINUOUS
100
AcDbLine
 10
0.7113897623008825
 20
-21.93432068202051
 30
0.0
 11
0.7028249991008693
 21
-21.9382051924205
 31
0.0
  0
LINE
  5
42E
330
2
100
AcDbEntity
  8
0
  6
HIDDEN
100
AcDbLine
 10
0.7109314503008904
 20
-21.93473637802049
 30
0.0
 11
0.7028251159008932
 21
-21.9382093044205
 31
0.0
  0
LWPOLYLINE
  5
42F
330
2
100
AcDbEntity
  8
0
  6
CONTINUOUS
100
AcDbPolyline
 90
        4
 70
     0
 43
0.0
 10
0.6860091719008921
 20
-21.9746452804205
 10
0.6861691879008732
 20
-21.97590691242051
 10
0.6933300903008899
 20
-21.98434836842051
 10
0.7109314503008904
 20
-21.99473637802051
  0
LINE
  5
435
330
2
100
AcDbEntity
  8
0
  6
HIDDEN
100
AcDbLine
 10
0.7113897623008825
 20
-21.85432068202053
 30
0.0
 11
0.7109314503008904
 21
-21.8547363780205
 31
0.0
  0
LINE
  5
436
330
2
100
AcDbEntity
  8
0
  6
HIDDEN
100
AcDbLine
 10
0.7113897623008825
 20
-21.93432068202051
 30
0.0
 11
0.7109314503008904
 21
-21.93473637802049
 31
0.0
  0
LWPOLYLINE
  5
437
330
2
100
AcDbEntity
  8
0
  6
CONTINUOUS
100
AcDbPolyline
 90
        5
 70
     0
 43
0.0
 10
0.6552315351008815
 20
-21.7997903028205
 10
0.6536767255008727
 20
-21.8007988132205
 10
0.651862935100894
 20
-21.8046191124205
 10
0.653519735100872
 20
-21.80852625162053
 10
0.6552218743008922
 20
-21.80967806762049
  0
LWPOLYLINE
  5
43E
330
2
100
AcDbEntity
  8
0
  6
CONTINUOUS
100
AcDbPolyline
 90
        5
 70
     0
 43
0.0
 10
0.6552315351008815
 20
-21.8797903028205
 10
0.6536767255008727
 20
-21.88079881322049
 10
0.651862935100894
 20
-21.8846191124205
 10
0.653519735100872
 20
-21.8885262516205
 10
0.6552218743008922
 20
-21.88967806762049
  0
LINE
  5
445
330
2
100
AcDbEntity
  8
0
  6
CONTINUOUS
100
AcDbLine
 10
0.6552273847008934
 20
-21.88968057482049
 30
0.0
 11
0.7108532711008735
 21
-21.91490875242049
 31
0.0
  0
LINE
  5
446
330
2
100
AcDbEntity
  8
0
  6
CONTINUOUS
100
AcDbLine
 10
0.6552273847008934
 20
-21.8096805748205
 30
0.0
 11
0.7108532711008735
 21
-21.83490875242049
 31
0.0
  0
LINE
  5
447
330
2
100
AcDbEntity
  8
0
  6
CONTINUOUS
100
AcDbLine
 10
0.7113897623008825
 20
-21.85432068202053
 30
0.0
 11
0.6552273847008934
 21
-21.8797921812205
 31
0.0
  0
LINE
  5
448
330
2
100
AcDbEntity
  8
0
  6
CONTINUOUS
100
AcDbLine
 10
0.7113897623008825
 20
-21.77432068202049
 30
0.0
 11
0.6552273847008934
 21
-21.7997921812205
 31
0.0
  0
LINE
  5
449
330
2
100
AcDbEntity
  8
0
  6
CONTINUOUS
100
AcDbLine
 10
0.6552273847008934
 20
-21.56968057482049
 30
0.0
 11
0.7108532711008735
 21
-21.59490875242049
 31
0.0
  0
LINE
  5
44A
330
2
100
AcDbEntity
  8
0
  6
CONTINUOUS
100
AcDbLine
 10
0.7109314503008904
 20
-22.05473637802052
 30
0.0
 11
0.7109314503008904
 21
-21.99473637802051
 31
0.0
  0
LINE
  5
44B
330
2
100
AcDbEntity
  8
0
  6
CONTINUOUS
100
AcDbLine
 10
0.6552273847008934
 20
-21.4896805748205
 30
0.0
 11
0.7108532711008735
 21
-21.51490875242049
 31
0.0
  0
ARC
  5
44C
330
2
100
AcDbEntity
  8
0
  6
CONTINUOUS
100
AcDbCircle
 10
2.664681450300889
 20
-21.30473637802051
 30
0.0
 40
0.03125
100
AcDbArc
 50
270.0
 51
0.0
  0
LINE
  5
44D
330
2
100
AcDbEntity
  8
0
  6
HIDDEN
100
AcDbLine
 10
2.426790315900873
 20
-21.41348637802051
 30
0.0
 11
2.430473138300868
 21
-21.41432068202049
 31
0.0
  0
LINE
  5
44E
330
2
100
AcDbEntity
  8
0
  6
HIDDEN
100
AcDbLine
 10
2.431009629500891
 20
-21.49456400362049
 30
0.0
 11
2.430473138300868
 21
-21.49432068202052
 31
0.0
  0
LINE
  5
44F
330
2
100
AcDbEntity
  8
0
  6
CONTINUOUS
100
AcDbLine
 10
2.486635517500872
 20
-21.4397921812205
 30
0.0
 11
2.431009629500891
 21
-21.41456400362051
 31
0.0
  0
LINE
  5
450
330
2
100
AcDbEntity
  8
0
  6
HIDDEN
100
AcDbLine
 10
2.431009629500891
 20
-21.41456400362051
 30
0.0
 11
2.430473138300868
 21
-21.41432068202049
 31
0.0
  0
LINE
  5
451
330
2
100
AcDbEntity
  8
0
  6
CONTINUOUS
100
AcDbLine
 10
2.486635517500872
 20
-21.35979218122051
 30
0.0
 11
2.484956194300892
 21
-21.35903057482049
 31
0.0
  0
LINE
  5
452
330
2
100
AcDbEntity
  8
0
  6
HIDDEN
100
AcDbLine
 10
2.430473138300868
 20
-21.41432068202049
 30
0.0
 11
2.430931450300889
 21
-21.4147362468205
 31
0.0
  0
LINE
  5
453
330
2
100
AcDbEntity
  8
0
  6
HIDDEN
100
AcDbLine
 10
2.430473138300868
 20
-21.49432068202052
 30
0.0
 11
2.430931450300889
 21
-21.49473637802051
 31
0.0
  0
LINE
  5
454
330
2
100
AcDbEntity
  8
0
  6
HIDDEN
100
AcDbLine
 10
2.484956194300892
 20
-21.35903057482049
 30
0.0
 11
2.48511824070087
 21
-21.35929958762051
 31
0.0
  0
LINE
  5
455
330
2
100
AcDbEntity
  8
0
  6
CONTINUOUS
100
AcDbLine
 10
2.464055570300871
 20
-21.37992113642052
 30
0.0
 11
2.486635517500872
 21
-21.36968057482052
 31
0.0
  0
LINE
  5
456
330
2
100
AcDbEntity
  8
0
  6
CONTINUOUS
100
AcDbLine
 10
2.430473138300868
 20
-21.47515207402052
 30
0.0
 11
2.486635517500872
 21
-21.44968057482051
 31
0.0
  0
LINE
  5
457
330
2
100
AcDbEntity
  8
0
  6
CONTINUOUS
100
AcDbLine
 10
2.430931450300889
 20
-21.49473637802051
 30
0.0
 11
2.430931450300889
 21
-21.4747363780205
 31
0.0
  0
LINE
  5
458
330
2
100
AcDbEntity
  8
0
  6
CONTINUOUS
100
AcDbLine
 10
2.430931450300889
 20
-21.41473637802052
 30
0.0
 11
2.430931450300889
 21
-21.41348637802051
 31
0.0
  0
LINE
  5
459
330
2
100
AcDbEntity
  8
0
  6
HIDDEN
100
AcDbLine
 10
2.46486278950087
 20
-21.37955503882052
 30
0.0
 11
2.46522853030089
 21
-21.37918929802052
 31
0.0
  0
LINE
  5
45A
330
2
100
AcDbEntity
  8
0
  6
CONTINUOUS
100
AcDbLine
 10
2.430931450300889
 20
-21.41348637802051
 30
0.0
 11
2.46486278950087
 21
-21.37955503882052
 31
0.0
  0
LINE
  5
45B
330
2
100
AcDbEntity
  8
0
  6
HIDDEN
100
AcDbLine
 10
2.430473138300868
 20
-21.47515207402052
 30
0.0
 11
2.430931450300889
 21
-21.4747363780205
 31
0.0
  0
LINE
  5
45C
330
2
100
AcDbEntity
  8
0
  6
CONTINUOUS
100
AcDbLine
 10
2.484590250300868
 20
-21.36111864202051
 30
0.0
 11
2.486635517500872
 21
-21.35979218122051
 31
0.0
  0
LINE
  5
45D
330
2
100
AcDbEntity
  8
0
  6
HIDDEN
100
AcDbLine
 10
2.464055570300871
 20
-21.37992113642052
 30
0.0
 11
2.465228883900891
 21
-21.37918894442051
 31
0.0
  0
LINE
  5
45E
330
2
100
AcDbEntity
  8
0
  6
CONTINUOUS
100
AcDbLine
 10
2.430931450300889
 20
-21.4147362468205
 30
0.0
 11
2.429899274300893
 21
-21.41536025162051
 31
0.0
  0
LWPOLYLINE
  5
45F
330
2
100
AcDbEntity
  8
0
  6
CONTINUOUS
100
AcDbPolyline
 90
        3
 70
     0
 43
0.0
 10
2.48986348070089
 20
-21.36359573322052
 10
2.487856837500871
 20
-21.36052264042051
 10
2.486633032700893
 20
-21.35979105642051
  0
LWPOLYLINE
  5
464
330
2
100
AcDbEntity
  8
0
  6
CONTINUOUS
100
AcDbPolyline
 90
        4
 70
     0
 43
0.0
 10
2.486653077500889
 20
-21.36967252842049
 10
2.486964875900895
 20
-21.3695203012205
 10
2.488825400700889
 20
-21.36799069162051
 10
2.48986348070089
 20
-21.36359573322052
  0
LINE
  5
46A
330
2
100
AcDbEntity
  8
0
  6
CONTINUOUS
100
AcDbLine
 10
2.48511824070087
 20
-21.35929958762051
 30
0.0
 11
2.508431450300889
 21
-21.33598637802051
 31
0.0
  0
LWPOLYLINE
  5
46B
330
2
100
AcDbEntity
  8
0
  6
CONTINUOUS
100
AcDbPolyline
 90
        5
 70
     0
 43
0.0
 10
2.486641027900873
 20
-21.44967806762049
 10
2.488343165500893
 20
-21.44852625162053
 10
2.489999967100871
 20
-21.44461911242049
 10
2.488186176700892
 20
-21.4407988132205
 10
2.486631365500869
 20
-21.43979030282051
  0
LINE
  5
472
330
2
100
AcDbEntity
  8
0
  6
CONTINUOUS
100
AcDbLine
 10
2.430473138300868
 20
-21.55515207402051
 30
0.0
 11
2.486635517500872
 21
-21.5296805748205
 31
0.0
  0
LINE
  5
473
330
2
100
AcDbEntity
  8
0
  6
HIDDEN
100
AcDbLine
 10
2.430473138300868
 20
-21.55515207402051
 30
0.0
 11
2.430931450300889
 21
-21.55473637802051
 31
0.0
  0
LINE
  5
474
330
2
100
AcDbEntity
  8
0
  6
CONTINUOUS
100
AcDbLine
 10
2.484146213500892
 20
-21.52119918762049
 30
0.0
 11
2.486635517500872
 21
-21.5197921812205
 31
0.0
  0
LWPOLYLINE
  5
475
330
2
100
AcDbEntity
  8
0
  6
CONTINUOUS
100
AcDbPolyline
 90
        5
 70
     0
 43
0.0
 10
2.486641027900873
 20
-21.52967806762049
 10
2.488343165500893
 20
-21.52852625162051
 10
2.489999967100871
 20
-21.52461911242049
 10
2.488186176700892
 20
-21.5207988132205
 10
2.486631365500869
 20
-21.5197903028205
  0
LINE
  5
47C
330
2
100
AcDbEntity
  8
0
  6
CONTINUOUS
100
AcDbLine
 10
2.486635517500872
 20
-21.7597921812205
 30
0.0
 11
2.431009629500891
 21
-21.73456400362051
 31
0.0
  0
LINE
  5
47D
330
2
100
AcDbEntity
  8
0
  6
HIDDEN
100
AcDbLine
 10
2.431009629500891
 20
-21.73456400362051
 30
0.0
 11
2.430473138300868
 21
-21.73432068202049
 31
0.0
  0
LINE
  5
47E
330
2
100
AcDbEntity
  8
0
  6
CONTINUOUS
100
AcDbLine
 10
2.486635517500872
 20
-21.67979218122051
 30
0.0
 11
2.431009629500891
 21
-21.65456400362052
 31
0.0
  0
LINE
  5
47F
330
2
100
AcDbEntity
  8
0
  6
HIDDEN
100
AcDbLine
 10
2.431009629500891
 20
-21.65456400362052
 30
0.0
 11
2.430473138300868
 21
-21.6543206820205
 31
0.0
  0
LINE
  5
480
330
2
100
AcDbEntity
  8
0
  6
CONTINUOUS
100
AcDbLine
 10
2.486635517500872
 20
-21.59979218122051
 30
0.0
 11
2.431009629500891
 21
-21.57456400362049
 31
0.0
  0
LINE
  5
481
330
2
100
AcDbEntity
  8
0
  6
HIDDEN
100
AcDbLine
 10
2.431009629500891
 20
-21.57456400362049
 30
0.0
 11
2.430473138300868
 21
-21.57432068202053
 31
0.0
  0
LINE
  5
482
330
2
100
AcDbEntity
  8
0
  6
HIDDEN
100
AcDbLine
 10
2.430473138300868
 20
-21.73432068202049
 30
0.0
 11
2.430931450300889
 21
-21.73473637802052
 31
0.0
  0
LINE
  5
483
330
2
100
AcDbEntity
  8
0
  6
HIDDEN
100
AcDbLine
 10
2.430473138300868
 20
-21.6543206820205
 30
0.0
 11
2.430931450300889
 21
-21.65473637802049
 31
0.0
  0
LINE
  5
484
330
2
100
AcDbEntity
  8
0
  6
HIDDEN
100
AcDbLine
 10
2.430473138300868
 20
-21.57432068202053
 30
0.0
 11
2.430931450300889
 21
-21.5747363780205
 31
0.0
  0
LINE
  5
485
330
2
100
AcDbEntity
  8
0
  6
CONTINUOUS
100
AcDbLine
 10
2.430473138300868
 20
-21.6351520740205
 30
0.0
 11
2.486635517500872
 21
-21.60968057482049
 31
0.0
  0
LINE
  5
486
330
2
100
AcDbEntity
  8
0
  6
CONTINUOUS
100
AcDbLine
 10
2.430473138300868
 20
-21.7151520740205
 30
0.0
 11
2.486635517500872
 21
-21.68968057482052
 31
0.0
  0
LINE
  5
487
330
2
100
AcDbEntity
  8
0
  6
CONTINUOUS
100
AcDbLine
 10
2.430931450300889
 20
-21.73473637802052
 30
0.0
 11
2.430931450300889
 21
-21.7147363780205
 31
0.0
  0
LINE
  5
488
330
2
100
AcDbEntity
  8
0
  6
CONTINUOUS
100
AcDbLine
 10
2.430931450300889
 20
-21.65473637802049
 30
0.0
 11
2.430931450300889
 21
-21.63473637802052
 31
0.0
  0
LINE
  5
489
330
2
100
AcDbEntity
  8
0
  6
HIDDEN
100
AcDbLine
 10
2.430473138300868
 20
-21.6351520740205
 30
0.0
 11
2.430931450300889
 21
-21.63473637802052
 31
0.0
  0
LINE
  5
48A
330
2
100
AcDbEntity
  8
0
  6
HIDDEN
100
AcDbLine
 10
2.430473138300868
 20
-21.7151520740205
 30
0.0
 11
2.430931450300889
 21
-21.7147363780205
 31
0.0
  0
LINE
  5
48B
330
2
100
AcDbEntity
  8
0
  6
CONTINUOUS
100
AcDbLine
 10
2.479126427900894
 20
-21.92185988202053
 30
0.0
 11
2.486635517500872
 21
-21.91979218122051
 31
0.0
  0
LWPOLYLINE
  5
48C
330
2
100
AcDbEntity
  8
0
  6
CONTINUOUS
100
AcDbPolyline
 90
        3
 70
     0
 43
0.0
 10
2.475878911100892
 20
-21.84217420842049
 10
2.487040549500889
 20
-21.84027693002052
 10
2.486635517500872
 20
-21.8397921812205
  0
LINE
  5
491
330
2
100
AcDbEntity
  8
0
  6
CONTINUOUS
100
AcDbLine
 10
2.486635517500872
 20
-21.91979218122051
 30
0.0
 11
2.431009629500891
 21
-21.8945640036205
 31
0.0
  0
LINE
  5
492
330
2
100
AcDbEntity
  8
0
  6
HIDDEN
100
AcDbLine
 10
2.431009629500891
 20
-21.8945640036205
 30
0.0
 11
2.430473138300868
 21
-21.89432068202053
 31
0.0
  0
LINE
  5
493
330
2
100
AcDbEntity
  8
0
  6
CONTINUOUS
100
AcDbLine
 10
2.486635517500872
 20
-21.8397921812205
 30
0.0
 11
2.431009629500891
 21
-21.8145640036205
 31
0.0
  0
LINE
  5
494
330
2
100
AcDbEntity
  8
0
  6
HIDDEN
100
AcDbLine
 10
2.431009629500891
 20
-21.8145640036205
 30
0.0
 11
2.430473138300868
 21
-21.81432068202052
 31
0.0
  0
LINE
  5
495
330
2
100
AcDbEntity
  8
0
  6
HIDDEN
100
AcDbLine
 10
2.430473138300868
 20
-21.89432068202053
 30
0.0
 11
2.430931450300889
 21
-21.8947363780205
 31
0.0
  0
LINE
  5
496
330
2
100
AcDbEntity
  8
0
  6
HIDDEN
100
AcDbLine
 10
2.430473138300868
 20
-21.81432068202052
 30
0.0
 11
2.430931450300889
 21
-21.81473637802051
 31
0.0
  0
LINE
  5
497
330
2
100
AcDbEntity
  8
0
  6
CONTINUOUS
100
AcDbLine
 10
2.430931450300889
 20
-21.8947363780205
 30
0.0
 11
2.430931450300889
 21
-21.87473637802051
 31
0.0
  0
LINE
  5
498
330
2
100
AcDbEntity
  8
0
  6
CONTINUOUS
100
AcDbLine
 10
2.430931450300889
 20
-21.81473637802051
 30
0.0
 11
2.430931450300889
 21
-21.7947363780205
 31
0.0
  0
LINE
  5
499
330
2
100
AcDbEntity
  8
0
  6
HIDDEN
100
AcDbLine
 10
2.430473138300868
 20
-21.79515207402052
 30
0.0
 11
2.430931450300889
 21
-21.7947363780205
 31
0.0
  0
LINE
  5
49A
330
2
100
AcDbEntity
  8
0
  6
HIDDEN
100
AcDbLine
 10
2.430473138300868
 20
-21.87515207402051
 30
0.0
 11
2.430931450300889
 21
-21.87473637802051
 31
0.0
  0
LINE
  5
49B
330
2
100
AcDbEntity
  8
0
  6
HIDDEN
100
AcDbLine
 10
2.430473138300868
 20
-21.9551520740205
 30
0.0
 11
2.430931450300889
 21
-21.95473637802052
 31
0.0
  0
LINE
  5
49C
330
2
100
AcDbEntity
  8
0
  6
CONTINUOUS
100
AcDbLine
 10
2.430473138300868
 20
-21.87515207402051
 30
0.0
 11
2.486635517500872
 21
-21.8496805748205
 31
0.0
  0
LINE
  5
49D
330
2
100
AcDbEntity
  8
0
  6
CONTINUOUS
100
AcDbLine
 10
2.430473138300868
 20
-21.9551520740205
 30
0.0
 11
2.486635517500872
 21
-21.92968057482049
 31
0.0
  0
LINE
  5
49E
330
2
100
AcDbEntity
  8
0
  6
CONTINUOUS
100
AcDbLine
 10
2.430473138300868
 20
-21.79515207402052
 30
0.0
 11
2.486635517500872
 21
-21.76968057482051
 31
0.0
  0
LWPOLYLINE
  5
49F
330
2
100
AcDbEntity
  8
0
  6
CONTINUOUS
100
AcDbPolyline
 90
        5
 70
     0
 43
0.0
 10
2.486641027900873
 20
-21.60967806762052
 10
2.488343165500893
 20
-21.60852625162049
 10
2.489999967100871
 20
-21.60461911242051
 10
2.488186176700892
 20
-21.60079881322052
 10
2.486631365500869
 20
-21.5997903028205
  0
LWPOLYLINE
  5
4A6
330
2
100
AcDbEntity
  8
0
  6
CONTINUOUS
100
AcDbPolyline
 90
        5
 70
     0
 43
0.0
 10
2.486641027900873
 20
-21.68967806762051
 10
2.488343165500893
 20
-21.68852625162049
 10
2.489999967100871
 20
-21.68461911242053
 10
2.488186176700892
 20
-21.68079881322051
 10
2.486631365500869
 20
-21.67979030282052
  0
LWPOLYLINE
  5
4AD
330
2
100
AcDbEntity
  8
0
  6
CONTINUOUS
100
AcDbPolyline
 90
        5
 70
     0
 43
0.0
 10
2.486641027900873
 20
-21.76967806762049
 10
2.488343165500893
 20
-21.76852625162053
 10
2.489999967100871
 20
-21.76461911242051
 10
2.488186176700892
 20
-21.7607988132205
 10
2.486631365500869
 20
-21.75979030282051
  0
LWPOLYLINE
  5
4B4
330
2
100
AcDbEntity
  8
0
  6
CONTINUOUS
100
AcDbPolyline
 90
        5
 70
     0
 43
0.0
 10
2.486641027900873
 20
-21.84967806762049
 10
2.488343165500893
 20
-21.84852625162051
 10
2.489999967100871
 20
-21.8446191124205
 10
2.488186176700892
 20
-21.8407988132205
 10
2.486631365500869
 20
-21.8397903028205
  0
LWPOLYLINE
  5
4BB
330
2
100
AcDbEntity
  8
0
  6
CONTINUOUS
100
AcDbPolyline
 90
        5
 70
     0
 43
0.0
 10
2.486641027900873
 20
-21.92967806762051
 10
2.488343165500893
 20
-21.92852625162049
 10
2.489999967100871
 20
-21.9246191124205
 10
2.488186176700892
 20
-21.92079881322051
 10
2.486631365500869
 20
-21.9197903028205
  0
LINE
  5
4C2
330
2
100
AcDbEntity
  8
0
  6
CONTINUOUS
100
AcDbLine
 10
2.430931450300889
 20
-21.5747363780205
 30
0.0
 11
2.430931450300889
 21
-21.55473637802051
 31
0.0
  0
LINE
  5
4C3
330
2
100
AcDbEntity
  8
0
  6
CONTINUOUS
100
AcDbLine
 10
2.430931450300889
 20
-22.05473637802052
 30
0.0
 11
2.430931450300889
 21
-21.95473637802052
 31
0.0
  0
LINE
  5
4C4
330
2
100
AcDbEntity
  8
0
  6
CONTINUOUS
100
AcDbLine
 10
2.486635517500872
 20
-21.5197921812205
 30
0.0
 11
2.431009629500891
 21
-21.49456400362049
 31
0.0
  0
LINE
  5
4C5
330
2
100
AcDbEntity
  8
0
  6
HIDDEN
100
AcDbLine
 10
0.4459314503008898
 20
-20.42973637802051
 30
0.0
 11
2.695931450300889
 21
-20.42973637802051
 31
0.0
  0
LINE
  5
4C6
330
2
100
AcDbEntity
  8
0
  6
HIDDEN
100
AcDbLine
 10
0.4459314503008898
 20
-20.55473637802051
 30
0.0
 11
0.4459314503008898
 21
-20.42973637802051
 31
0.0
  0
LINE
  5
4C7
330
2
100
AcDbEntity
  8
0
  6
HIDDEN
100
AcDbLine
 10
2.695931450300889
 20
-20.55473637802051
 30
0.0
 11
2.695931450300889
 21
-20.42973637802051
 31
0.0
  0
LWPOLYLINE
  5
4C8
330
2
100
AcDbEntity
  8
0
  6
CONTINUOUS
100
AcDbPolyline
 90
        5
 70
     0
 43
0.0
 10
7.786074279100887
 20
-19.62108523882051
 10
7.965379386300902
 20
-19.93741067882051
 10
8.095697658300871
 20
-20.22941005802051
 10
8.175189120700871
 20
-20.49226357322051
 10
8.204035077500869
 20
-20.7220118772205
  0
LWPOLYLINE
  5
4CF
330
2
100
AcDbEntity
  8
0
  6
CONTINUOUS
100
AcDbPolyline
 90
        5
 70
     0
 43
0.0
 10
7.708761082300895
 20
-19.51246087882051
 10
7.675964615100888
 20
-19.92441199402049
 10
7.614364463100869
 20
-20.3342407188205
 10
7.525109643900869
 20
-20.7314752660205
 10
7.410579677500869
 20
-21.10618961162051
  0
LWPOLYLINE
  5
4D6
330
2
100
AcDbEntity
  8
0
  6
CONTINUOUS
100
AcDbPolyline
 90
        5
 70
     0
 43
0.0
 10
7.786074279100887
 20
-19.62108523882051
 10
7.74766672390087
 20
-20.0287500372205
 10
7.679926671100886
 20
-20.43396918442051
 10
7.584159727100882
 20
-20.82624705642052
 10
7.462967002300871
 20
-21.19565604202049
  0
LWPOLYLINE
  5
4DD
330
2
100
AcDbEntity
  8
0
  6
CONTINUOUS
100
AcDbPolyline
 90
        5
 70
     0
 43
0.0
 10
6.784831003900869
 20
-19.62108523882051
 10
6.804227210300879
 20
-20.02722893802052
 10
6.800332418300882
 20
-20.43147749642052
 10
6.773482258300894
 20
-20.8234758884205
 10
6.724999863100869
 20
-21.19338446122049
  0
LWPOLYLINE
  5
4E4
330
2
100
AcDbEntity
  8
0
  6
CONTINUOUS
100
AcDbPolyline
 90
        5
 70
     0
 43
0.0
 10
6.958366836520514
 20
-19.5214150542175
 10
6.968247501500869
 20
-19.9232667636205
 10
6.953853914300886
 20
-20.3323710148205
 10
6.915417032700887
 20
-20.72940370282051
 10
6.854404232700872
 20
-21.1044990900205
  0
LWPOLYLINE
  5
4EB
330
2
100
AcDbEntity
  8
0
  6
CONTINUOUS
100
AcDbPolyline
 90
       11
 70
     0
 43
0.0
 10
6.948542298300885
 20
-21.0467292276205
 10
6.977106786300886
 20
-20.94687365002051
 10
7.006127432700886
 20
-20.8365781668205
 10
7.035297223100869
 20
-20.71455443722052
 10
7.064167923900882
 20
-20.57949356042049
 10
7.092139184700869
 20
-20.43002981802052
 10
7.118446411900869
 20
-20.2646422052205
 10
7.14212016550087
 20
-20.0815849124205
 10
7.161925677500896
 20
-19.8787343684205
 10
7.176254632700896
 20
-19.65325983242049
 10
7.182891827900895
 20
-19.4023828884205
  0
LWPOLYLINE
  5
4F8
330
2
100
AcDbEntity
  8
0
  6
CONTINUOUS
100
AcDbPolyline
 90
        3
 70
     0
 43
0.0
 10
4.662624979900868
 20
-20.7220118772205
 10
5.166213920700869
 20
-20.49111150602049
 10
5.437544267900882
 20
-20.3583401300205
  0
LWPOLYLINE
  5
4FD
330
2
100
AcDbEntity
  8
0
  6
CONTINUOUS
100
AcDbPolyline
 90
        3
 70
     0
 43
0.0
 10
4.726637979900878
 20
-20.6838529876205
 10
5.217030573500871
 20
-20.46400438122051
 10
5.437148019900895
 20
-20.35752102282052
  0
LWPOLYLINE
  5
502
330
2
100
AcDbEntity
  8
0
  6
CONTINUOUS
100
AcDbPolyline
 90
       11
 70
     0
 43
0.0
 10
7.012136189500864
 20
-21.07945445322052
 10
7.04071516550087
 20
-20.97714835402052
 10
7.069783747900871
 20
-20.86409449162053
 10
7.099023312700872
 20
-20.73896350282049
 10
7.127968485500872
 20
-20.60040423562049
 10
7.155995291900872
 20
-20.44700459562051
 10
7.182307568700871
 20
-20.27718807722052
 10
7.20589396550087
 20
-20.08914049802051
 10
7.22546369510087
 20
-19.8806454516205
 10
7.239330104700869
 20
-19.6487540932205
 10
7.24516583270087
 20
-19.39064269962052
  0
LWPOLYLINE
  5
50F
330
2
100
AcDbEntity
  8
0
  6
CONTINUOUS
100
AcDbPolyline
 90
        5
 70
     0
 43
0.0
 10
6.883654050300869
 20
-21.46371511722049
 10
7.011739135100889
 20
-21.08502543082051
 10
7.113361834300889
 20
-20.6797225844205
 10
7.187183288700886
 20
-20.25315173482052
 10
7.231811584700871
 20
-19.81368035082051
  0
LWPOLYLINE
  5
516
330
2
100
AcDbEntity
  8
0
  6
CONTINUOUS
100
AcDbPolyline
 90
        8
 70
     0
 43
0.0
 10
6.585897178300882
 20
-22.2281929972205
 10
6.771046279100865
 20
-21.91360171882049
 10
6.933243464700872
 20
-21.55708427882049
 10
7.07008954150087
 20
-21.16355242122049
 10
7.178772544700869
 20
-20.74090665482052
 10
7.257783565500886
 20
-20.29501002602052
 10
7.305572989500895
 20
-19.83492961322049
 10
7.321587002300887
 20
-19.36723637802051
  0
LWPOLYLINE
  5
520
330
2
100
AcDbEntity
  8
0
  6
CONTINUOUS
100
AcDbPolyline
 90
        7
 70
     0
 43
0.0
 10
6.897704419900883
 20
-22.2228653364205
 10
7.082508631100878
 20
-21.9088600948205
 10
7.244403954300885
 20
-21.55300617002049
 10
7.380995925500869
 20
-21.1602046612205
 10
7.489476405500901
 20
-20.7383455204205
 10
7.568339783100896
 20
-20.29328118122051
 10
7.616040074300869
 20
-19.83405839562049
  0
LWPOLYLINE
  5
529
330
2
100
AcDbEntity
  8
0
  6
CONTINUOUS
100
AcDbPolyline
 90
        3
 70
     0
 43
0.0
 10
6.718090728700872
 20
-21.84251931882052
 10
6.731734255100889
 20
-21.81464085962049
 10
6.745235247100886
 20
-21.78653142922049
  0
LWPOLYLINE
  5
52E
330
2
100
AcDbEntity
  8
0
  6
CONTINUOUS
100
AcDbPolyline
 90
        4
 70
     0
 43
0.0
 10
6.852939627900873
 20
-21.11185966442052
 10
6.803218693500873
 20
-21.33345044842052
 10
6.744596066300871
 20
-21.5453336340205
 10
6.67776059430087
 20
-21.7453723684205
  0
LWPOLYLINE
  5
534
330
2
100
AcDbEntity
  8
0
  6
CONTINUOUS
100
AcDbPolyline
 90
        4
 70
     0
 43
0.0
 10
6.711068491900896
 20
-21.6754024260205
 10
6.745835120700895
 20
-21.59888632682051
 10
6.781889768700871
 20
-21.51522361002052
 10
6.819008501500896
 20
-21.42380971882051
  0
LWPOLYLINE
  5
53A
330
2
100
AcDbEntity
  8
0
  6
CONTINUOUS
100
AcDbPolyline
 90
        4
 70
     0
 43
0.0
 10
6.698231451900895
 20
-23.45145754762052
 10
6.71078556710087
 20
-23.46706548682049
 10
6.72356470950087
 20
-23.48205187082052
 10
6.736557059900896
 20
-23.49640238602052
  0
LWPOLYLINE
  5
540
330
2
100
AcDbEntity
  8
0
  6
CONTINUOUS
100
AcDbPolyline
 90
        7
 70
     0
 43
0.0
 10
6.785380066300902
 20
-23.25348101322052
 10
6.715648911100871
 20
-23.16286994762052
 10
6.654709560700872
 20
-23.0519879380205
 10
6.60424877830087
 20
-22.9238439140205
 10
6.565647293500894
 20
-22.78191523242049
 10
6.539961167100869
 20
-22.63011944042051
 10
6.527866834300887
 20
-22.47264039402049
  0
LWPOLYLINE
  5
549
330
2
100
AcDbEntity
  8
0
  6
CONTINUOUS
100
AcDbPolyline
 90
        4
 70
     0
 43
0.0
 10
6.474592104700889
 20
-22.91933136522052
 10
6.441162263100871
 20
-22.76498946282049
 10
6.41938714310087
 20
-22.61369000362051
 10
6.408050474300871
 20
-22.47709210922052
  0
LINE
  5
54F
330
2
100
AcDbEntity
  8
0
  6
CONTINUOUS
100
AcDbLine
 10
4.34972987110089
 20
-22.2522203940205
 30
0.0
 11
4.854604343100895
 21
-22.90332298442051
 31
0.0
  0
LWPOLYLINE
  5
550
330
2
100
AcDbEntity
  8
0
  6
CONTINUOUS
100
AcDbPolyline
 90
        4
 70
     0
 43
0.0
 10
4.854604343100895
 20
-22.90332298442051
 10
4.939820053500895
 20
-23.01156081642052
 10
5.026854685500872
 20
-23.11884516522052
 10
5.11522263430087
 20
-23.22460861642051
  0
LINE
  5
556
330
2
100
AcDbEntity
  8
0
  6
CONTINUOUS
100
AcDbLine
 10
6.691284277500869
 20
-23.44242778282049
 30
0.0
 11
6.698231451900895
 21
-23.45145754762052
 31
0.0
  0
LWPOLYLINE
  5
557
330
2
100
AcDbEntity
  8
0
  6
CONTINUOUS
100
AcDbPolyline
 90
        5
 70
     0
 43
0.0
 10
6.47459291110087
 20
-22.9193320852205
 10
6.513169851900869
 20
-23.0717676260205
 10
6.562812360700895
 20
-23.21180296362052
 10
6.622646568700886
 20
-23.33641610122052
 10
6.691284277500869
 20
-23.44242778282049
  0
LWPOLYLINE
  5
55E
330
2
100
AcDbEntity
  8
0
  6
CONTINUOUS
100
AcDbPolyline
 90
        4
 70
     0
 43
0.0
 10
5.560132765500902
 20
-24.3505706900205
 10
5.561655371900869
 20
-24.37273030122051
 10
5.562748709500887
 20
-24.38676599402052
 10
5.563952994300869
 20
-24.40066880202051
  0
LWPOLYLINE
  5
564
330
2
100
AcDbEntity
  8
0
  6
CONTINUOUS
100
AcDbPolyline
 90
        4
 70
     0
 43
0.0
 10
5.68721126630087
 20
-24.82616593642049
 10
5.737043378300896
 20
-24.90020904842052
 10
5.79343478310087
 20
-24.97673553642052
 10
5.856426701500886
 20
-25.05564568682051
  0
LINE
  5
56A
330
2
100
AcDbEntity
  8
0
  6
CONTINUOUS
100
AcDbLine
 10
5.684871627900882
 20
-24.82247495562052
 30
0.0
 11
5.68721126630087
 21
-24.82616593642049
 31
0.0
  0
LWPOLYLINE
  5
56B
330
2
100
AcDbEntity
  8
0
  6
CONTINUOUS
100
AcDbPolyline
 90
        4
 70
     0
 43
0.0
 10
5.654630474300887
 20
-24.76696389482052
 10
5.663837514300873
 20
-24.7856975588205
 10
5.673894418300882
 20
-24.8041669668205
 10
5.684871627900882
 20
-24.82247495562052
  0
LINE
  5
571
330
2
100
AcDbEntity
  8
0
  6
CONTINUOUS
100
AcDbLine
 10
5.652753477500887
 20
-24.7629013188205
 30
0.0
 11
5.654630474300887
 21
-24.76696389482052
 31
0.0
  0
LWPOLYLINE
  5
572
330
2
100
AcDbEntity
  8
0
  6
CONTINUOUS
100
AcDbPolyline
 90
        4
 70
     0
 43
0.0
 10
5.563952994300869
 20
-24.40066880202051
 10
5.582567394300873
 20
-24.53533984842052
 10
5.612445408700871
 20
-24.65659980842049
 10
5.652753477500887
 20
-24.7629013188205
  0
LWPOLYLINE
  5
578
330
2
100
AcDbEntity
  8
0
  6
CONTINUOUS
100
AcDbPolyline
 90
        4
 70
     0
 43
0.0
 10
5.20819408390087
 20
-23.34399458122051
 10
5.242624922300869
 20
-23.39522624362052
 10
5.275897531900895
 20
-23.4488978868205
 10
5.307063832700869
 20
-23.50333217002052
  0
LINE
  5
57E
330
2
100
AcDbEntity
  8
0
  6
CONTINUOUS
100
AcDbLine
 10
5.11522263430087
 20
-23.22460861642051
 30
0.0
 11
5.124525531900872
 21
-23.23556464842052
 31
0.0
  0
LWPOLYLINE
  5
57F
330
2
100
AcDbEntity
  8
0
  6
CONTINUOUS
100
AcDbPolyline
 90
        4
 70
     0
 43
0.0
 10
5.124525531900872
 20
-23.23556464842052
 10
5.153862600700882
 20
-23.27122673642049
 10
5.181618680700879
 20
-23.30724378922051
 10
5.20819408390087
 20
-23.34399458122051
  0
LWPOLYLINE
  5
585
330
2
100
AcDbEntity
  8
0
  6
CONTINUOUS
100
AcDbPolyline
 90
        6
 70
     0
 43
0.0
 10
5.307063832700869
 20
-23.50333217002052
 10
5.38264090150087
 20
-23.65660926922049
 10
5.44979873670087
 20
-23.82831098442049
 10
5.502544192700895
 20
-24.00508121002052
 10
5.539240399100869
 20
-24.17824762282052
 10
5.560132765500902
 20
-24.3505706900205
  0
LWPOLYLINE
  5
58D
330
2
100
AcDbEntity
  8
0
  6
CONTINUOUS
100
AcDbPolyline
 90
        9
 70
     0
 43
0.0
 10
3.734860192700878
 20
-21.30643390602049
 10
3.70489033350087
 20
-21.23941694282051
 10
3.686683240700887
 20
-21.16988749642052
 10
3.681928648700889
 20
-21.1024037124205
 10
3.690842511100868
 20
-21.03917959082049
 10
3.713581952700891
 20
-20.9820704628205
 10
3.748866168700871
 20
-20.93474929162051
 10
3.795025624700869
 20
-20.8989122468205
 10
3.807161128700869
 20
-20.89234726122052
  0
LWPOLYLINE
  5
598
330
2
100
AcDbEntity
  8
0
  6
CONTINUOUS
100
AcDbPolyline
 90
        5
 70
     0
 43
0.0
 10
3.915423819900865
 20
-20.86647192202049
 10
4.126263552700891
 20
-20.85369866442052
 10
4.32220208390089
 20
-20.82517311882049
 10
4.50177762150087
 20
-20.78108149802051
 10
4.662624979900868
 20
-20.7220118772205
  0
LWPOLYLINE
  5
59F
330
2
100
AcDbEntity
  8
0
  6
CONTINUOUS
100
AcDbPolyline
 90
        4
 70
     0
 43
0.0
 10
4.04157142470089
 20
-20.8068795540205
 10
4.234650243900887
 20
-20.79827385002051
 10
4.414242170300866
 20
-20.77481883402052
 10
4.578790648700895
 20
-20.7365748644205
  0
LINE
  5
5A5
330
2
100
AcDbEntity
  8
0
  6
CONTINUOUS
100
AcDbLine
 10
4.662624979900868
 20
-20.7220118772205
 30
0.0
 11
4.726637979900878
 21
-20.6838529876205
 31
0.0
  0
LINE
  5
5A6
330
2
100
AcDbEntity
  8
0
  6
CONTINUOUS
100
AcDbLine
 10
4.578790648700895
 20
-20.7365748644205
 30
0.0
 11
4.726637979900878
 21
-20.6838529876205
 31
0.0
  0
LWPOLYLINE
  5
5A7
330
2
100
AcDbEntity
  8
0
  6
CONTINUOUS
100
AcDbPolyline
 90
        3
 70
     0
 43
0.0
 10
4.041567898300868
 20
-20.80687957322052
 10
3.996405243900866
 20
-20.81073213482051
 10
3.952624453500888
 20
-20.82216053642051
  0
LWPOLYLINE
  5
5AC
330
2
100
AcDbEntity
  8
0
  6
CONTINUOUS
100
AcDbPolyline
 90
        3
 70
     0
 43
0.0
 10
4.041567898300868
 20
-20.80687957322052
 10
3.999025919100887
 20
-20.8267320500205
 10
3.956981733500867
 20
-20.84660029962051
  0
LINE
  5
5B1
330
2
100
AcDbEntity
  8
0
  6
CONTINUOUS
100
AcDbLine
 10
3.846934455100878
 20
-20.87248298442051
 30
0.0
 11
3.904526304700866
 21
-20.84410241482049
 31
0.0
  0
LWPOLYLINE
  5
5B2
330
2
100
AcDbEntity
  8
0
  6
CONTINUOUS
100
AcDbPolyline
 90
        3
 70
     0
 43
0.0
 10
3.849696563900891
 20
-20.8759840116205
 10
3.882279591100868
 20
-20.86917454442049
 10
3.915426061500866
 20
-20.86647187082049
  0
LINE
  5
5B7
330
2
100
AcDbEntity
  8
0
  6
CONTINUOUS
100
AcDbLine
 10
3.904526304700866
 20
-20.84410241482049
 30
0.0
 11
3.929936816700902
 21
-20.8317208708205
 31
0.0
  0
LINE
  5
5B8
330
2
100
AcDbEntity
  8
0
  6
CONTINUOUS
100
AcDbLine
 10
3.956981733500867
 20
-20.84660029962051
 30
0.0
 11
3.915426061500866
 21
-20.86647187082049
 31
0.0
  0
LINE
  5
5B9
330
2
100
AcDbEntity
  8
0
  6
CONTINUOUS
100
AcDbLine
 10
3.952624453500888
 20
-20.82216053642051
 30
0.0
 11
3.929916666300869
 21
-20.83173064842049
 31
0.0
  0
LINE
  5
5BA
330
2
100
AcDbEntity
  8
0
  6
CONTINUOUS
100
AcDbLine
 10
3.807174143100866
 20
-20.89234072842052
 30
0.0
 11
3.846934455100878
 21
-20.87248298442051
 31
0.0
  0
LINE
  5
5BB
330
2
100
AcDbEntity
  8
0
  6
CONTINUOUS
100
AcDbLine
 10
3.807161128700869
 20
-20.89234726122052
 30
0.0
 11
3.849696563900891
 21
-20.8759840116205
 31
0.0
  0
LWPOLYLINE
  5
5BC
330
2
100
AcDbEntity
  8
0
  6
CONTINUOUS
100
AcDbPolyline
 90
        4
 70
     0
 43
0.0
 10
3.734859170300879
 20
-21.30643201642049
 10
3.924412495100867
 20
-21.63520298442049
 10
4.129710055100872
 20
-21.95097321642051
 10
4.34972987110089
 20
-22.2522203940205
  0
LWPOLYLINE
  5
5C2
330
2
100
AcDbEntity
  8
0
  6
CONTINUOUS
100
AcDbPolyline
 90
        4
 70
     0
 43
0.0
 10
6.466556237500896
 20
-22.14267516202049
 10
6.528259930300869
 20
-22.03601364042051
 10
6.58806050950087
 20
-21.9257449540205
 10
6.64564968070087
 20
-21.81220727402049
  0
LWPOLYLINE
  5
5C8
330
2
100
AcDbEntity
  8
0
  6
CONTINUOUS
100
AcDbPolyline
 90
        4
 70
     0
 43
0.0
 10
6.53109204870087
 20
-22.17918562762051
 10
6.593893803900883
 20
-22.0746386324205
 10
6.65457033190087
 20
-21.96582240202053
 10
6.712828760700887
 20
-21.85313307882051
  0
LINE
  5
5CE
330
2
100
AcDbEntity
  8
0
  6
CONTINUOUS
100
AcDbLine
 10
6.556908744700869
 20
-21.87394947722052
 30
0.0
 11
6.553734208700895
 21
-21.8831435028205
 31
0.0
  0
LINE
  5
5CF
330
2
100
AcDbEntity
  8
0
  6
CONTINUOUS
100
AcDbLine
 10
6.407929960700869
 20
-22.36977056362052
 30
0.0
 11
6.402383797500895
 21
-22.31221814442051
 31
0.0
  0
LWPOLYLINE
  5
5D0
330
2
100
AcDbEntity
  8
0
  6
CONTINUOUS
100
AcDbPolyline
 90
        5
 70
     0
 43
0.0
 10
6.455453965500886
 20
-22.38203892362052
 10
6.45807427750087
 20
-22.36028023082051
 10
6.461234171900869
 20
-22.34059492522051
 10
6.464522434300889
 20
-22.3245057204205
 10
6.467670192700872
 20
-22.3121648612205
  0
LWPOLYLINE
  5
5D7
330
2
100
AcDbEntity
  8
0
  6
CONTINUOUS
100
AcDbPolyline
 90
        3
 70
     0
 43
0.0
 10
6.467670192700872
 20
-22.3121648612205
 10
6.468747183100894
 20
-22.30811707562049
 10
6.469838856700896
 20
-22.30441977642049
  0
LWPOLYLINE
  5
5DC
330
2
100
AcDbEntity
  8
0
  6
CONTINUOUS
100
AcDbPolyline
 90
        6
 70
     0
 43
0.0
 10
6.469838856700896
 20
-22.30441977642049
 10
6.478297496700882
 20
-22.28104827722052
 10
6.487718925500871
 20
-22.2592922116205
 10
6.49718530470087
 20
-22.23962484522049
 10
6.506352144700869
 20
-22.22196665642052
 10
6.515125048700873
 20
-22.2060611428205
  0
LWPOLYLINE
  5
5E4
330
2
100
AcDbEntity
  8
0
  6
CONTINUOUS
100
AcDbPolyline
 90
        4
 70
     0
 43
0.0
 10
6.39887192230087
 20
-22.2612439124205
 10
6.409387344700888
 20
-22.23963232682051
 10
6.420530531900887
 20
-22.2196532084205
 10
6.431240747900886
 20
-22.20145712202053
  0
LWPOLYLINE
  5
5EA
330
2
100
AcDbEntity
  8
0
  6
CONTINUOUS
100
AcDbPolyline
 90
        3
 70
     0
 43
0.0
 10
6.515125048700873
 20
-22.2060611428205
 10
6.518442351100887
 20
-22.20026796842051
 10
6.521792205500887
 20
-22.19453169482051
  0
LINE
  5
5EF
330
2
100
AcDbEntity
  8
0
  6
CONTINUOUS
100
AcDbLine
 10
6.431240747900886
 20
-22.20145712202053
 30
0.0
 11
6.466556243900882
 21
-22.1426751716205
 31
0.0
  0
LWPOLYLINE
  5
5F0
330
2
100
AcDbEntity
  8
0
  6
CONTINUOUS
100
AcDbPolyline
 90
        3
 70
     0
 43
0.0
 10
6.521792205500887
 20
-22.19453169482051
 10
6.526421000700885
 20
-22.18678879562051
 10
6.53109204870087
 20
-22.17918562762051
  0
LWPOLYLINE
  5
5F5
330
2
100
AcDbEntity
  8
0
  6
CONTINUOUS
100
AcDbPolyline
 90
        4
 70
     0
 43
0.0
 10
6.40805053990087
 20
-22.47709203242052
 10
6.406719407100872
 20
-22.44175257162051
 10
6.406654583100895
 20
-22.4059908036205
 10
6.40792997190087
 20
-22.36977066122051
  0
LWPOLYLINE
  5
5FB
330
2
100
AcDbEntity
  8
0
  6
CONTINUOUS
100
AcDbPolyline
 90
       12
 70
     0
 43
0.0
 10
6.527866834300887
 20
-22.47264039402049
 10
6.527580250300879
 20
-22.45417457002051
 10
6.528031922300883
 20
-22.43282038282049
 10
6.529508394300869
 20
-22.40932941802051
 10
6.532226719100869
 20
-22.38443554922051
 10
6.536335168700887
 20
-22.35880559082049
 10
6.541945352700885
 20
-22.33294541642051
 10
6.549122890300886
 20
-22.30736989002049
 10
6.557846714300872
 20
-22.28269416042051
 10
6.567682195900871
 20
-22.26019969962051
 10
6.577523264700872
 20
-22.24162733642052
 10
6.585897178300882
 20
-22.2281929972205
  0
LWPOLYLINE
  5
609
330
2
100
AcDbEntity
  8
0
  6
CONTINUOUS
100
AcDbPolyline
 90
        3
 70
     0
 43
0.0
 10
6.650861648700882
 20
-21.80154656202051
 10
6.664377095100888
 20
-21.77355951242051
 10
6.711068491900896
 20
-21.6754024260205
  0
LINE
  5
60E
330
2
100
AcDbEntity
  8
0
  6
CONTINUOUS
100
AcDbLine
 10
6.712828760700887
 20
-21.85313307882051
 30
0.0
 11
6.718090728700872
 21
-21.84251931882052
 31
0.0
  0
LINE
  5
60F
330
2
100
AcDbEntity
  8
0
  6
CONTINUOUS
100
AcDbLine
 10
6.645649687100871
 20
-21.81220728202049
 30
0.0
 11
6.650861648700882
 21
-21.80154656202051
 31
0.0
  0
LWPOLYLINE
  5
610
330
2
100
AcDbEntity
  8
0
  6
CONTINUOUS
100
AcDbPolyline
 90
        4
 70
     0
 43
0.0
 10
6.553734208700895
 20
-21.8831435028205
 10
6.516460503100887
 20
-21.98512567082049
 10
6.476833477500882
 20
-22.08300218602051
 10
6.39887192230087
 20
-22.2612439124205
  0
LWPOLYLINE
  5
616
330
2
100
AcDbEntity
  8
0
  6
CONTINUOUS
100
AcDbPolyline
 90
        3
 70
     0
 43
0.0
 10
6.402383797500895
 20
-22.31221814442051
 10
6.40032177190087
 20
-22.28881173482052
 10
6.39887192230087
 20
-22.2612439124205
  0
LWPOLYLINE
  5
61B
330
2
100
AcDbEntity
  8
0
  6
CONTINUOUS
100
AcDbPolyline
 90
        4
 70
     0
 43
0.0
 10
6.723798162300894
 20
-21.20064601322052
 10
6.678224122300882
 20
-21.43751918282049
 10
6.622315282300895
 20
-21.66283094442052
 10
6.556908744700869
 20
-21.87394947722052
  0
LWPOLYLINE
  5
621
330
2
100
AcDbEntity
  8
0
  6
CONTINUOUS
100
AcDbPolyline
 90
        6
 70
     0
 43
0.0
 10
7.097631200700895
 20
-23.25937561322052
 10
7.027428738300869
 20
-23.16815613802052
 10
6.966060725500902
 20
-23.05650525642052
 10
6.915236643900882
 20
-22.92744903882051
 10
6.876364539900869
 20
-22.78453801002051
 10
6.850493824700869
 20
-22.6316687684205
  0
LINE
  5
629
330
2
100
AcDbEntity
  8
0
  6
CONTINUOUS
100
AcDbLine
 10
7.179685896700895
 20
-22.8196048436205
 30
0.0
 11
6.983180137648826
 21
-23.08765173439137
 31
0.0
  0
LWPOLYLINE
  5
62A
330
2
100
AcDbEntity
  8
0
  6
CONTINUOUS
100
AcDbPolyline
 90
        4
 70
     0
 43
0.0
 10
7.220449923900886
 20
-24.0100103796205
 10
7.323042407100871
 20
-24.11736962442051
 10
7.424871928700895
 20
-24.22344616042051
 10
7.525990003900886
 20
-24.32829941482052
  0
LINE
  5
630
330
2
100
AcDbEntity
  8
0
  6
CONTINUOUS
100
AcDbLine
 10
7.996591872700882
 20
-24.24859360042052
 30
0.0
 11
7.925624493500869
 21
-24.1562848228205
 31
0.0
  0
LWPOLYLINE
  5
631
330
2
100
AcDbEntity
  8
0
  6
CONTINUOUS
100
AcDbPolyline
 90
        3
 70
     0
 43
0.0
 10
7.525990003900886
 20
-24.32829941482052
 10
7.59118682790087
 20
-24.40515134282049
 10
7.651628856700902
 20
-24.49580094602049
  0
LWPOLYLINE
  5
636
330
2
100
AcDbEntity
  8
0
  6
CONTINUOUS
100
AcDbPolyline
 90
       11
 70
     0
 43
0.0
 10
7.850768176700896
 20
-25.08786430282053
 10
7.830162795900882
 20
-25.0651289636205
 10
7.813862112700896
 20
-25.03740358282049
 10
7.800002883900887
 20
-25.0060831796205
 10
7.78782620710087
 20
-24.97206938602051
 10
7.776519440700887
 20
-24.9347253876205
 10
7.765708874300869
 20
-24.8939257668205
 10
7.755138328700887
 20
-24.84989779882052
 10
7.744454256700869
 20
-24.80262143082049
 10
7.733269282300895
 20
-24.75221484682052
 10
7.721029466300869
 20
-24.6985372708205
  0
LWPOLYLINE
  5
643
330
2
100
AcDbEntity
  8
0
  6
CONTINUOUS
100
AcDbPolyline
 90
        3
 70
     0
 43
0.0
 10
7.873444472700896
 20
-25.09861151562049
 10
7.862117370300879
 20
-25.0950804548205
 10
7.850771869500896
 20
-25.0878597924205
  0
LINE
  5
648
330
2
100
AcDbEntity
  8
0
  6
CONTINUOUS
100
AcDbLine
 10
8.249009850300879
 20
-24.81085470122051
 30
0.0
 11
8.25219944070087
 21
-24.81645657322052
 31
0.0
  0
LWPOLYLINE
  5
649
330
2
100
AcDbEntity
  8
0
  6
CONTINUOUS
100
AcDbPolyline
 90
        7
 70
     0
 43
0.0
 10
8.184577837500896
 20
-25.1298408196205
 10
8.168624843900872
 20
-25.12928423082049
 10
8.150243819900879
 20
-25.12848307242052
 10
8.128930317500895
 20
-25.12729941802052
 10
8.104148435900903
 20
-25.1255517204205
 10
8.07531760390087
 20
-25.12306408362051
 10
8.041770549500895
 20
-25.11970273962051
  0
LWPOLYLINE
  5
652
330
2
100
AcDbEntity
  8
0
  6
CONTINUOUS
100
AcDbPolyline
 90
        5
 70
     0
 43
0.0
 10
8.04177058950087
 20
-25.11970272522052
 10
7.997890314300889
 20
-25.11488705322052
 10
7.954072888700871
 20
-25.10957860842052
 10
7.912033845500872
 20
-25.10410546762052
 10
7.873444469500896
 20
-25.09861151882051
  0
LWPOLYLINE
  5
659
330
2
100
AcDbEntity
  8
0
  6
CONTINUOUS
100
AcDbPolyline
 90
        4
 70
     0
 43
0.0
 10
8.184577837500896
 20
-25.1298408196205
 10
8.184006114300871
 20
-25.12509962762052
 10
8.183836115900902
 20
-25.12030822122051
 10
8.184069623100896
 20
-25.11551679882051
  0
LINE
  5
65F
330
2
100
AcDbEntity
  8
0
  6
CONTINUOUS
100
AcDbLine
 10
8.19759146310087
 20
-25.06585861962052
 30
0.0
 11
8.197590120700887
 21
-25.06589918122049
 31
0.0
  0
LWPOLYLINE
  5
660
330
2
100
AcDbEntity
  8
0
  6
CONTINUOUS
100
AcDbPolyline
 90
        4
 70
     0
 43
0.0
 10
7.873444472700896
 20
-25.09861151562049
 10
7.873929898300872
 20
-25.09396894922049
 10
7.874524147900871
 20
-25.0892645780205
 10
7.875221088700882
 20
-25.08454709482052
  0
LINE
  5
666
330
2
100
AcDbEntity
  8
0
  6
CONTINUOUS
100
AcDbLine
 10
8.152476271364648
 20
-24.65894524729137
 30
0.0
 11
8.249009786300902
 21
-24.8108545908205
 31
0.0
  0
LINE
  5
667
330
2
100
AcDbEntity
  8
0
  6
CONTINUOUS
100
AcDbLine
 10
7.696277797500869
 20
-24.60921633962049
 30
0.0
 11
7.694760682300895
 21
-24.6045576308205
 31
0.0
  0
LWPOLYLINE
  5
668
330
2
100
AcDbEntity
  8
0
  6
CONTINUOUS
100
AcDbPolyline
 90
        4
 70
     0
 43
0.0
 10
7.721029466300869
 20
-24.6985372772205
 10
7.714100339900895
 20
-24.67052347242051
 10
7.70590616550087
 20
-24.6406924692205
 10
7.696277797500869
 20
-24.60921634602049
  0
LWPOLYLINE
  5
66E
330
2
100
AcDbEntity
  8
0
  6
CONTINUOUS
100
AcDbPolyline
 90
       13
 70
     0
 43
0.0
 10
7.87522111110087
 20
-25.0845471044205
 10
7.876659717500871
 20
-25.03386907082052
 10
7.876611427900883
 20
-24.97630160042052
 10
7.87447527430087
 20
-24.91269418602049
 10
7.869667000700879
 20
-24.84384360362052
 10
7.861594762300896
 20
-24.7703922148205
 10
7.849483395900882
 20
-24.69211020042049
 10
7.832181112700887
 20
-24.60822693002052
 10
7.808301906300869
 20
-24.51898445802051
 10
7.776577619900869
 20
-24.42642276682052
 10
7.734989987900895
 20
-24.33173624522049
 10
7.681227994300868
 20
-24.2378206548205
 10
7.613373357500869
 20
-24.15039022282051
  0
LWPOLYLINE
  5
67D
330
2
100
AcDbEntity
  8
0
  6
CONTINUOUS
100
AcDbPolyline
 90
        7
 70
     0
 43
0.0
 10
8.184069714300882
 20
-25.1155156324205
 10
8.18653154950087
 20
-24.9535593396205
 10
8.174756255100888
 20
-24.7929761668205
 10
8.148930303100883
 20
-24.63761357162051
 10
8.109887887100896
 20
-24.49271237802052
 10
8.058520603900895
 20
-24.36157951562051
 10
7.996591872700882
 20
-24.24859360042052
  0
LWPOLYLINE
  5
686
330
2
100
AcDbEntity
  8
0
  6
CONTINUOUS
100
AcDbPolyline
 90
        3
 70
     0
 43
0.0
 10
7.694760685500902
 20
-24.6045576644205
 10
7.674433992700869
 20
-24.54831531402052
 10
7.651628842300887
 20
-24.49580084842052
  0
LWPOLYLINE
  5
68B
330
2
100
AcDbEntity
  8
0
  6
CONTINUOUS
100
AcDbPolyline
 90
        3
 70
     0
 43
0.0
 10
6.736557059900896
 20
-23.49640238602052
 10
6.870661010300871
 20
-23.6397176740205
 10
7.003449048700865
 20
-23.78092713322049
  0
LINE
  5
690
330
2
100
AcDbEntity
  8
0
  6
CONTINUOUS
100
AcDbLine
 10
7.003449048700865
 20
-23.78092713322049
 30
0.0
 11
7.165388245500885
 21
-23.95213665002052
 31
0.0
  0
LINE
  5
691
330
2
100
AcDbEntity
  8
0
  6
CONTINUOUS
100
AcDbLine
 10
7.165388245500885
 20
-23.95213665002052
 30
0.0
 11
7.220449923900886
 21
-24.0100103796205
 31
0.0
  0
LINE
  5
692
330
2
100
AcDbEntity
  8
0
  6
CONTINUOUS
100
AcDbLine
 10
7.613373357500869
 20
-24.15039022282051
 30
0.0
 11
6.785380066300902
 21
-23.25348101322052
 31
0.0
  0
LINE
  5
693
330
2
100
AcDbEntity
  8
0
  6
CONTINUOUS
100
AcDbLine
 10
7.925624493500869
 20
-24.1562848228205
 30
0.0
 11
7.097631200700895
 21
-23.25937561322052
 31
0.0
  0
LWPOLYLINE
  5
694
330
2
100
AcDbEntity
  8
0
  6
CONTINUOUS
100
AcDbPolyline
 90
        3
 70
     0
 43
0.0
 10
8.204035077500869
 20
-20.7220118772205
 10
8.202798784700888
 20
-20.78090810762051
 10
8.196889495100869
 20
-20.81843776202049
  0
LINE
  5
699
330
2
100
AcDbEntity
  8
0
  6
CONTINUOUS
100
AcDbLine
 10
7.855474807100883
 20
-21.74214644842052
 30
0.0
 11
7.607294944700882
 21
-22.19036864362049
 31
0.0
  0
LINE
  5
69A
330
2
100
AcDbEntity
  8
0
  6
CONTINUOUS
100
AcDbLine
 10
7.63592927270087
 20
-22.11770230922051
 30
0.0
 11
7.60730149830087
 21
-22.19035821482052
 31
0.0
  0
LINE
  5
69B
330
2
100
AcDbEntity
  8
0
  6
CONTINUOUS
100
AcDbLine
 10
7.632029643900871
 20
-22.12408253642049
 30
0.0
 11
7.60338210790087
 21
-22.19659102602052
 31
0.0
  0
LINE
  5
69C
330
2
100
AcDbEntity
  8
0
  6
CONTINUOUS
100
AcDbLine
 10
7.63592927270087
 20
-22.11770230922051
 30
0.0
 11
7.632029643900871
 21
-22.12408253642049
 31
0.0
  0
LINE
  5
69D
330
2
100
AcDbEntity
  8
0
  6
CONTINUOUS
100
AcDbLine
 10
7.607323699900895
 20
-22.1903228820205
 30
0.0
 11
7.603409181500872
 21
-22.19654801002052
 31
0.0
  0
LINE
  5
69E
330
2
100
AcDbEntity
  8
0
  6
CONTINUOUS
100
AcDbLine
 10
7.60338210790087
 20
-22.19659102602052
 30
0.0
 11
7.603364754300869
 21
-22.19661860682051
 31
0.0
  0
LWPOLYLINE
  5
69F
330
2
100
AcDbEntity
  8
0
  6
CONTINUOUS
100
AcDbPolyline
 90
        3
 70
     0
 43
0.0
 10
7.60338210790087
 20
-22.19659102602052
 10
7.484974170300887
 20
-22.38059012522052
 10
7.338323861500896
 20
-22.59743763722049
  0
LWPOLYLINE
  5
6A4
330
2
100
AcDbEntity
  8
0
  6
CONTINUOUS
100
AcDbPolyline
 90
        4
 70
     0
 43
0.0
 10
8.204035077500869
 20
-20.7220118772205
 10
8.059076199100864
 20
-21.21822083562052
 10
7.866505688700883
 20
-21.68937363242051
 10
7.63592927270087
 20
-22.11770230922051
  0
LWPOLYLINE
  5
6AA
330
2
100
AcDbEntity
  8
0
  6
CONTINUOUS
100
AcDbPolyline
 90
        3
 70
     0
 43
0.0
 10
8.196889495100869
 20
-20.81843776202049
 10
8.054586096700901
 20
-21.27151176202049
 10
7.855474807100883
 20
-21.74214644842052
  0
LWPOLYLINE
  5
6AF
330
2
100
AcDbEntity
  8
0
  6
CONTINUOUS
100
AcDbPolyline
 90
        5
 70
     0
 43
0.0
 10
6.819008463100871
 20
-21.4238096692205
 10
6.849506658300896
 20
-21.34400584202051
 10
6.880895879100869
 20
-21.25669962762052
 10
6.913170099900895
 20
-21.16064195082051
 10
6.946227269500873
 20
-21.05449409002051
  0
LWPOLYLINE
  5
6B6
330
2
100
AcDbEntity
  8
0
  6
CONTINUOUS
100
AcDbPolyline
 90
        5
 70
     0
 43
0.0
 10
6.883654050300869
 20
-21.46371511722049
 10
6.91380424710087
 20
-21.3824308180205
 10
6.944906599100882
 20
-21.29347444362049
 10
6.97695089990087
 20
-21.19557592362049
 10
7.009831656700882
 20
-21.0873709716205
  0
LINE
  5
6BD
330
2
100
AcDbEntity
  8
0
  6
CONTINUOUS
100
AcDbLine
 10
6.850493824700869
 20
-22.6316687684205
 30
0.0
 11
6.838310823100869
 21
-22.47305530442051
 31
0.0
  0
LWPOLYLINE
  5
6BE
330
2
100
AcDbEntity
  8
0
  6
CONTINUOUS
100
AcDbPolyline
 90
       12
 70
     0
 43
0.0
 10
6.838310823100869
 20
-22.47305530442051
 10
6.838036277500869
 20
-22.4503333140205
 10
6.838960829500869
 20
-22.42261722762052
 10
6.84152716070087
 20
-22.39282783082051
 10
6.845739541500869
 20
-22.36341720522051
 10
6.851358287100886
 20
-22.33573456042051
 10
6.858136704700882
 20
-22.31019109322049
 10
6.865804567100873
 20
-22.28704190282051
 10
6.874045911100878
 20
-22.2665059572205
 10
6.882448741500873
 20
-22.24884215562049
 10
6.89051823110087
 20
-22.23425681642051
 10
6.897704419900883
 20
-22.2228653364205
  0
LINE
  5
6CC
330
2
100
AcDbEntity
  8
0
  6
CONTINUOUS
100
AcDbLine
 10
7.182512727100871
 20
-22.81446784522052
 30
0.0
 11
7.172966410300887
 21
-22.82876899722051
 31
0.0
  0
LINE
  5
6CD
330
2
100
AcDbEntity
  8
0
  6
CONTINUOUS
100
AcDbLine
 10
7.179685896700895
 20
-22.8196048436205
 30
0.0
 11
7.179656882300882
 21
-22.81964440522052
 31
0.0
  0
LWPOLYLINE
  5
6CE
330
2
100
AcDbEntity
  8
0
  6
CONTINUOUS
100
AcDbPolyline
 90
        4
 70
     0
 43
0.0
 10
7.13635118470087
 20
-21.88832406922049
 10
7.073550469500887
 20
-21.99131587722051
 10
7.008789565500869
 20
-22.09015300682052
 10
6.874045911100875
 20
-22.2665059572205
  0
LWPOLYLINE
  5
6D4
330
2
100
AcDbEntity
  8
0
  6
CONTINUOUS
100
AcDbPolyline
 90
        5
 70
     0
 43
0.0
 10
6.745235247100886
 20
-21.78653142922049
 10
6.777704218300883
 20
-21.71675512842049
 10
6.811715559100882
 20
-21.64009572522051
 10
6.847105493500869
 20
-21.5559512084205
 10
6.883654050300869
 20
-21.46371511722049
  0
LINE
  5
6DB
330
2
100
AcDbEntity
  8
0
  6
CONTINUOUS
100
AcDbLine
 10
7.338323861500896
 20
-22.59743763722049
 30
0.0
 11
7.179656882300882
 21
-22.81964440522052
 31
0.0
  0
LWPOLYLINE
  5
6DC
330
2
100
AcDbEntity
  8
0
  6
CONTINUOUS
100
AcDbPolyline
 90
        4
 70
     0
 43
0.0
 10
7.460240746300883
 20
-21.20292893482051
 10
7.363868695100869
 20
-21.4404011124205
 10
7.25734059270087
 20
-21.66667299882049
 10
7.13635118470087
 20
-21.88832406922049
  0
LWPOLYLINE
  5
6E2
330
2
100
AcDbEntity
  8
0
  6
CONTINUOUS
100
AcDbPolyline
 90
        4
 70
     0
 43
0.0
 10
5.437544267900882
 20
-20.3583401300205
 10
5.689214762300871
 20
-20.23026618922052
 10
6.229583053500896
 20
-19.93999151242051
 10
6.958366836520514
 20
-19.52141505421751
  0
LINE
  5
6EF
330
2
100
AcDbEntity
  8
0
  6
HIDDEN
 62
     9
100
AcDbLine
 10
7.894154755900871
 20
-20.27348637802051
 30
0.0
 11
5.247708146300894
 21
-20.27348637802051
 31
0.0
  0
LINE
  5
6F0
330
2
100
AcDbEntity
  8
0
  6
HIDDEN
 62
     9
100
AcDbLine
 10
7.894154755900871
 20
-20.05473637802051
 30
0.0
 11
5.247708146300894
 21
-20.05473637802051
 31
0.0
  0
LINE
  5
6F6
330
2
100
AcDbEntity
  8
0
  6
HIDDEN
 62
     9
100
AcDbLine
 10
5.004640189500889
 20
-20.17280433322051
 30
0.0
 11
4.611357043900895
 21
-19.7795211876205
 31
0.0
  0
LINE
  5
6F7
330
2
100
AcDbEntity
  8
0
  6
HIDDEN
 62
     9
100
AcDbLine
 10
5.15931979910087
 20
-20.0181247252205
 30
0.0
 11
4.76603665190089
 21
-19.62484157962052
 31
0.0
  0
ARC
  5
6FE
330
2
100
AcDbEntity
  8
0
  6
HIDDEN
 62
     9
100
AcDbCircle
 10
4.58926286790087
 20
-19.80161827882052
 30
0.0
 40
0.249999816
100
AcDbArc
 50
45.00047239839999
 51
88.2647362558
  0
ARC
  5
6FF
330
2
100
AcDbEntity
  8
0
  6
HIDDEN
 62
     9
100
AcDbCircle
 10
4.58926286790087
 20
-19.80161827882052
 30
0.0
 40
0.0312499104
100
AcDbArc
 50
45.0004723748
 51
88.2647362294
  0
ARC
  5
701
330
2
100
AcDbEntity
  8
0
  6
HIDDEN
 62
     9
100
AcDbCircle
 10
5.247708146300894
 20
-19.92973637802051
 30
0.0
 40
0.125
100
AcDbArc
 50
225.0000024403
 51
270.0
  0
ARC
  5
702
330
2
100
AcDbEntity
  8
0
  6
HIDDEN
 62
     9
100
AcDbCircle
 10
5.247708146300894
 20
-19.92973637802051
 30
0.0
 40
0.34375
100
AcDbArc
 50
225.0000024403
 51
270.0
  0
ARC
  5
703
330
2
100
AcDbEntity
  8
0
  6
HIDDEN
 62
     9
100
AcDbCircle
 10
8.549004973500871
 20
-19.80519922602051
 30
0.0
 40
0.0312493984
100
AcDbArc
 50
94.68150848080002
 51
134.9973290014999
  0
LINE
  5
705
330
2
100
AcDbEntity
  8
0
  6
CONTINUOUS
100
AcDbLine
 10
7.231811584700871
 20
-19.81368035082051
 30
0.0
 11
7.246763771900887
 21
-19.36723637802051
 31
0.0
  0
LINE
  5
706
330
2
100
AcDbEntity
  8
0
  6
CONTINUOUS
100
AcDbLine
 10
7.616040074300869
 20
-19.83405839562049
 30
0.0
 11
7.632024245500872
 21
-19.36723637802051
 31
0.0
  0
LWPOLYLINE
  5
707
330
2
100
AcDbEntity
  8
0
  6
CONTINUOUS
100
AcDbPolyline
 90
        4
 70
     0
 43
0.0
 10
7.708761082300895
 20
-19.51246087882051
 10
7.737567632700887
 20
-19.5500136356205
 10
7.76357914950087
 20
-19.58658078122051
 10
7.786074279100887
 20
-19.62108523882051
  0
LWPOLYLINE
  5
70D
330
2
100
AcDbEntity
  8
0
  6
CONTINUOUS
100
AcDbPolyline
 90
        3
 70
     0
 43
0.0
 10
7.629600153780216
 20
-19.43803262849378
 10
7.66844336870087
 20
-19.46881690762052
 10
7.708761082300895
 20
-19.51246087882051
  0
ARC
  5
719
330
2
100
AcDbEntity
  8
0
  6
HIDDEN
 62
     9
100
AcDbCircle
 10
8.549004973500871
 20
-19.80519922602051
 30
0.0
 40
0.2499989056
100
AcDbArc
 50
94.68150867029999
 51
134.9973293799
  0
LINE
  5
71A
330
2
100
AcDbEntity
  8
0
  6
HIDDEN
 62
     9
100
AcDbLine
 10
8.137222711100889
 20
-20.17280433322051
 30
0.0
 11
8.526924635900869
 21
-19.7831024100205
 31
0.0
  0
ARC
  5
724
330
2
100
AcDbEntity
  8
0
  6
HIDDEN
 62
     9
100
AcDbCircle
 10
7.894154755900871
 20
-19.92973637802051
 30
0.0
 40
0.125
100
AcDbArc
 50
270.0
 51
314.9999977589999
  0
LINE
  5
727
330
2
100
AcDbEntity
  8
0
  6
HIDDEN
 62
     9
100
AcDbLine
 10
7.982543103100894
 20
-20.0181247252205
 30
0.0
 11
8.372245027900873
 21
-19.6284228004205
 31
0.0
  0
ARC
  5
72A
330
2
100
AcDbEntity
  8
0
  6
HIDDEN
 62
     9
100
AcDbCircle
 10
7.894154755900871
 20
-19.92973637802051
 30
0.0
 40
0.34375
100
AcDbArc
 50
270.0
 51
314.9999977589999
  0
LINE
  5
72B
330
2
100
AcDbEntity
  8
0
100
AcDbLine
 10
7.182891827900895
 20
-19.4023828884205
 30
0.0
 11
6.958366836520514
 21
-19.52141505421751
 31
0.0
  0
LWPOLYLINE
  5
72D
330
2
100
AcDbEntity
  8
0
100
AcDbPolyline
 90
        4
 70
   128
 43
0.0
 10
7.182891827900895
 20
-19.4023828884205
 10
7.246763771900887
 20
-19.36723637802051
 10
7.321587002300887
 20
-19.36723637802051
 10
7.632024245500872
 20
-19.36723637802051
  0
LINE
  5
72E
330
2
100
AcDbEntity
  8
0
  6
HIDDEN
 62
     9
100
AcDbLine
 10
10.08177210790089
 20
-19.13893270922051
 30
0.0
 11
9.36371377350089
 21
-19.57667578282049
 31
0.0
  0
LINE
  5
72F
330
2
100
AcDbEntity
  8
0
  6
HIDDEN
 62
     9
100
AcDbLine
 10
8.546171621500889
 20
-19.77404380042051
 30
0.0
 11
8.546452701500882
 21
-19.77404920042051
 31
0.0
  0
LINE
  5
730
330
2
100
AcDbEntity
  8
0
  6
HIDDEN
 62
     9
100
AcDbLine
 10
8.671442792700872
 20
-19.76087239242049
 30
0.0
 11
8.546171621500889
 21
-19.77404380042051
 31
0.0
  0
LWPOLYLINE
  5
732
330
2
100
AcDbEntity
  8
0
  6
CONTINUOUS
100
AcDbPolyline
 90
        3
 70
     0
 43
0.0
 10
13.75418834150089
 20
-15.05474150922052
 10
13.67088081830087
 20
-16.3548900100205
 10
13.61370463910087
 20
-17.6563067204205
  0
LINE
  5
737
330
2
100
AcDbEntity
  8
0
  6
HIDDEN
 62
     9
100
AcDbLine
 10
11.95941905030089
 20
-13.59219953322049
 30
0.0
 11
10.96087108550086
 21
-17.72859949482051
 31
0.0
  0
ARC
  5
738
330
2
100
AcDbEntity
  8
0
  6
CONTINUOUS
100
AcDbCircle
 10
10.61542318470087
 20
-17.55473637802051
 30
0.0
 40
3.0
100
AcDbArc
 50
270.0000261722
 51
358.0597794496999
  0
LINE
  5
739
330
2
100
AcDbEntity
  8
0
  6
HIDDEN
 62
     9
100
AcDbLine
 10
10.38774987590089
 20
-18.83493912362052
 30
0.0
 11
10.78832455110087
 21
-18.21395897962051
 31
0.0
  0
LINE
  5
73A
330
2
100
AcDbEntity
  8
0
  6
HIDDEN
 62
     9
100
AcDbLine
 10
13.52841448550087
 20
-6.197827955620507
 30
0.0
 11
11.95941905030089
 21
-13.59219953322049
 31
0.0
  0
LINE
  5
73B
330
2
100
AcDbEntity
  8
0
  6
CONTINUOUS
100
AcDbLine
 10
13.59778066470089
 20
-13.2678325828205
 30
0.0
 11
13.64744927590088
 21
-13.9349421316205
 31
0.0
  0
LINE
  5
73C
330
2
100
AcDbEntity
  8
0
  6
CONTINUOUS
100
AcDbLine
 10
13.82500851270089
 20
-13.84699947882052
 30
0.0
 11
13.82846606790089
 21
-13.7374251876205
 31
0.0
  0
LWPOLYLINE
  5
73D
330
2
100
AcDbEntity
  8
0
  6
CONTINUOUS
100
AcDbPolyline
 90
        4
 70
     0
 43
0.0
 10
13.64744927590088
 20
-13.9349421316205
 10
13.69286777030089
 20
-14.44612974922049
 10
13.72753632390089
 20
-14.79839234282053
 10
13.75418834150089
 20
-15.05474150922052
  0
LWPOLYLINE
  5
743
330
2
100
AcDbEntity
  8
0
  6
CONTINUOUS
100
AcDbPolyline
 90
        3
 70
     0
 43
0.0
 10
13.75411915270089
 20
-15.05473637802051
 10
13.81368541510089
 20
-14.13433166282051
 10
13.82500363110087
 20
-13.8471462964205
  0
LINE
  5
749
330
2
100
AcDbEntity
  8
CENTER
100
AcDbLine
 10
9.901724576621518
 20
-3.965298128420496
 30
0.0
 11
17.9956693665122
 21
-3.965298128420496
 31
0.0
  0
LINE
  5
758
330
2
100
AcDbEntity
  8
0
  6
HIDDEN
 62
     9
100
AcDbLine
 10
17.60053862076989
 20
-1.992236378020518
 30
0.0
 11
17.50372217350089
 21
-1.203743214820516
 31
0.0
  0
ARC
  5
75A
330
2
100
AcDbEntity
  8
0
  6
CONTINUOUS
100
AcDbCircle
 10
17.69814689030089
 20
-0.4922363780205182
 30
0.0
 40
0.5
100
AcDbArc
 50
199.4712206344999
 51
252.5070146648999
  0
LWPOLYLINE
  5
764
330
2
100
AcDbEntity
  8
0
  6
HIDDEN
 62
     9
100
AcDbPolyline
 90
        3
 70
     0
 43
0.0
 10
14.33965583430087
 20
-1.675421869220496
 10
14.25803159270087
 20
-2.14904081962052
 10
14.17533049670089
 20
-2.622468861220507
  0
LINE
  5
769
330
2
100
AcDbEntity
  8
0
  6
HIDDEN
 62
     9
100
AcDbLine
 10
13.95666095590087
 20
-2.620521360420507
 30
0.0
 11
14.20487137990089
 21
-1.165210699620498
 31
0.0
  0
LINE
  5
76A
330
2
100
AcDbEntity
  8
0
  6
HIDDEN
 62
     9
100
AcDbLine
 10
14.08340639110089
 20
-1.8751031092205
 30
0.0
 11
13.95988669830089
 21
-2.584581270820518
 31
0.0
  0
LINE
  5
76B
330
2
100
AcDbEntity
  8
0
  6
HIDDEN
 62
     9
100
AcDbLine
 10
14.17230659750089
 20
-2.657221190820518
 30
0.0
 11
14.42060601990087
 21
-1.201401995620496
 31
0.0
  0
LINE
  5
76C
330
2
100
AcDbEntity
  8
0
  6
CONTINUOUS
100
AcDbLine
 10
14.77044605998687
 20
-1.992236378020518
 30
0.0
 11
14.24072397030089
 21
-4.0408130596205
 31
0.0
  0
LWPOLYLINE
  5
76D
330
2
100
AcDbEntity
  8
0
  6
HIDDEN
 62
     9
100
AcDbPolyline
 90
        3
 70
     0
 43
0.0
 10
13.91334627430089
 20
-2.759277829220518
 10
13.94787577350088
 20
-2.629113989220495
 10
13.95988669830089
 20
-2.584581270820518
  0
LWPOLYLINE
  5
772
330
2
100
AcDbEntity
  8
0
  6
HIDDEN
 62
     9
100
AcDbPolyline
 90
        5
 70
     0
 43
0.0
 10
13.92834703750087
 20
-3.654652779620516
 10
13.97948195750089
 20
-3.412532152420507
 10
14.03012855430087
 20
-3.190535706020494
 10
14.07714206310089
 20
-2.997104442020496
 10
14.11754109030089
 20
-2.838874293220495
  0
LWPOLYLINE
  5
779
330
2
100
AcDbEntity
  8
0
  6
HIDDEN
 62
     9
100
AcDbPolyline
 90
        8
 70
     0
 43
0.0
 10
14.17230659750089
 20
-2.657221190820518
 10
14.16013256230087
 20
-2.719731232420496
 10
14.13508121190088
 20
-2.837497006820495
 10
14.10080621190087
 20
-2.996500910820497
 10
14.05977329350088
 20
-3.191141533220498
 10
14.01467164870086
 20
-3.41444679402053
 10
13.96817941350089
 20
-3.657884269220499
 10
13.92276758630089
 20
-3.911410568420517
  0
LWPOLYLINE
  5
783
330
2
100
AcDbEntity
  8
0
  6
HIDDEN
 62
     9
100
AcDbPolyline
 90
        7
 70
     0
 43
0.0
 10
13.95665942470087
 20
-2.620530184420498
 10
13.95519471110087
 20
-2.628720640420507
 10
13.92906205190087
 20
-2.756538405220506
 10
13.88533103430089
 20
-2.960235442020501
 10
13.82957486630087
 20
-3.227297323620515
 10
13.76831321990088
 20
-3.539480963620516
 10
13.70771034950087
 20
-3.8741692900205
  0
LWPOLYLINE
  5
78C
330
2
100
AcDbEntity
  8
0
  6
HIDDEN
 62
     9
100
AcDbPolyline
 90
        7
 70
     0
 43
0.0
 10
13.92276758630089
 20
-3.911410568420517
 10
13.88015731110087
 20
-4.165122757220498
 10
13.84149478150087
 20
-4.409633277220518
 10
13.80740089830086
 20
-4.634714672420496
 10
13.77803504070087
 20
-4.831349291620494
 10
13.75321155430089
 20
-4.992124750820519
 10
13.73541923270089
 20
-5.096431152420517
  0
LWPOLYLINE
  5
795
330
2
100
AcDbEntity
  8
0
  6
HIDDEN
 62
     9
100
AcDbPolyline
 90
        6
 70
     0
 43
0.0
 10
13.70771034950087
 20
-3.8741692900205
 10
13.65239719750088
 20
-4.206542341220494
 10
13.60380954630089
 20
-4.520174595620499
 10
13.56337297190089
 20
-4.789714938020519
 10
13.53097181830086
 20
-4.996116373220498
 10
13.52063751910087
 20
-5.054978768420507
  0
LWPOLYLINE
  5
79D
330
2
100
AcDbEntity
  8
0
  6
HIDDEN
 62
     9
100
AcDbPolyline
 90
        4
 70
     0
 43
0.0
 10
13.74261742630088
 20
-4.828448270820498
 10
13.76672199270089
 20
-4.631166277220497
 10
13.79774284230089
 20
-4.405677325220519
 10
13.83567398630089
 20
-4.160877797220518
  0
LWPOLYLINE
  5
7A3
330
2
100
AcDbEntity
  8
0
  6
HIDDEN
 62
     9
100
AcDbPolyline
 90
        5
 70
     0
 43
0.0
 10
13.50572180070086
 20
-4.994852584420495
 10
13.52832983590089
 20
-4.7878364148205
 10
13.56238356710089
 20
-4.517096968420499
 10
13.60855823270087
 20
-4.202521056420518
 10
13.66564943910089
 20
-3.8680222708205
  0
LINE
  5
7AA
330
2
100
AcDbEntity
  8
0
  6
HIDDEN
 62
     9
100
AcDbLine
 10
13.52841448550087
 20
-6.197827955620507
 30
0.0
 11
13.73542036390088
 21
-5.096425040420495
 31
0.0
  0
LWPOLYLINE
  5
7AB
330
2
100
AcDbEntity
  8
0
  6
HIDDEN
 62
     9
100
AcDbPolyline
 90
        4
 70
     0
 43
0.0
 10
13.70381446790086
 20
-5.209191904420531
 10
13.70603164230087
 20
-5.184229530020498
 10
13.71295983110089
 20
-5.11010988842052
 10
13.72492287750087
 20
-4.990099685220496
  0
LWPOLYLINE
  5
7B1
330
2
100
AcDbEntity
  8
0
  6
HIDDEN
 62
     9
100
AcDbPolyline
 90
        4
 70
     0
 43
0.0
 10
13.73541923270089
 20
-5.096431152420517
 10
13.73259411270089
 20
-5.111456538020515
 10
13.71599702790087
 20
-5.185176917220498
 10
13.70381446790086
 20
-5.209191904420531
  0
LINE
  5
7B7
330
2
100
AcDbEntity
  8
0
  6
HIDDEN
 62
     9
100
AcDbLine
 10
13.48885888390087
 20
-5.168627595620531
 30
0.0
 11
13.70381446790086
 21
-5.209191904420531
 31
0.0
  0
LINE
  5
7B8
330
2
100
AcDbEntity
  8
0
  6
HIDDEN
 62
     9
100
AcDbLine
 10
13.72492287750087
 20
-4.990099685220496
 30
0.0
 11
13.74261742630088
 21
-4.828448270820498
 31
0.0
  0
LWPOLYLINE
  5
7B9
330
2
100
AcDbEntity
  8
0
  6
HIDDEN
 62
     9
100
AcDbPolyline
 90
        3
 70
     0
 43
0.0
 10
13.52063751910087
 20
-5.054978768420507
 10
13.50598616230087
 20
-5.125923277220518
 10
13.48885888390087
 20
-5.168627595620531
  0
LINE
  5
7BE
330
2
100
AcDbEntity
  8
0
  6
HIDDEN
 62
     9
100
AcDbLine
 10
13.49298217670089
 20
-5.124514678820499
 30
0.0
 11
13.50572180070086
 21
-4.994852584420495
 31
0.0
  0
LINE
  5
7BF
330
2
100
AcDbEntity
  8
0
  6
HIDDEN
 62
     9
100
AcDbLine
 10
13.48885888390087
 20
-5.168627595620531
 30
0.0
 11
13.49298217670089
 21
-5.124514678820499
 31
0.0
  0
LINE
  5
7C0
330
2
100
AcDbEntity
  8
0
  6
HIDDEN
 62
     9
100
AcDbLine
 10
13.87974663430087
 20
-3.907156525220496
 30
0.0
 11
13.92834703750087
 21
-3.654652779620516
 31
0.0
  0
LINE
  5
7C1
330
2
100
AcDbEntity
  8
0
  6
HIDDEN
 62
     9
100
AcDbLine
 10
13.66564943910089
 20
-3.8680222708205
 30
0.0
 11
13.87974663430087
 21
-3.907156525220496
 31
0.0
  0
LINE
  5
7C3
330
2
100
AcDbEntity
  8
0
  6
HIDDEN
 62
     9
100
AcDbLine
 10
13.83567398630089
 20
-4.160877797220518
 30
0.0
 11
13.87974663430087
 21
-3.907156525220496
 31
0.0
  0
LWPOLYLINE
  5
7C4
330
2
100
AcDbEntity
  8
0
  6
HIDDEN
 62
     9
100
AcDbPolyline
 90
        5
 70
     0
 43
0.0
 10
13.66564943910089
 20
-3.8680222708205
 10
13.72991293350087
 20
-3.538901083620498
 10
13.79758191590089
 20
-3.229593757220495
 10
13.86114569030087
 20
-2.963797803620519
 10
13.91334627430089
 20
-2.759277829220518
  0
LINE
  5
7CB
330
2
100
AcDbEntity
  8
0
  6
HIDDEN
 62
     9
100
AcDbLine
 10
14.11754109030089
 20
-2.838874293220495
 30
0.0
 11
14.14871029830087
 21
-2.720928965220519
 31
0.0
  0
LINE
  5
7CC
330
2
100
AcDbEntity
  8
0
  6
HIDDEN
 62
     9
100
AcDbLine
 10
14.17533049670089
 20
-2.622468861220507
 30
0.0
 11
14.17400170630087
 21
-2.647077026020507
 31
0.0
  0
LINE
  5
7CD
330
2
100
AcDbEntity
  8
0
  6
HIDDEN
 62
     9
100
AcDbLine
 10
14.14871029830087
 20
-2.720928965220519
 30
0.0
 11
14.17533049670089
 21
-2.622468861220507
 31
0.0
  0
LINE
  5
7CE
330
2
100
AcDbEntity
  8
0
  6
HIDDEN
 62
     9
100
AcDbLine
 10
13.95988669830089
 20
-2.584581270820518
 30
0.0
 11
13.95665942470087
 21
-2.620530184420498
 31
0.0
  0
LINE
  5
7CF
330
2
100
AcDbEntity
  8
0
  6
HIDDEN
 62
     9
100
AcDbLine
 10
13.95988669830089
 20
-2.584581270820518
 30
0.0
 11
14.17533049670089
 21
-2.622468861220507
 31
0.0
  0
ARC
  5
7D0
330
2
100
AcDbEntity
  8
0
  6
HIDDEN
 62
     9
100
AcDbCircle
 10
14.22325145030089
 20
-0.4922363780205182
 30
0.0
 40
0.71875
100
AcDbArc
 50
287.6792020847
 51
340.5287793654999
  0
ARC
  5
7DF
330
2
100
AcDbEntity
  8
0
  6
HIDDEN
 62
     9
100
AcDbCircle
 10
14.93035770150089
 20
-0.7422363780205182
 30
0.0
 40
0.2499999904
100
AcDbArc
 50
89.99987832249999
 51
160.5287388063
  0
LINE
  5
7E0
330
2
100
AcDbEntity
  8
0
  6
HIDDEN
 62
     9
100
AcDbLine
 10
14.20450486150089
 20
-1.165199981220506
 30
0.0
 11
14.08340639110089
 21
-1.8751031092205
 31
0.0
  0
LINE
  5
7EA
330
2
100
AcDbEntity
  8
0
  6
HIDDEN
 62
     9
100
AcDbLine
 10
14.42019739750087
 20
-1.201615046820517
 30
0.0
 11
14.33965583430087
 21
-1.675421869220496
 31
0.0
  0
ARC
  5
7EB
330
2
100
AcDbEntity
  8
0
  6
HIDDEN
 62
     9
100
AcDbCircle
 10
14.22325145030089
 20
-0.4922363780205182
 30
0.0
 40
0.5
100
AcDbArc
 50
287.6792020847
 51
340.5287793654999
  0
ARC
  5
7F0
330
2
100
AcDbEntity
  8
0
  6
HIDDEN
 62
     9
100
AcDbCircle
 10
17.69814689030089
 20
-0.4922363780205182
 30
0.0
 40
0.71875
100
AcDbArc
 50
199.4712206344999
 51
252.5070146648999
  0
ARC
  5
7F1
330
2
100
AcDbEntity
  8
0
  6
CONTINUOUS
100
AcDbCircle
 10
16.99104042310088
 20
-0.7422363780205182
 30
0.0
 40
0.25
100
AcDbArc
 50
19.4712446744
 51
90.00007211959999
  0
LINE
  5
7F2
330
2
100
AcDbEntity
  8
0
  6
CONTINUOUS
100
AcDbLine
 10
17.82093145030088
 20
-1.992236378020518
 30
0.0
 11
17.72084158790088
 21
-1.177083846820519
 31
0.0
  0
ARC
  5
7F4
330
2
100
AcDbEntity
  8
0
  6
CONTINUOUS
100
AcDbCircle
 10
17.47269635270088
 20
-1.207550218020497
 30
0.0
 40
0.2500000416
100
AcDbArc
 50
6.9995376912
 51
72.50499770409999
  0
LINE
  5
7F8
330
2
100
AcDbEntity
  8
0
  6
HIDDEN
 62
     9
100
AcDbLine
 10
-38.40250023769911
 20
-1.141727518820498
 30
0.0
 11
-36.05514118809913
 21
-6.537035971620507
 31
0.0
  0
LINE
  5
7F9
330
2
100
AcDbEntity
  8
0
  6
HIDDEN
 62
     9
100
AcDbLine
 10
-36.05514118809913
 20
-6.537035971620507
 30
0.0
 11
-33.64164282169912
 21
-11.84023895082051
 31
0.0
  0
LINE
  5
7FA
330
2
100
AcDbEntity
  8
0
  6
HIDDEN
 62
     9
100
AcDbLine
 10
-33.64164282169912
 20
-11.84023895082051
 30
0.0
 11
-31.1623784136991
 21
-17.1130162836205
 31
0.0
  0
LINE
  5
7FE
330
2
100
AcDbEntity
  8
0
  6
HIDDEN
 62
     9
100
AcDbLine
 10
-38.60641071974956
 20
-1.210781451359107
 30
0.0
 11
-36.25480083929913
 21
-6.626406986020494
 31
0.0
  0
LINE
  5
7FF
330
2
100
AcDbEntity
  8
0
  6
HIDDEN
 62
     9
100
AcDbLine
 10
-36.25480083929913
 20
-6.626406986020494
 30
0.0
 11
-33.84017508409911
 21
-11.93208587562049
 31
0.0
  0
LINE
  5
800
330
2
100
AcDbEntity
  8
0
  6
HIDDEN
 62
     9
100
AcDbLine
 10
-33.84017508409911
 20
-11.93208587562049
 30
0.0
 11
-31.35975405369913
 21
-17.2073256020205
 31
0.0
  0
LINE
  5
801
330
2
100
AcDbEntity
  8
0
  6
HIDDEN
 62
     9
100
AcDbLine
 10
-41.37863998946204
 20
-0.7318197113539618
 30
0.0
 11
-39.26689254833619
 21
-0.7318197113539614
 31
0.0
  0
LINE
  5
80C
330
2
100
AcDbEntity
  8
0
  6
HIDDEN
 62
     9
100
AcDbLine
 10
14.90089544893796
 20
-0.7318197113539618
 30
0.0
 11
17.02050289166382
 21
-0.7318197113539614
 31
0.0
  0
ENDSEC
  0
SECTION
  2
OBJECTS
  0
DICTIONARY
  5
1A
330
0
100
AcDbDictionary
  3
ACAD_GROUP
350
18
  3
ACAD_LAYOUT
350
811
  3
ACAD_MLINESTYLE
350
19
  3
ACAD_PLOTSETTINGS
350
812
  3
ACAD_PLOTSTYLENAME
350
80F
  3
ACDBHEADERROUNDTRIPXREC
350
850
  3
ACDBVARIABLEDICTIONARY
350
84D
  0
DICTIONARY
  5
871
330
2
100
AcDbDictionary
280
     1
  3
ACAD_LAYOUTSELFREF
360
872
  0
DICTIONARY
  5
873
330
7
100
AcDbDictionary
280
     1
  3
ACAD_LAYOUTSELFREF
360
874
  0
DICTIONARY
  5
18
102
{ACAD_REACTORS
330
1A
102
}
330
1A
100
AcDbDictionary
  0
DICTIONARY
  5
811
102
{ACAD_REACTORS
330
1A
102
}
330
1A
100
AcDbDictionary
  0
DICTIONARY
  5
19
102
{ACAD_REACTORS
330
1A
102
}
330
1A
100
AcDbDictionary
  3
STANDARD
350
1B
  0
DICTIONARY
  5
812
102
{ACAD_REACTORS
330
1A
102
}
330
1A
100
AcDbDictionary
  0
ACDBDICTIONARYWDFLT
  5
80F
102
{ACAD_REACTORS
330
1A
102
}
330
1A
100
AcDbDictionary
281
     1
  3
Normal
350
810
100
AcDbDictionaryWithDefault
340
810
  0
DICTIONARY
  5
850
102
{ACAD_REACTORS
330
1A
102
}
330
1A
100
AcDbDictionary
  3
CEPSNTYPE
350
85A
  3
DIMSTYLEDATA
350
85E
  3
FINGERPRINTGUID
350
85B
  3
HYPERLINKBASE
350
853
  3
INSUNITS
350
859
  3
LAYOUTDICT
350
855
  3
LWETCUNION
350
858
  3
PLOTSETDICT
350
856
  3
PLOTSTYLNAMDICT
350
857
  3
PSVPSCALE
350
85D
  3
PUCSBASE
350
861
  3
PUCSORGBACK
350
867
  3
PUCSORGBOTTOM
350
863
  3
PUCSORGFRONT
350
866
  3
PUCSORGLEFT
350
864
  3
PUCSORGRIGHT
350
865
  3
PUCSORGTOP
350
862
  3
PUCSORTHOREF
350
85F
  3
PUCSORTHOVIEW
350
860
  3
STYLESHEET
350
854
  3
TSTACKALIGN
350
851
  3
TSTACKSIZE
350
852
  3
UCSBASE
350
86A
  3
UCSORGBACK
350
870
  3
UCSORGBOTTOM
350
86C
  3
UCSORGFRONT
350
86F
  3
UCSORGLEFT
350
86D
  3
UCSORGRIGHT
350
86E
  3
UCSORGTOP
350
86B
  3
UCSORTHOREF
350
868
  3
UCSORTHOVIEW
350
869
  3
VERSIONGUID
350
85C
  0
DICTIONARY
  5
84D
102
{ACAD_REACTORS
330
1A
102
}
330
1A
100
AcDbDictionary
  3
DIMASSOC
350
84E
  0
XRECORD
  5
872
102
{ACAD_REACTORS
330
871
102
}
330
871
100
AcDbXrecord
340
2
  0
XRECORD
  5
874
102
{ACAD_REACTORS
330
873
102
}
330
873
100
AcDbXrecord
340
7
  0
MLINESTYLE
  5
1B
102
{ACAD_REACTORS
330
19
102
}
330
19
100
AcDbMlineStyle
  2
STANDARD
 70
     0
  3

 62
   256
 51
90.0
 52
90.0
 71
     2
 49
0.5
 62
   256
  6
BYLAYER
 49
-0.5
 62
   256
  6
BYLAYER
  0
ACDBPLACEHOLDER
  5
810
102
{ACAD_REACTORS
330
80F
102
}
330
80F
100
AcDbPlaceHolder
280
     0
  0
XRECORD
  5
85A
102
{ACAD_REACTORS
330
850
102
}
330
850
100
AcDbXrecord
 90
        0
  0
XRECORD
  5
85E
102
{ACAD_REACTORS
330
850
102
}
330
850
100
AcDbXrecord
1000
DSTYLE
1002
{
1070
   341
340
1D
1070
   342
340
1D
1002
}
  0
XRECORD
  5
85B
102
{ACAD_REACTORS
330
850
102
}
330
850
100
AcDbXrecord
  1
{21F6E36D-5DCB-40F0-ABF6-8C928D88F5F7}
  0
XRECORD
  5
853
102
{ACAD_REACTORS
330
850
102
}
330
850
100
AcDbXrecord
  1

  0
XRECORD
  5
859
102
{ACAD_REACTORS
330
850
102
}
330
850
100
AcDbXrecord
 90
        0
  0
XRECORD
  5
855
102
{ACAD_REACTORS
330
850
102
}
330
850
100
AcDbXrecord
340
811
  0
XRECORD
  5
858
102
{ACAD_REACTORS
330
850
102
}
330
850
100
AcDbXrecord
 90
    14877
  0
XRECORD
  5
856
102
{ACAD_REACTORS
330
850
102
}
330
850
100
AcDbXrecord
340
812
  0
XRECORD
  5
857
102
{ACAD_REACTORS
330
850
102
}
330
850
100
AcDbXrecord
340
80F
  0
XRECORD
  5
85D
102
{ACAD_REACTORS
330
850
102
}
330
850
100
AcDbXrecord
 40
0.0
  0
XRECORD
  5
861
102
{ACAD_REACTORS
330
850
102
}
330
850
100
AcDbXrecord
340
0
  0
XRECORD
  5
867
102
{ACAD_REACTORS
330
850
102
}
330
850
100
AcDbXrecord
 10
0.0
 20
0.0
 30
0.0
  0
XRECORD
  5
863
102
{ACAD_REACTORS
330
850
102
}
330
850
100
AcDbXrecord
 10
0.0
 20
0.0
 30
0.0
  0
XRECORD
  5
866
102
{ACAD_REACTORS
330
850
102
}
330
850
100
AcDbXrecord
 10
0.0
 20
0.0
 30
0.0
  0
XRECORD
  5
864
102
{ACAD_REACTORS
330
850
102
}
330
850
100
AcDbXrecord
 10
0.0
 20
0.0
 30
0.0
  0
XRECORD
  5
865
102
{ACAD_REACTORS
330
850
102
}
330
850
100
AcDbXrecord
 10
0.0
 20
0.0
 30
0.0
  0
XRECORD
  5
862
102
{ACAD_REACTORS
330
850
102
}
330
850
100
AcDbXrecord
 10
0.0
 20
0.0
 30
0.0
  0
XRECORD
  5
85F
102
{ACAD_REACTORS
330
850
102
}
330
850
100
AcDbXrecord
340
0
  0
XRECORD
  5
860
102
{ACAD_REACTORS
330
850
102
}
330
850
100
AcDbXrecord
 70
     0
  0
XRECORD
  5
854
102
{ACAD_REACTORS
330
850
102
}
330
850
100
AcDbXrecord
  1

  0
XRECORD
  5
851
102
{ACAD_REACTORS
330
850
102
}
330
850
100
AcDbXrecord
 90
        1
  0
XRECORD
  5
852
102
{ACAD_REACTORS
330
850
102
}
330
850
100
AcDbXrecord
 90
       70
  0
XRECORD
  5
86A
102
{ACAD_REACTORS
330
850
102
}
330
850
100
AcDbXrecord
340
0
  0
XRECORD
  5
870
102
{ACAD_REACTORS
330
850
102
}
330
850
100
AcDbXrecord
 10
0.0
 20
0.0
 30
0.0
  0
XRECORD
  5
86C
102
{ACAD_REACTORS
330
850
102
}
330
850
100
AcDbXrecord
 10
0.0
 20
0.0
 30
0.0
  0
XRECORD
  5
86F
102
{ACAD_REACTORS
330
850
102
}
330
850
100
AcDbXrecord
 10
0.0
 20
0.0
 30
0.0
  0
XRECORD
  5
86D
102
{ACAD_REACTORS
330
850
102
}
330
850
100
AcDbXrecord
 10
0.0
 20
0.0
 30
0.0
  0
XRECORD
  5
86E
102
{ACAD_REACTORS
330
850
102
}
330
850
100
AcDbXrecord
 10
0.0
 20
0.0
 30
0.0
  0
XRECORD
  5
86B
102
{ACAD_REACTORS
330
850
102
}
330
850
100
AcDbXrecord
 10
0.0
 20
0.0
 30
0.0
  0
XRECORD
  5
868
102
{ACAD_REACTORS
330
850
102
}
330
850
100
AcDbXrecord
340
0
  0
XRECORD
  5
869
102
{ACAD_REACTORS
330
850
102
}
330
850
100
AcDbXrecord
 70
     0
  0
XRECORD
  5
85C
102
{ACAD_REACTORS
330
850
102
}
330
850
100
AcDbXrecord
  1
{7EBEA29C-0FFA-46E4-A50D-C17CB5F756BA}
  0
DICTIONARYVAR
  5
84E
102
{ACAD_REACTORS
330
84D
102
}
330
84D
100
DictionaryVariables
280
     0
  1
1
  0
ENDSEC
  0
EOF
