  0
SECTION
  2
HEADER
  9
$ACADVER
  1
AC1014
  9
$ACADMAINTVER
 70
     9
  9
$DWGCODEPAGE
  3
ANSI_1252
  9
$INSBASE
 10
338.329340681132
 20
199.4398700327033
 30
0.0
  9
$EXTMIN
 10
302.5476071726306
 20
199.2932841065027
 30
-0.0015258207003583
  9
$EXTMAX
 10
374.0906260424485
 20
226.1968244542532
 30
0.0000000349246037
  9
$LIMMIN
 10
0.0
 20
0.0
  9
$LIMMAX
 10
100.5024158491978
 20
51.69854817198938
  9
$ORTHOMODE
 70
     1
  9
$REGENMODE
 70
     1
  9
$FILLMODE
 70
     1
  9
$QTEXTMODE
 70
     0
  9
$MIRRTEXT
 70
     1
  9
$DRAGMODE
 70
     2
  9
$LTSCALE
 40
2.0
  9
$OSMODE
 70
    55
  9
$ATTMODE
 70
     1
  9
$TEXTSIZE
 40
0.1
  9
$TRACEWID
 40
1.0
  9
$TEXTSTYLE
  7
CARTOUCHE
  9
$CLAYER
  8
0
  9
$CELTYPE
  6
BYLAYER
  9
$CECOLOR
 62
   256
  9
$CELTSCALE
 40
1.0
  9
$DELOBJ
 70
     1
  9
$DISPSILH
 70
     0
  9
$DIMSCALE
 40
16.0
  9
$DIMASZ
 40
0.1
  9
$DIMEXO
 40
0.0625
  9
$DIMDLI
 40
0.25
  9
$DIMRND
 40
0.0
  9
$DIMDLE
 40
0.0
  9
$DIMEXE
 40
0.1
  9
$DIMTP
 40
0.0
  9
$DIMTM
 40
0.0
  9
$DIMTXT
 40
0.1
  9
$DIMCEN
 40
0.09
  9
$DIMTSZ
 40
0.0
  9
$DIMTOL
 70
     0
  9
$DIMLIM
 70
     0
  9
$DIMTIH
 70
     1
  9
$DIMTOH
 70
     1
  9
$DIMSE1
 70
     0
  9
$DIMSE2
 70
     0
  9
$DIMTAD
 70
     0
  9
$DIMZIN
 70
     4
  9
$DIMBLK
  1

  9
$DIMASO
 70
     1
  9
$DIMSHO
 70
     1
  9
$DIMPOST
  1
\X
  9
$DIMAPOST
  1
cm
  9
$DIMALT
 70
     1
  9
$DIMALTD
 70
     1
  9
$DIMALTF
 40
2.54
  9
$DIMLFAC
 40
1.0
  9
$DIMTOFL
 70
     0
  9
$DIMTVP
 40
0.0
  9
$DIMTIX
 70
     0
  9
$DIMSOXD
 70
     0
  9
$DIMSAH
 70
     0
  9
$DIMBLK1
  1

  9
$DIMBLK2
  1

  9
$DIMSTYLE
  2
STANDARD
  9
$DIMCLRD
 70
     0
  9
$DIMCLRE
 70
     0
  9
$DIMCLRT
 70
     0
  9
$DIMTFAC
 40
1.0
  9
$DIMGAP
 40
0.08
  9
$DIMJUST
 70
     0
  9
$DIMSD1
 70
     0
  9
$DIMSD2
 70
     0
  9
$DIMTOLJ
 70
     1
  9
$DIMTZIN
 70
     4
  9
$DIMALTZ
 70
     4
  9
$DIMALTTZ
 70
     4
  9
$DIMFIT
 70
     1
  9
$DIMUPT
 70
     0
  9
$DIMUNIT
 70
     5
  9
$DIMDEC
 70
     3
  9
$DIMTDEC
 70
     3
  9
$DIMALTU
 70
     2
  9
$DIMALTTD
 70
     1
  9
$DIMTXSTY
  7
ROMANS
  9
$DIMAUNIT
 70
     0
  9
$LUNITS
 70
     2
  9
$LUPREC
 70
     2
  9
$SKETCHINC
 40
1.0
  9
$FILLETRAD
 40
3.0
  9
$AUNITS
 70
     0
  9
$AUPREC
 70
     0
  9
$MENU
  1
.
  9
$ELEVATION
 40
0.0
  9
$PELEVATION
 40
0.0
  9
$THICKNESS
 40
0.0
  9
$LIMCHECK
 70
     0
  9
$BLIPMODE
 70
     0
  9
$CHAMFERA
 40
0.0
  9
$CHAMFERB
 40
0.0
  9
$CHAMFERC
 40
20.0
  9
$CHAMFERD
 40
0.0
  9
$SKPOLY
 70
     0
  9
$TDCREATE
 40
2452062.301426851
  9
$TDUPDATE
 40
2453689.443537951
  9
$TDINDWG
 40
2.5193347685
  9
$TDUSRTIMER
 40
2.5193347685
  9
$USRTIMER
 70
     1
  9
$ANGBASE
 50
0.0
  9
$ANGDIR
 70
     0
  9
$PDMODE
 70
    34
  9
$PDSIZE
 40
-5.0
  9
$PLINEWID
 40
0.0
  9
$COORDS
 70
     1
  9
$SPLFRAME
 70
     0
  9
$SPLINETYPE
 70
     6
  9
$SPLINESEGS
 70
     8
  9
$ATTDIA
 70
     0
  9
$ATTREQ
 70
     1
  9
$HANDLING
 70
 22529
  9
$HANDSEED
  5
1BD
  9
$SURFTAB1
 70
     6
  9
$SURFTAB2
 70
     6
  9
$SURFTYPE
 70
     6
  9
$SURFU
 70
     6
  9
$SURFV
 70
     6
  9
$UCSNAME
  2

  9
$UCSORG
 10
-86.61529330307228
 20
17.01116759546271
 30
0.0
  9
$UCSXDIR
 10
1.0
 20
0.0
 30
0.0
  9
$UCSYDIR
 10
0.0
 20
1.0
 30
0.0
  9
$PUCSNAME
  2

  9
$PUCSORG
 10
0.0
 20
0.0
 30
0.0
  9
$PUCSXDIR
 10
1.0
 20
0.0
 30
0.0
  9
$PUCSYDIR
 10
0.0
 20
1.0
 30
0.0
  9
$USERI1
 70
     0
  9
$USERI2
 70
     0
  9
$USERI3
 70
     0
  9
$USERI4
 70
     0
  9
$USERI5
 70
     0
  9
$USERR1
 40
0.0
  9
$USERR2
 40
0.0
  9
$USERR3
 40
0.0
  9
$USERR4
 40
0.0
  9
$USERR5
 40
0.0
  9
$WORLDVIEW
 70
     1
  9
$SHADEDGE
 70
     3
  9
$SHADEDIF
 70
    70
  9
$TILEMODE
 70
     1
  9
$MAXACTVP
 70
    48
  9
$PINSBASE
 10
0.0
 20
0.0
 30
0.0
  9
$PLIMCHECK
 70
     0
  9
$PEXTMIN
 10
0.0
 20
0.0
 30
0.0
  9
$PEXTMAX
 10
0.0
 20
0.0
 30
0.0
  9
$PLIMMIN
 10
0.0
 20
0.0
  9
$PLIMMAX
 10
12.0
 20
9.0
  9
$UNITMODE
 70
     0
  9
$VISRETAIN
 70
     1
  9
$PLINEGEN
 70
     0
  9
$PSLTSCALE
 70
     1
  9
$TREEDEPTH
 70
  3020
  9
$PICKSTYLE
 70
     1
  9
$CMLSTYLE
  2
STANDARD
  9
$CMLJUST
 70
     0
  9
$CMLSCALE
 40
20.0
  9
$PROXYGRAPHICS
 70
     1
  9
$MEASUREMENT
 70
     0
  0
ENDSEC
  0
SECTION
  2
CLASSES
  0
CLASS
  1
ACDBDICTIONARYWDFLT
  2
AcDbDictionaryWithDefault
  3
AutoCAD 2000
 90
        0
280
     0
281
     0
  0
CLASS
  1
ACDBPLACEHOLDER
  2
AcDbPlaceHolder
  3
AutoCAD 2000
 90
        0
280
     0
281
     0
  0
CLASS
  1
LAYOUT
  2
AcDbLayout
  3
AutoCAD 2000
 90
        0
280
     0
281
     0
  0
CLASS
  1
DICTIONARYVAR
  2
AcDbDictionaryVar
  3
AutoCAD 2000
 90
        0
280
     0
281
     0
  0
CLASS
  1
IMAGEDEF
  2
AcDbRasterImageDef
  3
ISM
 90
        0
280
     0
281
     0
  0
CLASS
  1
LONG_TRANSACTION
  2
AcDbLongTransaction
  3
AutoCAD 2000
 90
        0
280
     0
281
     0
  0
CLASS
  1
LWPOLYLINE
  2
AcDbPolyline
  3
AutoCAD 2000
 90
        0
280
     0
281
     1
  0
CLASS
  1
HATCH
  2
AcDbHatch
  3
AutoCAD 2000
 90
        0
280
     0
281
     1
  0
CLASS
  1
XRECORD
  2
AcDbXrecord
  3
AutoCAD 2000
 90
        0
280
     0
281
     0
  0
CLASS
  1
LONG_TRANSACTION
  2
AcDbLongTransaction
  3
AutoCAD 2000
 90
        0
280
     0
281
     0
  0
CLASS
  1
LWPOLYLINE
  2
AcDbPolyline
  3
AutoCAD 2000
 90
        0
280
     0
281
     1
  0
CLASS
  1
HATCH
  2
AcDbHatch
  3
AutoCAD 2000
 90
        0
280
     0
281
     1
  0
CLASS
  1
XRECORD
  2
AcDbXrecord
  3
AutoCAD 2000
 90
        0
280
     0
281
     0
  0
CLASS
  1
LONG_TRANSACTION
  2
AcDbLongTransaction
  3
AutoCAD 2000
 90
        0
280
     0
281
     0
  0
CLASS
  1
LWPOLYLINE
  2
AcDbPolyline
  3
AutoCAD 2000
 90
        0
280
     0
281
     1
  0
CLASS
  1
HATCH
  2
AcDbHatch
  3
AutoCAD 2000
 90
        0
280
     0
281
     1
  0
CLASS
  1
XRECORD
  2
AcDbXrecord
  3
AutoCAD 2000
 90
        0
280
     0
281
     0
  0
ENDSEC
  0
SECTION
  2
TABLES
  0
TABLE
  2
VPORT
  5
1D
330
0
100
AcDbSymbolTable
 70
     3
  0
VPORT
  5
199
330
1D
100
AcDbSymbolTableRecord
100
AcDbViewportTableRecord
  2
*ACTIVE
 70
     0
 10
0.0
 20
0.0
 11
1.0
 21
1.0
 12
338.3191165085728
 22
212.7450542345644
 13
0.0
 23
0.0
 14
10.0
 24
10.0
 15
10.0
 25
10.0
 16
0.0
 26
0.0
 36
1.0
 17
0.0
 27
0.0
 37
0.0
 40
47.94881598791673
 41
1.786792452830188
 42
50.0
 43
0.0
 44
0.0
 50
0.0
 51
0.0
 71
     0
 72
 20000
 73
     1
 74
     3
 75
     0
 76
     0
 77
     0
 78
     2
  0
ENDTAB
  0
TABLE
  2
LTYPE
  5
18
330
0
100
AcDbSymbolTable
 70
     3
  0
LTYPE
  5
19
330
18
100
AcDbSymbolTableRecord
100
AcDbLinetypeTableRecord
  2
BYBLOCK
 70
     0
  3

 72
    65
 73
     0
 40
0.0
  0
LTYPE
  5
1A
330
18
100
AcDbSymbolTableRecord
100
AcDbLinetypeTableRecord
  2
BYLAYER
 70
     0
  3

 72
    65
 73
     0
 40
0.0
  0
LTYPE
  5
8
330
18
100
AcDbSymbolTableRecord
100
AcDbLinetypeTableRecord
  2
CONTINUOUS
 70
     0
  3
Solid line
 72
    65
 73
     0
 40
0.0
  0
LTYPE
  5
3A
330
18
100
AcDbSymbolTableRecord
100
AcDbLinetypeTableRecord
  2
CENTER
 70
     0
  3
Center ____ _ ____ _ ____ _ ____ _ ____ _ ____
 72
    65
 73
     4
 40
50.8
 49
31.75
 74
     0
 49
-6.349999999999999
 74
     0
 49
6.349999999999999
 74
     0
 49
-6.349999999999999
 74
     0
  0
LTYPE
  5
32
330
18
100
AcDbSymbolTableRecord
100
AcDbLinetypeTableRecord
  2
HIDDEN
 70
     0
  3
Hidden __ __ __ __ __ __ __ __ __ __ __ __ __ _
 72
    65
 73
     2
 40
9.524999999999998
 49
6.349999999999999
 74
     0
 49
-3.174999999999999
 74
     0
  0
ENDTAB
  0
TABLE
  2
LAYER
  5
10
102
{ACAD_XDICTIONARY
360
11
102
}
330
0
100
AcDbSymbolTable
 70
     3
  0
LAYER
  5
4
330
10
100
AcDbSymbolTableRecord
100
AcDbLayerTableRecord
  2
0
 70
     0
 62
     7
  6
CONTINUOUS
  0
LAYER
  5
39
330
10
100
AcDbSymbolTableRecord
100
AcDbLayerTableRecord
  2
CENTER
 70
     0
 62
     1
  6
CENTER
  0
LAYER
  5
147
330
10
100
AcDbSymbolTableRecord
100
AcDbLayerTableRecord
  2
DEFPOINTS
 70
     0
 62
     7
  6
CONTINUOUS
  0
ENDTAB
  0
TABLE
  2
STYLE
  5
15
330
0
100
AcDbSymbolTable
 70
     3
  0
STYLE
  5
16
330
15
100
AcDbSymbolTableRecord
100
AcDbTextStyleTableRecord
  2
STANDARD
 70
     0
 40
0.0
 41
1.0
 50
0.0
 71
     0
 42
0.125
  3
txt
  4

  0
STYLE
  5
28
330
15
100
AcDbSymbolTableRecord
100
AcDbTextStyleTableRecord
  2
CARTOUCHE
 70
     0
 40
0.0
 41
1.0
 50
0.0
 71
     0
 42
0.1
  3
romans.shx
  4

  0
STYLE
  5
23
330
15
100
AcDbSymbolTableRecord
100
AcDbTextStyleTableRecord
  2
ROMANS
 70
     0
 40
0.0
 41
1.0
 50
0.0
 71
     0
 42
1.0
  3
romans.shx
  4

  0
ENDTAB
  0
TABLE
  2
VIEW
  5
1B
330
0
100
AcDbSymbolTable
 70
     0
  0
ENDTAB
  0
TABLE
  2
UCS
  5
1C
330
0
100
AcDbSymbolTable
 70
     0
  0
ENDTAB
  0
TABLE
  2
APPID
  5
1F
330
0
100
AcDbSymbolTable
 70
     1
  0
APPID
  5
20
330
1F
100
AcDbSymbolTableRecord
100
AcDbRegAppTableRecord
  2
ACAD
 70
     0
  0
ENDTAB
  0
TABLE
  2
DIMSTYLE
  5
21
330
0
100
AcDbSymbolTable
 70
     1
  0
DIMSTYLE
105
22
330
21
100
AcDbSymbolTableRecord
100
AcDbDimStyleTableRecord
  2
STANDARD
 70
     0
  3
\X
  4
cm
  5

  6

  7

 40
16.0
 41
0.1
 42
0.0625
 43
0.25
 44
0.1
 45
0.0
 46
0.0
 47
0.0
 48
0.0
140
0.1
141
0.09
142
0.0
143
2.54
144
1.0
145
0.0
146
1.0
147
0.08
 71
     0
 72
     0
 73
     1
 74
     1
 75
     0
 76
     0
 77
     0
 78
     4
170
     1
171
     1
172
     0
173
     0
174
     0
175
     0
176
     0
177
     0
178
     0
270
     5
271
     3
272
     3
273
     2
274
     1
340
23
275
     0
280
     0
281
     0
282
     0
283
     1
284
     4
285
     4
286
     4
287
     1
288
     0
  0
ENDTAB
  0
TABLE
  2
BLOCK_RECORD
  5
1
330
0
100
AcDbSymbolTable
 70
     1
  0
BLOCK_RECORD
  5
2
102
{ACAD_XDICTIONARY
360
BE
102
}
330
1
100
AcDbSymbolTableRecord
100
AcDbBlockTableRecord
  2
*MODEL_SPACE
  0
BLOCK_RECORD
  5
C
102
{ACAD_XDICTIONARY
360
C0
102
}
330
1
100
AcDbSymbolTableRecord
100
AcDbBlockTableRecord
  2
*PAPER_SPACE
  0
BLOCK_RECORD
  5
148
330
1
100
AcDbSymbolTableRecord
100
AcDbBlockTableRecord
  2
*D0
  0
ENDTAB
  0
ENDSEC
  0
SECTION
  2
BLOCKS
  0
BLOCK
  5
3
330
2
100
AcDbEntity
  8
0
100
AcDbBlockBegin
  2
*MODEL_SPACE
 70
     0
 10
0.0
 20
0.0
 30
0.0
  3
*MODEL_SPACE
  1

  0
ENDBLK
  5
9
330
2
100
AcDbEntity
  8
0
100
AcDbBlockEnd
  0
BLOCK
  5
D
330
C
100
AcDbEntity
 67
     1
  8
0
100
AcDbBlockBegin
  2
*PAPER_SPACE
 70
     0
 10
0.0
 20
0.0
 30
0.0
  3
*PAPER_SPACE
  1

  0
ENDBLK
  5
E
330
C
100
AcDbEntity
 67
     1
  8
0
100
AcDbBlockEnd
  0
BLOCK
  5
153
330
148
100
AcDbEntity
  8
0
100
AcDbBlockBegin
  2
*D0
 70
     1
 10
0.0
 20
0.0
 30
0.0
  3
*D0
  1

  0
LINE
  5
149
330
148
100
AcDbEntity
  8
0
 62
     0
100
AcDbLine
 10
303.8765793867888
 20
226.1899211590156
 30
0.0
 11
294.3736781626407
 21
226.1899211590156
 31
0.0
  0
LINE
  5
14A
330
148
100
AcDbEntity
  8
0
 62
     0
100
AcDbLine
 10
308.2524926995213
 20
199.4399211590156
 30
0.0
 11
294.3736781626407
 21
199.4399211590156
 31
0.0
  0
LINE
  5
14B
330
148
100
AcDbEntity
  8
0
 62
     0
100
AcDbLine
 10
295.9736781626407
 20
224.5899211590156
 30
0.0
 11
295.9736781626407
 21
201.0399211590156
 31
0.0
  0
SOLID
  5
14C
330
148
100
AcDbEntity
  8
0
 62
     0
100
AcDbTrace
 10
295.707011495974
 20
224.5899211590156
 30
0.0
 11
296.2403448293073
 21
224.5899211590156
 31
0.0
 12
295.9736781626407
 22
226.1899211590156
 32
0.0
 13
295.9736781626407
 23
226.1899211590156
 33
0.0
  0
SOLID
  5
14D
330
148
100
AcDbEntity
  8
0
 62
     0
100
AcDbTrace
 10
295.707011495974
 20
201.0399211590156
 30
0.0
 11
296.2403448293073
 21
201.0399211590156
 31
0.0
 12
295.9736781626407
 22
199.4399211590156
 32
0.0
 13
295.9736781626407
 23
199.4399211590156
 33
0.0
  0
MTEXT
  5
14E
330
148
100
AcDbEntity
  8
0
 62
     0
100
AcDbMText
 10
293.0936781626406
 20
212.8149211590156
 30
0.0
 40
1.6
 41
0.0
 71
     5
 72
     1
  1
\A1;26{\H1.000000x;\S3/4;}
  7
ROMANS
 11
0.0000000000000001
 21
1.0
 31
0.0
1001
ACAD
1000
MTEXTBEGIN
1070
    73
1070
     1
1070
    44
1040
1.0
1070
    74
1070
     1
1000
MTEXTEND
  0
MTEXT
  5
14F
330
148
100
AcDbEntity
  8
0
 62
     0
100
AcDbMText
 10
298.4727257816882
 20
212.8149211590156
 30
0.0
 40
1.6
 41
0.0
 71
     5
 72
     1
  1
\A1;[67.9cm]
  7
ROMANS
 11
0.0000000000000001
 21
1.0
 31
0.0
1001
ACAD
1000
MTEXTBEGIN
1070
    73
1070
     1
1070
    44
1040
1.0
1070
    74
1070
     0
1000
MTEXTEND
  0
POINT
  5
150
330
148
100
AcDbEntity
  8
DEFPOINTS
 62
     0
100
AcDbPoint
 10
304.8765793867888
 20
226.1899211590156
 30
0.0
  0
POINT
  5
151
330
148
100
AcDbEntity
  8
DEFPOINTS
 62
     0
100
AcDbPoint
 10
309.2524926995213
 20
199.4399211590156
 30
0.0
  0
POINT
  5
152
330
148
100
AcDbEntity
  8
DEFPOINTS
 62
     0
100
AcDbPoint
 10
295.9736781626407
 20
199.4399211590156
 30
0.0
  0
ENDBLK
  5
154
330
148
100
AcDbEntity
  8
0
100
AcDbBlockEnd
  0
ENDSEC
  0
SECTION
  2
ENTITIES
  0
LINE
  5
2A
330
2
100
AcDbEntity
  8
0
100
AcDbLine
 10
302.5685554335418
 20
223.4399211590155
 30
0.0
 11
374.0685554335418
 21
223.4399211590155
 31
0.0
  0
LINE
  5
2B
330
2
100
AcDbEntity
  8
0
100
AcDbLine
 10
305.0014244115699
 20
226.1899211590156
 30
0.0
 11
371.6356864555142
 21
226.1899211590156
 31
0.0
  0
LINE
  5
2C
330
2
100
AcDbEntity
  8
0
100
AcDbLine
 10
347.2533873867834
 20
205.4696866146085
 30
0.0
 11
363.6087257507356
 21
205.4696866146085
 31
0.0
  0
LINE
  5
2D
330
2
100
AcDbEntity
  8
0
100
AcDbLine
 10
347.428400125756
 20
200.3320277953818
 30
0.0
 11
367.398226571754
 21
200.3320277953818
 31
0.0
  0
LINE
  5
2E
330
2
100
AcDbEntity
  8
0
100
AcDbLine
 10
346.3185554335416
 20
199.454765807309
 30
0.0
 11
367.5059345222265
 21
199.4548169343487
 31
0.0
  0
LINE
  5
2F
330
2
100
AcDbEntity
  8
0
100
AcDbLine
 10
347.5866176850772
 20
199.4399211590156
 30
0.0
 11
367.3846181675619
 21
199.4399211590156
 31
0.0
  0
LINE
  5
30
330
2
100
AcDbEntity
  8
0
100
AcDbLine
 10
367.0811987958289
 20
200.777991090431
 30
0.0
 11
347.3932441472828
 21
200.777991090431
 31
0.0
  0
LINE
  5
31
330
2
100
AcDbEntity
  8
0
  6
HIDDEN
 48
0.05
100
AcDbLine
 10
339.329340681132
 20
203.7530058141644
 30
0.0
 11
356.6041535569167
 21
203.7530058141644
 31
0.0
  0
LINE
  5
33
330
2
100
AcDbEntity
  8
0
  6
HIDDEN
 48
0.05
100
AcDbLine
 10
362.316993752787
 20
204.0030044068185
 30
0.0
 11
314.3202772168905
 21
204.0030044068184
 31
0.0
  0
LINE
  5
34
330
2
100
AcDbEntity
  8
0
  6
HIDDEN
 48
0.05
100
AcDbLine
 10
338.3185554335416
 20
205.0030044068185
 30
0.0
 11
358.5984830121744
 21
205.356989044729
 31
0.0
  0
SPLINE
  5
35
330
2
100
AcDbEntity
  8
0
100
AcDbSpline
210
0.0
220
0.0
230
1.0
 70
     8
 71
     3
 72
    19
 73
    15
 74
    13
 42
0.0000000001
 43
0.0000000001
 44
0.0000000001
 40
0.0
 40
0.0
 40
0.0
 40
0.0
 40
0.0934776533930653
 40
0.1971625477050971
 40
0.3106155176506855
 40
0.4327346522290814
 40
0.5624053863223415
 40
0.698318349453038
 40
0.8383742717504956
 40
0.9804895374271886
 40
1.123452479288528
 40
1.26632804334012
 40
1.408379324710308
 40
1.549112009942865
 40
1.549112009942865
 40
1.549112009942865
 40
1.549112009942865
 10
335.2488150243723
 20
200.9029424693717
 30
0.0
 10
335.2608040763872
 20
200.9317029012481
 30
0.0
 10
335.2860913183537
 20
200.9923642445321
 30
0.0
 10
335.3263913590036
 20
201.0877380679918
 30
0.0
 10
335.3699455353057
 20
201.1921007033319
 30
0.0
 10
335.4158301160891
 20
201.3048736239689
 30
0.0
 10
335.4628347433501
 20
201.4252629062939
 30
0.0
 10
335.5096419019029
 20
201.5521264411079
 30
0.0
 10
335.5548558851813
 20
201.6839651706909
 30
0.0
 10
335.5972008073097
 20
201.8192214413054
 30
0.0
 10
335.6357181235989
 20
201.9566021020144
 30
0.0
 10
335.669557139033
 20
202.0951807584233
 30
0.0
 10
335.6987059493968
 20
202.2340911081883
 30
0.0
 10
335.7136607019159
 20
202.3271698825862
 30
0.0
 10
335.721103211844
 20
202.3734922608191
 30
0.0
 11
335.2488150243723
 21
200.9029424693717
 31
0.0
 11
335.2848480702604
 21
200.989196114442
 31
0.0
 11
335.3250566183263
 21
201.0847671873193
 31
0.0
 11
335.368682515164
 21
201.1894971138665
 31
0.0
 11
335.4146214859145
 21
201.3026461041252
 31
0.0
 11
335.4617077094224
 21
201.4234657500279
 31
0.0
 11
335.508678865496
 21
201.5510041522606
 31
0.0
 11
335.5540393645775
 21
201.6835110822441
 31
0.0
 11
335.5964362347992
 21
201.8191549325794
 31
0.0
 11
335.6349451740379
 21
201.9568337775206
 31
0.0
 11
335.6688625857318
 21
202.0956251172614
 31
0.0
 11
335.6976834254043
 21
202.2347219387186
 31
0.0
 11
335.721103211844
 21
202.3734922608191
 31
0.0
  0
ARC
  5
36
330
2
100
AcDbEntity
  8
0
100
AcDbCircle
 10
308.1527684232792
 20
203.2887905556237
 30
0.0
 40
2.8112306295987
100
AcDbArc
 50
301.9330861119992
 51
341.0
  0
SPLINE
  5
37
330
2
100
AcDbEntity
  8
0
100
AcDbSpline
210
0.0
220
0.0
230
1.0
 70
     8
 71
     3
 72
    19
 73
    15
 74
    13
 42
0.0000000001
 43
0.0000000001
 44
0.0000000001
 40
0.0
 40
0.0
 40
0.0
 40
0.0
 40
0.093477653393052
 40
0.19716254770507
 40
0.3106155176506672
 40
0.4327346522290516
 40
0.5624053863223351
 40
0.698318349453026
 40
0.8383742717504636
 40
0.9804895374271431
 40
1.123452479288491
 40
1.266328043340071
 40
1.408379324710336
 40
1.549112009942799
 40
1.549112009942799
 40
1.549112009942799
 40
1.549112009942799
 10
341.3882958427133
 20
200.9029424693669
 30
0.0
 10
341.3763067906985
 20
200.9317029012434
 30
0.0
 10
341.3510195487322
 20
200.9923642445274
 30
0.0
 10
341.3107195080823
 20
201.0877380679871
 30
0.0
 10
341.2671653317804
 20
201.1921007033273
 30
0.0
 10
341.2212807509971
 20
201.3048736239644
 30
0.0
 10
341.1742761237363
 20
201.4252629062894
 30
0.0
 10
341.1274689651837
 20
201.5521264411036
 30
0.0
 10
341.0822549819057
 20
201.6839651706866
 30
0.0
 10
341.0399100597773
 20
201.8192214413011
 30
0.0
 10
341.0013927434884
 20
201.9566021020103
 30
0.0
 10
340.9675537280544
 20
202.0951807584192
 30
0.0
 10
340.9384049176909
 20
202.2340911081842
 30
0.0
 10
340.923450165172
 20
202.3271698825821
 30
0.0
 10
340.9160076552439
 20
202.373492260815
 30
0.0
 11
341.3882958427133
 21
200.9029424693669
 31
0.0
 11
341.3522627968254
 21
200.9891961144372
 31
0.0
 11
341.3120542487597
 21
201.0847671873146
 31
0.0
 11
341.2684283519221
 21
201.1894971138619
 31
0.0
 11
341.2224893811718
 21
201.3026461041206
 31
0.0
 11
341.1754031576641
 21
201.4234657500234
 31
0.0
 11
341.1284320015907
 21
201.5510041522562
 31
0.0
 11
341.0830715025094
 21
201.6835110822398
 31
0.0
 11
341.0406746322879
 21
201.8191549325751
 31
0.0
 11
341.0021656930494
 21
201.9568337775164
 31
0.0
 11
340.9682482813558
 21
202.0956251172573
 31
0.0
 11
340.9394274416834
 21
202.2347219387145
 31
0.0
 11
340.9160076552439
 21
202.373492260815
 31
0.0
  0
LINE
  5
38
330
2
100
AcDbEntity
  8
CENTER
 48
0.05
100
AcDbLine
 10
338.329340681132
 20
207.69848611479
 30
0.0
 11
338.329340681132
 21
199.3075255135388
 31
0.0
  0
LINE
  5
3B
330
2
100
AcDbEntity
  8
0
100
AcDbLine
 10
329.050493182006
 20
199.4399211590156
 30
0.0
 11
309.2524926995213
 21
199.4399211590156
 31
0.0
  0
LINE
  5
3C
330
2
100
AcDbEntity
  8
0
100
AcDbLine
 10
329.2087107413273
 20
200.3320277953818
 30
0.0
 11
309.2388842953292
 21
200.3320277953818
 31
0.0
  0
LINE
  5
3D
330
2
100
AcDbEntity
  8
0
100
AcDbLine
 10
309.5559120712543
 20
200.777991090431
 30
0.0
 11
329.2438667198005
 21
200.777991090431
 31
0.0
  0
LINE
  5
3E
330
2
100
AcDbEntity
  8
0
100
AcDbLine
 10
330.3185554335416
 20
199.454765807309
 30
0.0
 11
309.1311763448567
 21
199.4548169343487
 31
0.0
  0
LINE
  5
3F
330
2
100
AcDbEntity
  8
0
100
AcDbLine
 10
309.1311763448567
 20
199.4548169343487
 30
0.0
 11
309.2388842953292
 21
200.3320277953818
 31
0.0
  0
LINE
  5
40
330
2
100
AcDbEntity
  8
0
100
AcDbLine
 10
309.2524926995213
 20
199.4399211590156
 30
0.0
 11
309.1311763448567
 21
199.4548169343487
 31
0.0
  0
ARC
  5
41
330
2
100
AcDbEntity
  8
0
100
AcDbCircle
 10
309.134113804924
 20
200.8493746361397
 30
0.0
 40
0.4277959653737153
100
AcDbArc
 50
297.9823259875992
 51
350.3944920933997
  0
ARC
  5
42
330
2
100
AcDbEntity
  8
0
100
AcDbCircle
 10
309.7366827570479
 20
200.7473981424936
 30
0.0
 40
0.1833411280173065
100
AcDbArc
 50
121.933086112
 51
170.3944920933996
  0
ARC
  5
43
330
2
100
AcDbEntity
  8
0
100
AcDbCircle
 10
309.4208588269351
 20
200.3096841327733
 30
0.0
 40
0.1833411280173065
100
AcDbArc
 50
117.9823259876001
 51
172.9999999999997
  0
LINE
  5
44
330
2
100
AcDbEntity
  8
0
100
AcDbLine
 10
335.2840647782898
 20
200.3319766683421
 30
0.0
 11
329.2087107413273
 21
200.3320277953818
 31
0.0
  0
LINE
  5
45
330
2
100
AcDbEntity
  8
0
100
AcDbLine
 10
329.2438667198005
 20
200.7779399633913
 30
0.0
 11
335.2461745382084
 21
200.7779399633913
 31
0.0
  0
LINE
  5
46
330
2
100
AcDbEntity
  8
0
100
AcDbLine
 10
335.3157081005546
 20
199.454765807309
 30
0.0
 11
330.3185554335416
 21
199.454765807309
 31
0.0
  0
LINE
  5
47
330
2
100
AcDbEntity
  8
0
100
AcDbLine
 10
335.3812244344742
 20
199.4398700319759
 30
0.0
 11
329.050493182006
 21
199.4398700319759
 31
0.0
  0
SPLINE
  5
48
330
2
100
AcDbEntity
  8
0
100
AcDbSpline
210
0.0
220
0.0
230
1.0
 70
     8
 71
     3
 72
    26
 73
    22
 74
    20
 42
0.0000000001
 43
0.0000000001
 44
0.0000000001
 40
0.0
 40
0.0
 40
0.0
 40
0.0
 40
0.0473024271884697
 40
0.1287586433376759
 40
0.2217683278163349
 40
0.3259015929078828
 40
0.4406809099726843
 40
0.5655841211312805
 40
0.7000481072606135
 40
0.8434722009747588
 40
0.9952213203399651
 40
1.154629850426715
 40
1.321004960855304
 40
1.493629507963191
 40
1.671765666035241
 40
1.854657888140764
 40
2.041535426560642
 40
2.231615487623571
 40
2.424105767778314
 40
2.618206668941354
 40
2.813114486187998
 40
2.813114486187998
 40
2.813114486187998
 40
2.813114486187998
 10
341.1316699197297
 20
199.4398700319759
 30
0.0
 10
341.1159024440002
 20
199.4398700319759
 30
0.0
 10
341.072982896221
 20
199.4398700319759
 30
0.0
 10
340.9990601202822
 20
199.4398700319759
 30
0.0
 10
340.906193731709
 20
199.4398700319758
 30
0.0
 10
340.8022196428308
 20
199.4398700319759
 30
0.0
 10
340.6876143783924
 20
199.4398700319759
 30
0.0
 10
340.5628988736081
 20
199.4398700319759
 30
0.0
 10
340.4286351099408
 20
199.4398700319759
 30
0.0
 10
340.2854227102046
 20
199.4398700319759
 30
0.0
 10
340.1338954624825
 20
199.4398700319759
 30
0.0
 10
339.9747178758557
 20
199.4398700319758
 30
0.0
 10
339.8085818133148
 20
199.439870031976
 30
0.0
 10
339.6362032081118
 20
199.4398700319758
 30
0.0
 10
339.4583188990166
 20
199.4398700319762
 30
0.0
 10
339.2756835928175
 20
199.4398700319749
 30
0.0
 10
339.0890669856215
 20
199.4398700319798
 30
0.0
 10
338.8992510257421
 20
199.4398700319613
 30
0.0
 10
338.7070272782819
 20
199.4398700320312
 30
0.0
 10
338.5131942787605
 20
199.4398700317672
 30
0.0
 10
338.3835247059573
 20
199.4398700324274
 30
0.0
 10
338.3185554335417
 20
199.4398700327581
 30
0.0
 11
341.1316699197297
 21
199.4398700319759
 31
0.0
 11
341.0843674925412
 21
199.4398700319759
 31
0.0
 11
341.002911276392
 21
199.4398700319759
 31
0.0
 11
340.9099015919134
 21
199.4398700319759
 31
0.0
 11
340.8057683268218
 21
199.4398700319759
 31
0.0
 11
340.690989009757
 21
199.4398700319759
 31
0.0
 11
340.5660857985984
 21
199.4398700319759
 31
0.0
 11
340.4316218124691
 21
199.4398700319759
 31
0.0
 11
340.2881977187549
 21
199.4398700319759
 31
0.0
 11
340.1364485993898
 21
199.4398700319759
 31
0.0
 11
339.977040069303
 21
199.4398700319759
 31
0.0
 11
339.8106649588744
 21
199.4398700319759
 31
0.0
 11
339.6380404117665
 21
199.4398700319759
 31
0.0
 11
339.4599042536944
 21
199.4398700319759
 31
0.0
 11
339.2770120315889
 21
199.4398700319759
 31
0.0
 11
339.0901344931691
 21
199.4398700319759
 31
0.0
 11
338.9000544321061
 21
199.4398700319759
 31
0.0
 11
338.7075641519514
 21
199.4398700319759
 31
0.0
 11
338.5134632507884
 21
199.4398700319759
 31
0.0
 11
338.3185554335417
 21
199.4398700327581
 31
0.0
  0
SPLINE
  5
49
330
2
100
AcDbEntity
  8
0
100
AcDbSpline
210
0.0
220
0.0
230
1.0
 70
     8
 71
     3
 72
    28
 73
    24
 74
    22
 42
0.0000000001
 43
0.0000000001
 44
0.0000000001
 40
0.0
 40
0.0
 40
0.0
 40
0.0
 40
0.038590448299774
 40
0.0935293051095244
 40
0.1602233643313585
 40
0.2383614793908291
 40
0.3275802941182647
 40
0.4274677216656154
 40
0.5375659019875499
 40
0.6573741173223855
 40
0.7863523353191591
 40
0.9239244826358319
 40
1.069481465229993
 40
1.222384888978052
 40
1.381970250907084
 40
1.547549719683215
 40
1.718415623504011
 40
1.893843289124583
 40
2.073093458985777
 40
2.255415322259495
 40
2.440048944204895
 40
2.626227391148236
 40
2.813179790985888
 40
2.813179790985888
 40
2.813179790985888
 40
2.813179790985888
 10
341.1316698188187
 20
199.4433069042799
 30
0.0
 10
341.1188106613673
 20
199.4436417835808
 30
0.0
 10
341.0876447093322
 20
199.4444534100242
 30
0.0
 10
341.0342455880982
 20
199.4454389832798
 30
0.0
 10
340.9676634038716
 20
199.4464790255161
 30
0.0
 10
340.8896527087952
 20
199.4474798823672
 30
0.0
 10
340.8005765817985
 20
199.4484559299744
 30
0.0
 10
340.7008461576657
 20
199.4493950313417
 30
0.0
 10
340.5909185442582
 20
199.4502947242155
 30
0.0
 10
340.4712933789443
 20
199.451150075741
 30
0.0
 10
340.3425097018188
 20
199.4519574170389
 30
0.0
 10
340.20514265263
 20
199.452713125469
 30
0.0
 10
340.0598001477954
 20
199.4534139598713
 30
0.0
 10
339.907119570353
 20
199.4540569498471
 30
0.0
 10
339.7477645425029
 20
199.4546394192014
 30
0.0
 10
339.5824217738882
 20
199.4551589763933
 30
0.0
 10
339.4117980271278
 20
199.4556135046108
 30
0.0
 10
339.2366172040482
 20
199.4560012118198
 30
0.0
 10
339.0576175839719
 20
199.4563204360827
 30
0.0
 10
338.8755491984346
 20
199.4565703667522
 30
0.0
 10
338.6911713031472
 20
199.4567483139537
 30
0.0
 10
338.5052498400766
 20
199.4568600558866
 30
0.0
 10
338.3808728903737
 20
199.4568738768187
 30
0.0
 10
338.3185554233724
 20
199.4568808016184
 30
0.0
 11
341.1316698188187
 21
199.4433069042799
 31
0.0
 11
341.0930914231162
 21
199.4442713134237
 31
0.0
 11
341.0381630242812
 21
199.4453432224622
 31
0.0
 11
340.9714771941697
 21
199.4463908854921
 31
0.0
 11
340.8933457218241
 21
199.4474097349237
 31
0.0
 11
340.804132351349
 21
199.44839534632
 31
0.0
 11
340.7042494236877
 21
199.4493434728158
 31
0.0
 11
340.5941549760208
 21
199.4502500615459
 31
0.0
 11
340.4743498560236
 21
199.4511112724177
 31
0.0
 11
340.3453741954596
 21
199.4519234914112
 31
0.0
 11
340.2078041466104
 21
199.4526833446584
 31
0.0
 11
340.0622488682453
 21
199.4533877039194
 31
0.0
 11
339.9093468091254
 21
199.4540336998815
 31
0.0
 11
339.7497625195307
 21
199.4546187268515
 31
0.0
 11
339.584183872688
 21
199.4551404451033
 31
0.0
 11
339.4133185782586
 21
199.4555967871356
 31
0.0
 11
339.2378913443154
 21
199.4559859608012
 31
0.0
 11
339.0586414609559
 21
199.4563064461776
 31
0.0
 11
338.8763197698442
 21
199.4565570010432
 31
0.0
 11
338.6916862353073
 21
199.4567366593124
 31
0.0
 11
338.5055078197304
 21
199.4568447310359
 31
0.0
 11
338.3185554233724
 21
199.4568808016184
 31
0.0
  0
SPLINE
  5
4A
330
2
100
AcDbEntity
  8
0
100
AcDbSpline
210
0.0
220
0.0
230
1.0
 70
     8
 71
     3
 72
    29
 73
    25
 74
     0
 42
0.0000000001
 43
0.0000000001
 40
0.3605313639155346
 40
0.3605313639155346
 40
0.3605313639155346
 40
0.3605313639155346
 40
0.3605615180152746
 40
0.3845270535602335
 40
0.4083929989465371
 40
0.432059894614379
 40
0.4554299170196366
 40
0.4784021260382352
 40
0.5008860159195664
 40
0.5227809671690743
 40
0.5440015030023517
 40
0.5644476234560603
 40
0.5840389332516133
 40
0.6026802132256036
 40
0.6202970533133625
 40
0.6368034721074577
 40
0.6521220821445306
 40
0.666188646828172
 40
0.678938281881838
 40
0.690309652572247
 40
0.7002536160924621
 40
0.7087223174695012
 40
0.7156690488606872
 40
0.7210626657508109
 40
0.7210626657508109
 40
0.7210626657508109
 40
0.7210626657508109
 10
338.3185554335416
 20
200.3178074003382
 30
0.0
 10
338.3186340609082
 20
200.3178074003382
 30
0.0
 10
338.3812032605025
 20
200.3178073821358
 30
0.0
 10
338.5060033491478
 20
200.3177784800414
 30
0.0
 10
338.6924366337503
 20
200.3176488885066
 30
0.0
 10
338.8773170270622
 20
200.3174338469881
 30
0.0
 10
339.0598668665452
 20
200.317134658411
 30
0.0
 10
339.2393318366895
 20
200.3167531146631
 30
0.0
 10
339.4149503311828
 20
200.3162915243143
 30
0.0
 10
339.58600106392
 20
200.3157525897488
 30
0.0
 10
339.7517379916034
 20
200.3151395717773
 30
0.0
 10
339.9114678041425
 20
200.314456049249
 30
0.0
 10
340.0644717859779
 20
200.3137061887457
 30
0.0
 10
340.2100979435345
 20
200.3128943499397
 30
0.0
 10
340.3476797128066
 20
200.3120254777132
 30
0.0
 10
340.4765970173942
 20
200.3111047417015
 30
0.0
 10
340.5962563001045
 20
200.3101378133454
 30
0.0
 10
340.7061189884881
 20
200.3091302259955
 30
0.0
 10
340.8056883710534
 20
200.3080887593822
 30
0.0
 10
340.8945069606715
 20
200.3070173682617
 30
0.0
 10
340.9721619028875
 20
200.3059304587504
 30
0.0
 10
341.0382775033255
 20
200.30719309535
 30
0.0
 10
341.0925273566986
 20
200.3077946303757
 30
0.0
 10
341.1529352967885
 20
200.3114016998353
 30
0.0
 10
341.324365710915
 20
200.3199361286383
 30
0.0
  0
SPLINE
  5
4B
330
2
100
AcDbEntity
  8
0
100
AcDbSpline
210
0.0
220
0.0
230
1.0
 70
     8
 71
     3
 72
    29
 73
    25
 74
     0
 42
0.0000000001
 43
0.0000000001
 40
0.3605313639155346
 40
0.3605313639155346
 40
0.3605313639155346
 40
0.3605313639155346
 40
0.3605615180152746
 40
0.3845270535602335
 40
0.4083929989465371
 40
0.432059894614379
 40
0.4554299170196366
 40
0.4784021260382352
 40
0.5008860159195664
 40
0.5227809671690743
 40
0.5440015030023517
 40
0.5644476234560603
 40
0.5840389332516133
 40
0.6026802132256036
 40
0.6202970533133625
 40
0.6368034721074577
 40
0.6521220821445306
 40
0.666188646828172
 40
0.678938281881838
 40
0.690309652572247
 40
0.7002536160924621
 40
0.7087223174695012
 40
0.7156690488606872
 40
0.7210626657508109
 40
0.7210626657508109
 40
0.7210626657508109
 40
0.7210626657508109
 10
338.3185554335416
 20
200.3178074003382
 30
0.0
 10
338.3184768061751
 20
200.3178074003382
 30
0.0
 10
338.2559076065808
 20
200.3178073821358
 30
0.0
 10
338.1311075179354
 20
200.3177784800414
 30
0.0
 10
337.944674233333
 20
200.3176488885066
 30
0.0
 10
337.759793840021
 20
200.3174338469881
 30
0.0
 10
337.577244000538
 20
200.317134658411
 30
0.0
 10
337.3977790303936
 20
200.3167531146631
 30
0.0
 10
337.2221605359005
 20
200.3162915243143
 30
0.0
 10
337.0511098031633
 20
200.3157525897488
 30
0.0
 10
336.8853728754798
 20
200.3151395717773
 30
0.0
 10
336.7256430629407
 20
200.314456049249
 30
0.0
 10
336.5726390811053
 20
200.3137061887457
 30
0.0
 10
336.4270129235487
 20
200.3128943499397
 30
0.0
 10
336.2894311542766
 20
200.3120254777132
 30
0.0
 10
336.160513849689
 20
200.3111047417015
 30
0.0
 10
336.0408545669788
 20
200.3101378133454
 30
0.0
 10
335.9309918785951
 20
200.3091302259955
 30
0.0
 10
335.8314224960298
 20
200.3080887593822
 30
0.0
 10
335.7426039064118
 20
200.3070173682617
 30
0.0
 10
335.6649489641957
 20
200.3059304587504
 30
0.0
 10
335.5988333637577
 20
200.3078067609752
 30
0.0
 10
335.5445835103846
 20
200.3110006764849
 30
0.0
 10
335.4492137998965
 20
200.3125976342397
 30
0.0
 10
335.3127451561683
 20
200.3199361286383
 30
0.0
  0
SPLINE
  5
4C
330
2
100
AcDbEntity
  8
0
100
AcDbSpline
210
0.0
220
0.0
230
1.0
 70
     8
 71
     3
 72
    28
 73
    24
 74
    22
 42
0.0000000001
 43
0.0000000001
 44
0.0000000001
 40
0.0
 40
0.0
 40
0.0
 40
0.0
 40
0.0385904482997172
 40
0.0935293051095244
 40
0.1602233643313016
 40
0.2383614793908291
 40
0.3275802941182647
 40
0.4274677216656154
 40
0.5375659019875499
 40
0.6573741173223855
 40
0.7863523353191591
 40
0.9239244826358319
 40
1.069481465229936
 40
1.222384888978052
 40
1.381970250907027
 40
1.547549719683215
 40
1.718415623504011
 40
1.893843289124526
 40
2.07309345898572
 40
2.255415322259438
 40
2.440048944204838
 40
2.626227391148179
 40
2.813179790985888
 40
2.813179790985888
 40
2.813179790985888
 40
2.813179790985888
 10
335.5054410482645
 20
199.4433069042799
 30
0.0
 10
335.518300205716
 20
199.4436417835808
 30
0.0
 10
335.5494661577509
 20
199.4444534100242
 30
0.0
 10
335.602865278985
 20
199.4454389832798
 30
0.0
 10
335.6694474632117
 20
199.4464790255161
 30
0.0
 10
335.747458158288
 20
199.4474798823672
 30
0.0
 10
335.8365342852849
 20
199.4484559299744
 30
0.0
 10
335.9362647094174
 20
199.4493950313417
 30
0.0
 10
336.0461923228251
 20
199.4502947242155
 30
0.0
 10
336.1658174881389
 20
199.451150075741
 30
0.0
 10
336.2946011652645
 20
199.4519574170389
 30
0.0
 10
336.4319682144533
 20
199.452713125469
 30
0.0
 10
336.5773107192878
 20
199.4534139598713
 30
0.0
 10
336.7299912967303
 20
199.4540569498471
 30
0.0
 10
336.8893463245804
 20
199.4546394192014
 30
0.0
 10
337.0546890931951
 20
199.4551589763933
 30
0.0
 10
337.2253128399555
 20
199.4556135046108
 30
0.0
 10
337.400493663035
 20
199.4560012118197
 30
0.0
 10
337.5794932831113
 20
199.4563204360827
 30
0.0
 10
337.7615616686488
 20
199.4565703667522
 30
0.0
 10
337.9459395639359
 20
199.4567483139537
 30
0.0
 10
338.1318610270066
 20
199.4568600558866
 30
0.0
 10
338.2562379767095
 20
199.4568738768187
 30
0.0
 10
338.3185554437108
 20
199.4568808016184
 30
0.0
 11
335.5054410482645
 21
199.4433069042799
 31
0.0
 11
335.544019443967
 21
199.4442713134237
 31
0.0
 11
335.598947842802
 21
199.4453432224622
 31
0.0
 11
335.6656336729135
 21
199.4463908854921
 31
0.0
 11
335.7437651452591
 21
199.4474097349237
 31
0.0
 11
335.8329785157343
 21
199.44839534632
 31
0.0
 11
335.9328614433955
 21
199.4493434728158
 31
0.0
 11
336.0429558910624
 21
199.4502500615459
 31
0.0
 11
336.1627610110596
 21
199.4511112724177
 31
0.0
 11
336.2917366716237
 21
199.4519234914112
 31
0.0
 11
336.4293067204728
 21
199.4526833446584
 31
0.0
 11
336.5748619988379
 21
199.4533877039194
 31
0.0
 11
336.7277640579578
 21
199.4540336998815
 31
0.0
 11
336.8873483475525
 21
199.4546187268515
 31
0.0
 11
337.0529269943953
 21
199.4551404451033
 31
0.0
 11
337.2237922888247
 21
199.4555967871356
 31
0.0
 11
337.3992195227677
 21
199.4559859608012
 31
0.0
 11
337.5784694061272
 21
199.4563064461776
 31
0.0
 11
337.760791097239
 21
199.4565570010432
 31
0.0
 11
337.9454246317759
 21
199.4567366593124
 31
0.0
 11
338.1316030473529
 21
199.4568447310359
 31
0.0
 11
338.3185554437108
 21
199.4568808016184
 31
0.0
  0
SPLINE
  5
4D
330
2
100
AcDbEntity
  8
0
100
AcDbSpline
210
0.0
220
0.0
230
1.0
 70
     8
 71
     3
 72
    26
 73
    22
 74
    20
 42
0.0000000001
 43
0.0000000001
 44
0.0000000001
 40
0.0
 40
0.0
 40
0.0
 40
0.0
 40
0.0473024271884128
 40
0.1287586433376191
 40
0.2217683278162781
 40
0.3259015929078259
 40
0.4406809099726843
 40
0.5655841211312805
 40
0.7000481072605567
 40
0.8434722009747019
 40
0.9952213203399651
 40
1.154629850426715
 40
1.321004960855248
 40
1.493629507963134
 40
1.671765666035184
 40
1.854657888140764
 40
2.041535426560642
 40
2.231615487623571
 40
2.424105767778314
 40
2.618206668941354
 40
2.813114486187998
 40
2.813114486187998
 40
2.813114486187998
 40
2.813114486187998
 10
335.5054409473535
 20
199.4398700319759
 30
0.0
 10
335.521208423083
 20
199.4398700319759
 30
0.0
 10
335.5641279708622
 20
199.4398700319759
 30
0.0
 10
335.638050746801
 20
199.4398700319759
 30
0.0
 10
335.7309171353741
 20
199.4398700319759
 30
0.0
 10
335.8348912242524
 20
199.4398700319759
 30
0.0
 10
335.9494964886909
 20
199.4398700319759
 30
0.0
 10
336.074211993475
 20
199.4398700319759
 30
0.0
 10
336.2084757571424
 20
199.4398700319759
 30
0.0
 10
336.3516881568786
 20
199.4398700319759
 30
0.0
 10
336.5032154046007
 20
199.4398700319759
 30
0.0
 10
336.6623929912275
 20
199.4398700319759
 30
0.0
 10
336.8285290537685
 20
199.4398700319759
 30
0.0
 10
337.0009076589715
 20
199.4398700319759
 30
0.0
 10
337.1787919680665
 20
199.4398700319761
 30
0.0
 10
337.3614272742658
 20
199.4398700319749
 30
0.0
 10
337.5480438814619
 20
199.4398700319798
 30
0.0
 10
337.7378598413411
 20
199.4398700319613
 30
0.0
 10
337.9300835888012
 20
199.4398700320312
 30
0.0
 10
338.1239165883229
 20
199.4398700317672
 30
0.0
 10
338.2535861611259
 20
199.4398700324274
 30
0.0
 10
338.3185554335415
 20
199.4398700327581
 30
0.0
 11
335.5054409473535
 21
199.4398700319759
 31
0.0
 11
335.5527433745419
 21
199.4398700319759
 31
0.0
 11
335.6341995906912
 21
199.4398700319759
 31
0.0
 11
335.7272092751698
 21
199.4398700319759
 31
0.0
 11
335.8313425402613
 21
199.4398700319759
 31
0.0
 11
335.9461218573262
 21
199.4398700319759
 31
0.0
 11
336.0710250684848
 21
199.4398700319759
 31
0.0
 11
336.2054890546141
 21
199.4398700319759
 31
0.0
 11
336.3489131483282
 21
199.4398700319759
 31
0.0
 11
336.5006622676935
 21
199.4398700319759
 31
0.0
 11
336.6600707977803
 21
199.4398700319759
 31
0.0
 11
336.8264459082088
 21
199.4398700319759
 31
0.0
 11
336.9990704553167
 21
199.4398700319759
 31
0.0
 11
337.1772066133887
 21
199.4398700319759
 31
0.0
 11
337.3600988354943
 21
199.4398700319759
 31
0.0
 11
337.5469763739142
 21
199.4398700319759
 31
0.0
 11
337.7370564349771
 21
199.4398700319759
 31
0.0
 11
337.9295467151318
 21
199.4398700319759
 31
0.0
 11
338.1236476162949
 21
199.4398700319759
 31
0.0
 11
338.3185554335415
 21
199.4398700327581
 31
0.0
  0
SPLINE
  5
4E
330
2
100
AcDbEntity
  8
0
100
AcDbSpline
210
0.0
220
0.0
230
1.0
 70
     8
 71
     3
 72
    10
 73
     6
 74
     4
 42
0.0000000001
 43
0.0000000001
 44
0.0000000001
 40
0.0
 40
0.0
 40
0.0
 40
0.0
 40
0.0104183355636744
 40
0.0207928721792295
 40
0.0311389693049749
 40
0.0311389693049749
 40
0.0311389693049749
 40
0.0311389693049749
 10
335.3127451561683
 20
200.3199361286383
 30
0.0
 10
335.3094583398158
 20
200.3210591584399
 30
0.0
 10
335.3028985249707
 20
200.3233004967973
 30
0.0
 10
335.2933178519476
 20
200.3273230614603
 30
0.0
 10
335.2871463126547
 20
200.3304268860689
 30
0.0
 10
335.2840647782898
 20
200.3319766683421
 30
0.0
 11
335.3127451561683
 21
200.3199361286383
 31
0.0
 11
335.3029254718434
 21
200.3234168635717
 31
0.0
 11
335.293360160573
 21
200.3274338064751
 31
0.0
 11
335.2840647782898
 21
200.3319766683421
 31
0.0
  0
LWPOLYLINE
  5
4F
330
2
100
AcDbEntity
  8
0
100
AcDbPolyline
 90
       10
 70
     0
 43
0.0
 10
335.2870444903241
 20
200.4715401568264
 10
335.2865238046495
 20
200.4614587900518
 10
335.2860394469195
 20
200.4496507444991
 10
335.2855969265592
 20
200.4362503123133
 10
335.2852012758182
 20
200.4214099042408
 10
335.2848569942301
 20
200.405298294248
 10
335.2845679977657
 20
200.3880987131648
 10
335.2843375734626
 20
200.3700067631919
 10
335.2841683403121
 20
200.3512282197621
 10
335.2840622250095
 20
200.3319766683469
  0
SPLINE
  5
50
330
2
100
AcDbEntity
  8
0
100
AcDbSpline
210
0.0
220
0.0
230
1.0
 70
     8
 71
     3
 72
     9
 73
     5
 74
     3
 42
0.0000000001
 43
0.0000000001
 44
0.0000000001
 40
0.0
 40
0.0
 40
0.0
 40
0.0
 40
0.4327344116886949
 40
0.8651753951267215
 40
0.8651753951267215
 40
0.8651753951267215
 40
0.8651753951267215
 10
335.3127451561698
 20
200.319936128643
 30
0.0
 10
335.3132342468312
 20
200.1756921538824
 30
0.0
 10
335.3142120965117
 20
199.8873020132158
 30
0.0
 10
335.3152095453035
 20
199.5989119396704
 30
0.0
 10
335.3157081005547
 20
199.4547658073137
 30
0.0
 11
335.3127451561698
 21
200.319936128643
 31
0.0
 11
335.3142173312559
 21
199.8872042211529
 31
0.0
 11
335.3157081005547
 21
199.4547658073137
 31
0.0
  0
LWPOLYLINE
  5
51
330
2
100
AcDbEntity
  8
0
100
AcDbPolyline
 90
        9
 70
     0
 43
0.0
 10
335.2488201325007
 20
200.9029424693717
 10
335.2483183304734
 20
200.8918277978664
 10
335.2478574787382
 20
200.8791292295468
 10
335.247440669551
 20
200.8649338740362
 10
335.2470737886021
 20
200.8494370057702
 10
335.2467604475648
 20
200.8327930779638
 10
335.2465043950078
 20
200.8152005699534
 10
335.2463082992041
 20
200.7968417410074
 10
335.2461745382107
 20
200.7779399633961
  0
SPLINE
  5
52
330
2
100
AcDbEntity
  8
0
100
AcDbSpline
210
0.0
220
0.0
230
1.0
 70
     8
 71
     3
 72
    12
 73
     8
 74
     6
 42
0.0000000001
 43
0.0000000001
 44
0.0000000001
 40
0.0
 40
0.0
 40
0.0
 40
0.0
 40
0.0359827199015729
 40
0.0743076915752227
 40
0.1144642724113847
 40
0.155944293995131
 40
0.1983885225886753
 40
0.1983885225886753
 40
0.1983885225886753
 40
0.1983885225886753
 10
335.2253562495369
 20
200.5809728765916
 30
0.0
 10
335.2277323418568
 20
200.5927311099017
 30
0.0
 10
335.2326391953616
 20
200.6170129645436
 30
0.0
 10
335.2381941716615
 20
200.6547793187619
 30
0.0
 10
335.2424877464826
 20
200.6945412795437
 30
0.0
 10
335.2453445645007
 20
200.7358202226039
 30
0.0
 10
335.2458952914205
 20
200.763792923534
 30
0.0
 10
335.2461738185356
 20
200.7779399633962
 30
0.0
 11
335.2253562495369
 21
200.5809728765916
 31
0.0
 11
335.2321795316264
 21
200.6163027358192
 31
0.0
 11
335.2378668700261
 21
200.6542033642534
 31
0.0
 11
335.2421881869722
 21
200.6941267559468
 31
0.0
 11
335.2449848723434
 21
200.7355123904293
 31
0.0
 11
335.2461738185356
 21
200.7779399633962
 31
0.0
  0
SPLINE
  5
53
330
2
100
AcDbEntity
  8
0
100
AcDbSpline
210
0.0
220
0.0
230
1.0
 70
     8
 71
     3
 72
    18
 73
    14
 74
    12
 42
0.0000000001
 43
0.0000000001
 44
0.0000000001
 40
0.0
 40
0.0
 40
0.0
 40
0.0
 40
0.0100101223870041
 40
0.0202601795409331
 40
0.0309121188419217
 40
0.0420952927460754
 40
0.0539291559913491
 40
0.0665789573727283
 40
0.0801185661067662
 40
0.0942810485406186
 40
0.1085193557650218
 40
0.1226323617278379
 40
0.1368702587155004
 40
0.1368702587155004
 40
0.1368702587155004
 40
0.1368702587155004
 10
335.2870433521424
 20
200.4715401568264
 30
0.0
 10
335.2840118255713
 20
200.4729377684342
 30
0.0
 10
335.2778761091197
 20
200.4757664913015
 30
0.0
 10
335.2689562576967
 20
200.480956255571
 30
0.0
 10
335.2601627694614
 20
200.4870655744645
 30
0.0
 10
335.2516069746857
 20
200.4943616575533
 30
0.0
 10
335.2434552169106
 20
200.5030536856774
 30
0.0
 10
335.2360073421771
 20
200.5133577279335
 30
0.0
 10
335.2297591599003
 20
200.5253267952905
 30
0.0
 10
335.2252955054016
 20
200.5386452717912
 30
0.0
 10
335.2230572798212
 20
200.5526903116243
 30
0.0
 10
335.222908405994
 20
200.5669645750532
 30
0.0
 10
335.2245379089343
 20
200.5762897496999
 30
0.0
 10
335.2253562495369
 20
200.5809728765916
 30
0.0
 11
335.2870433521424
 21
200.4715401568264
 31
0.0
 11
335.2780194524056
 21
200.475872798485
 31
0.0
 11
335.2691450471666
 21
200.4810019897774
 31
0.0
 11
335.2604120416459
 21
200.4871010409698
 31
0.0
 11
335.2519112173741
 21
200.4943673581436
 31
0.0
 11
335.2438286009623
 21
200.5030109471695
 31
0.0
 11
335.2364323550647
 21
200.5132731604595
 31
0.0
 11
335.2301759899487
 21
200.5252806123209
 31
0.0
 11
335.2256833981655
 21
200.5387116408653
 31
0.0
 11
335.2234021464055
 21
200.5527660096887
 31
0.0
 11
335.2233371949509
 21
200.5668788661896
 31
0.0
 11
335.2253562495369
 21
200.5809728765916
 31
0.0
  0
SPLINE
  5
54
330
2
100
AcDbEntity
  8
0
100
AcDbSpline
210
0.0
220
0.0
230
1.0
 70
    24
 71
     3
 72
     8
 73
     4
 74
     2
 42
0.0000000001
 43
0.0000000001
 44
0.0000000001
 40
0.0
 40
0.0
 40
0.0
 40
0.0
 40
0.0043254417790877
 40
0.0043254417790877
 40
0.0043254417790877
 40
0.0043254417790877
 10
335.5011155055744
 20
199.4398700319759
 30
0.0
 10
335.5025573195008
 20
199.4398700319759
 30
0.0
 10
335.5039991334271
 20
199.4398700319759
 30
0.0
 10
335.5054409473535
 20
199.4398700319759
 30
0.0
 11
335.5011155055744
 21
199.4398700319759
 31
0.0
 11
335.5054409473535
 21
199.4398700319759
 31
0.0
  0
SPLINE
  5
55
330
2
100
AcDbEntity
  8
0
100
AcDbSpline
210
0.0
220
0.0
230
1.0
 70
    24
 71
     3
 72
    10
 73
     6
 74
     4
 42
0.0000000001
 43
0.0000000001
 44
0.0000000001
 40
0.0
 40
0.0
 40
0.0
 40
0.0
 40
0.0447296366337469
 40
0.1019954148416673
 40
0.1112195031427632
 40
0.1112195031427632
 40
0.1112195031427632
 40
0.1112195031427632
 10
335.3812244352564
 20
199.4398700319759
 30
0.0
 10
335.3961343141344
 20
199.4398700319759
 30
0.0
 10
335.4301327857483
 20
199.439870031976
 30
0.0
 10
335.4672059534625
 20
199.4398700319758
 30
0.0
 10
335.4893692422988
 20
199.4398700319759
 30
0.0
 10
335.4924439383992
 20
199.4398700319759
 30
0.0
 11
335.3812244352564
 21
199.4398700319759
 31
0.0
 11
335.4259540718901
 21
199.4398700319759
 31
0.0
 11
335.4832198500981
 21
199.4398700319759
 31
0.0
 11
335.4924439383992
 21
199.4398700319759
 31
0.0
  0
SPLINE
  5
56
330
2
100
AcDbEntity
  8
0
100
AcDbSpline
210
0.0
220
0.0
230
1.0
 70
    24
 71
     3
 72
     8
 73
     4
 74
     2
 42
0.0000000001
 43
0.0000000001
 44
0.0000000001
 40
0.0
 40
0.0
 40
0.0
 40
0.0
 40
0.00867156717527
 40
0.00867156717527
 40
0.00867156717527
 40
0.00867156717527
 10
335.4924439383992
 20
199.4398700319759
 30
0.0
 10
335.495334460791
 20
199.4398700319759
 30
0.0
 10
335.4982249831827
 20
199.4398700319759
 30
0.0
 10
335.5011155055744
 20
199.4398700319759
 30
0.0
 11
335.4924439383992
 21
199.4398700319759
 31
0.0
 11
335.5011155055744
 21
199.4398700319759
 31
0.0
  0
LINE
  5
57
330
2
100
AcDbEntity
  8
0
100
AcDbLine
 10
335.3812244352565
 20
199.4398700319759
 30
0.0
 11
335.5054409473536
 21
199.44331040722
 31
0.0
  0
SPLINE
  5
58
330
2
100
AcDbEntity
  8
0
100
AcDbSpline
210
0.0
220
0.0
230
1.0
 70
     8
 71
     3
 72
    18
 73
    14
 74
    12
 42
0.0000000001
 43
0.0000000001
 44
0.0000000001
 40
0.0
 40
0.0
 40
0.0
 40
0.0
 40
0.0321192664625778
 40
0.0634162494104518
 40
0.0929420999078659
 40
0.119803757634649
 40
0.1431938580361251
 40
0.1533657997397515
 40
0.1624221433311144
 40
0.1702987556921334
 40
0.1769473351407649
 40
0.1823332099167341
 40
0.1864513049083053
 40
0.1864513049083053
 40
0.1864513049083053
 40
0.1864513049083053
 10
335.3157081005546
 20
199.454765807309
 30
0.0
 10
335.3264119757365
 20
199.4550170138785
 30
0.0
 10
335.3475456968003
 20
199.4555129958925
 30
0.0
 10
335.3785297495914
 20
199.4554106563976
 30
0.0
 10
335.4077518367145
 20
199.4547136931972
 30
0.0
 10
335.43431544245
 20
199.4534106948075
 30
0.0
 10
335.4543990330227
 20
199.4518287478501
 30
0.0
 10
335.4685203418723
 20
199.450265129933
 30
0.0
 10
335.4774726092883
 20
199.4490421865794
 30
0.0
 10
335.4852283356549
 20
199.4477404872532
 30
0.0
 10
335.4917132256236
 20
199.4463373909612
 30
0.0
 10
335.4969330816801
 20
199.4449602686886
 30
0.0
 10
335.4998511143682
 20
199.4437182698422
 30
0.0
 10
335.5011155055744
 20
199.4431801084892
 30
0.0
 11
335.3157081005546
 21
199.454765807309
 31
0.0
 11
335.3478216029511
 21
199.455374282387
 31
0.0
 11
335.3791184939897
 21
199.4552984341134
 31
0.0
 11
335.4086351812014
 21
199.4545628910198
 31
0.0
 11
335.4354628785005
 21
199.4532125897724
 31
0.0
 11
335.4587755843342
 21
199.4513113944904
 31
0.0
 11
335.468884279204
 21
199.4501788371845
 31
0.0
 11
335.4778555088971
 21
199.4489401293745
 31
0.0
 11
335.4856185676875
 21
199.4476074851976
 31
0.0
 11
335.4921151759775
 21
199.4461940887875
 31
0.0
 11
335.4972935554945
 21
199.4447135373092
 31
0.0
 11
335.5011155055744
 21
199.4431801084892
 31
0.0
  0
LINE
  5
59
330
2
100
AcDbEntity
  8
0
100
AcDbLine
 10
338.3185554335416
 20
199.4398700327581
 30
0.0
 11
338.3185554233723
 21
199.4568808016184
 31
0.0
  0
LINE
  5
5A
330
2
100
AcDbEntity
  8
0
100
AcDbLine
 10
347.3932441472828
 20
200.7779399633913
 30
0.0
 11
341.3909363288748
 21
200.7779399633913
 31
0.0
  0
LINE
  5
5B
330
2
100
AcDbEntity
  8
0
100
AcDbLine
 10
341.255886432609
 20
199.4398700319759
 30
0.0
 11
347.5866176850772
 21
199.4398700319759
 31
0.0
  0
LINE
  5
5C
330
2
100
AcDbEntity
  8
0
100
AcDbLine
 10
341.3214027665286
 20
199.454765807309
 30
0.0
 11
346.3185554335416
 21
199.454765807309
 31
0.0
  0
LINE
  5
5D
330
2
100
AcDbEntity
  8
0
100
AcDbLine
 10
341.3530460887934
 20
200.3319766683421
 30
0.0
 11
347.428400125756
 21
200.3320277953818
 31
0.0
  0
LWPOLYLINE
  5
5E
330
2
100
AcDbEntity
  8
0
100
AcDbPolyline
 90
       10
 70
     0
 43
0.0
 10
341.3500663767609
 20
200.4715401568217
 10
341.3505870624355
 20
200.4614587900471
 10
341.3510714201655
 20
200.4496507444944
 10
341.3515139405258
 20
200.4362503123086
 10
341.3519095912667
 20
200.4214099042361
 10
341.3522538728548
 20
200.4052982942432
 10
341.3525428693192
 20
200.3880987131601
 10
341.3527732936223
 20
200.3700067631872
 10
341.3529425267727
 20
200.3512282197573
 10
341.3530486420753
 20
200.3319766683421
  0
LWPOLYLINE
  5
5F
330
2
100
AcDbEntity
  8
0
100
AcDbPolyline
 90
        9
 70
     0
 43
0.0
 10
341.388290734585
 20
200.9029424693669
 10
341.3887925366123
 20
200.8918277978616
 10
341.3892533883474
 20
200.879129229542
 10
341.3896701975346
 20
200.8649338740314
 10
341.3900370784835
 20
200.8494370057653
 10
341.3903504195207
 20
200.8327930779589
 10
341.3906064720778
 20
200.8152005699486
 10
341.3908025678813
 20
200.7968417410026
 10
341.3909363288748
 20
200.7779399633913
  0
SPLINE
  5
60
330
2
100
AcDbEntity
  8
0
100
AcDbSpline
210
0.0
220
0.0
230
1.0
 70
     8
 71
     3
 72
    10
 73
     6
 74
     4
 42
0.0000000001
 43
0.0000000001
 44
0.0000000001
 40
0.0
 40
0.0
 40
0.0
 40
0.0
 40
0.0104183355636208
 40
0.0207928721791759
 40
0.0311389693049724
 40
0.0311389693049724
 40
0.0311389693049724
 40
0.0311389693049724
 10
341.324365710915
 20
200.3199361286383
 30
0.0
 10
341.3276525272674
 20
200.3210591584399
 30
0.0
 10
341.3342123421124
 20
200.3233004967973
 30
0.0
 10
341.3437930151356
 20
200.3273230614604
 30
0.0
 10
341.3499645544285
 20
200.330426886069
 30
0.0
 10
341.3530460887935
 20
200.3319766683421
 30
0.0
 11
341.324365710915
 21
200.3199361286383
 31
0.0
 11
341.3341853952398
 21
200.3234168635717
 31
0.0
 11
341.3437507065101
 21
200.3274338064751
 31
0.0
 11
341.3530460887935
 21
200.3319766683421
 31
0.0
  0
SPLINE
  5
61
330
2
100
AcDbEntity
  8
0
100
AcDbSpline
210
0.0
220
0.0
230
1.0
 70
     8
 71
     3
 72
    12
 73
     8
 74
     6
 42
0.0000000001
 43
0.0000000001
 44
0.0000000001
 40
0.0
 40
0.0
 40
0.0
 40
0.0
 40
0.0359827199016287
 40
0.0743076915752617
 40
0.1144642724114175
 40
0.1559442939951599
 40
0.1983885225886459
 40
0.1983885225886459
 40
0.1983885225886459
 40
0.1983885225886459
 10
341.4117546175483
 20
200.5809728765867
 30
0.0
 10
341.4093785252284
 20
200.5927311098968
 30
0.0
 10
341.4044716717236
 20
200.6170129645389
 30
0.0
 10
341.3989166954238
 20
200.6547793187571
 30
0.0
 10
341.3946231206027
 20
200.6945412795389
 30
0.0
 10
341.3917663025847
 20
200.735820222599
 30
0.0
 10
341.391215575665
 20
200.7637929235292
 30
0.0
 10
341.3909370485499
 20
200.7779399633913
 30
0.0
 11
341.4117546175483
 21
200.5809728765867
 31
0.0
 11
341.4049313354588
 21
200.6163027358144
 31
0.0
 11
341.3992439970592
 21
200.6542033642487
 31
0.0
 11
341.3949226801132
 21
200.694126755942
 31
0.0
 11
341.392125994742
 21
200.7355123904246
 31
0.0
 11
341.3909370485499
 21
200.7779399633913
 31
0.0
  0
SPLINE
  5
62
330
2
100
AcDbEntity
  8
0
100
AcDbSpline
210
0.0
220
0.0
230
1.0
 70
     8
 71
     3
 72
    18
 73
    14
 74
    12
 42
0.0000000001
 43
0.0000000001
 44
0.0000000001
 40
0.0
 40
0.0
 40
0.0
 40
0.0
 40
0.0100101223870041
 40
0.0202601795409331
 40
0.0309121188419683
 40
0.0420952927460851
 40
0.0539291559913199
 40
0.0665789573726863
 40
0.0801185661067504
 40
0.0942810485406567
 40
0.1085193557650038
 40
0.1226323617278202
 40
0.1368702587154827
 40
0.1368702587154827
 40
0.1368702587154827
 40
0.1368702587154827
 10
341.3500675149426
 20
200.4715401568217
 30
0.0
 10
341.3530990415136
 20
200.4729377684294
 30
0.0
 10
341.3592347579651
 20
200.4757664912968
 30
0.0
 10
341.3681546093885
 20
200.4809562555664
 30
0.0
 10
341.3769480976236
 20
200.4870655744598
 30
0.0
 10
341.3855038923995
 20
200.4943616575486
 30
0.0
 10
341.3936556501744
 20
200.5030536856726
 30
0.0
 10
341.401103524908
 20
200.5133577279288
 30
0.0
 10
341.4073517071848
 20
200.5253267952856
 30
0.0
 10
341.4118153616834
 20
200.5386452717864
 30
0.0
 10
341.414053587264
 20
200.5526903116194
 30
0.0
 10
341.4142024610911
 20
200.5669645750484
 30
0.0
 10
341.4125729581509
 20
200.576289749695
 30
0.0
 10
341.4117546175483
 20
200.5809728765867
 30
0.0
 11
341.3500675149426
 21
200.4715401568217
 31
0.0
 11
341.3590914146794
 21
200.4758727984803
 31
0.0
 11
341.3679658199184
 21
200.4810019897727
 31
0.0
 11
341.3766988254391
 21
200.487101040965
 31
0.0
 11
341.3851996497109
 21
200.4943673581389
 31
0.0
 11
341.3932822661227
 21
200.5030109471647
 31
0.0
 11
341.4006785120203
 21
200.5132731604547
 31
0.0
 11
341.4069348771365
 21
200.5252806123162
 31
0.0
 11
341.4114274689196
 21
200.5387116408605
 31
0.0
 11
341.4137087206796
 21
200.5527660096839
 31
0.0
 11
341.4137736721343
 21
200.5668788661848
 31
0.0
 11
341.4117546175483
 21
200.5809728765867
 31
0.0
  0
SPLINE
  5
63
330
2
100
AcDbEntity
  8
0
100
AcDbSpline
210
0.0
220
0.0
230
1.0
 70
     8
 71
     3
 72
     9
 73
     5
 74
     3
 42
0.0000000001
 43
0.0000000001
 44
0.0000000001
 40
0.0
 40
0.0
 40
0.0
 40
0.0
 40
0.0001879240294155
 40
0.0003838475510038
 40
0.0003838475510038
 40
0.0003838475510038
 40
0.0003838475510038
 10
341.2630702390395
 20
200.4719701008607
 30
0.0
 10
341.2631331376877
 20
200.4719694564088
 30
0.0
 10
341.2632616124346
 20
200.4719681400721
 30
0.0
 10
341.2633858694052
 20
200.4719353574496
 30
0.0
 10
341.2634492926658
 20
200.4719186245388
 30
0.0
 11
341.2630702390395
 21
200.4719701008607
 31
0.0
 11
341.2632579240321
 21
200.4719606254001
 31
0.0
 11
341.2634492926658
 21
200.4719186245388
 31
0.0
  0
LINE
  5
64
330
2
100
AcDbEntity
  8
0
100
AcDbLine
 10
341.2558864318268
 20
199.4398700319759
 30
0.0
 11
341.1316699197296
 21
199.44331040722
 31
0.0
  0
LINE
  5
65
330
2
100
AcDbEntity
  8
0
100
AcDbLine
 10
341.317675553063
 20
199.4398700319759
 30
0.0
 11
341.3214027665286
 21
199.454765807309
 31
0.0
  0
SPLINE
  5
66
330
2
100
AcDbEntity
  8
0
100
AcDbSpline
210
0.0
220
0.0
230
1.0
 70
     8
 71
     3
 72
    16
 73
    12
 74
    10
 42
0.0000000001
 43
0.0000000001
 44
0.0000000001
 40
0.0
 40
0.0
 40
0.0
 40
0.0
 40
0.0107247661237875
 40
0.021165421539901
 40
0.0310055166613984
 40
0.0399464731815037
 40
0.0477171734514725
 40
0.0540829207584414
 40
0.0588541272964656
 40
0.060597748070795
 40
0.0618991651156224
 40
0.0618991651156224
 40
0.0618991651156224
 40
0.0618991651156224
 10
341.3176755530631
 20
199.4398700319759
 30
0.0
 10
341.3141088398771
 20
199.4401139898694
 30
0.0
 10
341.3070698996131
 20
199.4405954429467
 30
0.0
 10
341.2967430978271
 20
199.4410365035268
 30
0.0
 10
341.2870050837408
 20
199.4412782270026
 30
0.0
 10
341.2781538106161
 20
199.4413173076232
 30
0.0
 10
341.2704620612622
 20
199.4411786213609
 30
0.0
 10
341.2641642926077
 20
199.4408970975921
 30
0.0
 10
341.2598855145058
 20
199.440532589076
 30
0.0
 10
341.2573004312726
 20
199.4401884642611
 30
0.0
 10
341.2563098125865
 20
199.4399653770828
 30
0.0
 10
341.2558864326091
 20
199.4398700319759
 30
0.0
 11
341.3176755530631
 21
199.4398700319759
 31
0.0
 11
341.3069727210759
 21
199.4405555944201
 31
0.0
 11
341.2965420920925
 21
199.4410130488198
 31
0.0
 11
341.2867048649061
 21
199.4412506057282
 31
0.0
 11
341.2777639679514
 21
199.4412832422091
 31
0.0
 11
341.2699947348186
 21
199.4411322481274
 31
0.0
 11
341.263636427733
 21
199.4408245635796
 31
0.0
 11
341.2588848741846
 21
199.4403919543964
 31
0.0
 11
341.2571595815632
 21
199.4401398060762
 31
0.0
 11
341.2558864326091
 21
199.4398700319759
 31
0.0
  0
SPLINE
  5
67
330
2
100
AcDbEntity
  8
0
100
AcDbSpline
210
0.0
220
0.0
230
1.0
 70
    24
 71
     3
 72
    10
 73
     6
 74
     4
 42
0.0000000001
 43
0.0000000001
 44
0.0000000001
 40
0.0
 40
0.0
 40
0.0
 40
0.0
 40
0.0447296366337469
 40
0.1019954148416673
 40
0.1112195031427632
 40
0.1112195031427632
 40
0.1112195031427632
 40
0.1112195031427632
 10
341.2558864318268
 20
199.4398700319759
 30
0.0
 10
341.240976552949
 20
199.4398700319759
 30
0.0
 10
341.2069780813351
 20
199.439870031976
 30
0.0
 10
341.1699049136207
 20
199.4398700319758
 30
0.0
 10
341.1477416247844
 20
199.4398700319759
 30
0.0
 10
341.1446669286841
 20
199.4398700319759
 30
0.0
 11
341.2558864318268
 21
199.4398700319759
 31
0.0
 11
341.2111567951931
 21
199.4398700319759
 31
0.0
 11
341.1538910169852
 21
199.4398700319759
 31
0.0
 11
341.1446669286841
 21
199.4398700319759
 31
0.0
  0
SPLINE
  5
68
330
2
100
AcDbEntity
  8
0
100
AcDbSpline
210
0.0
220
0.0
230
1.0
 70
    24
 71
     3
 72
     8
 73
     4
 74
     2
 42
0.0000000001
 43
0.0000000001
 44
0.0000000001
 40
0.0
 40
0.0
 40
0.0
 40
0.0
 40
0.0086715671753268
 40
0.0086715671753268
 40
0.0086715671753268
 40
0.0086715671753268
 10
341.1446669286841
 20
199.4398700319759
 30
0.0
 10
341.1417764062923
 20
199.4398700319759
 30
0.0
 10
341.1388858839005
 20
199.4398700319759
 30
0.0
 10
341.1359953615087
 20
199.4398700319759
 30
0.0
 11
341.1446669286841
 21
199.4398700319759
 31
0.0
 11
341.1359953615087
 21
199.4398700319759
 31
0.0
  0
SPLINE
  5
69
330
2
100
AcDbEntity
  8
0
100
AcDbSpline
210
0.0
220
0.0
230
1.0
 70
    24
 71
     3
 72
     8
 73
     4
 74
     2
 42
0.0000000001
 43
0.0000000001
 44
0.0000000001
 40
0.0
 40
0.0
 40
0.0
 40
0.0
 40
0.0043254417790308
 40
0.0043254417790308
 40
0.0043254417790308
 40
0.0043254417790308
 10
341.1359953615087
 20
199.4398700319759
 30
0.0
 10
341.1345535475824
 20
199.4398700319759
 30
0.0
 10
341.1331117336561
 20
199.4398700319759
 30
0.0
 10
341.1316699197297
 20
199.4398700319759
 30
0.0
 11
341.1359953615087
 21
199.4398700319759
 31
0.0
 11
341.1316699197297
 21
199.4398700319759
 31
0.0
  0
SPLINE
  5
6A
330
2
100
AcDbEntity
  8
0
100
AcDbSpline
210
0.0
220
0.0
230
1.0
 70
     8
 71
     3
 72
    18
 73
    14
 74
    12
 42
0.0000000001
 43
0.0000000001
 44
0.0000000001
 40
0.0
 40
0.0
 40
0.0
 40
0.0
 40
0.0321192664625778
 40
0.0634162494105087
 40
0.0929420999078659
 40
0.119803757634649
 40
0.1431938580361251
 40
0.1533657997397515
 40
0.1624221433311708
 40
0.1702987556921897
 40
0.1769473351407657
 40
0.1823332099167349
 40
0.1864513049083589
 40
0.1864513049083589
 40
0.1864513049083589
 40
0.1864513049083589
 10
341.3214027665286
 20
199.454765807309
 30
0.0
 10
341.3106988913468
 20
199.4550170138785
 30
0.0
 10
341.2895651702829
 20
199.4555129958924
 30
0.0
 10
341.2585811174918
 20
199.4554106563976
 30
0.0
 10
341.2293590303686
 20
199.4547136931971
 30
0.0
 10
341.2027954246333
 20
199.4534106948076
 30
0.0
 10
341.1827118340605
 20
199.4518287478501
 30
0.0
 10
341.1685905252109
 20
199.450265129933
 30
0.0
 10
341.159638257795
 20
199.4490421865794
 30
0.0
 10
341.1518825314281
 20
199.4477404872532
 30
0.0
 10
341.1453976414597
 20
199.4463373909613
 30
0.0
 10
341.1401777854031
 20
199.4449602686885
 30
0.0
 10
341.137259752715
 20
199.4437182698422
 30
0.0
 10
341.1359953615087
 20
199.4431801084892
 30
0.0
 11
341.3214027665286
 21
199.454765807309
 31
0.0
 11
341.2892892641321
 21
199.455374282387
 31
0.0
 11
341.2579923730935
 21
199.4552984341134
 31
0.0
 11
341.2284756858819
 21
199.4545628910198
 31
0.0
 11
341.2016479885828
 21
199.4532125897724
 31
0.0
 11
341.178335282749
 21
199.4513113944904
 31
0.0
 11
341.1682265878792
 21
199.4501788371845
 31
0.0
 11
341.159255358186
 21
199.4489401293745
 31
0.0
 11
341.1514922993956
 21
199.4476074851976
 31
0.0
 11
341.1449956911058
 21
199.4461940887875
 31
0.0
 11
341.1398173115887
 21
199.4447135373092
 31
0.0
 11
341.1359953615087
 21
199.4431801084892
 31
0.0
  0
SPLINE
  5
6B
330
2
100
AcDbEntity
  8
0
100
AcDbSpline
210
0.0
220
0.0
230
1.0
 70
     8
 71
     3
 72
     9
 73
     5
 74
     3
 42
0.0000000001
 43
0.0000000001
 44
0.0000000001
 40
0.0
 40
0.0
 40
0.0
 40
0.0
 40
0.4327344116886405
 40
0.8651753951266694
 40
0.8651753951266694
 40
0.8651753951266694
 40
0.8651753951266694
 10
341.324365710915
 20
200.3199361286383
 30
0.0
 10
341.3238766202534
 20
200.1756921538777
 30
0.0
 10
341.3228987705724
 20
199.8873020132112
 30
0.0
 10
341.3219013217802
 20
199.5989119396658
 30
0.0
 10
341.3214027665286
 20
199.454765807309
 30
0.0
 11
341.324365710915
 21
200.3199361286383
 31
0.0
 11
341.3228935358282
 21
199.8872042211482
 31
0.0
 11
341.3214027665286
 21
199.454765807309
 31
0.0
  0
LINE
  5
6C
330
2
100
AcDbEntity
  8
0
100
AcDbLine
 10
329.3837234802998
 20
205.4696866146085
 30
0.0
 11
313.0283851163476
 21
205.4696866146085
 31
0.0
  0
ARC
  5
6D
330
2
100
AcDbEntity
  8
0
  6
HIDDEN
 48
0.05
100
AcDbCircle
 10
318.0911463290887
 20
208.3565321301981
 30
0.0
 40
3.0
100
AcDbArc
 50
204.9999999999998
 51
268.9999999999998
  0
LINE
  5
6E
330
2
100
AcDbEntity
  8
0
  6
HIDDEN
 48
0.05
100
AcDbLine
 10
307.8553832962114
 20
223.4399211590155
 30
0.0
 11
315.3722229679788
 21
207.088677344976
 31
0.0
  0
SPLINE
  5
6F
330
2
100
AcDbEntity
  8
0
100
AcDbSpline
210
0.0
220
0.0
230
1.0
 70
     8
 71
     3
 72
     9
 73
     5
 74
     0
 42
0.0000000001
 43
0.0000000001
 40
0.0
 40
0.0
 40
0.0
 40
0.0
 40
8.768238813899515
 40
18.49151160645958
 40
18.49151160645958
 40
18.49151160645958
 40
18.49151160645958
 10
304.114799518798
 20
223.4399211590155
 30
0.0
 10
304.114799518798
 20
223.4399211590155
 30
0.0
 10
309.5600355894784
 20
217.3344449905136
 30
0.0
 10
310.485899724449
 20
209.2460195038754
 30
0.0
 10
311.4543393221584
 20
206.1162124450047
 30
0.0
  0
ARC
  5
70
330
2
100
AcDbEntity
  8
0
  6
HIDDEN
 48
0.05
100
AcDbCircle
 10
314.3202772168905
 20
207.0030044068184
 30
0.0
 40
3.0
100
AcDbArc
 50
228.7934833188404
 51
270.0
  0
ARC
  5
71
330
2
100
AcDbEntity
  8
0
100
AcDbCircle
 10
314.3202772168905
 20
207.0030044068184
 30
0.0
 40
3.0
100
AcDbArc
 50
221.7076353615221
 51
228.7934833188404
  0
ARC
  5
72
330
2
100
AcDbEntity
  8
0
100
AcDbCircle
 10
314.3202772168905
 20
207.0030044068184
 30
0.0
 40
3.0
100
AcDbArc
 50
209.9999999999977
 51
221.7076353615221
  0
ARC
  5
73
330
2
100
AcDbEntity
  8
0
100
AcDbCircle
 10
314.8536391677989
 20
202.3930122482777
 30
0.0
 40
3.816204022357884
100
AcDbArc
 50
139.5036525118995
 51
161.0
  0
LINE
  5
74
330
2
100
AcDbEntity
  8
0
100
AcDbLine
 10
310.8108392038116
 20
202.3735433878548
 30
0.0
 11
311.2453473764725
 21
203.6354467490928
 31
0.0
  0
ARC
  5
75
330
2
100
AcDbEntity
  8
0
100
AcDbCircle
 10
313.2928644376779
 20
203.7258677342872
 30
0.0
 40
1.763761207913477
100
AcDbArc
 50
98.62413833819985
 51
139.5036525118995
  0
ARC
  5
76
330
2
100
AcDbEntity
  8
0
100
AcDbCircle
 10
314.3202772168905
 20
207.0030044068184
 30
0.0
 40
3.0
100
AcDbArc
 50
197.1933587779245
 51
209.9999999999977
  0
LINE
  5
77
330
2
100
AcDbEntity
  8
0
100
AcDbLine
 10
316.0684748061076
 20
204.9805316749013
 30
0.0
 11
316.5684748061077
 21
204.9805316749013
 31
0.0
  0
LINE
  5
78
330
2
100
AcDbEntity
  8
0
 48
0.75
100
AcDbLine
 10
316.0684748061076
 20
204.0030044068184
 30
0.0
 11
316.0684748061076
 21
204.9805316749013
 31
0.0
  0
LINE
  5
79
330
2
100
AcDbEntity
  8
0
 48
0.75
100
AcDbLine
 10
316.5684748061077
 20
204.0030044068184
 30
0.0
 11
316.5684748061077
 21
204.9805316749013
 31
0.0
  0
SPLINE
  5
7A
330
2
100
AcDbEntity
  8
0
100
AcDbSpline
210
0.0
220
0.0
230
1.0
 70
     8
 71
     3
 72
    11
 73
     7
 74
     0
 42
0.0000000001
 43
0.0000000001
 40
2.905508902230586
 40
2.905508902230918
 40
2.905508902230918
 40
2.905508902230918
 40
4.252032055284468
 40
5.719956877634702
 40
6.429333584659596
 40
7.260754040682666
 40
7.260754040682666
 40
7.260754040682666
 40
7.260754040682666
 10
305.0014244115699
 20
226.1899211590156
 30
0.0
 10
304.544590483438
 20
226.1803029216526
 30
0.0
 10
303.5566062519677
 20
226.0226481429802
 30
0.0
 10
302.8347304211753
 20
225.2044381447583
 30
0.0
 10
302.5845759501784
 20
224.2351103955587
 30
0.0
 10
302.5685554335422
 20
223.7170613110233
 30
0.0
 10
302.5685554335422
 20
223.4399211590156
 30
0.0
  0
LINE
  5
7B
330
2
100
AcDbEntity
  8
0
100
AcDbLine
 10
302.5685554335418
 20
223.4399211590155
 30
0.0
 11
302.5685554335418
 21
223.4399211590155
 31
0.0
  0
LINE
  5
7C
330
2
100
AcDbEntity
  8
0
100
AcDbLine
 10
338.3185554335416
 20
205.4696354875688
 30
0.0
 11
329.3837234802998
 21
205.4696866146085
 31
0.0
  0
LINE
  5
7D
330
2
100
AcDbEntity
  8
0
  6
HIDDEN
 48
0.05
100
AcDbLine
 10
338.3185554335416
 20
205.0030044068185
 30
0.0
 11
318.0387891097769
 21
205.356989044729
 31
0.0
  0
LINE
  5
7E
330
2
100
AcDbEntity
  8
0
100
AcDbLine
 10
338.3185554335416
 20
205.4696354875688
 30
0.0
 11
347.2533873867834
 21
205.4696866146085
 31
0.0
  0
SPLINE
  5
7F
330
2
100
AcDbEntity
  8
0
100
AcDbSpline
210
0.0
220
0.0
230
1.0
 70
     8
 71
     3
 72
    17
 73
    13
 74
    11
 42
0.0000000001
 43
0.0000000001
 44
0.0000000001
 40
0.0
 40
0.0
 40
0.0
 40
0.0
 40
0.1555036968369091
 40
0.3067291860339773
 40
0.4534432182024072
 40
0.5955848965956861
 40
0.7332564841819915
 40
0.8667038259269158
 40
0.9962921004468569
 40
1.122491057647834
 40
1.245870519723108
 40
1.367055180275229
 40
1.367055180275229
 40
1.367055180275229
 40
1.367055180275229
 10
340.719211333246
 20
203.6353956220532
 30
0.0
 10
340.7101872628694
 20
203.6864468963751
 30
0.0
 10
340.6923873917564
 20
203.7871449256648
 30
0.0
 10
340.6578409959389
 20
203.9343707233232
 30
0.0
 10
340.6179469725965
 20
204.0755873243009
 30
0.0
 10
340.5722108824288
 20
204.2102799014952
 30
0.0
 10
340.5208319996027
 20
204.3381724933043
 30
0.0
 10
340.4638291093566
 20
204.4590534803272
 30
0.0
 10
340.401334308839
 20
204.5728647578753
 30
0.0
 10
340.3332640041365
 20
204.6794389030068
 30
0.0
 10
340.2603013310736
 20
204.7793736428732
 30
0.0
 10
340.2066289674134
 20
204.8407764855903
 30
0.0
 10
340.1800336225962
 20
204.8712023819633
 30
0.0
 11
340.719211333246
 21
203.6353956220532
 31
0.0
 11
340.6907078022105
 21
203.7882646785965
 31
0.0
 11
340.6563870063983
 21
203.9355441121835
 31
0.0
 11
340.616297157779
 21
204.0766745882431
 31
0.0
 11
340.5704970757068
 21
204.2112353894396
 31
0.0
 11
340.519053355155
 21
204.3389342917228
 31
0.0
 11
340.4620410097306
 21
204.459589940111
 31
0.0
 11
340.3995448343631
 21
204.5731124002565
 31
0.0
 11
340.3316561440814
 21
204.6794952115112
 31
0.0
 11
340.2584583108922
 21
204.7788157475468
 31
0.0
 11
340.1800336225962
 21
204.8712023819633
 31
0.0
  0
SPLINE
  5
80
330
2
100
AcDbEntity
  8
0
100
AcDbSpline
210
0.0
220
0.0
230
1.0
 70
     8
 71
     3
 72
    17
 73
    13
 74
    11
 42
0.0000000001
 43
0.0000000001
 44
0.0000000001
 40
0.0
 40
0.0
 40
0.0
 40
0.0
 40
0.1555036968369091
 40
0.3067291860339773
 40
0.4534432182024072
 40
0.5955848965956677
 40
0.7332564841819944
 40
0.8667038259268943
 40
0.9962921004468354
 40
1.122491057647843
 40
1.245870519723117
 40
1.367055180275238
 40
1.367055180275238
 40
1.367055180275238
 40
1.367055180275238
 10
335.9178995338373
 20
203.6353956220532
 30
0.0
 10
335.9269236042138
 20
203.6864468963751
 30
0.0
 10
335.944723475327
 20
203.7871449256648
 30
0.0
 10
335.9792698711443
 20
203.9343707233232
 30
0.0
 10
336.0191638944868
 20
204.0755873243008
 30
0.0
 10
336.0648999846544
 20
204.2102799014952
 30
0.0
 10
336.1162788674807
 20
204.3381724933043
 30
0.0
 10
336.1732817577264
 20
204.4590534803272
 30
0.0
 10
336.2357765582443
 20
204.5728647578753
 30
0.0
 10
336.3038468629468
 20
204.6794389030068
 30
0.0
 10
336.3768095360097
 20
204.7793736428732
 30
0.0
 10
336.4304818996698
 20
204.8407764855903
 30
0.0
 10
336.457077244487
 20
204.8712023819633
 30
0.0
 11
335.9178995338373
 21
203.6353956220532
 31
0.0
 11
335.9464030648728
 21
203.7882646785965
 31
0.0
 11
335.9807238606849
 21
203.9355441121835
 31
0.0
 11
336.0208137093042
 21
204.0766745882431
 31
0.0
 11
336.0666137913764
 21
204.2112353894396
 31
0.0
 11
336.1180575119282
 21
204.3389342917228
 31
0.0
 11
336.1750698573526
 21
204.459589940111
 31
0.0
 11
336.2375660327201
 21
204.5731124002565
 31
0.0
 11
336.3054547230019
 21
204.6794952115112
 31
0.0
 11
336.378652556191
 21
204.7788157475468
 31
0.0
 11
336.457077244487
 21
204.8712023819633
 31
0.0
  0
SPLINE
  5
81
330
2
100
AcDbEntity
  8
0
100
AcDbSpline
210
0.0
220
0.0
230
1.0
 70
     8
 71
     3
 72
    10
 73
     6
 74
     4
 42
0.0000000001
 43
0.0000000001
 44
0.0000000001
 40
0.0
 40
0.0
 40
0.0
 40
0.0
 40
0.4646151528417667
 40
0.8903478689966599
 40
1.277201856932198
 40
1.277201856932198
 40
1.277201856932198
 40
1.277201856932198
 10
335.721103211844
 20
202.3734922608191
 30
0.0
 10
335.7431444601509
 20
202.5267884257439
 30
0.0
 10
335.7853823818802
 20
202.8205517972814
 30
0.0
 10
335.851199780357
 20
203.2411827699422
 30
0.0
 10
335.8963869523531
 20
203.5082506827949
 30
0.0
 10
335.917899533844
 20
203.6353956220569
 30
0.0
 11
335.721103211844
 21
202.3734922608191
 31
0.0
 11
335.788219242575
 21
202.8332342304815
 31
0.0
 11
335.8541125774833
 21
203.2538366722473
 31
0.0
 11
335.917899533844
 21
203.6353956220569
 31
0.0
  0
SPLINE
  5
82
330
2
100
AcDbEntity
  8
0
100
AcDbSpline
210
0.0
220
0.0
230
1.0
 70
     8
 71
     3
 72
    24
 73
    20
 74
     0
 42
0.0000000001
 43
0.0000000001
 40
0.0
 40
0.0
 40
0.0
 40
0.0
 40
0.0106016651207281
 40
0.0214245003795724
 40
0.0325655746853029
 40
0.0441277541735538
 40
0.0562161913540783
 40
0.0689347624953319
 40
0.0823759373046653
 40
0.0966081262820492
 40
0.1116717660075886
 40
0.1275765790420176
 40
0.1442513161121131
 40
0.1615799202384178
 40
0.1794509551560595
 40
0.1977856408541831
 40
0.2164825935265168
 40
0.2354441106763403
 40
0.2545626736976873
 40
0.2545626736976873
 40
0.2545626736976873
 40
0.2545626736976873
 10
336.457077244487
 20
204.8712023819633
 30
0.0
 10
336.4755552553595
 20
204.8917820962868
 30
0.0
 10
336.5128967622307
 20
204.9333708554404
 30
0.0
 10
336.5756923776087
 20
204.9907267086687
 30
0.0
 10
336.6443929994583
 20
205.0448950845486
 30
0.0
 10
336.7198820957201
 20
205.0953792320314
 30
0.0
 10
336.8024547528327
 20
205.142180232087
 30
0.0
 10
336.8925479544108
 20
205.1851402367341
 30
0.0
 10
336.9904630239389
 20
205.224131419195
 30
0.0
 10
337.0963627853122
 20
205.2590228405457
 30
0.0
 10
337.2102095303016
 20
205.2897258286619
 30
0.0
 10
337.3316327428944
 20
205.316190858166
 30
0.0
 10
337.4598871993803
 20
205.3384447849028
 30
0.0
 10
337.5939504633671
 20
205.3566216459007
 30
0.0
 10
337.7328237799805
 20
205.3709637951202
 30
0.0
 10
337.8755919833496
 20
205.3817534453033
 30
0.0
 10
338.0214147511022
 20
205.389255598263
 30
0.0
 10
338.169406446052
 20
205.3936749792745
 30
0.0
 10
338.2687026021065
 20
205.3946469010311
 30
0.0
 10
338.3185554335416
 20
205.3946469026208
 30
0.0
  0
SPLINE
  5
83
330
2
100
AcDbEntity
  8
0
100
AcDbSpline
210
0.0
220
0.0
230
1.0
 70
     8
 71
     3
 72
    24
 73
    20
 74
     0
 42
0.0000000001
 43
0.0000000001
 40
0.0
 40
0.0
 40
0.0
 40
0.0
 40
0.0106016651207281
 40
0.0214245003795724
 40
0.0325655746853029
 40
0.0441277541735538
 40
0.0562161913540783
 40
0.0689347624953319
 40
0.0823759373046653
 40
0.0966081262820492
 40
0.1116717660075886
 40
0.1275765790420176
 40
0.1442513161121131
 40
0.1615799202384178
 40
0.1794509551560595
 40
0.1977856408541831
 40
0.2164825935265168
 40
0.2354441106763403
 40
0.2545626736976873
 40
0.2545626736976873
 40
0.2545626736976873
 40
0.2545626736976873
 10
340.1800336225962
 20
204.8712023819633
 30
0.0
 10
340.1615556117237
 20
204.8917820962868
 30
0.0
 10
340.1242141048525
 20
204.9333708554404
 30
0.0
 10
340.0614184894745
 20
204.9907267086687
 30
0.0
 10
339.992717867625
 20
205.0448950845486
 30
0.0
 10
339.9172287713632
 20
205.0953792320314
 30
0.0
 10
339.8346561142506
 20
205.142180232087
 30
0.0
 10
339.7445629126723
 20
205.1851402367341
 30
0.0
 10
339.6466478431443
 20
205.224131419195
 30
0.0
 10
339.540748081771
 20
205.2590228405457
 30
0.0
 10
339.4269013367815
 20
205.2897258286619
 30
0.0
 10
339.3054781241888
 20
205.316190858166
 30
0.0
 10
339.1772236677029
 20
205.3384447849028
 30
0.0
 10
339.0431604037161
 20
205.3566216459007
 30
0.0
 10
338.9042870871028
 20
205.3709637951202
 30
0.0
 10
338.7615188837337
 20
205.3817534453033
 30
0.0
 10
338.615696115981
 20
205.389255598263
 30
0.0
 10
338.4677044210312
 20
205.3936749792745
 30
0.0
 10
338.3684082649768
 20
205.3946469010311
 30
0.0
 10
338.3185554335416
 20
205.3946469026208
 30
0.0
  0
LINE
  5
84
330
2
100
AcDbEntity
  8
0
100
AcDbLine
 10
339.454340681132
 20
204.0030058141644
 30
0.0
 11
339.329340681132
 21
203.7530058141644
 31
0.0
  0
LINE
  5
85
330
2
100
AcDbEntity
  8
0
100
AcDbLine
 10
339.266840681132
 20
203.5030058141645
 30
0.0
 11
339.266840681132
 21
205.0195566557702
 31
0.0
  0
LINE
  5
86
330
2
100
AcDbEntity
  8
0
100
AcDbLine
 10
339.579340681132
 20
204.2530058141644
 30
0.0
 11
339.579340681132
 21
205.0250113201875
 31
0.0
  0
LINE
  5
87
330
2
100
AcDbEntity
  8
0
100
AcDbLine
 10
339.329340681132
 20
203.5030058141644
 30
0.0
 11
339.329340681132
 21
203.7530058141644
 31
0.0
  0
LINE
  5
88
330
2
100
AcDbEntity
  8
0
100
AcDbLine
 10
339.579340681132
 20
204.2530058141644
 30
0.0
 11
339.454340681132
 21
204.0030058141644
 31
0.0
  0
LINE
  5
89
330
2
100
AcDbEntity
  8
0
100
AcDbLine
 10
337.079340681132
 20
204.2530058141645
 30
0.0
 11
337.079340681132
 21
205.0246349807818
 31
0.0
  0
LINE
  5
8A
330
2
100
AcDbEntity
  8
0
100
AcDbLine
 10
337.391840681132
 20
203.5030058141645
 30
0.0
 11
337.391840681132
 21
205.0191802729918
 31
0.0
  0
LINE
  5
8B
330
2
100
AcDbEntity
  8
0
100
AcDbLine
 10
337.391840681132
 20
204.0030029994719
 30
0.0
 11
337.391840681132
 21
204.5022620523525
 31
0.0
  0
LINE
  5
8C
330
2
100
AcDbEntity
  8
0
100
AcDbLine
 10
337.079340681132
 20
204.2530058141645
 30
0.0
 11
337.204340681132
 21
204.0030058141645
 31
0.0
  0
LINE
  5
8D
330
2
100
AcDbEntity
  8
0
100
AcDbLine
 10
337.329340681132
 20
203.7530058141645
 30
0.0
 11
337.329340681132
 21
203.5030058141645
 31
0.0
  0
LINE
  5
8E
330
2
100
AcDbEntity
  8
0
100
AcDbLine
 10
337.204340681132
 20
204.0030058141645
 30
0.0
 11
337.329340681132
 21
203.7530058141645
 31
0.0
  0
LINE
  5
8F
330
2
100
AcDbEntity
  8
0
100
AcDbLine
 10
337.329340681132
 20
203.5030058141645
 30
0.0
 11
339.329340681132
 21
203.5030058141644
 31
0.0
  0
LINE
  5
90
330
2
100
AcDbEntity
  8
0
100
AcDbLine
 10
339.329340681132
 20
203.7530058141644
 30
0.0
 11
337.329340681132
 21
203.7530058141645
 31
0.0
  0
LINE
  5
91
330
2
100
AcDbEntity
  8
0
100
AcDbLine
 10
339.6513479113717
 20
204.5782561874911
 30
0.0
 11
339.6513479113717
 21
204.5782561874911
 31
0.0
  0
ARC
  5
92
330
2
100
AcDbEntity
  8
0
100
AcDbCircle
 10
336.2763037968984
 20
204.565935998902
 30
0.0
 40
0.5
100
AcDbArc
 50
45.00000000000087
 51
69.9594794419314
  0
LINE
  5
93
330
2
100
AcDbEntity
  8
0
100
AcDbLine
 10
336.8998955607616
 20
204.6494510162253
 30
0.0
 11
336.6298571874916
 21
204.9194893894953
 31
0.0
  0
LINE
  5
94
330
2
100
AcDbEntity
  8
0
100
AcDbLine
 10
337.0766722560583
 20
204.5762277115219
 30
0.0
 11
339.6195654748718
 21
204.5762277115219
 31
0.0
  0
ARC
  5
95
330
2
100
AcDbEntity
  8
0
100
AcDbCircle
 10
340.4199339340317
 20
204.565935998902
 30
0.0
 40
0.5
100
AcDbArc
 50
109.6746738800386
 51
134.9999999999991
  0
ARC
  5
96
330
2
100
AcDbEntity
  8
0
100
AcDbCircle
 10
337.0766722560583
 20
204.8262277115219
 30
0.0
 40
0.25
100
AcDbArc
 50
225.0000000000006
 51
270.0
  0
LINE
  5
97
330
2
100
AcDbEntity
  8
0
100
AcDbLine
 10
336.8998955607616
 20
204.6494510162253
 30
0.0
 11
336.6298571874916
 21
204.9194893894953
 31
0.0
  0
ARC
  5
98
330
2
100
AcDbEntity
  8
0
100
AcDbCircle
 10
339.6195654748717
 20
204.8262277115219
 30
0.0
 40
0.25
100
AcDbArc
 50
270.0
 51
314.9999999999994
  0
LINE
  5
99
330
2
100
AcDbEntity
  8
0
100
AcDbLine
 10
339.6195654748717
 20
204.5762277115219
 30
0.0
 11
337.0766722560583
 21
204.5762277115219
 31
0.0
  0
LINE
  5
9A
330
2
100
AcDbEntity
  8
0
100
AcDbLine
 10
339.7963421701684
 20
204.6494510162253
 30
0.0
 11
340.0663805434384
 21
204.9194893894953
 31
0.0
  0
SPLINE
  5
9B
330
2
100
AcDbEntity
  8
0
100
AcDbSpline
210
0.0
220
0.0
230
1.0
 70
     8
 71
     3
 72
    10
 73
     6
 74
     4
 42
0.0000000001
 43
0.0000000001
 44
0.0000000001
 40
0.0
 40
0.0
 40
0.0
 40
0.0
 40
0.4646151528417725
 40
0.8903478689967286
 40
1.277201856932229
 40
1.277201856932229
 40
1.277201856932229
 40
1.277201856932229
 10
340.9160076552439
 20
202.373492260815
 30
0.0
 10
340.8939664069374
 20
202.5267884257399
 30
0.0
 10
340.8517284852085
 20
202.8205517972774
 30
0.0
 10
340.7859110867324
 20
203.2411827699383
 30
0.0
 10
340.7407239147367
 20
203.5082506827911
 30
0.0
 10
340.719211333246
 20
203.6353956220532
 30
0.0
 11
340.9160076552439
 21
202.373492260815
 31
0.0
 11
340.8488916245137
 21
202.8332342304776
 31
0.0
 11
340.782998289606
 21
203.2538366722434
 31
0.0
 11
340.719211333246
 21
203.6353956220532
 31
0.0
  0
LINE
  5
9C
330
2
100
AcDbEntity
  8
CENTER
 48
0.05
100
AcDbLine
 10
342.5140357341674
 20
221.0024211590156
 30
0.0
 11
334.1230751329162
 21
221.0024211590155
 31
0.0
  0
LINE
  5
9D
330
2
100
AcDbEntity
  8
CENTER
 48
0.05
100
AcDbLine
 10
338.3185554335418
 20
225.1979014596411
 30
0.0
 11
338.3185554335419
 21
216.8069408583899
 31
0.0
  0
CIRCLE
  5
9E
330
2
100
AcDbEntity
  8
0
100
AcDbCircle
 10
338.3185554335416
 20
221.0024211590155
 30
0.0
 40
1.1875
  0
ARC
  5
9F
330
2
100
AcDbEntity
  8
0
100
AcDbCircle
 10
368.484342443804
 20
203.2887905556237
 30
0.0
 40
2.8112306295987
100
AcDbArc
 50
199.0
 51
238.0669138880008
  0
ARC
  5
A0
330
2
100
AcDbEntity
  8
0
100
AcDbCircle
 10
367.2162520401482
 20
200.3096841327733
 30
0.0
 40
0.1833411280173065
100
AcDbArc
 50
7.000000000000247
 51
62.01767401239982
  0
LINE
  5
A1
330
2
100
AcDbEntity
  8
0
100
AcDbLine
 10
367.3846181675619
 20
199.4399211590156
 30
0.0
 11
367.5059345222265
 21
199.4548169343487
 31
0.0
  0
LINE
  5
A2
330
2
100
AcDbEntity
  8
0
100
AcDbLine
 10
367.5059345222265
 20
199.4548169343487
 30
0.0
 11
367.398226571754
 21
200.3320277953818
 31
0.0
  0
ARC
  5
A3
330
2
100
AcDbEntity
  8
0
100
AcDbCircle
 10
366.9004281100352
 20
200.7473981424936
 30
0.0
 40
0.1833411280173065
100
AcDbArc
 50
9.605507906600287
 51
58.06691388799994
  0
ARC
  5
A4
330
2
100
AcDbEntity
  8
0
100
AcDbCircle
 10
367.5029970621592
 20
200.8493746361397
 30
0.0
 40
0.4277959653737153
100
AcDbArc
 50
189.6055079066003
 51
242.0176740124007
  0
ARC
  5
A5
330
2
100
AcDbEntity
  8
0
100
AcDbCircle
 10
363.3442464294053
 20
203.7258677342872
 30
0.0
 40
1.763761207913477
100
AcDbArc
 50
40.49634748810045
 51
81.37586166180012
  0
ARC
  5
A6
330
2
100
AcDbEntity
  8
0
  6
HIDDEN
 48
0.05
100
AcDbCircle
 10
362.316993752787
 20
207.0030044068185
 30
0.0
 40
3.0
100
AcDbArc
 50
270.0
 51
311.2048031122478
  0
LINE
  5
A7
330
2
100
AcDbEntity
  8
0
  6
HIDDEN
 48
0.05
100
AcDbLine
 10
368.7847961208899
 20
223.4399211590156
 30
0.0
 11
361.2650491539724
 21
207.088677344976
 31
0.0
  0
ARC
  5
A8
330
2
100
AcDbEntity
  8
0
  6
HIDDEN
 48
0.05
100
AcDbCircle
 10
358.5461257928625
 20
208.3565321301981
 30
0.0
 40
3.0
100
AcDbArc
 50
271.0000000000001
 51
335.0000000000001
  0
LINE
  5
A9
330
2
100
AcDbEntity
  8
0
100
AcDbLine
 10
356.6041535569167
 20
203.7530058141644
 30
0.0
 11
356.8541521495707
 21
204.0030044068184
 31
0.0
  0
LINE
  5
AA
330
2
100
AcDbEntity
  8
0
 48
0.75
100
AcDbLine
 10
360.0686360609756
 20
204.0030044068184
 30
0.0
 11
360.0686360609756
 21
204.9805316749013
 31
0.0
  0
LINE
  5
AB
330
2
100
AcDbEntity
  8
0
 48
0.75
100
AcDbLine
 10
360.5686360609756
 20
204.0030044068184
 30
0.0
 11
360.5686360609756
 21
204.9805316749013
 31
0.0
  0
LINE
  5
AC
330
2
100
AcDbEntity
  8
0
100
AcDbLine
 10
360.5686360609756
 20
204.9805316749013
 30
0.0
 11
360.0686360609756
 21
204.9805316749013
 31
0.0
  0
SPLINE
  5
AD
330
2
100
AcDbEntity
  8
0
100
AcDbSpline
210
0.0
220
0.0
230
1.0
 70
     8
 71
     3
 72
     9
 73
     5
 74
     0
 42
0.0000000001
 43
0.0000000001
 40
0.0
 40
0.0
 40
0.0
 40
0.0
 40
8.768238813899515
 40
18.49151160645958
 40
18.49151160645958
 40
18.49151160645958
 40
18.49151160645958
 10
372.5224726031536
 20
223.4399211590155
 30
0.0
 10
372.5224726031536
 20
223.4399211590155
 30
0.0
 10
367.0772365324728
 20
217.3344449905136
 30
0.0
 10
366.1513723975022
 20
209.2460195038754
 30
0.0
 10
365.1829327997928
 20
206.1162124450047
 30
0.0
  0
ARC
  5
AE
330
2
100
AcDbEntity
  8
0
100
AcDbCircle
 10
362.316993752787
 20
207.0030044068185
 30
0.0
 40
3.0
100
AcDbArc
 50
311.2048031122478
 51
318.2902620411753
  0
ARC
  5
AF
330
2
100
AcDbEntity
  8
0
100
AcDbCircle
 10
362.316993752787
 20
207.0030044068185
 30
0.0
 40
3.0
100
AcDbArc
 50
318.2902620411753
 51
329.9999999994885
  0
LINE
  5
B0
330
2
100
AcDbEntity
  8
0
100
AcDbLine
 10
365.8262716632717
 20
202.3735433878548
 30
0.0
 11
365.3917634906107
 21
203.6354467490928
 31
0.0
  0
ARC
  5
B1
330
2
100
AcDbEntity
  8
0
100
AcDbCircle
 10
361.7834716992843
 20
202.3930122482777
 30
0.0
 40
3.816204022357884
100
AcDbArc
 50
18.99999999999999
 51
40.49634748810045
  0
ARC
  5
B2
330
2
100
AcDbEntity
  8
0
100
AcDbCircle
 10
362.316993752787
 20
207.0030044068185
 30
0.0
 40
3.0
100
AcDbArc
 50
329.9999999994885
 51
342.8071168934317
  0
SPLINE
  5
B3
330
2
100
AcDbEntity
  8
0
100
AcDbSpline
210
0.0
220
0.0
230
1.0
 70
     8
 71
     3
 72
    11
 73
     7
 74
     0
 42
0.0000000001
 43
0.0000000001
 40
2.905508902230586
 40
2.905508902230918
 40
2.905508902230918
 40
2.905508902230918
 40
4.252032055284468
 40
5.719956877634702
 40
6.429333584659596
 40
7.260754040682666
 40
7.260754040682666
 40
7.260754040682666
 40
7.260754040682666
 10
371.6356864555142
 20
226.1899211590156
 30
0.0
 10
372.0925203836461
 20
226.1803029216526
 30
0.0
 10
373.0805046151164
 20
226.0226481429802
 30
0.0
 10
373.8023804459087
 20
224.9544381447583
 30
0.0
 10
374.0525349169057
 20
224.2351103955587
 30
0.0
 10
374.0685554335419
 20
223.7170613110233
 30
0.0
 10
374.0685554335419
 20
223.4399211590156
 30
0.0
  0
ENDSEC
  0
SECTION
  2
OBJECTS
  0
DICTIONARY
  5
7
330
0
100
AcDbDictionary
  3
ACAD_GROUP
350
25
  3
ACAD_LAYOUT
350
B
  3
ACAD_MLINESTYLE
350
26
  3
ACAD_PLOTSETTINGS
350
27
  3
ACAD_PLOTSTYLENAME
350
6
  3
ACDBHEADERROUNDTRIPXREC
350
19A
  3
ACDBVARIABLEDICTIONARY
350
B4
  0
DICTIONARY
  5
11
330
10
100
AcDbDictionary
280
     1
  3
ACAD_LAYERFILTERS
360
12
  0
DICTIONARY
  5
BE
330
2
100
AcDbDictionary
280
     1
  3
ACAD_LAYOUTSELFREF
360
1BB
  0
DICTIONARY
  5
C0
330
C
100
AcDbDictionary
280
     1
  3
ACAD_LAYOUTSELFREF
360
1BC
  0
DICTIONARY
  5
25
102
{ACAD_REACTORS
330
7
102
}
330
7
100
AcDbDictionary
  0
DICTIONARY
  5
B
102
{ACAD_REACTORS
330
7
102
}
330
7
100
AcDbDictionary
  0
DICTIONARY
  5
26
102
{ACAD_REACTORS
330
7
102
}
330
7
100
AcDbDictionary
  3
STANDARD
350
29
  0
DICTIONARY
  5
27
102
{ACAD_REACTORS
330
7
102
}
330
7
100
AcDbDictionary
  0
ACDBDICTIONARYWDFLT
  5
6
102
{ACAD_REACTORS
330
7
102
}
330
7
100
AcDbDictionary
281
     1
  3
Normal
350
5
100
AcDbDictionaryWithDefault
340
5
  0
DICTIONARY
  5
19A
102
{ACAD_REACTORS
330
7
102
}
330
7
100
AcDbDictionary
  3
CEPSNTYPE
350
1A4
  3
DIMSTYLEDATA
350
1A8
  3
FINGERPRINTGUID
350
1A5
  3
HYPERLINKBASE
350
19D
  3
INSUNITS
350
1A3
  3
LAYOUTDICT
350
19F
  3
LWETCUNION
350
1A2
  3
PLOTSETDICT
350
1A0
  3
PLOTSTYLNAMDICT
350
1A1
  3
PSVPSCALE
350
1A7
  3
PUCSBASE
350
1AB
  3
PUCSORGBACK
350
1B1
  3
PUCSORGBOTTOM
350
1AD
  3
PUCSORGFRONT
350
1B0
  3
PUCSORGLEFT
350
1AE
  3
PUCSORGRIGHT
350
1AF
  3
PUCSORGTOP
350
1AC
  3
PUCSORTHOREF
350
1A9
  3
PUCSORTHOVIEW
350
1AA
  3
STYLESHEET
350
19E
  3
TSTACKALIGN
350
19B
  3
TSTACKSIZE
350
19C
  3
UCSBASE
350
1B4
  3
UCSORGBACK
350
1BA
  3
UCSORGBOTTOM
350
1B6
  3
UCSORGFRONT
350
1B9
  3
UCSORGLEFT
350
1B7
  3
UCSORGRIGHT
350
1B8
  3
UCSORGTOP
350
1B5
  3
UCSORTHOREF
350
1B2
  3
UCSORTHOVIEW
350
1B3
  3
VERSIONGUID
350
1A6
  0
DICTIONARY
  5
B4
102
{ACAD_REACTORS
330
7
102
}
330
7
100
AcDbDictionary
  3
DIMASSOC
350
B6
  3
HIDETEXT
350
B5
  0
DICTIONARY
  5
12
102
{ACAD_REACTORS
330
11
102
}
330
11
100
AcDbDictionary
280
     1
  3
DIM-1_12
360
13
  3
DIM-1_16
360
14
  0
XRECORD
  5
1BB
102
{ACAD_REACTORS
330
BE
102
}
330
BE
100
AcDbXrecord
340
2
  0
XRECORD
  5
1BC
102
{ACAD_REACTORS
330
C0
102
}
330
C0
100
AcDbXrecord
340
C
  0
MLINESTYLE
  5
29
102
{ACAD_REACTORS
330
26
102
}
330
26
100
AcDbMlineStyle
  2
STANDARD
 70
     0
  3

 62
   256
 51
90.0
 52
90.0
 71
     2
 49
0.5
 62
   256
  6
BYLAYER
 49
-0.5
 62
   256
  6
BYLAYER
  0
ACDBPLACEHOLDER
  5
5
102
{ACAD_REACTORS
330
6
102
}
330
6
100
AcDbPlaceHolder
280
     0
  0
XRECORD
  5
1A4
102
{ACAD_REACTORS
330
19A
102
}
330
19A
100
AcDbXrecord
 90
        0
  0
XRECORD
  5
1A8
102
{ACAD_REACTORS
330
19A
102
}
330
19A
100
AcDbXrecord
1000
DSTYLE
1002
{
1070
    79
 70
     1
1070
   276
 70
     1
1070
   277
 70
     5
1070
   289
 70
     1
1002
}
  0
XRECORD
  5
1A5
102
{ACAD_REACTORS
330
19A
102
}
330
19A
100
AcDbXrecord
  1
{6A4AC8E0-4F58-11D5-8420-0003476D26AB}
  0
XRECORD
  5
19D
102
{ACAD_REACTORS
330
19A
102
}
330
19A
100
AcDbXrecord
  1

  0
XRECORD
  5
1A3
102
{ACAD_REACTORS
330
19A
102
}
330
19A
100
AcDbXrecord
 90
        1
  0
XRECORD
  5
19F
102
{ACAD_REACTORS
330
19A
102
}
330
19A
100
AcDbXrecord
340
B
  0
XRECORD
  5
1A2
102
{ACAD_REACTORS
330
19A
102
}
330
19A
100
AcDbXrecord
 90
    10781
  0
XRECORD
  5
1A0
102
{ACAD_REACTORS
330
19A
102
}
330
19A
100
AcDbXrecord
340
27
  0
XRECORD
  5
1A1
102
{ACAD_REACTORS
330
19A
102
}
330
19A
100
AcDbXrecord
340
6
  0
XRECORD
  5
1A7
102
{ACAD_REACTORS
330
19A
102
}
330
19A
100
AcDbXrecord
 40
0.0
  0
XRECORD
  5
1AB
102
{ACAD_REACTORS
330
19A
102
}
330
19A
100
AcDbXrecord
340
0
  0
XRECORD
  5
1B1
102
{ACAD_REACTORS
330
19A
102
}
330
19A
100
AcDbXrecord
 10
0.0
 20
0.0
 30
0.0
  0
XRECORD
  5
1AD
102
{ACAD_REACTORS
330
19A
102
}
330
19A
100
AcDbXrecord
 10
0.0
 20
0.0
 30
0.0
  0
XRECORD
  5
1B0
102
{ACAD_REACTORS
330
19A
102
}
330
19A
100
AcDbXrecord
 10
0.0
 20
0.0
 30
0.0
  0
XRECORD
  5
1AE
102
{ACAD_REACTORS
330
19A
102
}
330
19A
100
AcDbXrecord
 10
0.0
 20
0.0
 30
0.0
  0
XRECORD
  5
1AF
102
{ACAD_REACTORS
330
19A
102
}
330
19A
100
AcDbXrecord
 10
0.0
 20
0.0
 30
0.0
  0
XRECORD
  5
1AC
102
{ACAD_REACTORS
330
19A
102
}
330
19A
100
AcDbXrecord
 10
0.0
 20
0.0
 30
0.0
  0
XRECORD
  5
1A9
102
{ACAD_REACTORS
330
19A
102
}
330
19A
100
AcDbXrecord
340
0
  0
XRECORD
  5
1AA
102
{ACAD_REACTORS
330
19A
102
}
330
19A
100
AcDbXrecord
 70
     0
  0
XRECORD
  5
19E
102
{ACAD_REACTORS
330
19A
102
}
330
19A
100
AcDbXrecord
  1

  0
XRECORD
  5
19B
102
{ACAD_REACTORS
330
19A
102
}
330
19A
100
AcDbXrecord
 90
        1
  0
XRECORD
  5
19C
102
{ACAD_REACTORS
330
19A
102
}
330
19A
100
AcDbXrecord
 90
       70
  0
XRECORD
  5
1B4
102
{ACAD_REACTORS
330
19A
102
}
330
19A
100
AcDbXrecord
340
0
  0
XRECORD
  5
1BA
102
{ACAD_REACTORS
330
19A
102
}
330
19A
100
AcDbXrecord
 10
0.0
 20
0.0
 30
0.0
  0
XRECORD
  5
1B6
102
{ACAD_REACTORS
330
19A
102
}
330
19A
100
AcDbXrecord
 10
0.0
 20
0.0
 30
0.0
  0
XRECORD
  5
1B9
102
{ACAD_REACTORS
330
19A
102
}
330
19A
100
AcDbXrecord
 10
0.0
 20
0.0
 30
0.0
  0
XRECORD
  5
1B7
102
{ACAD_REACTORS
330
19A
102
}
330
19A
100
AcDbXrecord
 10
0.0
 20
0.0
 30
0.0
  0
XRECORD
  5
1B8
102
{ACAD_REACTORS
330
19A
102
}
330
19A
100
AcDbXrecord
 10
0.0
 20
0.0
 30
0.0
  0
XRECORD
  5
1B5
102
{ACAD_REACTORS
330
19A
102
}
330
19A
100
AcDbXrecord
 10
-86.61529330307228
 20
17.01116759546271
 30
0.0
  0
XRECORD
  5
1B2
102
{ACAD_REACTORS
330
19A
102
}
330
19A
100
AcDbXrecord
340
0
  0
XRECORD
  5
1B3
102
{ACAD_REACTORS
330
19A
102
}
330
19A
100
AcDbXrecord
 70
     1
  0
XRECORD
  5
1A6
102
{ACAD_REACTORS
330
19A
102
}
330
19A
100
AcDbXrecord
  1
{BE9E10D4-39D6-42B5-97FE-20B502BABD3E}
  0
DICTIONARYVAR
  5
B6
102
{ACAD_REACTORS
330
B4
102
}
330
B4
100
DictionaryVariables
280
     0
  1
1
  0
DICTIONARYVAR
  5
B5
102
{ACAD_REACTORS
330
B4
102
}
330
B4
100
DictionaryVariables
280
     0
  1
1
  0
XRECORD
  5
13
102
{ACAD_REACTORS
330
12
102
}
330
12
100
AcDbXrecord
  1
DIM-1_12
  1
DIM-1_12
  1
*
  1
*
 70
     0
  1
*
  1
*
  0
XRECORD
  5
14
102
{ACAD_REACTORS
330
12
102
}
330
12
100
AcDbXrecord
  1
dim-1_16
  1
*
  1
*
  1
*
 70
     0
  1
*
  1
*
  0
ENDSEC
  0
EOF
