  0
SECTION
  2
HEADER
  9
$ACADVER
  1
AC1014
  9
$ACADMAINTVER
 70
     9
  9
$DWGCODEPAGE
  3
ANSI_1252
  9
$INSBASE
 10
-50.74036765085757
 20
-77.63868604588896
 30
0.0
  9
$EXTMIN
 10
-86.5334580539025
 20
-79.71317628575582
 30
-0.0015258207003583
  9
$EXTMAX
 10
-14.94453408650997
 20
-52.37332979649721
 30
0.0000000349246037
  9
$LIMMIN
 10
0.0
 20
0.0
  9
$LIMMAX
 10
100.5024158491978
 20
51.69854817198938
  9
$ORTHOMODE
 70
     1
  9
$REGENMODE
 70
     1
  9
$FILLMODE
 70
     1
  9
$QTEXTMODE
 70
     0
  9
$MIRRTEXT
 70
     1
  9
$DRAGMODE
 70
     2
  9
$LTSCALE
 40
2.0
  9
$OSMODE
 70
    55
  9
$ATTMODE
 70
     1
  9
$TEXTSIZE
 40
0.1
  9
$TRACEWID
 40
1.0
  9
$TEXTSTYLE
  7
CARTOUCHE
  9
$CLAYER
  8
0
  9
$CELTYPE
  6
BYLAYER
  9
$CECOLOR
 62
   256
  9
$CELTSCALE
 40
1.0
  9
$DELOBJ
 70
     1
  9
$DISPSILH
 70
     0
  9
$DIMSCALE
 40
16.0
  9
$DIMASZ
 40
0.1
  9
$DIMEXO
 40
0.0625
  9
$DIMDLI
 40
0.25
  9
$DIMRND
 40
0.0
  9
$DIMDLE
 40
0.0
  9
$DIMEXE
 40
0.1
  9
$DIMTP
 40
0.0
  9
$DIMTM
 40
0.0
  9
$DIMTXT
 40
0.1
  9
$DIMCEN
 40
0.09
  9
$DIMTSZ
 40
0.0
  9
$DIMTOL
 70
     0
  9
$DIMLIM
 70
     0
  9
$DIMTIH
 70
     1
  9
$DIMTOH
 70
     1
  9
$DIMSE1
 70
     0
  9
$DIMSE2
 70
     0
  9
$DIMTAD
 70
     0
  9
$DIMZIN
 70
     4
  9
$DIMBLK
  1

  9
$DIMASO
 70
     1
  9
$DIMSHO
 70
     1
  9
$DIMPOST
  1
\X
  9
$DIMAPOST
  1
cm
  9
$DIMALT
 70
     1
  9
$DIMALTD
 70
     1
  9
$DIMALTF
 40
2.54
  9
$DIMLFAC
 40
1.0
  9
$DIMTOFL
 70
     0
  9
$DIMTVP
 40
0.0
  9
$DIMTIX
 70
     0
  9
$DIMSOXD
 70
     0
  9
$DIMSAH
 70
     0
  9
$DIMBLK1
  1

  9
$DIMBLK2
  1

  9
$DIMSTYLE
  2
STANDARD
  9
$DIMCLRD
 70
     0
  9
$DIMCLRE
 70
     0
  9
$DIMCLRT
 70
     0
  9
$DIMTFAC
 40
1.0
  9
$DIMGAP
 40
0.08
  9
$DIMJUST
 70
     0
  9
$DIMSD1
 70
     0
  9
$DIMSD2
 70
     0
  9
$DIMTOLJ
 70
     1
  9
$DIMTZIN
 70
     4
  9
$DIMALTZ
 70
     4
  9
$DIMALTTZ
 70
     4
  9
$DIMFIT
 70
     1
  9
$DIMUPT
 70
     0
  9
$DIMUNIT
 70
     5
  9
$DIMDEC
 70
     3
  9
$DIMTDEC
 70
     3
  9
$DIMALTU
 70
     2
  9
$DIMALTTD
 70
     1
  9
$DIMTXSTY
  7
ROMANS
  9
$DIMAUNIT
 70
     0
  9
$LUNITS
 70
     2
  9
$LUPREC
 70
     2
  9
$SKETCHINC
 40
1.0
  9
$FILLETRAD
 40
2.0
  9
$AUNITS
 70
     0
  9
$AUPREC
 70
     0
  9
$MENU
  1
.
  9
$ELEVATION
 40
0.0
  9
$PELEVATION
 40
0.0
  9
$THICKNESS
 40
0.0
  9
$LIMCHECK
 70
     0
  9
$BLIPMODE
 70
     0
  9
$CHAMFERA
 40
0.0
  9
$CHAMFERB
 40
0.0
  9
$CHAMFERC
 40
20.0
  9
$CHAMFERD
 40
0.0
  9
$SKPOLY
 70
     0
  9
$TDCREATE
 40
2452062.343093519
  9
$TDUPDATE
 40
2453686.480470613
  9
$TDINDWG
 40
2.2232863773
  9
$TDUSRTIMER
 40
2.2232863773
  9
$USRTIMER
 70
     1
  9
$ANGBASE
 50
0.0
  9
$ANGDIR
 70
     0
  9
$PDMODE
 70
    34
  9
$PDSIZE
 40
-5.0
  9
$PLINEWID
 40
0.0
  9
$COORDS
 70
     1
  9
$SPLFRAME
 70
     0
  9
$SPLINETYPE
 70
     6
  9
$SPLINESEGS
 70
     8
  9
$ATTDIA
 70
     0
  9
$ATTREQ
 70
     1
  9
$HANDLING
 70
 22529
  9
$HANDSEED
  5
138
  9
$SURFTAB1
 70
     6
  9
$SURFTAB2
 70
     6
  9
$SURFTYPE
 70
     6
  9
$SURFU
 70
     6
  9
$SURFV
 70
     6
  9
$UCSNAME
  2

  9
$UCSORG
 10
0.0
 20
0.0
 30
0.0
  9
$UCSXDIR
 10
1.0
 20
0.0
 30
0.0
  9
$UCSYDIR
 10
0.0
 20
1.0
 30
0.0
  9
$PUCSNAME
  2

  9
$PUCSORG
 10
0.0
 20
0.0
 30
0.0
  9
$PUCSXDIR
 10
1.0
 20
0.0
 30
0.0
  9
$PUCSYDIR
 10
0.0
 20
1.0
 30
0.0
  9
$USERI1
 70
     0
  9
$USERI2
 70
     0
  9
$USERI3
 70
     0
  9
$USERI4
 70
     0
  9
$USERI5
 70
     0
  9
$USERR1
 40
0.0
  9
$USERR2
 40
0.0
  9
$USERR3
 40
0.0
  9
$USERR4
 40
0.0
  9
$USERR5
 40
0.0
  9
$WORLDVIEW
 70
     1
  9
$SHADEDGE
 70
     3
  9
$SHADEDIF
 70
    70
  9
$TILEMODE
 70
     1
  9
$MAXACTVP
 70
    48
  9
$PINSBASE
 10
0.0
 20
0.0
 30
0.0
  9
$PLIMCHECK
 70
     0
  9
$PEXTMIN
 10
0.0
 20
0.0
 30
0.0
  9
$PEXTMAX
 10
0.0
 20
0.0
 30
0.0
  9
$PLIMMIN
 10
0.0
 20
0.0
  9
$PLIMMAX
 10
12.0
 20
9.0
  9
$UNITMODE
 70
     0
  9
$VISRETAIN
 70
     1
  9
$PLINEGEN
 70
     0
  9
$PSLTSCALE
 70
     1
  9
$TREEDEPTH
 70
  3020
  9
$PICKSTYLE
 70
     1
  9
$CMLSTYLE
  2
STANDARD
  9
$CMLJUST
 70
     0
  9
$CMLSCALE
 40
20.0
  9
$PROXYGRAPHICS
 70
     1
  9
$MEASUREMENT
 70
     0
  0
ENDSEC
  0
SECTION
  2
CLASSES
  0
CLASS
  1
ACDBDICTIONARYWDFLT
  2
AcDbDictionaryWithDefault
  3
AutoCAD 2000
 90
        0
280
     0
281
     0
  0
CLASS
  1
ACDBPLACEHOLDER
  2
AcDbPlaceHolder
  3
AutoCAD 2000
 90
        0
280
     0
281
     0
  0
CLASS
  1
LAYOUT
  2
AcDbLayout
  3
AutoCAD 2000
 90
        0
280
     0
281
     0
  0
CLASS
  1
DICTIONARYVAR
  2
AcDbDictionaryVar
  3
AutoCAD 2000
 90
        0
280
     0
281
     0
  0
CLASS
  1
IMAGEDEF
  2
AcDbRasterImageDef
  3
ISM
 90
        0
280
     0
281
     0
  0
CLASS
  1
LONG_TRANSACTION
  2
AcDbLongTransaction
  3
AutoCAD 2000
 90
        0
280
     0
281
     0
  0
CLASS
  1
LWPOLYLINE
  2
AcDbPolyline
  3
AutoCAD 2000
 90
        0
280
     0
281
     1
  0
CLASS
  1
HATCH
  2
AcDbHatch
  3
AutoCAD 2000
 90
        0
280
     0
281
     1
  0
CLASS
  1
XRECORD
  2
AcDbXrecord
  3
AutoCAD 2000
 90
        0
280
     0
281
     0
  0
CLASS
  1
LONG_TRANSACTION
  2
AcDbLongTransaction
  3
AutoCAD 2000
 90
        0
280
     0
281
     0
  0
CLASS
  1
LWPOLYLINE
  2
AcDbPolyline
  3
AutoCAD 2000
 90
        0
280
     0
281
     1
  0
CLASS
  1
HATCH
  2
AcDbHatch
  3
AutoCAD 2000
 90
        0
280
     0
281
     1
  0
CLASS
  1
XRECORD
  2
AcDbXrecord
  3
AutoCAD 2000
 90
        0
280
     0
281
     0
  0
ENDSEC
  0
SECTION
  2
TABLES
  0
TABLE
  2
VPORT
  5
1D
330
0
100
AcDbSymbolTable
 70
     3
  0
VPORT
  5
114
330
1D
100
AcDbSymbolTableRecord
100
AcDbViewportTableRecord
  2
*ACTIVE
 70
     0
 10
0.0
 20
0.0
 11
1.0
 21
1.0
 12
-50.73899616909031
 22
-66.04325311188573
 13
0.0
 23
0.0
 14
10.0
 24
10.0
 15
10.0
 25
10.0
 16
0.0
 26
0.0
 36
1.0
 17
0.0
 27
0.0
 37
0.0
 40
46.3668228885721
 41
1.786792452830188
 42
50.0
 43
0.0
 44
0.0
 50
0.0
 51
0.0
 71
     0
 72
   100
 73
     1
 74
     3
 75
     0
 76
     0
 77
     0
 78
     2
  0
ENDTAB
  0
TABLE
  2
LTYPE
  5
18
330
0
100
AcDbSymbolTable
 70
     3
  0
LTYPE
  5
19
330
18
100
AcDbSymbolTableRecord
100
AcDbLinetypeTableRecord
  2
BYBLOCK
 70
     0
  3

 72
    65
 73
     0
 40
0.0
  0
LTYPE
  5
1A
330
18
100
AcDbSymbolTableRecord
100
AcDbLinetypeTableRecord
  2
BYLAYER
 70
     0
  3

 72
    65
 73
     0
 40
0.0
  0
LTYPE
  5
8
330
18
100
AcDbSymbolTableRecord
100
AcDbLinetypeTableRecord
  2
CONTINUOUS
 70
     0
  3
Solid line
 72
    65
 73
     0
 40
0.0
  0
LTYPE
  5
3C
330
18
100
AcDbSymbolTableRecord
100
AcDbLinetypeTableRecord
  2
CENTER
 70
     0
  3
Center ____ _ ____ _ ____ _ ____ _ ____ _ ____
 72
    65
 73
     4
 40
50.8
 49
31.75
 74
     0
 49
-6.349999999999999
 74
     0
 49
6.349999999999999
 74
     0
 49
-6.349999999999999
 74
     0
  0
LTYPE
  5
2F
330
18
100
AcDbSymbolTableRecord
100
AcDbLinetypeTableRecord
  2
HIDDEN
 70
     0
  3
Hidden __ __ __ __ __ __ __ __ __ __ __ __ __ _
 72
    65
 73
     2
 40
9.524999999999998
 49
6.349999999999999
 74
     0
 49
-3.174999999999999
 74
     0
  0
ENDTAB
  0
TABLE
  2
LAYER
  5
10
102
{ACAD_XDICTIONARY
360
11
102
}
330
0
100
AcDbSymbolTable
 70
     3
  0
LAYER
  5
4
330
10
100
AcDbSymbolTableRecord
100
AcDbLayerTableRecord
  2
0
 70
     0
 62
     7
  6
CONTINUOUS
  0
LAYER
  5
3B
330
10
100
AcDbSymbolTableRecord
100
AcDbLayerTableRecord
  2
CENTER
 70
     0
 62
     1
  6
CENTER
  0
LAYER
  5
C0
330
10
100
AcDbSymbolTableRecord
100
AcDbLayerTableRecord
  2
DEFPOINTS
 70
     0
 62
     7
  6
CONTINUOUS
  0
ENDTAB
  0
TABLE
  2
STYLE
  5
15
330
0
100
AcDbSymbolTable
 70
     3
  0
STYLE
  5
16
330
15
100
AcDbSymbolTableRecord
100
AcDbTextStyleTableRecord
  2
STANDARD
 70
     0
 40
0.0
 41
1.0
 50
0.0
 71
     0
 42
0.125
  3
txt
  4

  0
STYLE
  5
29
330
15
100
AcDbSymbolTableRecord
100
AcDbTextStyleTableRecord
  2
CARTOUCHE
 70
     0
 40
0.0
 41
1.0
 50
0.0
 71
     0
 42
0.1
  3
romans.shx
  4

  0
STYLE
  5
23
330
15
100
AcDbSymbolTableRecord
100
AcDbTextStyleTableRecord
  2
ROMANS
 70
     0
 40
0.0
 41
1.0
 50
0.0
 71
     0
 42
1.0
  3
romans.shx
  4

  0
ENDTAB
  0
TABLE
  2
VIEW
  5
1B
330
0
100
AcDbSymbolTable
 70
     0
  0
ENDTAB
  0
TABLE
  2
UCS
  5
1C
330
0
100
AcDbSymbolTable
 70
     0
  0
ENDTAB
  0
TABLE
  2
APPID
  5
1F
330
0
100
AcDbSymbolTable
 70
     2
  0
APPID
  5
20
330
1F
100
AcDbSymbolTableRecord
100
AcDbRegAppTableRecord
  2
ACAD
 70
     0
  0
APPID
  5
69
330
1F
100
AcDbSymbolTableRecord
100
AcDbRegAppTableRecord
  2
DCO15
 70
     0
  0
ENDTAB
  0
TABLE
  2
DIMSTYLE
  5
21
330
0
100
AcDbSymbolTable
 70
     1
  0
DIMSTYLE
105
22
330
21
100
AcDbSymbolTableRecord
100
AcDbDimStyleTableRecord
  2
STANDARD
 70
     0
  3
\X
  4
cm
  5

  6

  7

 40
16.0
 41
0.1
 42
0.0625
 43
0.25
 44
0.1
 45
0.0
 46
0.0
 47
0.0
 48
0.0
140
0.1
141
0.09
142
0.0
143
2.54
144
1.0
145
0.0
146
1.0
147
0.08
 71
     0
 72
     0
 73
     1
 74
     1
 75
     0
 76
     0
 77
     0
 78
     4
170
     1
171
     1
172
     0
173
     0
174
     0
175
     0
176
     0
177
     0
178
     0
270
     5
271
     3
272
     3
273
     2
274
     1
340
23
275
     0
280
     0
281
     0
282
     0
283
     1
284
     4
285
     4
286
     4
287
     1
288
     0
  0
ENDTAB
  0
TABLE
  2
BLOCK_RECORD
  5
1
330
0
100
AcDbSymbolTable
 70
     1
  0
BLOCK_RECORD
  5
2
102
{ACAD_XDICTIONARY
360
71
102
}
330
1
100
AcDbSymbolTableRecord
100
AcDbBlockTableRecord
  2
*MODEL_SPACE
  0
BLOCK_RECORD
  5
62
102
{ACAD_XDICTIONARY
360
73
102
}
330
1
100
AcDbSymbolTableRecord
100
AcDbBlockTableRecord
  2
*PAPER_SPACE
  0
ENDTAB
  0
ENDSEC
  0
SECTION
  2
BLOCKS
  0
BLOCK
  5
3
330
2
100
AcDbEntity
  8
0
100
AcDbBlockBegin
  2
*MODEL_SPACE
 70
     0
 10
0.0
 20
0.0
 30
0.0
  3
*MODEL_SPACE
  1

  0
ENDBLK
  5
9
330
2
100
AcDbEntity
  8
0
100
AcDbBlockEnd
  0
BLOCK
  5
64
330
62
100
AcDbEntity
 67
     1
  8
0
100
AcDbBlockBegin
  2
*PAPER_SPACE
 70
     0
 10
0.0
 20
0.0
 30
0.0
  3
*PAPER_SPACE
  1

  0
ENDBLK
  5
65
330
62
100
AcDbEntity
 67
     1
  8
0
100
AcDbBlockEnd
  0
ENDSEC
  0
SECTION
  2
ENTITIES
  0
LINE
  5
2B
330
2
100
AcDbEntity
  8
0
 48
0.1
100
AcDbLine
 10
-15.69771003469713
 20
-53.13868604588894
 30
0.0
 11
-85.78318652188576
 21
-53.13868604588894
 31
0.0
  0
LINE
  5
2C
330
2
100
AcDbEntity
  8
0
 48
0.1
100
AcDbLine
 10
-14.99060325351058
 20
-54.63868604588896
 30
0.0
 11
-86.49029330307227
 21
-54.63868604588896
 31
0.0
  0
LINE
  5
2D
330
2
100
AcDbEntity
  8
0
 48
0.1
100
AcDbLine
 10
-15.15726992017727
 20
-53.61009056668
 30
0.0
 11
-86.32362663640561
 21
-53.61009056667999
 31
0.0
  0
LINE
  5
2E
330
2
100
AcDbEntity
  8
0
  6
HIDDEN
 62
     9
 48
0.1
100
AcDbLine
 10
-50.74036765085757
 20
-73.13868604588894
 30
0.0
 11
-70.70218714002625
 21
-72.79025119062011
 31
0.0
  0
LINE
  5
30
330
2
100
AcDbEntity
  8
0
 48
0.1
100
AcDbLine
 10
-25.97388345037812
 20
-77.63868604588896
 30
0.0
 11
-75.50685185133703
 21
-77.63868604588896
 31
0.0
  0
LINE
  5
31
330
2
100
AcDbEntity
  8
0
  6
HIDDEN
 62
     9
 48
0.1
100
AcDbLine
 10
-81.86550327167672
 20
-53.63868604588894
 30
0.0
 11
-73.34621205961188
 21
-71.10582154551817
 31
0.0
  0
SPLINE
  5
32
330
2
100
AcDbEntity
  8
0
 48
0.1
100
AcDbSpline
210
0.0
220
0.0
230
1.0
 70
     8
 71
     3
 72
    10
 73
     6
 74
     0
 42
0.0000000001
 43
0.0000000001
 40
0.0
 40
0.0
 40
0.0
 40
0.0
 40
8.768238813899515
 40
21.34600422696484
 40
23.283664963201
 40
23.283664963201
 40
23.283664963201
 40
23.283664963201
 10
-84.86529330307238
 20
-54.63868604588896
 30
0.0
 10
-84.86529330307238
 20
-54.63868604588896
 30
0.0
 10
-78.33836508657917
 20
-63.73455960767177
 30
0.0
 10
-77.51612273647518
 20
-70.92792594969061
 30
0.0
 10
-76.60340537172692
 20
-75.675148970839
 30
0.0
 10
-76.49181980659192
 20
-76.31142320784602
 30
0.0
  0
ARC
  5
33
330
2
100
AcDbEntity
  8
0
 48
0.1
100
AcDbCircle
 10
-74.92280049122276
 20
-76.17615272139516
 30
0.0
 40
1.57483958437239
100
AcDbArc
 50
184.9274796958541
 51
248.2310856769598
  0
ARC
  5
34
330
2
100
AcDbEntity
  8
0
  6
HIDDEN
 62
     9
100
AcDbCircle
 10
-70.64982992071439
 20
-69.79070810515094
 30
0.0
 40
3.0
100
AcDbArc
 50
206.0
 51
268.9999999999999
  0
ARC
  5
35
330
2
100
AcDbEntity
  8
0
 48
0.1
100
AcDbCircle
 10
-86.2402933030723
 20
-53.84579282707552
 30
0.0
 40
0.25
100
AcDbArc
 50
109.4712206344887
 51
179.9999999999967
  0
LINE
  5
36
330
2
100
AcDbEntity
  8
0
 48
0.1
100
AcDbLine
 10
-86.4902933030723
 20
-54.63868604588896
 30
0.0
 11
-86.4902933030723
 21
-53.8457928270755
 31
0.0
  0
LINE
  5
37
330
2
100
AcDbEntity
  8
0
 48
0.1
100
AcDbLine
 10
-86.49029330307227
 20
-54.63868604588896
 30
0.0
 11
-86.4902933030723
 21
-54.63868604588895
 31
0.0
  0
ARC
  5
38
330
2
100
AcDbEntity
  8
0
 48
0.1
100
AcDbCircle
 10
-85.78318652188576
 20
-53.38868604588895
 30
0.0
 40
0.25
100
AcDbArc
 50
90.0
 51
160.5287793655101
  0
ARC
  5
39
330
2
100
AcDbEntity
  8
0
 48
0.1
100
AcDbCircle
 10
-86.4902933030723
 20
-53.13868604588896
 30
0.0
 40
0.5
100
AcDbArc
 50
289.4712206344914
 51
340.5287793655106
  0
LINE
  5
3A
330
2
100
AcDbEntity
  8
CENTER
 48
0.05
100
AcDbLine
 10
-50.74036765085759
 20
-52.38070574526336
 30
0.0
 11
-50.74036765085756
 21
-60.77166634651456
 31
0.0
  0
LINE
  5
3D
330
2
100
AcDbEntity
  8
0
  6
HIDDEN
 62
     9
 48
0.1
100
AcDbLine
 10
-19.61523203003842
 20
-53.63868604588894
 30
0.0
 11
-28.13452324210327
 21
-71.10582154551818
 31
0.0
  0
SPLINE
  5
3E
330
2
100
AcDbEntity
  8
0
 48
0.1
100
AcDbSpline
210
0.0
220
0.0
230
1.0
 70
     8
 71
     3
 72
    10
 73
     6
 74
     0
 42
0.0000000001
 43
0.0000000001
 40
0.0
 40
0.0
 40
0.0
 40
0.0
 40
8.768238813899515
 40
21.34600422696484
 40
23.283664963201
 40
23.283664963201
 40
23.283664963201
 40
23.283664963201
 10
-16.61544199864278
 20
-54.63868604588896
 30
0.0
 10
-16.61544199864277
 20
-54.63868604588896
 30
0.0
 10
-23.14237021513598
 20
-63.73455960767177
 30
0.0
 10
-23.96461256523997
 20
-70.92792594969061
 30
0.0
 10
-24.87732992998823
 20
-75.675148970839
 30
0.0
 10
-24.98891549512324
 20
-76.31142320784602
 30
0.0
  0
ARC
  5
3F
330
2
100
AcDbEntity
  8
0
  6
HIDDEN
 62
     9
100
AcDbCircle
 10
-30.83090538100079
 20
-69.79070810515096
 30
0.0
 40
3.0
100
AcDbArc
 50
271.0
 51
334.0
  0
LINE
  5
40
330
2
100
AcDbEntity
  8
CENTER
 48
0.05
100
AcDbLine
 10
-50.74036765085759
 20
-70.81820574526336
 30
0.0
 11
-50.74036765085756
 21
-79.70916634651456
 31
0.0
  0
LINE
  5
41
330
2
100
AcDbEntity
  8
0
  6
HIDDEN
 62
     9
 48
0.1
100
AcDbLine
 10
-47.57093211147704
 20
-76.51108709113666
 30
0.0
 11
-47.57093211147706
 21
-74.01628500064123
 31
0.0
  0
ARC
  5
42
330
2
100
AcDbEntity
  8
0
  6
HIDDEN
 62
     9
 48
0.1
100
AcDbCircle
 10
-50.82093211147704
 20
-75.26368604588895
 30
0.0
 40
1.25
100
AcDbArc
 50
180.0
 51
273.695364302186
  0
CIRCLE
  5
43
330
2
100
AcDbEntity
  8
0
  6
HIDDEN
 62
     9
 48
0.1
100
AcDbCircle
 10
-50.74036765085757
 20
-75.26368604588896
 30
0.0
 40
0.875
  0
LINE
  5
44
330
2
100
AcDbEntity
  8
0
  6
HIDDEN
 62
     9
 48
0.1
100
AcDbLine
 10
-50.74036765085757
 20
-76.51108709113666
 30
0.0
 11
-47.57093211147704
 21
-76.51108709113666
 31
0.0
  0
LINE
  5
45
330
2
100
AcDbEntity
  8
0
  6
HIDDEN
 62
     9
 48
0.1
100
AcDbLine
 10
-50.74036765085757
 20
-73.13868604588894
 30
0.0
 11
-30.77854816168893
 21
-72.79025119062012
 31
0.0
  0
LINE
  5
46
330
2
100
AcDbEntity
  8
CENTER
 48
0.05
100
AcDbLine
 10
-46.54488735023197
 20
-75.26368604588895
 30
0.0
 11
-54.93584795148318
 21
-75.26368604588897
 31
0.0
  0
LINE
  5
47
330
2
100
AcDbEntity
  8
0
  6
HIDDEN
 62
     9
100
AcDbLine
 10
-49.43063273535182
 20
-73.56531044794035
 30
0.0
 11
-51.97352595416527
 21
-73.56531044794035
 31
0.0
  0
LINE
  5
48
330
2
100
AcDbEntity
  8
0
  6
HIDDEN
 62
     9
 48
0.1
100
AcDbLine
 10
-51.97352595416527
 20
-73.56531044794035
 30
0.0
 11
-49.43063273535182
 21
-73.56531044794035
 31
0.0
  0
ARC
  5
49
330
2
100
AcDbEntity
  8
0
  6
HIDDEN
 62
     9
100
AcDbCircle
 10
-51.97352595416527
 20
-73.31531044794035
 30
0.0
 40
0.25
100
AcDbArc
 50
225.0000000000005
 51
270.0
  0
LINE
  5
4A
330
2
100
AcDbEntity
  8
0
  6
HIDDEN
 62
     9
100
AcDbLine
 10
-52.1503026494619
 20
-73.49208714323698
 30
0.0
 11
-52.42034102273198
 21
-73.22204876996692
 31
0.0
  0
LINE
  5
4B
330
2
100
AcDbEntity
  8
0
  6
HIDDEN
 62
     9
100
AcDbLine
 10
-52.1503026494619
 20
-73.49208714323698
 30
0.0
 11
-52.42034102273198
 21
-73.22204876996693
 31
0.0
  0
ARC
  5
4C
330
2
100
AcDbEntity
  8
0
  6
HIDDEN
 62
     9
100
AcDbCircle
 10
-52.77389441332525
 20
-73.57560216056021
 30
0.0
 40
0.5
100
AcDbArc
 50
45.00000000000115
 51
69.9594794419314
  0
LINE
  5
4D
330
2
100
AcDbEntity
  8
0
  6
HIDDEN
 62
     9
 48
0.1
100
AcDbLine
 10
-52.07093211147704
 20
-75.26368604588896
 30
0.0
 11
-52.07635575085179
 21
-73.54318329167871
 31
0.0
  0
ARC
  5
4E
330
2
100
AcDbEntity
  8
0
  6
HIDDEN
 62
     9
100
AcDbCircle
 10
-48.85473938616289
 20
-73.60513731230785
 30
0.0
 40
0.4148185677391211
100
AcDbArc
 50
164.1851759009678
 51
262.3719349999902
  0
LINE
  5
4F
330
2
100
AcDbEntity
  8
0
  6
HIDDEN
 62
     9
100
AcDbLine
 10
-49.25385604005518
 20
-73.49208714323698
 30
0.0
 11
-48.98381766678511
 21
-73.22204876996693
 31
0.0
  0
ARC
  5
50
330
2
100
AcDbEntity
  8
0
  6
HIDDEN
 62
     9
100
AcDbCircle
 10
-48.63026427619184
 20
-73.57560216056021
 30
0.0
 40
0.5
100
AcDbArc
 50
109.6746738800384
 51
134.9999999999988
  0
LINE
  5
51
330
2
100
AcDbEntity
  8
0
  6
HIDDEN
 62
     9
100
AcDbLine
 10
-49.39885029885181
 20
-73.56328197197107
 30
0.0
 11
-49.39885029885181
 21
-73.56328197197107
 31
0.0
  0
ARC
  5
52
330
2
100
AcDbEntity
  8
0
  6
HIDDEN
 62
     9
100
AcDbCircle
 10
-49.43063273535182
 20
-73.31531044794035
 30
0.0
 40
0.25
100
AcDbArc
 50
270.0
 51
314.9999999999995
  0
LINE
  5
53
330
2
100
AcDbEntity
  8
0
  6
HIDDEN
 62
     9
 48
0.1
100
AcDbLine
 10
-48.90980319023812
 20
-74.01628500064124
 30
0.0
 11
-47.57093211147704
 21
-74.01628500064123
 31
0.0
  0
LINE
  5
54
330
2
100
AcDbEntity
  8
CENTER
 48
0.05
100
AcDbLine
 10
-46.54488735023174
 20
-56.70118604588894
 30
0.0
 11
-54.93584795148295
 21
-56.70118604588897
 31
0.0
  0
CIRCLE
  5
55
330
2
100
AcDbEntity
  8
0
 48
0.1
100
AcDbCircle
 10
-50.74036765085757
 20
-56.70118604588896
 30
0.0
 40
1.1875
  0
ARC
  5
56
330
2
100
AcDbEntity
  8
0
 48
0.1
100
AcDbCircle
 10
-26.5579348104924
 20
-76.17615272139516
 30
0.0
 40
1.574839584372386
100
AcDbArc
 50
291.7689143230401
 51
355.0725203041458
  0
ARC
  5
57
330
2
100
AcDbEntity
  8
0
 48
0.1
100
AcDbCircle
 10
-15.24060325351058
 20
-53.84579282707552
 30
0.0
 40
0.25
100
AcDbArc
 50
0.0000000000032639
 51
70.52877936551119
  0
ARC
  5
58
330
2
100
AcDbEntity
  8
0
 48
0.1
100
AcDbCircle
 10
-15.69771003469713
 20
-53.38868604588895
 30
0.0
 40
0.25
100
AcDbArc
 50
19.4712206344899
 51
90.0
  0
ARC
  5
59
330
2
100
AcDbEntity
  8
0
 48
0.1
100
AcDbCircle
 10
-14.99060325351058
 20
-53.13868604588896
 30
0.0
 40
0.5
100
AcDbArc
 50
199.4712206344893
 51
250.5287793655085
  0
LINE
  5
5A
330
2
100
AcDbEntity
  8
0
 48
0.1
100
AcDbLine
 10
-14.99060325351058
 20
-54.63868604588896
 30
0.0
 11
-14.99060325351058
 21
-53.8457928270755
 31
0.0
  0
ENDSEC
  0
SECTION
  2
OBJECTS
  0
DICTIONARY
  5
7
330
0
100
AcDbDictionary
  3
ACAD_GROUP
350
26
  3
ACAD_LAYOUT
350
B
  3
ACAD_MLINESTYLE
350
27
  3
ACAD_PLOTSETTINGS
350
28
  3
ACAD_PLOTSTYLENAME
350
6
  3
ACDBHEADERROUNDTRIPXREC
350
115
  3
ACDBVARIABLEDICTIONARY
350
5B
  3
ASE_INDEX_DICTIONARY
350
68
  0
DICTIONARY
  5
11
330
10
100
AcDbDictionary
280
     1
  3
ACAD_LAYERFILTERS
360
12
  0
DICTIONARY
  5
71
330
2
100
AcDbDictionary
280
     1
  3
ACAD_LAYOUTSELFREF
360
136
  0
DICTIONARY
  5
73
330
62
100
AcDbDictionary
280
     1
  3
ACAD_LAYOUTSELFREF
360
137
  0
DICTIONARY
  5
26
102
{ACAD_REACTORS
330
7
102
}
330
7
100
AcDbDictionary
  0
DICTIONARY
  5
B
102
{ACAD_REACTORS
330
7
102
}
330
7
100
AcDbDictionary
  0
DICTIONARY
  5
27
102
{ACAD_REACTORS
330
7
102
}
330
7
100
AcDbDictionary
  3
STANDARD
350
2A
  0
DICTIONARY
  5
28
102
{ACAD_REACTORS
330
7
102
}
330
7
100
AcDbDictionary
  0
ACDBDICTIONARYWDFLT
  5
6
102
{ACAD_REACTORS
330
7
102
}
330
7
100
AcDbDictionary
281
     1
  3
Normal
350
5
100
AcDbDictionaryWithDefault
340
5
  0
DICTIONARY
  5
115
102
{ACAD_REACTORS
330
7
102
}
330
7
100
AcDbDictionary
  3
CEPSNTYPE
350
11F
  3
DIMSTYLEDATA
350
123
  3
FINGERPRINTGUID
350
120
  3
HYPERLINKBASE
350
118
  3
INSUNITS
350
11E
  3
LAYOUTDICT
350
11A
  3
LWETCUNION
350
11D
  3
PLOTSETDICT
350
11B
  3
PLOTSTYLNAMDICT
350
11C
  3
PSVPSCALE
350
122
  3
PUCSBASE
350
126
  3
PUCSORGBACK
350
12C
  3
PUCSORGBOTTOM
350
128
  3
PUCSORGFRONT
350
12B
  3
PUCSORGLEFT
350
129
  3
PUCSORGRIGHT
350
12A
  3
PUCSORGTOP
350
127
  3
PUCSORTHOREF
350
124
  3
PUCSORTHOVIEW
350
125
  3
STYLESHEET
350
119
  3
TSTACKALIGN
350
116
  3
TSTACKSIZE
350
117
  3
UCSBASE
350
12F
  3
UCSORGBACK
350
135
  3
UCSORGBOTTOM
350
131
  3
UCSORGFRONT
350
134
  3
UCSORGLEFT
350
132
  3
UCSORGRIGHT
350
133
  3
UCSORGTOP
350
130
  3
UCSORTHOREF
350
12D
  3
UCSORTHOVIEW
350
12E
  3
VERSIONGUID
350
121
  0
DICTIONARY
  5
5B
102
{ACAD_REACTORS
330
7
102
}
330
7
100
AcDbDictionary
  3
DIMASSOC
350
5D
  3
HIDETEXT
350
5C
  0
DICTIONARY
  5
68
102
{ACAD_REACTORS
330
7
102
}
330
7
100
AcDbDictionary
  3
ASEBLOCKHIERARCHYINDEXRECORD
350
6A
1001
DCO15
1040
1542963421.145
  0
DICTIONARY
  5
12
102
{ACAD_REACTORS
330
11
102
}
330
11
100
AcDbDictionary
280
     1
  3
DIM-1_12
360
13
  3
DIM-1_16
360
14
  0
XRECORD
  5
136
102
{ACAD_REACTORS
330
71
102
}
330
71
100
AcDbXrecord
340
2
  0
XRECORD
  5
137
102
{ACAD_REACTORS
330
73
102
}
330
73
100
AcDbXrecord
340
62
  0
MLINESTYLE
  5
2A
102
{ACAD_REACTORS
330
27
102
}
330
27
100
AcDbMlineStyle
  2
STANDARD
 70
     0
  3

 62
   256
 51
90.0
 52
90.0
 71
     2
 49
0.5
 62
   256
  6
BYLAYER
 49
-0.5
 62
   256
  6
BYLAYER
  0
ACDBPLACEHOLDER
  5
5
102
{ACAD_REACTORS
330
6
102
}
330
6
100
AcDbPlaceHolder
280
     0
  0
XRECORD
  5
11F
102
{ACAD_REACTORS
330
115
102
}
330
115
100
AcDbXrecord
 90
        0
  0
XRECORD
  5
123
102
{ACAD_REACTORS
330
115
102
}
330
115
100
AcDbXrecord
1000
DSTYLE
1002
{
1070
    79
 70
     1
1070
   276
 70
     1
1070
   277
 70
     5
1070
   289
 70
     1
1002
}
  0
XRECORD
  5
120
102
{ACAD_REACTORS
330
115
102
}
330
115
100
AcDbXrecord
  1
{6A4AC8E0-4F58-11D5-8420-0003476D26AB}
  0
XRECORD
  5
118
102
{ACAD_REACTORS
330
115
102
}
330
115
100
AcDbXrecord
  1

  0
XRECORD
  5
11E
102
{ACAD_REACTORS
330
115
102
}
330
115
100
AcDbXrecord
 90
        1
  0
XRECORD
  5
11A
102
{ACAD_REACTORS
330
115
102
}
330
115
100
AcDbXrecord
340
B
  0
XRECORD
  5
11D
102
{ACAD_REACTORS
330
115
102
}
330
115
100
AcDbXrecord
 90
    10781
  0
XRECORD
  5
11B
102
{ACAD_REACTORS
330
115
102
}
330
115
100
AcDbXrecord
340
28
  0
XRECORD
  5
11C
102
{ACAD_REACTORS
330
115
102
}
330
115
100
AcDbXrecord
340
6
  0
XRECORD
  5
122
102
{ACAD_REACTORS
330
115
102
}
330
115
100
AcDbXrecord
 40
0.0
  0
XRECORD
  5
126
102
{ACAD_REACTORS
330
115
102
}
330
115
100
AcDbXrecord
340
0
  0
XRECORD
  5
12C
102
{ACAD_REACTORS
330
115
102
}
330
115
100
AcDbXrecord
 10
0.0
 20
0.0
 30
0.0
  0
XRECORD
  5
128
102
{ACAD_REACTORS
330
115
102
}
330
115
100
AcDbXrecord
 10
0.0
 20
0.0
 30
0.0
  0
XRECORD
  5
12B
102
{ACAD_REACTORS
330
115
102
}
330
115
100
AcDbXrecord
 10
0.0
 20
0.0
 30
0.0
  0
XRECORD
  5
129
102
{ACAD_REACTORS
330
115
102
}
330
115
100
AcDbXrecord
 10
0.0
 20
0.0
 30
0.0
  0
XRECORD
  5
12A
102
{ACAD_REACTORS
330
115
102
}
330
115
100
AcDbXrecord
 10
0.0
 20
0.0
 30
0.0
  0
XRECORD
  5
127
102
{ACAD_REACTORS
330
115
102
}
330
115
100
AcDbXrecord
 10
0.0
 20
0.0
 30
0.0
  0
XRECORD
  5
124
102
{ACAD_REACTORS
330
115
102
}
330
115
100
AcDbXrecord
340
0
  0
XRECORD
  5
125
102
{ACAD_REACTORS
330
115
102
}
330
115
100
AcDbXrecord
 70
     0
  0
XRECORD
  5
119
102
{ACAD_REACTORS
330
115
102
}
330
115
100
AcDbXrecord
  1

  0
XRECORD
  5
116
102
{ACAD_REACTORS
330
115
102
}
330
115
100
AcDbXrecord
 90
        1
  0
XRECORD
  5
117
102
{ACAD_REACTORS
330
115
102
}
330
115
100
AcDbXrecord
 90
       70
  0
XRECORD
  5
12F
102
{ACAD_REACTORS
330
115
102
}
330
115
100
AcDbXrecord
340
0
  0
XRECORD
  5
135
102
{ACAD_REACTORS
330
115
102
}
330
115
100
AcDbXrecord
 10
0.0
 20
0.0
 30
0.0
  0
XRECORD
  5
131
102
{ACAD_REACTORS
330
115
102
}
330
115
100
AcDbXrecord
 10
0.0
 20
0.0
 30
0.0
  0
XRECORD
  5
134
102
{ACAD_REACTORS
330
115
102
}
330
115
100
AcDbXrecord
 10
0.0
 20
0.0
 30
0.0
  0
XRECORD
  5
132
102
{ACAD_REACTORS
330
115
102
}
330
115
100
AcDbXrecord
 10
0.0
 20
0.0
 30
0.0
  0
XRECORD
  5
133
102
{ACAD_REACTORS
330
115
102
}
330
115
100
AcDbXrecord
 10
0.0
 20
0.0
 30
0.0
  0
XRECORD
  5
130
102
{ACAD_REACTORS
330
115
102
}
330
115
100
AcDbXrecord
 10
0.0
 20
0.0
 30
0.0
  0
XRECORD
  5
12D
102
{ACAD_REACTORS
330
115
102
}
330
115
100
AcDbXrecord
340
0
  0
XRECORD
  5
12E
102
{ACAD_REACTORS
330
115
102
}
330
115
100
AcDbXrecord
 70
     1
  0
XRECORD
  5
121
102
{ACAD_REACTORS
330
115
102
}
330
115
100
AcDbXrecord
  1
{871FD15A-D6C0-41EE-BADC-66D69A71DD1B}
  0
DICTIONARYVAR
  5
5D
102
{ACAD_REACTORS
330
5B
102
}
330
5B
100
DictionaryVariables
280
     0
  1
1
  0
DICTIONARYVAR
  5
5C
102
{ACAD_REACTORS
330
5B
102
}
330
5B
100
DictionaryVariables
280
     0
  1
1
  0
XRECORD
  5
6A
102
{ACAD_REACTORS
330
68
102
}
330
68
100
AcDbXrecord
  0
XRECORD
  5
13
102
{ACAD_REACTORS
330
12
102
}
330
12
100
AcDbXrecord
  1
DIM-1_12
  1
DIM-1_12
  1
*
  1
*
 70
     0
  1
*
  1
*
  0
XRECORD
  5
14
102
{ACAD_REACTORS
330
12
102
}
330
12
100
AcDbXrecord
  1
dim-1_16
  1
*
  1
*
  1
*
 70
     0
  1
*
  1
*
  0
ENDSEC
  0
EOF
