  0
SECTION
  2
HEADER
  9
$ACADVER
  1
AC1015
  9
$ACADMAINTVER
 70
    20
  9
$DWGCODEPAGE
  3
ANSI_1252
  9
$INSBASE
 10
0.0
 20
0.0
 30
0.0
  9
$EXTMIN
 10
20.7523259669
 20
22.5884651481
 30
0.0
  9
$EXTMAX
 10
138.0153120188
 20
105.1714096095
 30
0.0
  9
$LIMMIN
 10
0.0
 20
0.0
  9
$LIMMAX
 10
181.3333333333
 20
117.3333333333
  9
$ORTHOMODE
 70
     0
  9
$REGENMODE
 70
     1
  9
$FILLMODE
 70
     1
  9
$QTEXTMODE
 70
     0
  9
$MIRRTEXT
 70
     0
  9
$LTSCALE
 40
9.973333333300001
  9
$ATTMODE
 70
     1
  9
$TEXTSIZE
 40
0.2
  9
$TRACEWID
 40
0.05
  9
$TEXTSTYLE
  7
STANDARD
  9
$CLAYER
  8
0
  9
$CELTYPE
  6
BYLAYER
  9
$CECOLOR
 62
   256
  9
$CELTSCALE
 40
1.0
  9
$DISPSILH
 70
     0
  9
$DIMSCALE
 40
1.0
  9
$DIMASZ
 40
2.0
  9
$DIMEXO
 40
0.0625
  9
$DIMDLI
 40
6.890666666699999
  9
$DIMRND
 40
0.0
  9
$DIMDLE
 40
0.0
  9
$DIMEXE
 40
0.125
  9
$DIMTP
 40
0.0
  9
$DIMTM
 40
0.0
  9
$DIMTXT
 40
1.333333333299999
  9
$DIMCEN
 40
1.631999999999999
  9
$DIMTSZ
 40
0.0
  9
$DIMTOL
 70
     0
  9
$DIMLIM
 70
     0
  9
$DIMTIH
 70
     1
  9
$DIMTOH
 70
     1
  9
$DIMSE1
 70
     0
  9
$DIMSE2
 70
     0
  9
$DIMTAD
 70
     0
  9
$DIMZIN
 70
     0
  9
$DIMBLK
  1
_FILLED
  9
$DIMASO
 70
     1
  9
$DIMSHO
 70
     1
  9
$DIMPOST
  1

  9
$DIMAPOST
  1

  9
$DIMALT
 70
     0
  9
$DIMALTD
 70
     2
  9
$DIMALTF
 40
25.4
  9
$DIMLFAC
 40
1.0
  9
$DIMTOFL
 70
     0
  9
$DIMTVP
 40
0.0
  9
$DIMTIX
 70
     0
  9
$DIMSOXD
 70
     0
  9
$DIMSAH
 70
     0
  9
$DIMBLK1
  1

  9
$DIMBLK2
  1

  9
$DIMSTYLE
  2
STANDARD
  9
$DIMCLRD
 70
     0
  9
$DIMCLRE
 70
     0
  9
$DIMCLRT
 70
     0
  9
$DIMTFAC
 40
1.0
  9
$DIMGAP
 40
0.09
  9
$DIMJUST
 70
     0
  9
$DIMSD1
 70
     0
  9
$DIMSD2
 70
     0
  9
$DIMTOLJ
 70
     1
  9
$DIMTZIN
 70
     0
  9
$DIMALTZ
 70
     0
  9
$DIMALTTZ
 70
     0
  9
$DIMUPT
 70
     0
  9
$DIMDEC
 70
     4
  9
$DIMTDEC
 70
     4
  9
$DIMALTU
 70
     2
  9
$DIMALTTD
 70
     2
  9
$DIMTXSTY
  7
STANDARD
  9
$DIMAUNIT
 70
     0
  9
$DIMADEC
 70
     0
  9
$DIMALTRND
 40
0.0
  9
$DIMAZIN
 70
     0
  9
$DIMDSEP
 70
    46
  9
$DIMATFIT
 70
     3
  9
$DIMFRAC
 70
     0
  9
$DIMLDRBLK
  1

  9
$DIMLUNIT
 70
     2
  9
$DIMLWD
 70
    -2
  9
$DIMLWE
 70
    -2
  9
$DIMTMOVE
 70
     0
  9
$LUNITS
 70
     2
  9
$LUPREC
 70
     4
  9
$SKETCHINC
 40
0.1
  9
$FILLETRAD
 40
0.0
  9
$AUNITS
 70
     0
  9
$AUPREC
 70
     0
  9
$MENU
  1
.
  9
$ELEVATION
 40
0.0
  9
$PELEVATION
 40
0.0
  9
$THICKNESS
 40
0.0
  9
$LIMCHECK
 70
     0
  9
$CHAMFERA
 40
0.0
  9
$CHAMFERB
 40
0.0
  9
$CHAMFERC
 40
0.0
  9
$CHAMFERD
 40
0.0
  9
$SKPOLY
 70
     0
  9
$TDCREATE
 40
2456087.409246690
  9
$TDUCREATE
 40
2456087.575913357
  9
$TDUPDATE
 40
2456087.437716435
  9
$TDUUPDATE
 40
2456087.604383102
  9
$TDINDWG
 40
0.0127075926
  9
$TDUSRTIMER
 40
0.0127075926
  9
$USRTIMER
 70
     1
  9
$ANGBASE
 50
0.0
  9
$ANGDIR
 70
     0
  9
$PDMODE
 70
     3
  9
$PDSIZE
 40
0.03125
  9
$PLINEWID
 40
0.0
  9
$SPLFRAME
 70
     0
  9
$SPLINETYPE
 70
     6
  9
$SPLINESEGS
 70
     8
  9
$HANDSEED
  5
1BF5
  9
$SURFTAB1
 70
     6
  9
$SURFTAB2
 70
     6
  9
$SURFTYPE
 70
     6
  9
$SURFU
 70
     6
  9
$SURFV
 70
     6
  9
$UCSBASE
  2

  9
$UCSNAME
  2

  9
$UCSORG
 10
0.0
 20
0.0
 30
0.0
  9
$UCSXDIR
 10
1.0
 20
0.0
 30
0.0
  9
$UCSYDIR
 10
0.0
 20
1.0
 30
0.0
  9
$UCSORTHOREF
  2

  9
$UCSORTHOVIEW
 70
     0
  9
$UCSORGTOP
 10
0.0
 20
0.0
 30
0.0
  9
$UCSORGBOTTOM
 10
0.0
 20
0.0
 30
0.0
  9
$UCSORGLEFT
 10
0.0
 20
0.0
 30
0.0
  9
$UCSORGRIGHT
 10
0.0
 20
0.0
 30
0.0
  9
$UCSORGFRONT
 10
0.0
 20
0.0
 30
0.0
  9
$UCSORGBACK
 10
0.0
 20
0.0
 30
0.0
  9
$PUCSBASE
  2

  9
$PUCSNAME
  2

  9
$PUCSORG
 10
0.0
 20
0.0
 30
0.0
  9
$PUCSXDIR
 10
1.0
 20
0.0
 30
0.0
  9
$PUCSYDIR
 10
0.0
 20
1.0
 30
0.0
  9
$PUCSORTHOREF
  2

  9
$PUCSORTHOVIEW
 70
     0
  9
$PUCSORGTOP
 10
0.0
 20
0.0
 30
0.0
  9
$PUCSORGBOTTOM
 10
0.0
 20
0.0
 30
0.0
  9
$PUCSORGLEFT
 10
0.0
 20
0.0
 30
0.0
  9
$PUCSORGRIGHT
 10
0.0
 20
0.0
 30
0.0
  9
$PUCSORGFRONT
 10
0.0
 20
0.0
 30
0.0
  9
$PUCSORGBACK
 10
0.0
 20
0.0
 30
0.0
  9
$USERI1
 70
     0
  9
$USERI2
 70
     0
  9
$USERI3
 70
     0
  9
$USERI4
 70
     0
  9
$USERI5
 70
     0
  9
$USERR1
 40
0.0
  9
$USERR2
 40
0.0
  9
$USERR3
 40
0.0
  9
$USERR4
 40
0.0
  9
$USERR5
 40
0.0
  9
$WORLDVIEW
 70
     1
  9
$SHADEDGE
 70
     3
  9
$SHADEDIF
 70
    70
  9
$TILEMODE
 70
     1
  9
$MAXACTVP
 70
    64
  9
$PINSBASE
 10
0.0
 20
0.0
 30
0.0
  9
$PLIMCHECK
 70
     0
  9
$PEXTMIN
 10
1.000000000000000E+20
 20
1.000000000000000E+20
 30
1.000000000000000E+20
  9
$PEXTMAX
 10
-1.000000000000000E+20
 20
-1.000000000000000E+20
 30
-1.000000000000000E+20
  9
$PLIMMIN
 10
0.0
 20
0.0
  9
$PLIMMAX
 10
12.0
 20
9.0
  9
$UNITMODE
 70
     0
  9
$VISRETAIN
 70
     1
  9
$PLINEGEN
 70
     0
  9
$PSLTSCALE
 70
     1
  9
$TREEDEPTH
 70
  3020
  9
$CMLSTYLE
  2
Standard
  9
$CMLJUST
 70
     0
  9
$CMLSCALE
 40
1.0
  9
$PROXYGRAPHICS
 70
     1
  9
$MEASUREMENT
 70
     0
  9
$CELWEIGHT
370
    -1
  9
$ENDCAPS
280
     0
  9
$JOINSTYLE
280
     0
  9
$LWDISPLAY
290
     0
  9
$INSUNITS
 70
     1
  9
$HYPERLINKBASE
  1

  9
$STYLESHEET
  1

  9
$XEDIT
290
     1
  9
$CEPSNTYPE
380
     0
  9
$PSTYLEMODE
290
     1
  9
$FINGERPRINTGUID
  2
{E66D4ACA-8F18-47AF-A613-FD0A6C90439C}
  9
$VERSIONGUID
  2
{52CB6E83-AD2E-499D-BF3E-F286D5C1E945}
  9
$EXTNAMES
290
     1
  9
$PSVPSCALE
 40
0.0
  9
$OLESTARTUP
290
     0
  0
ENDSEC
  0
SECTION
  2
CLASSES
  0
CLASS
  1
ACDBDICTIONARYWDFLT
  2
AcDbDictionaryWithDefault
  3
ObjectDBX Classes
 90
        0
280
     0
281
     0
  0
CLASS
  1
ACDBPLACEHOLDER
  2
AcDbPlaceHolder
  3
ObjectDBX Classes
 90
        0
280
     0
281
     0
  0
CLASS
  1
LAYOUT
  2
AcDbLayout
  3
ObjectDBX Classes
 90
        0
280
     0
281
     0
  0
CLASS
  1
MATERIAL
  2
AcDbMaterial
  3
ObjectDBX Classes
 90
     1153
280
     0
281
     0
  0
CLASS
  1
VISUALSTYLE
  2
AcDbVisualStyle
  3
ObjectDBX Classes
 90
     4095
280
     0
281
     0
  0
CLASS
  1
TABLESTYLE
  2
AcDbTableStyle
  3
ObjectDBX Classes
 90
     4095
280
     0
281
     0
  0
CLASS
  1
SCALE
  2
AcDbScale
  3
ObjectDBX Classes
 90
     1153
280
     0
281
     0
  0
CLASS
  1
MLEADERSTYLE
  2
AcDbMLeaderStyle
  3
ACDB_MLEADERSTYLE_CLASS
 90
     4095
280
     0
281
     0
  0
CLASS
  1
CELLSTYLEMAP
  2
AcDbCellStyleMap
  3
ObjectDBX Classes
 90
     1152
280
     0
281
     0
  0
CLASS
  1
DICTIONARYVAR
  2
AcDbDictionaryVar
  3
ObjectDBX Classes
 90
        0
280
     0
281
     0
  0
ENDSEC
  0
SECTION
  2
TABLES
  0
TABLE
  2
VPORT
  5
8
102
{ACAD_XDICTIONARY
360
1B52
102
}
330
0
100
AcDbSymbolTable
 70
     1
  0
VPORT
  5
1F4
330
8
100
AcDbSymbolTableRecord
100
AcDbViewportTableRecord
  2
*ACTIVE
 70
     0
 10
0.0
 20
0.0
 11
1.0
 21
1.0
 12
79.43751882877812
 22
65.83317685341653
 13
0.0
 23
0.0
 14
1.0
 24
1.0
 15
0.0
 25
0.0
 16
0.0
 26
0.0
 36
1.0
 17
0.0
 27
0.0
 37
0.0
 40
92.766914285663
 41
2.280385078219013
 42
50.0
 43
0.0
 44
0.0
 50
0.0
 51
0.0
 71
     0
 72
   100
 73
     1
 74
     1
 75
     0
 76
     0
 77
     0
 78
     0
281
     0
 65
     1
110
0.0
120
0.0
130
0.0
111
1.0
121
0.0
131
0.0
112
0.0
122
1.0
132
0.0
 79
     0
146
0.0
  0
ENDTAB
  0
TABLE
  2
LTYPE
  5
5
330
0
100
AcDbSymbolTable
 70
     6
  0
LTYPE
  5
14
330
5
100
AcDbSymbolTableRecord
100
AcDbLinetypeTableRecord
  2
BYBLOCK
 70
     0
  3

 72
    65
 73
     0
 40
0.0
  0
LTYPE
  5
15
330
5
100
AcDbSymbolTableRecord
100
AcDbLinetypeTableRecord
  2
BYLAYER
 70
     0
  3

 72
    65
 73
     0
 40
0.0
  0
LTYPE
  5
16
330
5
100
AcDbSymbolTableRecord
100
AcDbLinetypeTableRecord
  2
CONTINUOUS
 70
     0
  3
Solid line
 72
    65
 73
     0
 40
0.0
  0
LTYPE
  5
1F5
330
5
100
AcDbSymbolTableRecord
100
AcDbLinetypeTableRecord
  2
CENTER
 70
     0
  3
____ _ ____ _ ____ _ ____ _ ____ _ ____ _ ____
 72
    65
 73
     4
 40
0.6
 49
0.375
 74
     0
 49
-0.075
 74
     0
 49
0.075
 74
     0
 49
-0.075
 74
     0
  0
LTYPE
  5
1F6
330
5
100
AcDbSymbolTableRecord
100
AcDbLinetypeTableRecord
  2
HIDDEN
 70
     0
  3
- - - - - - - - - - - - - - - - - - - -
 72
    65
 73
     2
 40
0.2
 49
0.1
 74
     0
 49
-0.1
 74
     0
  0
LTYPE
  5
1F7
330
5
100
AcDbSymbolTableRecord
100
AcDbLinetypeTableRecord
  2
PHANTOM
 70
     0
  3
_____ _ _ _____ _ _ _____ _ _ _____
 72
    65
 73
     6
 40
0.8
 49
0.45
 74
     0
 49
-0.05
 74
     0
 49
0.1
 74
     0
 49
-0.05
 74
     0
 49
0.1
 74
     0
 49
-0.05
 74
     0
  0
LTYPE
  5
1F8
330
5
100
AcDbSymbolTableRecord
100
AcDbLinetypeTableRecord
  2
DOT
 70
     0
  3
. . . . . . . . . . . . . . . . . . . .
 72
    65
 73
     2
 40
0.2
 49
0.1
 74
     0
 49
-0.1
 74
     0
  0
LTYPE
  5
1F9
330
5
100
AcDbSymbolTableRecord
100
AcDbLinetypeTableRecord
  2
DASHED
 70
     0
  3
- - - - - - - - - - - - - - - - - - - -
 72
    65
 73
     2
 40
0.2
 49
0.1
 74
     0
 49
-0.1
 74
     0
  0
ENDTAB
  0
TABLE
  2
LAYER
  5
2
330
0
100
AcDbSymbolTable
 70
    31
  0
LAYER
  5
10
102
{ACAD_XDICTIONARY
360
1B97
102
}
330
2
100
AcDbSymbolTableRecord
100
AcDbLayerTableRecord
  2
0
 70
     0
 62
     7
  6
CONTINUOUS
370
    -3
390
F
  0
LAYER
  5
1FA
102
{ACAD_XDICTIONARY
360
1B99
102
}
330
2
100
AcDbSymbolTableRecord
100
AcDbLayerTableRecord
  2
DEFAULT_1
 70
     0
 62
     7
  6
CENTER
370
    -3
390
F
  0
LAYER
  5
1FB
102
{ACAD_XDICTIONARY
360
1B9B
102
}
330
2
100
AcDbSymbolTableRecord
100
AcDbLayerTableRecord
  2
DEFAULT_2
 70
     0
 62
     7
  6
HIDDEN
370
    -3
390
F
  0
LAYER
  5
1FC
102
{ACAD_XDICTIONARY
360
1B9D
102
}
330
2
100
AcDbSymbolTableRecord
100
AcDbLayerTableRecord
  2
DEFAULT_3
 70
     0
 62
     7
  6
PHANTOM
370
    -3
390
F
  0
LAYER
  5
1FD
102
{ACAD_XDICTIONARY
360
1B9F
102
}
330
2
100
AcDbSymbolTableRecord
100
AcDbLayerTableRecord
  2
1_CURVES
 70
     0
 62
     7
  6
CONTINUOUS
370
    -3
390
F
  0
LAYER
  5
1FE
102
{ACAD_XDICTIONARY
360
1BA1
102
}
330
2
100
AcDbSymbolTableRecord
100
AcDbLayerTableRecord
  2
1_CURVES-CONTOUR-REBORD
 70
     0
 62
     7
  6
CONTINUOUS
370
    -3
390
F
  0
LAYER
  5
1FF
102
{ACAD_XDICTIONARY
360
1BA3
102
}
330
2
100
AcDbSymbolTableRecord
100
AcDbLayerTableRecord
  2
1_CURVES-JETS
 70
     0
 62
     7
  6
CONTINUOUS
370
    -3
390
F
  0
LAYER
  5
200
102
{ACAD_XDICTIONARY
360
1BA5
102
}
330
2
100
AcDbSymbolTableRecord
100
AcDbLayerTableRecord
  2
1_CURVES-ROLL-EDGE
 70
     0
 62
     7
  6
CONTINUOUS
370
    -3
390
F
  0
LAYER
  5
201
102
{ACAD_XDICTIONARY
360
1BA7
102
}
330
2
100
AcDbSymbolTableRecord
100
AcDbLayerTableRecord
  2
1_CURVES-SPEC-FRONT
 70
     0
 62
     7
  6
CONTINUOUS
370
    -3
390
F
  0
LAYER
  5
202
102
{ACAD_XDICTIONARY
360
1BA9
102
}
330
2
100
AcDbSymbolTableRecord
100
AcDbLayerTableRecord
  2
2_PLANES
 70
     0
 62
     7
  6
CONTINUOUS
370
    -3
390
F
  0
LAYER
  5
203
102
{ACAD_XDICTIONARY
360
1BAB
102
}
330
2
100
AcDbSymbolTableRecord
100
AcDbLayerTableRecord
  2
3_POINTS
 70
     0
 62
     7
  6
CONTINUOUS
370
    -3
390
F
  0
LAYER
  5
204
102
{ACAD_XDICTIONARY
360
1BAD
102
}
330
2
100
AcDbSymbolTableRecord
100
AcDbLayerTableRecord
  2
3_POINTS-JETS
 70
     0
 62
     7
  6
CONTINUOUS
370
    -3
390
F
  0
LAYER
  5
205
102
{ACAD_XDICTIONARY
360
1BAF
102
}
330
2
100
AcDbSymbolTableRecord
100
AcDbLayerTableRecord
  2
4_CSYS
 70
     0
 62
     7
  6
CONTINUOUS
370
    -3
390
F
  0
LAYER
  5
206
102
{ACAD_XDICTIONARY
360
1BB1
102
}
330
2
100
AcDbSymbolTableRecord
100
AcDbLayerTableRecord
  2
5-AXIS-JETS
 70
     0
 62
     7
  6
CONTINUOUS
370
    -3
390
F
  0
LAYER
  5
207
102
{ACAD_XDICTIONARY
360
1BB3
102
}
330
2
100
AcDbSymbolTableRecord
100
AcDbLayerTableRecord
  2
5_AXIS
 70
     0
 62
     7
  6
CONTINUOUS
370
    -3
390
F
  0
LAYER
  5
208
102
{ACAD_XDICTIONARY
360
1BB5
102
}
330
2
100
AcDbSymbolTableRecord
100
AcDbLayerTableRecord
  2
6_COPIE-TOOLING
 70
     0
 62
     7
  6
CONTINUOUS
370
    -3
390
F
  0
LAYER
  5
209
102
{ACAD_XDICTIONARY
360
1BB7
102
}
330
2
100
AcDbSymbolTableRecord
100
AcDbLayerTableRecord
  2
6_SURFACE-OFFSET-FIBRE-ACRYLIQU
 70
     0
 62
     7
  6
CONTINUOUS
370
    -3
390
F
  0
LAYER
  5
20A
102
{ACAD_XDICTIONARY
360
1BB9
102
}
330
2
100
AcDbSymbolTableRecord
100
AcDbLayerTableRecord
  2
6_SURFACES
 70
     0
 62
     7
  6
CONTINUOUS
370
    -3
390
F
  0
LAYER
  5
20B
102
{ACAD_XDICTIONARY
360
1BBB
102
}
330
2
100
AcDbSymbolTableRecord
100
AcDbLayerTableRecord
  2
6_SURFACES-CELLA
 70
     0
 62
     7
  6
CONTINUOUS
370
    -3
390
F
  0
LAYER
  5
20C
102
{ACAD_XDICTIONARY
360
1BBD
102
}
330
2
100
AcDbSymbolTableRecord
100
AcDbLayerTableRecord
  2
6_SURFACES-PATINS-PR-CELLA
 70
     0
 62
     7
  6
CONTINUOUS
370
    -3
390
F
  0
LAYER
  5
20D
102
{ACAD_XDICTIONARY
360
1BBF
102
}
330
2
100
AcDbSymbolTableRecord
100
AcDbLayerTableRecord
  2
6_SURFACES-POUR-NAOS
 70
     0
 62
     7
  6
CONTINUOUS
370
    -3
390
F
  0
LAYER
  5
20E
102
{ACAD_XDICTIONARY
360
1BC1
102
}
330
2
100
AcDbSymbolTableRecord
100
AcDbLayerTableRecord
  2
6_SURFACES-TOOLING
 70
     0
 62
     7
  6
CONTINUOUS
370
    -3
390
F
  0
LAYER
  5
20F
102
{ACAD_XDICTIONARY
360
1BC3
102
}
330
2
100
AcDbSymbolTableRecord
100
AcDbLayerTableRecord
  2
6_SURFACES_TOOLING
 70
     0
 62
     7
  6
CONTINUOUS
370
    -3
390
F
  0
LAYER
  5
210
102
{ACAD_XDICTIONARY
360
1BC5
102
}
330
2
100
AcDbSymbolTableRecord
100
AcDbLayerTableRecord
  2
6_SURFACE_FLAT_EDGE
 70
     0
 62
     7
  6
CONTINUOUS
370
    -3
390
F
  0
LAYER
  5
211
102
{ACAD_XDICTIONARY
360
1BC7
102
}
330
2
100
AcDbSymbolTableRecord
100
AcDbLayerTableRecord
  2
6_SURFACE_ROLL_EDGE
 70
     0
 62
     7
  6
CONTINUOUS
370
    -3
390
F
  0
LAYER
  5
212
102
{ACAD_XDICTIONARY
360
1BC9
102
}
330
2
100
AcDbSymbolTableRecord
100
AcDbLayerTableRecord
  2
7_NOTES
 70
     0
 62
     7
  6
CONTINUOUS
370
    -3
390
F
  0
LAYER
  5
213
102
{ACAD_XDICTIONARY
360
1BCB
102
}
330
2
100
AcDbSymbolTableRecord
100
AcDbLayerTableRecord
  2
8_COSMETIC
 70
     0
 62
     7
  6
CONTINUOUS
370
    -3
390
F
  0
LAYER
  5
214
102
{ACAD_XDICTIONARY
360
1BCD
102
}
330
2
100
AcDbSymbolTableRecord
100
AcDbLayerTableRecord
  2
8_ZONE-ROBINETERIE
 70
     0
 62
     7
  6
CONTINUOUS
370
    -3
390
F
  0
LAYER
  5
215
102
{ACAD_XDICTIONARY
360
1BCF
102
}
330
2
100
AcDbSymbolTableRecord
100
AcDbLayerTableRecord
  2
8_ZONES_PLACAGE_FRONT
 70
     0
 62
     7
  6
CONTINUOUS
370
    -3
390
F
  0
LAYER
  5
216
102
{ACAD_XDICTIONARY
360
1BD1
102
}
330
2
100
AcDbSymbolTableRecord
100
AcDbLayerTableRecord
  2
8_ZONE_PLACAGE_TOP
 70
     0
 62
     7
  6
CONTINUOUS
370
    -3
390
F
  0
LAYER
  5
217
102
{ACAD_XDICTIONARY
360
1BD3
102
}
330
2
100
AcDbSymbolTableRecord
100
AcDbLayerTableRecord
  2
XSEC_DATUMS
 70
     0
 62
     7
  6
CONTINUOUS
370
    -3
390
F
  0
ENDTAB
  0
TABLE
  2
STYLE
  5
3
330
0
100
AcDbSymbolTable
 70
     8
  0
STYLE
  5
11
330
3
100
AcDbSymbolTableRecord
100
AcDbTextStyleTableRecord
  2
STANDARD
 70
     0
 40
0.0
 41
0.8
 50
0.0
 71
     0
 42
0.2
  3
txt
  4

  0
STYLE
  5
218
330
3
100
AcDbSymbolTableRecord
100
AcDbTextStyleTableRecord
  2
TEXTSTYLE_1
 70
     0
 40
0.0
 41
0.8
 50
0.0
 71
     0
 42
0.2
  3
gdt
  4

  0
STYLE
  5
219
330
3
100
AcDbSymbolTableRecord
100
AcDbTextStyleTableRecord
  2
TEXTSTYLE_2
 70
     0
 40
0.0
 41
1.0
 50
0.0
 71
     0
 42
0.2
  3
trium.ttf
  4

  0
STYLE
  5
21A
330
3
100
AcDbSymbolTableRecord
100
AcDbTextStyleTableRecord
  2
TEXTSTYLE_3
 70
     0
 40
0.0
 41
1.0
 50
0.0
 71
     0
 42
0.2
  3
trium.ttf
  4

  0
STYLE
  5
21B
330
3
100
AcDbSymbolTableRecord
100
AcDbTextStyleTableRecord
  2
TEXTSTYLE_4
 70
     0
 40
0.0
 41
1.0
 50
0.0
 71
     0
 42
0.2
  3
txt_____.ttf
  4

1001
ACAD
1000
txt
1071
        2
  0
STYLE
  5
21C
330
3
100
AcDbSymbolTableRecord
100
AcDbTextStyleTableRecord
  2
TEXTSTYLE_5
 70
     0
 40
0.0
 41
1.0
 50
0.0
 71
     0
 42
0.2
  3
txt_____.ttf
  4

1001
ACAD
1000
txt
1071
        2
  0
STYLE
  5
21D
330
3
100
AcDbSymbolTableRecord
100
AcDbTextStyleTableRecord
  2
TEXTSTYLE_6
 70
     0
 40
0.0
 41
1.0
 50
0.0
 71
     0
 42
0.2
  3
trium.ttf
  4

  0
STYLE
  5
21E
330
3
100
AcDbSymbolTableRecord
100
AcDbTextStyleTableRecord
  2
TEXTSTYLE_7
 70
     0
 40
0.0
 41
0.8
 50
0.0
 71
     0
 42
0.2
  3
txt_____.ttf
  4

1001
ACAD
1000
txt
1071
        2
  0
ENDTAB
  0
TABLE
  2
VIEW
  5
6
330
0
100
AcDbSymbolTable
 70
     0
  0
ENDTAB
  0
TABLE
  2
UCS
  5
7
330
0
100
AcDbSymbolTable
 70
     0
  0
ENDTAB
  0
TABLE
  2
APPID
  5
9
330
0
100
AcDbSymbolTable
 70
     2
  0
APPID
  5
21F
330
9
100
AcDbSymbolTableRecord
100
AcDbRegAppTableRecord
  2
ACAD
 70
     0
  0
APPID
  5
1B82
330
9
100
AcDbSymbolTableRecord
100
AcDbRegAppTableRecord
  2
ACAD_MLEADERVER
 70
     0
  0
ENDTAB
  0
TABLE
  2
DIMSTYLE
  5
A
330
0
100
AcDbSymbolTable
 70
     4
100
AcDbDimStyleTable
 71
     0
  0
DIMSTYLE
105
23D
330
A
100
AcDbSymbolTableRecord
100
AcDbDimStyleTableRecord
  2
STANDARD
 70
     0
 41
2.0
 44
0.125
 47
0.00001
 48
0.00001
 78
     4
140
1.333333333299999
271
     5
272
     5
284
     4
340
11
341
222
342
222
343
222
344
222
  0
DIMSTYLE
105
23E
330
A
100
AcDbSymbolTableRecord
100
AcDbDimStyleTableRecord
  2
DIMSTYLE_1
 70
     0
 41
2.0
 44
0.125
 78
     4
140
1.333333333299999
147
0.0625
271
     3
272
     3
284
     4
340
11
341
222
342
222
343
222
344
222
  0
DIMSTYLE
105
23F
330
A
100
AcDbSymbolTableRecord
100
AcDbDimStyleTableRecord
  2
DIMSTYLE_2
 70
     0
 41
2.0
 44
0.125
 78
     4
140
1.333333333299999
271
     0
272
     0
284
     4
340
11
341
222
342
222
343
222
344
222
  0
DIMSTYLE
105
240
330
A
100
AcDbSymbolTableRecord
100
AcDbDimStyleTableRecord
  2
DIMSTYLE_3
 70
     0
 41
2.0
 44
0.125
 78
     4
140
1.333333333299999
147
0.0625
271
     6
272
     6
284
     4
340
11
341
222
342
222
343
222
344
222
  0
ENDTAB
  0
TABLE
  2
BLOCK_RECORD
  5
1
330
0
100
AcDbSymbolTable
 70
    27
  0
BLOCK_RECORD
  5
220
330
1
100
AcDbSymbolTableRecord
100
AcDbBlockTableRecord
  2
*Model_Space
340
1AF4
  0
BLOCK_RECORD
  5
221
330
1
100
AcDbSymbolTableRecord
100
AcDbBlockTableRecord
  2
*Paper_Space
340
1AF5
  0
BLOCK_RECORD
  5
222
330
1
100
AcDbSymbolTableRecord
100
AcDbBlockTableRecord
  2
_FILLED
340
0
102
{BLKREFS
331
321
331
322
331
32A
331
32B
331
333
331
334
331
34E
331
34F
331
358
331
359
331
361
331
362
331
36A
331
36B
331
373
331
374
331
37C
331
37D
331
385
331
386
331
38E
331
38F
331
398
331
399
331
3A2
331
3A3
331
3AC
331
3AD
331
3B5
331
3B6
331
3BE
331
3BF
331
3C8
331
3C9
331
3D2
331
3D3
331
3DB
331
3DC
331
3E4
331
3E5
102
}
  0
BLOCK_RECORD
  5
239
330
1
100
AcDbSymbolTableRecord
100
AcDbBlockTableRecord
  2
SYMBOL_4_BL3
340
0
  0
BLOCK_RECORD
  5
23A
330
1
100
AcDbSymbolTableRecord
100
AcDbBlockTableRecord
  2
SYMBOL_3_BL2
340
0
  0
BLOCK_RECORD
  5
23B
330
1
100
AcDbSymbolTableRecord
100
AcDbBlockTableRecord
  2
SYMBOL_7_BL1
340
0
  0
BLOCK_RECORD
  5
23C
330
1
100
AcDbSymbolTableRecord
100
AcDbBlockTableRecord
  2
SYMBOL_0_BL0
340
0
  0
ENDTAB
  0
ENDSEC
  0
SECTION
  2
BLOCKS
  0
BLOCK
  5
20
330
220
100
AcDbEntity
  8
0
100
AcDbBlockBegin
  2
*Model_Space
 70
     0
 10
0.0
 20
0.0
 30
0.0
  3
*Model_Space
  1

  0
ENDBLK
  5
21
330
220
100
AcDbEntity
  8
0
100
AcDbBlockEnd
  0
BLOCK
  5
1C
330
221
100
AcDbEntity
 67
     1
  8
0
100
AcDbBlockBegin
  2
*Paper_Space
 70
     0
 10
0.0
 20
0.0
 30
0.0
  3
*Paper_Space
  1

  0
ENDBLK
  5
1D
330
221
100
AcDbEntity
 67
     1
  8
0
100
AcDbBlockEnd
  0
BLOCK
  5
318
330
222
100
AcDbEntity
  8
0
100
AcDbBlockBegin
  2
_FILLED
 70
     0
 10
0.0
 20
0.0
 30
0.0
  3
_FILLED
  1

  0
SOLID
  5
319
330
222
100
AcDbEntity
  8
0
  6
ByBlock
 62
     0
100
AcDbTrace
 10
0.0
 20
0.0
 30
0.0
 11
-1.0
 21
0.1666666667
 31
0.0
 12
-1.0
 22
-0.1666666667
 32
0.0
 13
-1.0
 23
-0.1666666667
 33
0.0
  0
ENDBLK
  5
31A
330
222
100
AcDbEntity
  8
0
  6
ByBlock
 62
     0
100
AcDbBlockEnd
  0
BLOCK
  5
241
330
239
100
AcDbEntity
  8
0
  6
Continuous
 62
     7
100
AcDbBlockBegin
  2
SYMBOL_4_BL3
 70
     0
 10
67.6852712302
 20
73.0158827716
 30
0.0
  3
SYMBOL_4_BL3
  1

  0
TEXT
  5
242
330
239
100
AcDbEntity
  8
0
  6
Continuous
 62
     7
100
AcDbText
 10
67.26206440760001
 20
72.2517063673
 30
0.0
 40
1.333333852099999
  1
L
 50
10.0
  7
TEXTSTYLE_2
100
AcDbText
  0
TEXT
  5
243
330
239
100
AcDbEntity
  8
0
  6
Continuous
 62
     7
100
AcDbText
 10
63.1279537757
 20
71.5353534067
 30
0.0
 40
1.333333852099999
  1
16
 50
10.0
  7
TEXTSTYLE_2
100
AcDbText
  0
TEXT
  5
244
330
239
100
AcDbEntity
  8
0
  6
Continuous
 62
     7
100
AcDbText
 10
70.46073415550001
 20
72.82832043129999
 30
0.0
 40
1.333333852099999
  1
15
 50
10.0
  7
TEXTSTYLE_2
100
AcDbText
  0
ELLIPSE
  5
245
330
239
100
AcDbEntity
  8
0
  6
Continuous
 62
     7
100
AcDbEllipse
 10
67.66666666669999
 20
73.0
 30
0.0
 11
-1.913370740099999
 21
-0.3373788856
 31
0.0
210
0.0
220
0.0
230
1.0
 40
0.6606458385
 41
0.0
 42
6.283185307179586
  0
ENDBLK
  5
246
330
239
100
AcDbEntity
  8
0
  6
ByBlock
 62
     0
100
AcDbBlockEnd
  0
BLOCK
  5
247
330
23A
100
AcDbEntity
  8
0
  6
Continuous
 62
     7
100
AcDbBlockBegin
  2
SYMBOL_3_BL2
 70
     0
 10
44.6852712302
 20
95.01588277160001
 30
0.0
  3
SYMBOL_3_BL2
  1

  0
TEXT
  5
248
330
23A
100
AcDbEntity
  8
0
  6
Continuous
 62
     7
100
AcDbText
 10
44.2620644076
 20
94.25170636729999
 30
0.0
 40
1.333333852099999
  1
L
 50
10.0
  7
TEXTSTYLE_2
100
AcDbText
  0
TEXT
  5
249
330
23A
100
AcDbEntity
  8
0
  6
Continuous
 62
     7
100
AcDbText
 10
40.6313001564
 20
93.6241069543
 30
0.0
 40
1.333333852099999
  1
5
 50
10.0
  7
TEXTSTYLE_2
100
AcDbText
  0
TEXT
  5
24A
330
23A
100
AcDbEntity
  8
0
  6
Continuous
 62
     7
100
AcDbText
 10
47.9640805362
 20
94.91707397889999
 30
0.0
 40
1.333333852099999
  1
4
 50
10.0
  7
TEXTSTYLE_2
100
AcDbText
  0
ELLIPSE
  5
24B
330
23A
100
AcDbEntity
  8
0
  6
Continuous
 62
     7
100
AcDbEllipse
 10
44.6666666667
 20
95.0
 30
0.0
 11
-1.913370740099999
 21
-0.3373788856
 31
0.0
210
0.0
220
0.0
230
1.0
 40
0.6606458385
 41
0.0
 42
6.283185307179586
  0
ENDBLK
  5
24C
330
23A
100
AcDbEntity
  8
0
  6
ByBlock
 62
     0
100
AcDbBlockEnd
  0
BLOCK
  5
24D
330
23B
100
AcDbEntity
  8
0
  6
Continuous
 62
     7
100
AcDbBlockBegin
  2
SYMBOL_7_BL1
 70
     0
 10
129.4781412034
 20
55.8631248321
 30
0.0
  3
SYMBOL_7_BL1
  1

  0
TEXT
  5
24E
330
23B
100
AcDbEntity
  8
0
  6
Continuous
 62
     7
100
AcDbText
 10
122.7002863559
 20
57.90613537189999
 30
0.0
 40
1.1626666667
  1
INTERNAL USE 
 50
10.0
 41
0.9102564103
  7
TEXTSTYLE_4
100
AcDbText
  0
TEXT
  5
24F
330
23B
100
AcDbEntity
  8
0
  6
Continuous
 62
     7
100
AcDbText
 10
122.1277847822
 20
56.05504226459999
 30
0.0
 40
1.1626666667
  1
DOCUMENT ONLY
 50
10.0
 41
0.9871794872
  7
TEXTSTYLE_4
100
AcDbText
  0
TEXT
  5
250
330
23B
100
AcDbEntity
  8
0
  6
Continuous
 62
     7
100
AcDbText
 10
128.2051242609
 20
55.8582095896
 30
0.0
 40
1.1626666667
  1
 
 50
10.0
  7
TEXTSTYLE_5
100
AcDbText
  0
TEXT
  5
251
330
23B
100
AcDbEntity
  8
0
  6
Continuous
 62
     7
100
AcDbText
 10
119.3491233953
 20
51.6085825539
 30
0.0
 40
1.1626666667
  1
DOCUMENT POUR USAGE
 50
10.0
 41
0.9736842104999999
  7
TEXTSTYLE_4
100
AcDbText
  0
TEXT
  5
252
330
23B
100
AcDbEntity
  8
0
  6
Continuous
 62
     7
100
AcDbText
 10
119.3776421464
 20
49.84270716800001
 30
0.0
 40
1.1626666667
  1
A L'INTERNE SEULEMENT
 50
10.0
 41
0.9037698412999999
  7
TEXTSTYLE_4
100
AcDbText
  0
LINE
  5
253
330
23B
100
AcDbEntity
  8
0
  6
Continuous
 62
     7
100
AcDbLine
 10
143.3346929267
 20
51.5195912141
 30
0.0
 11
143.3414518594
 21
51.5263501467
 31
0.0
  0
LINE
  5
254
330
23B
100
AcDbEntity
  8
0
  6
Continuous
 62
     7
100
AcDbLine
 10
142.6021233603
 20
51.3904194343
 30
0.0
 11
143.2510048054
 21
52.03930087939999
 31
0.0
  0
LINE
  5
255
330
23B
100
AcDbEntity
  8
0
  6
Continuous
 62
     7
100
AcDbLine
 10
141.8695537939
 20
51.2612476545
 30
0.0
 11
143.1605577515
 21
52.5522516121
 31
0.0
  0
LINE
  5
256
330
23B
100
AcDbEntity
  8
0
  6
Continuous
 62
     7
100
AcDbLine
 10
141.1369842275
 20
51.1320758747
 30
0.0
 11
143.0701106976
 21
53.0652023447
 31
0.0
  0
LINE
  5
257
330
23B
100
AcDbEntity
  8
0
  6
Continuous
 62
     7
100
AcDbLine
 10
140.4044146611
 20
51.0029040949
 30
0.0
 11
142.9796636436
 21
53.5781530774
 31
0.0
  0
LINE
  5
258
330
23B
100
AcDbEntity
  8
0
  6
Continuous
 62
     7
100
AcDbLine
 10
139.6718450946
 20
50.87373231499999
 30
0.0
 11
141.2128489094
 21
52.4147361298
 31
0.0
  0
LINE
  5
259
330
23B
100
AcDbEntity
  8
0
  6
Continuous
 62
     7
100
AcDbLine
 10
141.8101941022
 20
53.01208132260001
 30
0.0
 11
142.8892165897
 21
54.0911038101
 31
0.0
  0
LINE
  5
25A
330
23B
100
AcDbEntity
  8
0
  6
Continuous
 62
     7
100
AcDbLine
 10
138.9392755282
 20
50.7445605352
 30
0.0
 11
140.480279343
 21
52.28556435
 31
0.0
  0
LINE
  5
25B
330
23B
100
AcDbEntity
  8
0
  6
Continuous
 62
     7
100
AcDbLine
 10
141.7197470482
 20
53.52503205520001
 30
0.0
 11
142.7987695357
 21
54.6040545427
 31
0.0
  0
LINE
  5
25C
330
23B
100
AcDbEntity
  8
0
  6
Continuous
 62
     7
100
AcDbLine
 10
138.2067059618
 20
50.6153887554
 30
0.0
 11
139.7477097766
 21
52.15639257020001
 31
0.0
  0
LINE
  5
25D
330
23B
100
AcDbEntity
  8
0
  6
Continuous
 62
     7
100
AcDbLine
 10
141.6292999943
 20
54.0379827879
 30
0.0
 11
142.7083224818
 21
55.1170052754
 31
0.0
  0
LINE
  5
25E
330
23B
100
AcDbEntity
  8
0
  6
Continuous
 62
     7
100
AcDbLine
 10
137.4741363954
 20
50.4862169756
 30
0.0
 11
139.0151402102
 21
52.0272207904
 31
0.0
  0
LINE
  5
25F
330
23B
100
AcDbEntity
  8
0
  6
Continuous
 62
     7
100
AcDbLine
 10
141.5388529403
 20
54.5509335206
 30
0.0
 11
142.6178754278
 21
55.6299560081
 31
0.0
  0
LINE
  5
260
330
23B
100
AcDbEntity
  8
0
  6
Continuous
 62
     7
100
AcDbLine
 10
136.741566829
 20
50.3570451958
 30
0.0
 11
138.2825706438
 21
51.8980490106
 31
0.0
  0
LINE
  5
261
330
23B
100
AcDbEntity
  8
0
  6
Continuous
 62
     7
100
AcDbLine
 10
141.4484058864
 20
55.06388425319999
 30
0.0
 11
142.5274283739
 21
56.1429067407
 31
0.0
  0
LINE
  5
262
330
23B
100
AcDbEntity
  8
0
  6
Continuous
 62
     7
100
AcDbLine
 10
136.0089972626
 20
50.227873416
 30
0.0
 11
137.5500010772999
 21
51.7688772308
 31
0.0
  0
LINE
  5
263
330
23B
100
AcDbEntity
  8
0
  6
Continuous
 62
     7
100
AcDbLine
 10
141.3579588324
 20
55.5768349859
 30
0.0
 11
142.4369813199
 21
56.6558574734
 31
0.0
  0
LINE
  5
264
330
23B
100
AcDbEntity
  8
0
  6
Continuous
 62
     7
100
AcDbLine
 10
135.2764276961
 20
50.0987016362
 30
0.0
 11
136.8174315109
 21
51.639705451
 31
0.0
  0
LINE
  5
265
330
23B
100
AcDbEntity
  8
0
  6
Continuous
 62
     7
100
AcDbLine
 10
141.2675117785
 20
56.08978571859999
 30
0.0
 11
142.346534266
 21
57.1688082061
 31
0.0
  0
LINE
  5
266
330
23B
100
AcDbEntity
  8
0
  6
Continuous
 62
     7
100
AcDbLine
 10
134.5438581297
 20
49.9695298564
 30
0.0
 11
136.0848619445
 21
51.5105336712
 31
0.0
  0
LINE
  5
267
330
23B
100
AcDbEntity
  8
0
  6
Continuous
 62
     7
100
AcDbLine
 10
141.1770647245
 20
56.6027364512
 30
0.0
 11
142.2560872121
 21
57.6817589387
 31
0.0
  0
LINE
  5
268
330
23B
100
AcDbEntity
  8
0
  6
Continuous
 62
     7
100
AcDbLine
 10
133.8112885633
 20
49.84035807659999
 30
0.0
 11
135.3522923781
 21
51.3813618914
 31
0.0
  0
LINE
  5
269
330
23B
100
AcDbEntity
  8
0
  6
Continuous
 62
     7
100
AcDbLine
 10
141.0866176706
 20
57.1156871839
 30
0.0
 11
142.1656401581
 21
58.1947096714
 31
0.0
  0
LINE
  5
26A
330
23B
100
AcDbEntity
  8
0
  6
Continuous
 62
     7
100
AcDbLine
 10
133.0787189969
 20
49.7111862968
 30
0.0
 11
134.6197228117
 21
51.2521901116
 31
0.0
  0
LINE
  5
26B
330
23B
100
AcDbEntity
  8
0
  6
Continuous
 62
     7
100
AcDbLine
 10
140.7837380708
 20
57.4162053707
 30
0.0
 11
142.0751931042
 21
58.7076604041
 31
0.0
  0
LINE
  5
26C
330
23B
100
AcDbEntity
  8
0
  6
Continuous
 62
     7
100
AcDbLine
 10
132.3461494305
 20
49.58201451699999
 30
0.0
 11
133.8871532452
 21
51.1230183318
 31
0.0
  0
LINE
  5
26D
330
23B
100
AcDbEntity
  8
0
  6
Continuous
 62
     7
100
AcDbLine
 10
140.0511685044
 20
57.2870335909
 30
0.0
 11
141.9847460502
 21
59.2206111368
 31
0.0
  0
LINE
  5
26E
330
23B
100
AcDbEntity
  8
0
  6
Continuous
 62
     7
100
AcDbLine
 10
131.6135798641
 20
49.4528427372
 30
0.0
 11
133.1545836787999
 21
50.993846552
 31
0.0
  0
LINE
  5
26F
330
23B
100
AcDbEntity
  8
0
  6
Continuous
 62
     7
100
AcDbLine
 10
139.3185989379
 20
57.1578618111
 30
0.0
 11
140.3459412362
 21
58.1852041093
 31
0.0
  0
LINE
  5
270
330
23B
100
AcDbEntity
  8
0
  6
Continuous
 62
     7
100
AcDbLine
 10
140.8152765088
 20
58.65453938189999
 30
0.0
 11
141.8942989963
 21
59.7335618694
 31
0.0
  0
LINE
  5
271
330
23B
100
AcDbEntity
  8
0
  6
Continuous
 62
     7
100
AcDbLine
 10
130.8810102976
 20
49.3236709574
 30
0.0
 11
132.4220141124
 21
50.86467477220001
 31
0.0
  0
LINE
  5
272
330
23B
100
AcDbEntity
  8
0
  6
Continuous
 62
     7
100
AcDbLine
 10
138.5860293715
 20
57.0286900313
 30
0.0
 11
139.6133714602
 21
58.0560321199
 31
0.0
  0
LINE
  5
273
330
23B
100
AcDbEntity
  8
0
  6
Continuous
 62
     7
100
AcDbLine
 10
140.7248294548
 20
59.1674901146
 30
0.0
 11
141.8038519423
 21
60.24651260209999
 31
0.0
  0
LINE
  5
274
330
23B
100
AcDbEntity
  8
0
  6
Continuous
 62
     7
100
AcDbLine
 10
130.1484407312
 20
49.1944991776
 30
0.0
 11
131.689444546
 21
50.7355029924
 31
0.0
  0
LINE
  5
275
330
23B
100
AcDbEntity
  8
0
  6
Continuous
 62
     7
100
AcDbLine
 10
137.8534598051
 20
56.8995182515
 30
0.0
 11
138.8808016841
 21
57.9268601305
 31
0.0
  0
LINE
  5
276
330
23B
100
AcDbEntity
  8
0
  6
Continuous
 62
     7
100
AcDbLine
 10
140.6343824009
 20
59.6804408472
 30
0.0
 11
141.7134048884
 21
60.7594633348
 31
0.0
  0
LINE
  5
277
330
23B
100
AcDbEntity
  8
0
  6
Continuous
 62
     7
100
AcDbLine
 10
129.4158711648
 20
49.0653273978
 30
0.0
 11
130.9568749796
 21
50.6063312126
 31
0.0
  0
LINE
  5
278
330
23B
100
AcDbEntity
  8
0
  6
Continuous
 62
     7
100
AcDbLine
 10
137.1208902387
 20
56.7703464717
 30
0.0
 11
138.1482319081
 21
57.79768814109999
 31
0.0
  0
LINE
  5
279
330
23B
100
AcDbEntity
  8
0
  6
Continuous
 62
     7
100
AcDbLine
 10
140.5439353469
 20
60.1933915799
 30
0.0
 11
141.6229578345
 21
61.2724140674
 31
0.0
  0
LINE
  5
27A
330
23B
100
AcDbEntity
  8
0
  6
Continuous
 62
     7
100
AcDbLine
 10
128.6833015984
 20
48.936155618
 30
0.0
 11
130.2243054132
 21
50.4771594327
 31
0.0
  0
LINE
  5
27B
330
23B
100
AcDbEntity
  8
0
  6
Continuous
 62
     7
100
AcDbLine
 10
136.3883206723
 20
56.64117469189999
 30
0.0
 11
137.4156621321
 21
57.66851615170001
 31
0.0
  0
LINE
  5
27C
330
23B
100
AcDbEntity
  8
0
  6
Continuous
 62
     7
100
AcDbLine
 10
140.453488293
 20
60.7063423126
 30
0.0
 11
141.5325107805
 21
61.7853648001
 31
0.0
  0
LINE
  5
27D
330
23B
100
AcDbEntity
  8
0
  6
Continuous
 62
     7
100
AcDbLine
 10
127.950732032
 20
48.8069838382
 30
0.0
 11
129.4917358467
 21
50.3479876529
 31
0.0
  0
LINE
  5
27E
330
23B
100
AcDbEntity
  8
0
  6
Continuous
 62
     7
100
AcDbLine
 10
135.6557511058
 20
56.512002912
 30
0.0
 11
136.6830923561
 21
57.53934416229999
 31
0.0
  0
LINE
  5
27F
330
23B
100
AcDbEntity
  8
0
  6
Continuous
 62
     7
100
AcDbLine
 10
140.3630412391
 20
61.2192930453
 30
0.0
 11
141.4420637266
 21
62.2983155328
 31
0.0
  0
LINE
  5
280
330
23B
100
AcDbEntity
  8
0
  6
Continuous
 62
     7
100
AcDbLine
 10
127.2181624655
 20
48.6778120584
 30
0.0
 11
128.7591662803
 21
50.21881587310001
 31
0.0
  0
LINE
  5
281
330
23B
100
AcDbEntity
  8
0
  6
Continuous
 62
     7
100
AcDbLine
 10
134.9231815394
 20
56.3828311322
 30
0.0
 11
135.95052258
 21
57.41017217279999
 31
0.0
  0
LINE
  5
282
330
23B
100
AcDbEntity
  8
0
  6
Continuous
 62
     7
100
AcDbLine
 10
140.2725941851
 20
61.7322437779
 30
0.0
 11
141.3516166726
 21
62.8112662654
 31
0.0
  0
LINE
  5
283
330
23B
100
AcDbEntity
  8
0
  6
Continuous
 62
     7
100
AcDbLine
 10
126.4855928991
 20
48.54864027859999
 30
0.0
 11
128.0265967139
 21
50.0896440933
 31
0.0
  0
LINE
  5
284
330
23B
100
AcDbEntity
  8
0
  6
Continuous
 62
     7
100
AcDbLine
 10
134.190611973
 20
56.2536593524
 30
0.0
 11
135.217952804
 21
57.28100018340001
 31
0.0
  0
LINE
  5
285
330
23B
100
AcDbEntity
  8
0
  6
Continuous
 62
     7
100
AcDbLine
 10
140.1821471312
 20
62.2451945106
 30
0.0
 11
141.2611696187
 21
63.32421699810001
 31
0.0
  0
LINE
  5
286
330
23B
100
AcDbEntity
  8
0
  6
Continuous
 62
     7
100
AcDbLine
 10
125.7530233327
 20
48.4194684987
 30
0.0
 11
127.2940271475
 21
49.96047231350001
 31
0.0
  0
LINE
  5
287
330
23B
100
AcDbEntity
  8
0
  6
Continuous
 62
     7
100
AcDbLine
 10
133.4580424066
 20
56.12448757260001
 30
0.0
 11
134.485383028
 21
57.15182819399999
 31
0.0
  0
LINE
  5
288
330
23B
100
AcDbEntity
  8
0
  6
Continuous
 62
     7
100
AcDbLine
 10
140.0917000772
 20
62.7581452433
 30
0.0
 11
141.1707225647
 21
63.83716773079999
 31
0.0
  0
LINE
  5
289
330
23B
100
AcDbEntity
  8
0
  6
Continuous
 62
     7
100
AcDbLine
 10
125.0204537663
 20
48.2902967189
 30
0.0
 11
126.5614575811
 21
49.8313005337
 31
0.0
  0
LINE
  5
28A
330
23B
100
AcDbEntity
  8
0
  6
Continuous
 62
     7
100
AcDbLine
 10
132.7254728402
 20
55.9953157928
 30
0.0
 11
133.7528132519
 21
57.0226562046
 31
0.0
  0
LINE
  5
28B
330
23B
100
AcDbEntity
  8
0
  6
Continuous
 62
     7
100
AcDbLine
 10
139.9168239758
 20
63.1866669285
 30
0.0
 11
141.0802755108
 21
64.35011846340001
 31
0.0
  0
LINE
  5
28C
330
23B
100
AcDbEntity
  8
0
  6
Continuous
 62
     7
100
AcDbLine
 10
124.2878841999
 20
48.1611249391
 30
0.0
 11
125.8288880147
 21
49.7021287539
 31
0.0
  0
LINE
  5
28D
330
23B
100
AcDbEntity
  8
0
  6
Continuous
 62
     7
100
AcDbLine
 10
131.9929032737999
 20
55.866144013
 30
0.0
 11
133.0202434759
 21
56.8934842152
 31
0.0
  0
LINE
  5
28E
330
23B
100
AcDbEntity
  8
0
  6
Continuous
 62
     7
100
AcDbLine
 10
139.1842544094
 20
63.0574951486
 30
0.0
 11
140.7252582242
 21
64.5984989634
 31
0.0
  0
LINE
  5
28F
330
23B
100
AcDbEntity
  8
0
  6
Continuous
 62
     7
100
AcDbLine
 10
123.5553146335
 20
48.0319531593
 30
0.0
 11
125.0963184482
 21
49.5729569741
 31
0.0
  0
LINE
  5
290
330
23B
100
AcDbEntity
  8
0
  6
Continuous
 62
     7
100
AcDbLine
 10
131.2603337073
 20
55.73697223319999
 30
0.0
 11
132.2876736999
 21
56.76431222579999
 31
0.0
  0
LINE
  5
291
330
23B
100
AcDbEntity
  8
0
  6
Continuous
 62
     7
100
AcDbLine
 10
138.451684843
 20
62.9283233688
 30
0.0
 11
139.9926886577
 21
64.4693271836
 31
0.0
  0
LINE
  5
292
330
23B
100
AcDbEntity
  8
0
  6
Continuous
 62
     7
100
AcDbLine
 10
122.822745067
 20
47.90278137949999
 30
0.0
 11
124.3637488818
 21
49.4437851943
 31
0.0
  0
LINE
  5
293
330
23B
100
AcDbEntity
  8
0
  6
Continuous
 62
     7
100
AcDbLine
 10
130.5277641409
 20
55.6078004534
 30
0.0
 11
131.5551039239
 21
56.6351402363
 31
0.0
  0
LINE
  5
294
330
23B
100
AcDbEntity
  8
0
  6
Continuous
 62
     7
100
AcDbLine
 10
137.7191152765
 20
62.79915158899999
 30
0.0
 11
139.2601190913
 21
64.34015540379999
 31
0.0
  0
LINE
  5
295
330
23B
100
AcDbEntity
  8
0
  6
Continuous
 62
     7
100
AcDbLine
 10
122.0901755006
 20
47.7736095997
 30
0.0
 11
123.6311793154
 21
49.31461341449999
 31
0.0
  0
LINE
  5
296
330
23B
100
AcDbEntity
  8
0
  6
Continuous
 62
     7
100
AcDbLine
 10
129.7951945745
 20
55.4786286736
 30
0.0
 11
130.8225341478
 21
56.5059682469
 31
0.0
  0
LINE
  5
297
330
23B
100
AcDbEntity
  8
0
  6
Continuous
 62
     7
100
AcDbLine
 10
136.9865457101
 20
62.6699798092
 30
0.0
 11
138.5275495249
 21
64.21098362399999
 31
0.0
  0
LINE
  5
298
330
23B
100
AcDbEntity
  8
0
  6
Continuous
 62
     7
100
AcDbLine
 10
121.3576059342
 20
47.64443781989999
 30
0.0
 11
122.898609749
 21
49.1854416347
 31
0.0
  0
LINE
  5
299
330
23B
100
AcDbEntity
  8
0
  6
Continuous
 62
     7
100
AcDbLine
 10
129.0626250081
 20
55.3494568938
 30
0.0
 11
130.0899643718
 21
56.37679625749999
 31
0.0
  0
LINE
  5
29A
330
23B
100
AcDbEntity
  8
0
  6
Continuous
 62
     7
100
AcDbLine
 10
136.2539761437
 20
62.54080802939999
 30
0.0
 11
137.7949799585
 21
64.0818118442
 31
0.0
  0
LINE
  5
29B
330
23B
100
AcDbEntity
  8
0
  6
Continuous
 62
     7
100
AcDbLine
 10
120.6250363678
 20
47.5152660401
 30
0.0
 11
122.1660401826
 21
49.05626985489999
 31
0.0
  0
LINE
  5
29C
330
23B
100
AcDbEntity
  8
0
  6
Continuous
 62
     7
100
AcDbLine
 10
128.3300554417
 20
55.220285114
 30
0.0
 11
129.3573945958
 21
56.24762426810001
 31
0.0
  0
LINE
  5
29D
330
23B
100
AcDbEntity
  8
0
  6
Continuous
 62
     7
100
AcDbLine
 10
135.5214065773
 20
62.4116362496
 30
0.0
 11
137.0624103921
 21
63.95264006439999
 31
0.0
  0
LINE
  5
29E
330
23B
100
AcDbEntity
  8
0
  6
Continuous
 62
     7
100
AcDbLine
 10
119.8924668014
 20
47.3860942603
 30
0.0
 11
121.4334706161
 21
48.92709807510001
 31
0.0
  0
LINE
  5
29F
330
23B
100
AcDbEntity
  8
0
  6
Continuous
 62
     7
100
AcDbLine
 10
127.5974858753
 20
55.0911133342
 30
0.0
 11
128.6248248197
 21
56.11845227869999
 31
0.0
  0
LINE
  5
2A0
330
23B
100
AcDbEntity
  8
0
  6
Continuous
 62
     7
100
AcDbLine
 10
134.7888370109
 20
62.2824644698
 30
0.0
 11
136.3298408257
 21
63.8234682846
 31
0.0
  0
LINE
  5
2A1
330
23B
100
AcDbEntity
  8
0
  6
Continuous
 62
     7
100
AcDbLine
 10
119.1598972349
 20
47.2569224805
 30
0.0
 11
120.7009010497
 21
48.79792629529999
 31
0.0
  0
LINE
  5
2A2
330
23B
100
AcDbEntity
  8
0
  6
Continuous
 62
     7
100
AcDbLine
 10
126.8649163088
 20
54.9619415544
 30
0.0
 11
127.8922550437
 21
55.9892802893
 31
0.0
  0
LINE
  5
2A3
330
23B
100
AcDbEntity
  8
0
  6
Continuous
 62
     7
100
AcDbLine
 10
134.0562674445
 20
62.15329269
 30
0.0
 11
135.5972712592
 21
63.69429650479999
 31
0.0
  0
LINE
  5
2A4
330
23B
100
AcDbEntity
  8
0
  6
Continuous
 62
     7
100
AcDbLine
 10
118.4273276685
 20
47.1277507007
 30
0.0
 11
119.9683314833
 21
48.66875451550001
 31
0.0
  0
LINE
  5
2A5
330
23B
100
AcDbEntity
  8
0
  6
Continuous
 62
     7
100
AcDbLine
 10
126.1323467424
 20
54.8327697746
 30
0.0
 11
127.1596852677
 21
55.8601082998
 31
0.0
  0
LINE
  5
2A6
330
23B
100
AcDbEntity
  8
0
  6
Continuous
 62
     7
100
AcDbLine
 10
133.323697878
 20
62.02412091020001
 30
0.0
 11
134.8647016928
 21
63.565124725
 31
0.0
  0
LINE
  5
2A7
330
23B
100
AcDbEntity
  8
0
  6
Continuous
 62
     7
100
AcDbLine
 10
117.876006896
 20
47.1798277148
 30
0.0
 11
119.2357619169
 21
48.53958273569999
 31
0.0
  0
LINE
  5
2A8
330
23B
100
AcDbEntity
  8
0
  6
Continuous
 62
     7
100
AcDbLine
 10
125.399777176
 20
54.70359799479999
 30
0.0
 11
126.4271154917
 21
55.73093631039999
 31
0.0
  0
LINE
  5
2A9
330
23B
100
AcDbEntity
  8
0
  6
Continuous
 62
     7
100
AcDbLine
 10
132.5911283116
 20
61.8949491304
 30
0.0
 11
134.1321321264
 21
63.4359529452
 31
0.0
  0
LINE
  5
2AA
330
23B
100
AcDbEntity
  8
0
  6
Continuous
 62
     7
100
AcDbLine
 10
117.7855598421
 20
47.69277844749999
 30
0.0
 11
118.8645823296
 21
48.771800935
 31
0.0
  0
LINE
  5
2AB
330
23B
100
AcDbEntity
  8
0
  6
Continuous
 62
     7
100
AcDbLine
 10
124.6672076096
 20
54.574426215
 30
0.0
 11
125.6945457156
 21
55.601764321
 31
0.0
  0
LINE
  5
2AC
330
23B
100
AcDbEntity
  8
0
  6
Continuous
 62
     7
100
AcDbLine
 10
131.8585587452
 20
61.7657773506
 30
0.0
 11
133.39956256
 21
63.30678116539999
 31
0.0
  0
LINE
  5
2AD
330
23B
100
AcDbEntity
  8
0
  6
Continuous
 62
     7
100
AcDbLine
 10
117.6951127881
 20
48.2057291801
 30
0.0
 11
118.7741352756
 21
49.28475166760001
 31
0.0
  0
LINE
  5
2AE
330
23B
100
AcDbEntity
  8
0
  6
Continuous
 62
     7
100
AcDbLine
 10
123.9346380432
 20
54.4452544352
 30
0.0
 11
124.9619759396
 21
55.4725923316
 31
0.0
  0
LINE
  5
2AF
330
23B
100
AcDbEntity
  8
0
  6
Continuous
 62
     7
100
AcDbLine
 10
131.1259891788
 20
61.6366055708
 30
0.0
 11
132.6669929936
 21
63.17760938560001
 31
0.0
  0
LINE
  5
2B0
330
23B
100
AcDbEntity
  8
0
  6
Continuous
 62
     7
100
AcDbLine
 10
117.6046657342
 20
48.7186799128
 30
0.0
 11
118.6836882217
 21
49.79770240029999
 31
0.0
  0
LINE
  5
2B1
330
23B
100
AcDbEntity
  8
0
  6
Continuous
 62
     7
100
AcDbLine
 10
123.2020684767
 20
54.3160826554
 30
0.0
 11
124.2294061636
 21
55.3434203422
 31
0.0
  0
LINE
  5
2B2
330
23B
100
AcDbEntity
  8
0
  6
Continuous
 62
     7
100
AcDbLine
 10
130.3934196124
 20
61.507433791
 30
0.0
 11
131.9344234271
 21
63.04843760579999
 31
0.0
  0
LINE
  5
2B3
330
23B
100
AcDbEntity
  8
0
  6
Continuous
 62
     7
100
AcDbLine
 10
117.5142186802
 20
49.2316306455
 30
0.0
 11
118.5932411678
 21
50.310653133
 31
0.0
  0
LINE
  5
2B4
330
23B
100
AcDbEntity
  8
0
  6
Continuous
 62
     7
100
AcDbLine
 10
122.4694989103
 20
54.1869108756
 30
0.0
 11
123.4968363875
 21
55.2142483528
 31
0.0
  0
LINE
  5
2B5
330
23B
100
AcDbEntity
  8
0
  6
Continuous
 62
     7
100
AcDbLine
 10
129.660850046
 20
61.3782620112
 30
0.0
 11
131.2018538607
 21
62.91926582600001
 31
0.0
  0
LINE
  5
2B6
330
23B
100
AcDbEntity
  8
0
  6
Continuous
 62
     7
100
AcDbLine
 10
117.4237716263
 20
49.7445813781
 30
0.0
 11
118.5027941138
 21
50.82360386560001
 31
0.0
  0
LINE
  5
2B7
330
23B
100
AcDbEntity
  8
0
  6
Continuous
 62
     7
100
AcDbLine
 10
121.7369293439
 20
54.05773909569999
 30
0.0
 11
122.7642666115
 21
55.0850763634
 31
0.0
  0
LINE
  5
2B8
330
23B
100
AcDbEntity
  8
0
  6
Continuous
 62
     7
100
AcDbLine
 10
128.9282804795
 20
61.2490902314
 30
0.0
 11
130.4692842943
 21
62.7900940461
 31
0.0
  0
LINE
  5
2B9
330
23B
100
AcDbEntity
  8
0
  6
Continuous
 62
     7
100
AcDbLine
 10
117.3333245723
 20
50.2575321108
 30
0.0
 11
118.4123470599
 21
51.33655459829999
 31
0.0
  0
LINE
  5
2BA
330
23B
100
AcDbEntity
  8
0
  6
Continuous
 62
     7
100
AcDbLine
 10
121.0043597775
 20
53.92856731590001
 30
0.0
 11
122.0316968355
 21
54.9559043739
 31
0.0
  0
LINE
  5
2BB
330
23B
100
AcDbEntity
  8
0
  6
Continuous
 62
     7
100
AcDbLine
 10
128.1957109131
 20
61.1199184516
 30
0.0
 11
129.7367147279
 21
62.6609222663
 31
0.0
  0
LINE
  5
2BC
330
23B
100
AcDbEntity
  8
0
  6
Continuous
 62
     7
100
AcDbLine
 10
117.2428775184
 20
50.7704828435
 30
0.0
 11
118.3219000059
 21
51.849505331
 31
0.0
  0
LINE
  5
2BD
330
23B
100
AcDbEntity
  8
0
  6
Continuous
 62
     7
100
AcDbLine
 10
120.2717902111
 20
53.79939553609999
 30
0.0
 11
121.2991270595
 21
54.8267323845
 31
0.0
  0
LINE
  5
2BE
330
23B
100
AcDbEntity
  8
0
  6
Continuous
 62
     7
100
AcDbLine
 10
127.4631413467
 20
60.9907466718
 30
0.0
 11
129.0041451615
 21
62.5317504865
 31
0.0
  0
LINE
  5
2BF
330
23B
100
AcDbEntity
  8
0
  6
Continuous
 62
     7
100
AcDbLine
 10
117.1524304645
 20
51.28343357609999
 30
0.0
 11
118.231452952
 21
52.3624560637
 31
0.0
  0
LINE
  5
2C0
330
23B
100
AcDbEntity
  8
0
  6
Continuous
 62
     7
100
AcDbLine
 10
119.5392206447
 20
53.6702237563
 30
0.0
 11
120.5665572834
 21
54.6975603951
 31
0.0
  0
LINE
  5
2C1
330
23B
100
AcDbEntity
  8
0
  6
Continuous
 62
     7
100
AcDbLine
 10
126.7305717803
 20
60.861574892
 30
0.0
 11
128.2715755951
 21
62.40257870669999
 31
0.0
  0
LINE
  5
2C2
330
23B
100
AcDbEntity
  8
0
  6
Continuous
 62
     7
100
AcDbLine
 10
117.0619834105
 20
51.7963843088
 30
0.0
 11
118.141005898
 21
52.8754067963
 31
0.0
  0
LINE
  5
2C3
330
23B
100
AcDbEntity
  8
0
  6
Continuous
 62
     7
100
AcDbLine
 10
118.8066510782
 20
53.5410519765
 30
0.0
 11
119.8339875074
 21
54.5683884057
 31
0.0
  0
LINE
  5
2C4
330
23B
100
AcDbEntity
  8
0
  6
Continuous
 62
     7
100
AcDbLine
 10
125.9980022139
 20
60.73240311220001
 30
0.0
 11
127.5390060286
 21
62.27340692689999
 31
0.0
  0
LINE
  5
2C5
330
23B
100
AcDbEntity
  8
0
  6
Continuous
 62
     7
100
AcDbLine
 10
116.9715363566
 20
52.3093350415
 30
0.0
 11
118.0505588441
 21
53.38835752899999
 31
0.0
  0
LINE
  5
2C6
330
23B
100
AcDbEntity
  8
0
  6
Continuous
 62
     7
100
AcDbLine
 10
118.0740815118
 20
53.4118801967
 30
0.0
 11
119.1014177314
 21
54.4392164163
 31
0.0
  0
LINE
  5
2C7
330
23B
100
AcDbEntity
  8
0
  6
Continuous
 62
     7
100
AcDbLine
 10
125.2654326474
 20
60.60323133229999
 30
0.0
 11
126.8064364622
 21
62.14423514709999
 31
0.0
  0
LINE
  5
2C8
330
23B
100
AcDbEntity
  8
0
  6
Continuous
 62
     7
100
AcDbLine
 10
116.8810893026
 20
52.82228577409999
 30
0.0
 11
118.3688479553
 21
54.31004442689999
 31
0.0
  0
LINE
  5
2C9
330
23B
100
AcDbEntity
  8
0
  6
Continuous
 62
     7
100
AcDbLine
 10
124.532863081
 20
60.4740595525
 30
0.0
 11
126.0738668958
 21
62.01506336729999
 31
0.0
  0
LINE
  5
2CA
330
23B
100
AcDbEntity
  8
0
  6
Continuous
 62
     7
100
AcDbLine
 10
116.7906422487
 20
53.3352365068
 30
0.0
 11
117.8696647362
 21
54.41425899430001
 31
0.0
  0
LINE
  5
2CB
330
23B
100
AcDbEntity
  8
0
  6
Continuous
 62
     7
100
AcDbLine
 10
123.8002935146
 20
60.3448877727
 30
0.0
 11
125.3412973294
 21
61.8858915875
 31
0.0
  0
LINE
  5
2CC
330
23B
100
AcDbEntity
  8
0
  6
Continuous
 62
     7
100
AcDbLine
 10
116.7001951947
 20
53.8481872395
 30
0.0
 11
117.7792176823
 21
54.92720972699999
 31
0.0
  0
LINE
  5
2CD
330
23B
100
AcDbEntity
  8
0
  6
Continuous
 62
     7
100
AcDbLine
 10
123.0677239482
 20
60.2157159929
 30
0.0
 11
124.608727763
 21
61.7567198077
 31
0.0
  0
LINE
  5
2CE
330
23B
100
AcDbEntity
  8
0
  6
Continuous
 62
     7
100
AcDbLine
 10
116.6097481408
 20
54.3611379721
 30
0.0
 11
117.6887706283
 21
55.4401604597
 31
0.0
  0
LINE
  5
2CF
330
23B
100
AcDbEntity
  8
0
  6
Continuous
 62
     7
100
AcDbLine
 10
122.3351543818
 20
60.08654421310001
 30
0.0
 11
123.8761581966
 21
61.6275480279
 31
0.0
  0
LINE
  5
2D0
330
23B
100
AcDbEntity
  8
0
  6
Continuous
 62
     7
100
AcDbLine
 10
116.5193010869
 20
54.87408870479999
 30
0.0
 11
117.5983235744
 21
55.95311119229999
 31
0.0
  0
LINE
  5
2D1
330
23B
100
AcDbEntity
  8
0
  6
Continuous
 62
     7
100
AcDbLine
 10
121.6025848154
 20
59.9573724333
 30
0.0
 11
123.1435886301
 21
61.4983762481
 31
0.0
  0
LINE
  5
2D2
330
23B
100
AcDbEntity
  8
0
  6
Continuous
 62
     7
100
AcDbLine
 10
116.4288540329
 20
55.3870394375
 30
0.0
 11
117.5078765204
 21
56.466061925
 31
0.0
  0
LINE
  5
2D3
330
23B
100
AcDbEntity
  8
0
  6
Continuous
 62
     7
100
AcDbLine
 10
120.8700152489
 20
59.82820065350001
 30
0.0
 11
122.4110190637
 21
61.3692044683
 31
0.0
  0
LINE
  5
2D4
330
23B
100
AcDbEntity
  8
0
  6
Continuous
 62
     7
100
AcDbLine
 10
116.338406979
 20
55.89999017020001
 30
0.0
 11
117.4174294665
 21
56.9790126577
 31
0.0
  0
LINE
  5
2D5
330
23B
100
AcDbEntity
  8
0
  6
Continuous
 62
     7
100
AcDbLine
 10
120.1374456825
 20
59.6990288737
 30
0.0
 11
121.6784494973
 21
61.2400326885
 31
0.0
  0
LINE
  5
2D6
330
23B
100
AcDbEntity
  8
0
  6
Continuous
 62
     7
100
AcDbLine
 10
116.247959925
 20
56.41294090279999
 30
0.0
 11
117.3269824125
 21
57.4919633903
 31
0.0
  0
LINE
  5
2D7
330
23B
100
AcDbEntity
  8
0
  6
Continuous
 62
     7
100
AcDbLine
 10
119.4048761161
 20
59.5698570939
 30
0.0
 11
120.9458799309
 21
61.11086090869999
 31
0.0
  0
LINE
  5
2D8
330
23B
100
AcDbEntity
  8
0
  6
Continuous
 62
     7
100
AcDbLine
 10
116.1575128711
 20
56.9258916355
 30
0.0
 11
117.2365353586
 21
58.004914123
 31
0.0
  0
LINE
  5
2D9
330
23B
100
AcDbEntity
  8
0
  6
Continuous
 62
     7
100
AcDbLine
 10
118.6723065497
 20
59.4406853141
 30
0.0
 11
120.2133103645
 21
60.9816891289
 31
0.0
  0
LINE
  5
2DA
330
23B
100
AcDbEntity
  8
0
  6
Continuous
 62
     7
100
AcDbLine
 10
116.0670658171
 20
57.4388423682
 30
0.0
 11
117.1460883047
 21
58.51786485569999
 31
0.0
  0
LINE
  5
2DB
330
23B
100
AcDbEntity
  8
0
  6
Continuous
 62
     7
100
AcDbLine
 10
117.9397369833
 20
59.3115135343
 30
0.0
 11
119.480740798
 21
60.85251734909999
 31
0.0
  0
LINE
  5
2DC
330
23B
100
AcDbEntity
  8
0
  6
Continuous
 62
     7
100
AcDbLine
 10
115.9766187632
 20
57.95179310079999
 30
0.0
 11
117.0556412507
 21
59.0308155883
 31
0.0
  0
LINE
  5
2DD
330
23B
100
AcDbEntity
  8
0
  6
Continuous
 62
     7
100
AcDbLine
 10
117.2071674168
 20
59.1823417545
 30
0.0
 11
118.7481712316
 21
60.7233455693
 31
0.0
  0
LINE
  5
2DE
330
23B
100
AcDbEntity
  8
0
  6
Continuous
 62
     7
100
AcDbLine
 10
115.8861717092
 20
58.4647438335
 30
0.0
 11
118.0156016652
 21
60.5941737895
 31
0.0
  0
LINE
  5
2DF
330
23B
100
AcDbEntity
  8
0
  6
Continuous
 62
     7
100
AcDbLine
 10
115.7957246553
 20
58.9776945662
 30
0.0
 11
117.2830320988
 21
60.4650020097
 31
0.0
  0
LINE
  5
2E0
330
23B
100
AcDbEntity
  8
0
  6
Continuous
 62
     7
100
AcDbLine
 10
115.7052776014
 20
59.49064529880001
 30
0.0
 11
116.5504625324
 21
60.3358302298
 31
0.0
  0
LINE
  5
2E1
330
23B
100
AcDbEntity
  8
0
  6
Continuous
 62
     7
100
AcDbLine
 10
115.6148305474
 20
60.00359603149999
 30
0.0
 11
115.817892966
 21
60.20665844999999
 31
0.0
  0
ENDBLK
  5
2E2
330
23B
100
AcDbEntity
  8
0
  6
ByBlock
 62
     0
100
AcDbBlockEnd
  0
BLOCK
  5
2E3
330
23C
100
AcDbEntity
  8
0
  6
Continuous
 62
     7
100
AcDbBlockBegin
  2
SYMBOL_0_BL0
 70
     0
 10
160.6666666667
 20
55.33333333329999
 30
0.0
  3
SYMBOL_0_BL0
  1

  0
TEXT
  5
2E4
330
23C
100
AcDbEntity
  8
0
  6
Continuous
 62
     7
100
AcDbText
 10
144.4188815905
 20
63.10676672439999
 30
0.0
 40
0.5
  1
Infomations Techniques/Technical Infomations
  7
TEXTSTYLE_2
100
AcDbText
  0
TEXT
  5
2E5
330
23C
100
AcDbEntity
  8
0
  6
Continuous
 62
     7
100
AcDbText
 10
144.6666666667
 20
61.6666666667
 30
0.0
 40
0.6666666667
  1
NOMBRE DE JETS:     
  7
TEXTSTYLE_2
100
AcDbText
  0
TEXT
  5
2E6
330
23C
100
AcDbEntity
  8
0
  6
Continuous
 62
     7
100
AcDbText
 10
154.5111111111
 20
61.6666666667
 30
0.0
 40
0.6666666667
  1
38
  7
TEXTSTYLE_2
100
AcDbText
  0
TEXT
  5
2E7
330
23C
100
AcDbEntity
  8
0
  6
Continuous
 62
     7
100
AcDbText
 10
144.6666666667
 20
60.6666666667
 30
0.0
 40
0.6666666667
  1
 
  7
TEXTSTYLE_2
100
AcDbText
  0
TEXT
  5
2E8
330
23C
100
AcDbEntity
  8
0
  6
Continuous
 62
     7
100
AcDbText
 10
144.6666666667
 20
59.66666666670001
 30
0.0
 40
0.6666666667
  1
NIVEAU D'EAU              GALLONS(US)        LITRES        GALLONS(UK)
  7
TEXTSTYLE_2
100
AcDbText
  0
TEXT
  5
2E9
330
23C
100
AcDbEntity
  8
0
  6
Continuous
 62
     7
100
AcDbText
 10
144.6666666667
 20
58.6666666667
 30
0.0
 40
0.6666666667
  1
PLEIN
  7
TEXTSTYLE_2
100
AcDbText
  0
TEXT
  5
2EA
330
23C
100
AcDbEntity
  8
0
  6
Continuous
 62
     7
100
AcDbText
 10
144.6666666667
 20
57.6666666667
 30
0.0
 40
0.6666666667
  1
HAUT T.PLEIN
  7
TEXTSTYLE_2
100
AcDbText
  0
TEXT
  5
2EB
330
23C
100
AcDbEntity
  8
0
  6
Continuous
 62
     7
100
AcDbText
 10
144.6666666667
 20
56.6666666667
 30
0.0
 40
0.6666666667
  1
MILIEU T.PLEIN
  7
TEXTSTYLE_2
100
AcDbText
  0
TEXT
  5
2EC
330
23C
100
AcDbEntity
  8
0
  6
Continuous
 62
     7
100
AcDbText
 10
144.6666666667
 20
55.6666666667
 30
0.0
 40
0.6666666667
  1
BAS T.PLEIN
  7
TEXTSTYLE_2
100
AcDbText
  0
TEXT
  5
2ED
330
23C
100
AcDbEntity
  8
0
  6
Continuous
 62
     7
100
AcDbText
 10
144.6666666667
 20
54.66666666670001
 30
0.0
 40
0.6666666667
  1
3" EN BAS T.PLEIN
  7
TEXTSTYLE_2
100
AcDbText
  0
TEXT
  5
2EE
330
23C
100
AcDbEntity
  8
0
  6
Continuous
 62
     7
100
AcDbText
 10
144.6666666667
 20
53.6666666667
 30
0.0
 40
0.6666666667
  1
 
  7
TEXTSTYLE_2
100
AcDbText
  0
TEXT
  5
2EF
330
23C
100
AcDbEntity
  8
0
  6
Continuous
 62
     7
100
AcDbText
 10
144.4665051611
 20
53.1198797418
 30
0.0
 40
0.5
  1
Legende/Legend
  7
TEXTSTYLE_2
100
AcDbText
  0
TEXT
  5
2F0
330
23C
100
AcDbEntity
  8
0
  6
Continuous
 62
     7
100
AcDbText
 10
150.9953401051
 20
51.6086147641
 30
0.0
 40
0.6666666667
  1
ZONE DE ROBINETTERIE
  7
TEXTSTYLE_2
100
AcDbText
  0
TEXT
  5
2F1
330
23C
100
AcDbEntity
  8
0
  6
Continuous
 62
     7
100
AcDbText
 10
145.9156155382
 20
50.1133702497
 30
0.0
 40
0.6666666667
  1
L   :  SYSTEME LED       DC   :  DOUBLE DOSSIER CHAUFFANT
  7
TEXTSTYLE_2
100
AcDbText
  0
TEXT
  5
2F2
330
23C
100
AcDbEntity
  8
0
  6
Continuous
 62
     7
100
AcDbText
 10
145.9156155382
 20
48.7800369164
 30
0.0
 40
0.6666666667
  1
C   :  CONTROLE
  7
TEXTSTYLE_2
100
AcDbText
  0
TEXT
  5
2F3
330
23C
100
AcDbEntity
  8
0
  6
Continuous
 62
     7
100
AcDbText
 10
145.9156155382
 20
47.4467035831
 30
0.0
 40
0.6666666667
  1
T   :  MOTEUR
  7
TEXTSTYLE_2
100
AcDbText
  0
TEXT
  5
2F4
330
23C
100
AcDbEntity
  8
0
  6
Continuous
 62
     7
100
AcDbText
 10
157.499363366
 20
58.6666666667
 30
0.0
 40
0.6666666667
  1
82
  7
TEXTSTYLE_2
100
AcDbText
  0
TEXT
  5
2F5
330
23C
100
AcDbEntity
  8
0
  6
Continuous
 62
     7
100
AcDbText
 10
157.499363366
 20
57.6666666667
 30
0.0
 40
0.6666666667
  1
69
  7
TEXTSTYLE_2
100
AcDbText
  0
TEXT
  5
2F6
330
23C
100
AcDbEntity
  8
0
  6
Continuous
 62
     7
100
AcDbText
 10
157.499363366
 20
56.6666666667
 30
0.0
 40
0.6666666667
  1
63
  7
TEXTSTYLE_2
100
AcDbText
  0
TEXT
  5
2F7
330
23C
100
AcDbEntity
  8
0
  6
Continuous
 62
     7
100
AcDbText
 10
157.499363366
 20
55.6666666667
 30
0.0
 40
0.6666666667
  1
57
  7
TEXTSTYLE_2
100
AcDbText
  0
TEXT
  5
2F8
330
23C
100
AcDbEntity
  8
0
  6
Continuous
 62
     7
100
AcDbText
 10
157.499363366
 20
54.66666666670001
 30
0.0
 40
0.6666666667
  1
48
  7
TEXTSTYLE_2
100
AcDbText
  0
TEXT
  5
2F9
330
23C
100
AcDbEntity
  8
0
  6
Continuous
 62
     7
100
AcDbText
 10
164.4195693097
 20
58.68374606879999
 30
0.0
 40
0.6666666667
  1
309
  7
TEXTSTYLE_2
100
AcDbText
  0
TEXT
  5
2FA
330
23C
100
AcDbEntity
  8
0
  6
Continuous
 62
     7
100
AcDbText
 10
164.4195693097
 20
57.6837460688
 30
0.0
 40
0.6666666667
  1
262
  7
TEXTSTYLE_2
100
AcDbText
  0
TEXT
  5
2FB
330
23C
100
AcDbEntity
  8
0
  6
Continuous
 62
     7
100
AcDbText
 10
164.4195693097
 20
56.6837460688
 30
0.0
 40
0.6666666667
  1
238
  7
TEXTSTYLE_2
100
AcDbText
  0
TEXT
  5
2FC
330
23C
100
AcDbEntity
  8
0
  6
Continuous
 62
     7
100
AcDbText
 10
164.4195693097
 20
55.68374606879999
 30
0.0
 40
0.6666666667
  1
216
  7
TEXTSTYLE_2
100
AcDbText
  0
TEXT
  5
2FD
330
23C
100
AcDbEntity
  8
0
  6
Continuous
 62
     7
100
AcDbText
 10
164.4195693097
 20
54.6837460688
 30
0.0
 40
0.6666666667
  1
183
  7
TEXTSTYLE_2
100
AcDbText
  0
TEXT
  5
2FE
330
23C
100
AcDbEntity
  8
0
  6
Continuous
 62
     7
100
AcDbText
 10
171.3642082472
 20
58.6666666667
 30
0.0
 40
0.6666666667
  1
68
  7
TEXTSTYLE_2
100
AcDbText
  0
TEXT
  5
2FF
330
23C
100
AcDbEntity
  8
0
  6
Continuous
 62
     7
100
AcDbText
 10
171.3642082472
 20
57.6666666667
 30
0.0
 40
0.6666666667
  1
58
  7
TEXTSTYLE_2
100
AcDbText
  0
TEXT
  5
300
330
23C
100
AcDbEntity
  8
0
  6
Continuous
 62
     7
100
AcDbText
 10
171.3642082472
 20
56.6666666667
 30
0.0
 40
0.6666666667
  1
52
  7
TEXTSTYLE_2
100
AcDbText
  0
TEXT
  5
301
330
23C
100
AcDbEntity
  8
0
  6
Continuous
 62
     7
100
AcDbText
 10
171.3642082472
 20
55.6666666667
 30
0.0
 40
0.6666666667
  1
48
  7
TEXTSTYLE_2
100
AcDbText
  0
TEXT
  5
302
330
23C
100
AcDbEntity
  8
0
  6
Continuous
 62
     7
100
AcDbText
 10
171.3642082472
 20
54.66666666670001
 30
0.0
 40
0.6666666667
  1
40
  7
TEXTSTYLE_2
100
AcDbText
  0
LINE
  5
303
330
23C
100
AcDbEntity
  8
0
  6
Continuous
 62
     7
100
AcDbLine
 10
144.0
 20
64.0
 30
0.0
 11
144.0
 21
46.6666666667
 31
0.0
  0
LINE
  5
304
330
23C
100
AcDbEntity
  8
0
  6
Continuous
 62
     7
100
AcDbLine
 10
144.0
 20
64.0
 30
0.0
 11
177.3333333333
 21
64.0
 31
0.0
  0
LINE
  5
305
330
23C
100
AcDbEntity
  8
0
  6
Continuous
 62
     7
100
AcDbLine
 10
177.3333333333
 20
64.0
 30
0.0
 11
177.3333333333
 21
46.6666666667
 31
0.0
  0
LINE
  5
306
330
23C
100
AcDbEntity
  8
0
  6
Continuous
 62
     7
100
AcDbLine
 10
144.0
 20
46.6666666667
 30
0.0
 11
177.3333333333
 21
46.6666666667
 31
0.0
  0
LINE
  5
307
330
23C
100
AcDbEntity
  8
0
  6
Continuous
 62
     7
100
AcDbLine
 10
145.3333333333
 20
54.0
 30
0.0
 11
176.0
 21
54.0
 31
0.0
  0
LINE
  5
308
330
23C
100
AcDbEntity
  8
0
  6
Continuous
 62
     7
100
AcDbLine
 10
145.3333333333
 20
61.0
 30
0.0
 11
176.0
 21
61.0
 31
0.0
  0
LINE
  5
309
330
23C
100
AcDbEntity
  8
0
  6
Continuous
 62
     7
100
AcDbLine
 10
144.8089065593
 20
52.3781645044
 30
0.0
 11
144.4398858169
 21
52.009143762
 31
0.0
  0
LINE
  5
30A
330
23C
100
AcDbEntity
  8
0
  6
Continuous
 62
     7
100
AcDbLine
 10
145.4755732259
 20
52.3781645044
 30
0.0
 11
144.6775574355
 21
51.5801487139
 31
0.0
  0
LINE
  5
30B
330
23C
100
AcDbEntity
  8
0
  6
Continuous
 62
     7
100
AcDbLine
 10
146.1422398926
 20
52.3781645044
 30
0.0
 11
145.3442241022
 21
51.5801487139
 31
0.0
  0
LINE
  5
30C
330
23C
100
AcDbEntity
  8
0
  6
Continuous
 62
     7
100
AcDbLine
 10
146.8089065593
 20
52.3781645044
 30
0.0
 11
146.0108907688
 21
51.5801487139
 31
0.0
  0
LINE
  5
30D
330
23C
100
AcDbEntity
  8
0
  6
Continuous
 62
     7
100
AcDbLine
 10
147.4755732259
 20
52.3781645044
 30
0.0
 11
146.6775574355
 21
51.5801487139
 31
0.0
  0
LINE
  5
30E
330
23C
100
AcDbEntity
  8
0
  6
Continuous
 62
     7
100
AcDbLine
 10
148.1422398926
 20
52.3781645044
 30
0.0
 11
147.3442241022
 21
51.5801487139
 31
0.0
  0
LINE
  5
30F
330
23C
100
AcDbEntity
  8
0
  6
Continuous
 62
     7
100
AcDbLine
 10
148.8089065593
 20
52.3781645044
 30
0.0
 11
148.0108907688
 21
51.5801487139
 31
0.0
  0
LINE
  5
310
330
23C
100
AcDbEntity
  8
0
  6
Continuous
 62
     7
100
AcDbLine
 10
149.4755732259
 20
52.3781645044
 30
0.0
 11
148.6775574355
 21
51.5801487139
 31
0.0
  0
LINE
  5
311
330
23C
100
AcDbEntity
  8
0
  6
Continuous
 62
     7
100
AcDbLine
 10
150.1422398926
 20
52.3781645044
 30
0.0
 11
149.3442241022
 21
51.5801487139
 31
0.0
  0
LINE
  5
312
330
23C
100
AcDbEntity
  8
0
  6
Continuous
 62
     7
100
AcDbLine
 10
150.5857273268
 20
52.1549852718
 30
0.0
 11
150.0108907688
 21
51.5801487139
 31
0.0
  0
ELLIPSE
  5
313
330
23C
100
AcDbEntity
  8
0
  6
Continuous
 62
     7
100
AcDbEllipse
 10
146.1454024822
 20
50.43094770689999
 30
0.0
 11
1.0473539356
 21
0.0
 31
0.0
210
0.0
220
0.0
230
1.0
 40
0.4938647983
 41
0.0
 42
6.283185307179586
  0
ELLIPSE
  5
314
330
23C
100
AcDbEntity
  8
0
  6
Continuous
 62
     7
100
AcDbEllipse
 10
146.1454024822
 20
49.0976143736
 30
0.0
 11
1.0473539356
 21
0.0
 31
0.0
210
0.0
220
0.0
230
1.0
 40
0.4938647983
 41
0.0
 42
6.283185307179586
  0
ELLIPSE
  5
315
330
23C
100
AcDbEntity
  8
0
  6
Continuous
 62
     7
100
AcDbEllipse
 10
146.1454024822
 20
47.76428104029999
 30
0.0
 11
1.0473539356
 21
0.0
 31
0.0
210
0.0
220
0.0
230
1.0
 40
0.4938647983
 41
0.0
 42
6.283185307179586
  0
ELLIPSE
  5
316
330
23C
100
AcDbEntity
  8
0
  6
Continuous
 62
     7
100
AcDbEllipse
 10
157.1640380633
 20
50.45046906399999
 30
0.0
 11
1.0473539356
 21
0.0
 31
0.0
210
0.0
220
0.0
230
1.0
 40
0.4938647983
 41
0.0
 42
6.283185307179586
  0
ENDBLK
  5
317
330
23C
100
AcDbEntity
  8
0
  6
ByBlock
 62
     0
100
AcDbBlockEnd
  0
ENDSEC
  0
SECTION
  2
ENTITIES
  0
LWPOLYLINE
  5
16BF
330
220
100
AcDbEntity
  8
0
  6
Continuous
 62
     7
100
AcDbPolyline
 90
      113
 70
     0
 43
0.0
 10
23.1241242933
 20
84.07929590429999
 10
23.1290401195
 20
83.65170471170001
 10
23.142865785
 20
83.23387755090001
 10
23.1657587776
 20
82.8259410286
 10
23.197246634
 20
82.42751532459999
 10
23.2369927706
 20
82.03838452810002
 10
23.2847470355
 20
81.65818351670001
 10
23.3402046374
 20
81.2866717522
 10
23.4031929116
 20
80.9232595707
 10
23.4734756691
 20
80.56738071879999
 10
23.5509386913
 20
80.2187244257
 10
23.6353964073
 20
79.8769388149
 10
23.726826685
 20
79.54158094989999
 10
23.8251589143
 20
79.2121936274
 10
23.9303529583
 20
78.88846777149999
 10
24.0423240187
 20
78.5700409185
 10
24.1611354694
 20
78.2566160296
 10
24.2868004936
 20
77.9478266856
 10
24.4193848643
 20
77.6435185654
 10
24.55897059030001
 20
77.34342798520001
 10
24.7055221474
 20
77.0475166147
 10
24.8589758282
 20
76.7557437524
 10
25.0194981912
 20
76.46785282739999
 10
25.1872073854
 20
76.183577783
 10
25.3621849315
 20
75.90290637609999
 10
25.5444723016
 20
75.6258334635
 10
25.7343077911
 20
75.352071689
 10
25.9318651799
 20
75.0813626871
 10
26.137379487
 20
74.8136143425
 10
26.35102336820001
 20
74.5487073459
 10
26.5731576925
 20
74.2864649137
 10
26.8040860718
 20
74.02670719449999
 10
27.0441529333
 20
73.7693240818
 10
27.293647962
 20
73.5141769766
 10
27.5530389973
 20
73.2611715044
 10
27.8226891555
 20
73.010214792
 10
28.1032022913
 20
72.76116373659999
 10
28.39516080280001
 20
72.51381246060001
 10
28.6989921759
 20
72.26825641579999
 10
29.0151701681
 20
72.02447680919999
 10
29.3441383624
 20
71.7826104981
 10
29.6862515444
 20
71.54279450369999
 10
30.04224986360001
 20
71.3050095415
 10
30.41281445
 20
71.0692152509
 10
30.7984771484
 20
70.835611881
 10
31.1998786821
 20
70.6042784376
 10
31.6173735452
 20
70.3755382911
 10
32.0511904405
 20
70.1497367632
 10
32.5023474652
 20
69.92688700550001
 10
32.9708969052
 20
69.7073342706
 10
33.4599648964
 20
69.4904275776
 10
33.9717891941
 20
69.27563910409999
 10
34.5090872257
 20
69.06294462689999
 10
35.0764988539
 20
68.8514135478
 10
35.6704945285
 20
68.64323716930001
 10
36.2935292818
 20
68.43899412319998
 10
36.9322892286
 20
68.24259182279999
 10
37.5773625565
 20
68.0578154552
 10
38.2194980801
 20
67.88561033029999
 10
38.8471942829
 20
67.7285606503
 10
39.457790345
 20
67.5855349258
 10
40.0458256253
 20
67.45654610549999
 10
40.6081980704
 20
67.34074507799999
 10
41.139680989
 20
67.2377396011
 10
41.6411876538
 20
67.14617201600001
 10
42.11061038829999
 20
67.0650278265
 10
42.5517853488
 20
66.9928853034
 10
42.9669603351
 20
66.92827032770001
 10
43.35879273989999
 20
66.87032557229999
 10
43.730052815
 20
66.8178897616
 10
44.082649783
 20
66.77040062119999
 10
44.41983365379999
 20
66.7269410119
 10
44.7403523163
 20
66.6874142522
 10
45.0443711581
 20
66.6514650118
 10
45.33088769199999
 20
66.61895209890001
 10
45.5982810369
 20
66.58975505649999
 10
45.84857176149999
 20
66.5634563501
 10
46.0819133161
 20
66.5397651983
 10
46.302286175
 20
66.5181808841
 10
46.51266296399999
 20
66.4982128872
 10
46.7162206805
 20
66.4795398363
 10
46.916445693
 20
66.46173072739999
 10
47.1153825151
 20
66.4446239384
 10
47.31668947560001
 20
66.4278741466
 10
47.5190114974
 20
66.4116014489
 10
47.7225263533
 20
66.39581887770001
 10
47.9262938227
 20
66.3805023036
 10
48.1292501628
 20
66.36564461430001
 10
48.3319437126
 20
66.35120779160001
 10
48.53415466529999
 20
66.33717466600001
 10
48.737123716
 20
66.32347557989999
 10
48.9412152568
 20
66.3100773461
 10
49.1488383892
 20
66.2968533839
 10
49.3618441549
 20
66.28368739699999
 10
49.5822711252
 20
66.27051534439999
 10
49.8122012747
 20
66.25723674229999
 10
50.053355435
 20
66.2438446219
 10
50.3080276355
 20
66.23026633069999
 10
50.5765802572
 20
66.21659843579999
 10
50.8600173716
 20
66.2028750648
 10
51.1587079362
 20
66.18921088399999
 10
51.47318082
 20
66.17568821369999
 10
51.8039603595
 20
66.16243821970001
 10
52.1515727529
 20
66.1495662279
 10
52.51654128470001
 20
66.1372320784
 10
52.8993877106
 20
66.12556679069999
 10
53.30064281550001
 20
66.11476215270001
 10
53.7208380771
 20
66.1049776504
 10
54.16049317369999
 20
66.0964412089
 10
54.62013324549999
 20
66.0893446718
 10
55.1002733859
 20
66.08395576949999
 10
55.6016900026
 20
66.08064764019999
 10
56.12412429289999
 20
66.0792959045
  0
LWPOLYLINE
  5
16C2
330
220
100
AcDbEntity
  8
0
  6
Continuous
 62
     7
100
AcDbPolyline
 90
       99
 70
     0
 43
0.0
 10
27.5257019195
 20
84.07929590450001
 10
27.5278238677
 20
83.83445419590001
 10
27.5340650383
 20
83.59443499399999
 10
27.5443133954
 20
83.3594515843
 10
27.5584334404
 20
83.1292710559
 10
27.5763014404
 20
82.9037499268
 10
27.5978032328
 20
82.68276743500001
 10
27.6228300583
 20
82.4661727308
 10
27.6512795189
 20
82.25386235349999
 10
27.6830532719
 20
82.0457141347
 10
27.7180652418
 20
81.8415947563
 10
27.756227304
 20
81.6413940113
 10
27.7974728073
 20
81.4449329375
 10
27.8417416324
 20
81.25205007079999
 10
27.8889866505
 20
81.06258021
 10
27.9391776884
 20
80.8763361685
 10
27.9922777204
 20
80.6932084884
 10
28.0482534296
 20
80.5130555166
 10
28.1070540399
 20
80.3358156546
 10
28.1686255467
 20
80.1614502079
 10
28.2329876596
 20
79.9897447046
 10
28.300149344
 20
79.8205613185
 10
28.3701818033
 20
79.6536434594
 10
28.4431771469
 20
79.4886960157
 10
28.51910332800001
 20
79.32572479850001
 10
28.5979725789
 20
79.16465344889999
 10
28.6797877242
 20
79.0054483812
 10
28.7645356554
 20
78.8481180074
 10
28.8523231987
 20
78.692476599
 10
28.943200253
 20
78.53843472120001
 10
29.0373358151
 20
78.3857021959
 10
29.1349319544
 20
78.23399431039999
 10
29.2360511104
 20
78.0832766168
 10
29.340815709
 20
77.9334482404
 10
29.4493159557
 20
77.7844831007
 10
29.5616359697
 20
77.63635261569999
 10
29.6779040217
 20
77.48896549050001
 10
29.7982194238
 20
77.3422855606
 10
29.9227822436
 20
77.1961681075
 10
30.051784696
 20
77.05051257619999
 10
30.185415452
 20
76.9052447058
 10
30.3238889293
 20
76.76026913210001
 10
30.4673625314
 20
76.61555941
 10
30.6160119482
 20
76.4710840047
 10
30.7700157278
 20
76.3268225541
 10
30.9295326692
 20
76.18278823069999
 10
31.0948126626
 20
76.0389211608
 10
31.2660971433
 20
75.89518587270001
 10
31.4436758814
 20
75.75152012149999
 10
31.6278225514
 20
75.60789447979999
 10
31.8188475237
 20
75.4642645088
 10
32.0170647693
 20
75.3206032209
 10
32.22274006550001
 20
75.17692859909999
 10
32.4361862013
 20
75.03324030569999
 10
32.6575459819
 20
74.8896554768
 10
32.8869808922
 20
74.74628345540001
 10
33.12476691980001
 20
74.6031840489
 10
33.3711270004
 20
74.46045994020001
 10
33.626458192
 20
74.3181255011
 10
33.8910826877
 20
74.176245157
 10
34.165413377
 20
74.03484468100001
 10
34.4499219753
 20
73.8939306649
 10
34.7446958048
 20
73.7537020659
 10
35.0498878697
 20
73.6143444041
 10
35.3658663233
 20
73.4759755898
 10
35.69285007139999
 20
73.3387819027
 10
36.0314301815
 20
73.20279544849999
 10
36.3820868511
 20
73.0681063799
 10
36.7453071666
 20
72.93480731239999
 10
37.1218868465
 20
72.8029117105
 10
37.5114253435
 20
72.6728875313
 10
37.9130737626
 20
72.5452925182
 10
38.3289058672
 20
72.41976365010001
 10
38.7596673575
 20
72.29641779020001
 10
39.2085368427
 20
72.17474608029999
 10
39.6786256698
 20
72.0544154759
 10
40.17101947309999
 20
71.9354235894
 10
40.68934031749999
 20
71.8174621111
 10
41.22923504510001
 20
71.7021263038
 10
41.78784864669999
 20
71.59045789140001
 10
42.3641151395
 20
71.482996057
 10
42.95574758779999
 20
71.38041477539999
 10
43.5634441225
 20
71.2828040185
 10
44.1879376266
 20
71.19027978270001
 10
44.8268008008
 20
71.1033742335
 10
45.4757783205
 20
71.0226799806
 10
46.1410572984
 20
70.94751816520001
 10
46.82433754239999
 20
70.8780125019
 10
47.5349187408
 20
70.8136959339
 10
48.28215447369999
 20
70.75402749680001
 10
49.0676594461
 20
70.6982622994
 10
49.9025189649
 20
70.64574300229999
 10
50.7675521868
 20
70.5983553058
 10
51.648906165
 20
70.557415522
 10
52.5418685845
 20
70.5235002242
 10
53.4372389579
 20
70.497097369
 10
54.3345258989
 20
70.47822777979999
 10
55.2297391652
 20
70.4669447329
 10
56.124124293
 20
70.46318711179999
  0
LWPOLYLINE
  5
16C3
330
220
100
AcDbEntity
  8
0
  6
Continuous
 62
     7
100
AcDbPolyline
 90
       99
 70
     0
 43
0.0
 10
27.5257019195
 20
84.07929590450001
 10
27.5278238677
 20
84.32413761319999
 10
27.5340650383
 20
84.5641568151
 10
27.5443133954
 20
84.7991402248
 10
27.5584334404
 20
85.02932075310001
 10
27.5763014404
 20
85.2548418823
 10
27.5978032328
 20
85.4758243741
 10
27.6228300583
 20
85.6924190782
 10
27.6512795189
 20
85.9047294556
 10
27.6830532719
 20
86.11287767440002
 10
27.7180652418
 20
86.3169970528
 10
27.756227304
 20
86.51719779770001
 10
27.7974728073
 20
86.7136588716
 10
27.8417416324
 20
86.90654173819998
 10
27.8889866505
 20
87.096011599
 10
27.9391776884
 20
87.28225564049999
 10
27.9922777204
 20
87.4653833207
 10
28.0482534296
 20
87.6455362925
 10
28.1070540399
 20
87.8227761545
 10
28.1686255467
 20
87.99714160120002
 10
28.2329876596
 20
88.1688471045
 10
28.300149344
 20
88.33803049049999
 10
28.3701818033
 20
88.50494834959999
 10
28.4431771469
 20
88.66989579330001
 10
28.51910332800001
 20
88.8328670105
 10
28.5979725789
 20
88.9939383601
 10
28.6797877242
 20
89.15314342790001
 10
28.7645356554
 20
89.31047380169999
 10
28.8523231987
 20
89.46611520999999
 10
28.943200253
 20
89.6201570878
 10
29.0373358151
 20
89.7728896131
 10
29.1349319544
 20
89.9245974987
 10
29.2360511104
 20
90.07531519229999
 10
29.340815709
 20
90.22514356870001
 10
29.4493159557
 20
90.37410870829999
 10
29.5616359697
 20
90.52223919339999
 10
29.6779040217
 20
90.6696263186
 10
29.7982194238
 20
90.8163062484
 10
29.9227822436
 20
90.9624237016
 10
30.051784696
 20
91.10807923280001
 10
30.185415452
 20
91.2533471032
 10
30.3238889293
 20
91.39832267690001
 10
30.4673625314
 20
91.543032399
 10
30.6160119482
 20
91.6875078043
 10
30.7700157278
 20
91.83176925499999
 10
30.9295326692
 20
91.9758035783
 10
31.0948126626
 20
92.1196706483
 10
31.2660971433
 20
92.26340593629998
 10
31.4436758814
 20
92.40707168760001
 10
31.6278225514
 20
92.5506973292
 10
31.8188475237
 20
92.69432730030001
 10
32.0170647693
 20
92.83798858819999
 10
32.22274006550001
 20
92.98166320989999
 10
32.4361862013
 20
93.1253515034
 10
32.6575459819
 20
93.2689363322
 10
32.8869808922
 20
93.41230835360001
 10
33.12476691980001
 20
93.5554077601
 10
33.3711270004
 20
93.6981318688
 10
33.626458192
 20
93.84046630799998
 10
33.8910826877
 20
93.98234665209999
 10
34.165413377
 20
94.12374712809999
 10
34.4499219753
 20
94.26466114410001
 10
34.7446958048
 20
94.4048897432
 10
35.0498878697
 20
94.544247405
 10
35.3658663233
 20
94.6826162193
 10
35.69285007139999
 20
94.81980990629999
 10
36.0314301815
 20
94.95579636059998
 10
36.3820868511
 20
95.0904854292
 10
36.7453071666
 20
95.2237844967
 10
37.1218868465
 20
95.3556800986
 10
37.5114253435
 20
95.4857042777
 10
37.9130737626
 20
95.61329929080001
 10
38.3289058672
 20
95.73882815899999
 10
38.7596673575
 20
95.86217401879999
 10
39.2085368427
 20
95.98384572870001
 10
39.6786256698
 20
96.10417633309999
 10
40.17101947309999
 20
96.22316821970001
 10
40.68934031749999
 20
96.341129698
 10
41.22923504510001
 20
96.4564655052
 10
41.78784864669999
 20
96.56813391760001
 10
42.3641151395
 20
96.67559575209999
 10
42.95574758779999
 20
96.7781770336
 10
43.5634441225
 20
96.87578779049999
 10
44.1879376266
 20
96.96831202630001
 10
44.8268008008
 20
97.05521757559999
 10
45.4757783205
 20
97.13591182850001
 10
46.1410572984
 20
97.2110736439
 10
46.82433754239999
 20
97.28057930709999
 10
47.5349187408
 20
97.34489587510001
 10
48.28215447369999
 20
97.4045643122
 10
49.0676594461
 20
97.4603295096
 10
49.9025189649
 20
97.51284880680001
 10
50.7675521868
 20
97.56023650320001
 10
51.648906165
 20
97.60117628709998
 10
52.5418685845
 20
97.6350915849
 10
53.4372389579
 20
97.6614944401
 10
54.3345258989
 20
97.6803640293
 10
55.2297391652
 20
97.69164707620001
 10
56.124124293
 20
97.69540469729999
  0
LWPOLYLINE
  5
16C4
330
220
100
AcDbEntity
  8
0
  6
Continuous
 62
     7
100
AcDbPolyline
 90
      131
 70
     0
 43
0.0
 10
35.5519686718
 20
83.3806218199
 10
35.5606721359
 20
83.2640469496
 10
35.570920367
 20
83.14532745390001
 10
35.5828308437
 20
83.0241688207
 10
35.5963867427
 20
82.9015539483
 10
35.6115674445
 20
82.77814637810001
 10
35.6283201393
 20
82.6545990804
 10
35.6465637779
 20
82.5315387038
 10
35.6661725629
 20
82.4096845468
 10
35.6870377087
 20
82.28944198289999
 10
35.7088172169
 20
82.1723437296
 10
35.7310780579
 20
82.0599824335
 10
35.7536311821
 20
81.95250514619999
 10
35.7760601071
 20
81.8510463441
 10
35.7985106063
 20
81.7541927026
 10
35.8210363874
 20
81.6611767831
 10
35.8437247596
 20
81.5712292188
 10
35.86670483360001
 20
81.48355601629999
 10
35.8900966387
 20
81.39750282580001
 10
35.9140991595
 20
81.3122394374
 10
35.938763328
 20
81.2275373948
 10
35.9642383602
 20
81.1428820233
 10
35.9905138698
 20
81.0583252974
 10
36.017709302
 20
80.97351580020001
 10
36.0456063758
 20
80.8891562476
 10
36.0739522286
 20
80.80596301040001
 10
36.1028723073
 20
80.7235109998
 10
36.1322144607
 20
80.64218112369999
 10
36.16258655260001
 20
80.5602806479
 10
36.1946971811
 20
80.4760488556
 10
36.22835632760001
 20
80.39017170959999
 10
36.2637133987
 20
80.302440543
 10
36.3004541239
 20
80.21378426850001
 10
36.3383474237
 20
80.12483781829999
 10
36.3771465174
 20
80.03621890859999
 10
36.416572378
 20
79.9485423966
 10
36.4563381773
 20
79.8623842169
 10
36.4960477709
 20
79.7784855493
 10
36.5356116518
 20
79.6968965242
 10
36.5745778491
 20
79.61838501009999
 10
36.6135926353
 20
79.54150933459999
 10
36.6531776935
 20
79.4651964455
 10
36.6934547504
 20
79.38920563349999
 10
36.73483876050001
 20
79.3127838928
 10
36.777070267
 20
79.2364477509
 10
36.8200537275
 20
79.16038248399999
 10
36.863666876
 20
79.08480418020001
 10
36.90775020010001
 20
79.009973635
 10
36.95227522840001
 20
78.93591587439999
 10
36.9969499105
 20
78.86307967260001
 10
37.0423882168
 20
78.79044281119999
 10
37.088911827
 20
78.7175192677
 10
37.1372479319
 20
78.6432398063
 10
37.1880712762
 20
78.56670593619999
 10
37.242074807
 20
78.4870663416
 10
37.3000502857
 20
78.403419032
 10
37.362615724
 20
78.31519815909999
 10
37.4309370509
 20
78.2211782509
 10
37.504406901
 20
78.1226434626
 10
37.5825089146
 20
78.02066874880001
 10
37.6660302683
 20
77.9146223721
 10
37.7552976933
 20
77.8045338129
 10
37.8513264274
 20
77.6896561663
 10
37.9550443552
 20
77.56948366109999
 10
38.0673586829
 20
77.4436631897
 10
38.1895094778
 20
77.31161432020001
 10
38.3217653264
 20
77.17393816659999
 10
38.4672156495
 20
77.0284899145
 10
38.6187401171
 20
76.8832101597
 10
38.7702298321
 20
76.7439424825
 10
38.9192752478
 20
76.61241841039999
 10
39.060392784
 20
76.4926472722
 10
39.19546476300001
 20
76.3821221651
 10
39.3246423349
 20
76.28001843549999
 10
39.4480579864
 20
76.1856185015
 10
39.56590231030001
 20
76.0982458554
 10
39.6784695041
 20
76.0172218313
 10
39.786181559
 20
75.94185124229999
 10
39.889098497
 20
75.8717511618
 10
39.9874630254
 20
75.8064547653
 10
40.0813066674
 20
75.74567289109999
 10
40.1707039424
 20
75.6891141714
 10
40.2558746767
 20
75.6364218547
 10
40.33701151199999
 20
75.5872854091
 10
40.41436552919999
 20
75.5413851773
 10
40.4881904412
 20
75.49842428959999
 10
40.558749101
 20
75.45812344319999
 10
40.62631548419999
 20
75.4202164586
 10
40.69117154759999
 20
75.384451578
 10
40.7536144859
 20
75.35058473300001
 10
40.8139214024
 20
75.3183983767
 10
40.8725041503
 20
75.28761731439999
 10
40.9292937117
 20
75.2582297479
 10
40.9844942694
 20
75.2300857245
 10
41.0377111874
 20
75.2033421224
 10
41.0886411237
 20
75.1781021875
 10
41.13720586489999
 20
75.15435421800001
 10
41.183020089
 20
75.1322349756
 10
41.2267034302
 20
75.1113992409
 10
41.2685669997
 20
75.09166281029999
 10
41.30917921079999
 20
75.07273146119999
 10
41.3490880996
 20
75.05433267020001
 10
41.3886941887
 20
75.0362730887
 10
41.42863290949999
 20
75.01826169330001
 10
41.4687685405
 20
75.0003626277
 10
41.5092326605
 20
74.9825199516
 10
41.5498612705
 20
74.9648082957
 10
41.59057416449999
 20
74.9472632544
 10
41.6312474688
 20
74.9299371301
 10
41.6716806288
 20
74.9129120339
 10
41.7120187241
 20
74.8961231759
 10
41.75208906259999
 20
74.8796384786
 10
41.79264708139999
 20
74.8631478204
 10
41.8341874126
 20
74.8464591747
 10
41.8773410501
 20
74.8293373451
 10
41.92279016869999
 20
74.8115396464
 10
41.9709010876
 20
74.79296091319999
 10
42.0225321909
 20
74.77331945430001
 10
42.0769110465
 20
74.7529623958
 10
42.13381135
 20
74.7320213097
 10
42.192436559
 20
74.71082673890001
 10
42.2521416482
 20
74.68963702020001
 10
42.3122121338
 20
74.6687166753
 10
42.3719707658
 20
74.64829991720001
 10
42.4306259207
 20
74.6286404093
 10
42.4873414734
 20
74.60998750369999
 10
42.5415405782
 20
74.5924878812
 10
42.5922264953
 20
74.5764094005
 10
42.6398030637
 20
74.5615690761
 10
42.6842008826
 20
74.54793968379999
 10
42.7651150765
 20
74.52363948109999
  0
LWPOLYLINE
  5
16C5
330
220
100
AcDbEntity
  8
0
  6
Continuous
 62
     7
100
AcDbPolyline
 90
        7
 70
     0
 43
0.0
 10
35.5277136093
 20
84.07929590450001
 10
35.5284673465
 20
83.9622136662
 10
35.5305430401
 20
83.8453798483
 10
35.5339345912
 20
83.72882481119999
 10
35.5386378409
 20
83.6125218731
 10
35.5446505871
 20
83.4964442424
 10
35.5519686718
 20
83.3806218199
  0
LWPOLYLINE
  5
16CE
330
220
100
AcDbEntity
  8
0
  6
Continuous
 62
     7
100
AcDbPolyline
 90
      113
 70
     0
 43
0.0
 10
56.12412429289999
 20
66.0792959045
 10
56.6504284934
 20
66.08066873750001
 10
57.1553998571
 20
66.08402360380001
 10
57.63877324479999
 20
66.0894875118
 10
58.1013440742
 20
66.09667943659999
 10
58.5436399686
 20
66.10532582409999
 10
58.96619917189999
 20
66.1152312705
 10
59.36955443729999
 20
66.12616323510001
 10
59.7542498599
 20
66.1379595745
 10
60.1208289308
 20
66.15042493149999
 10
60.46982621499999
 20
66.1634264068
 10
60.8017777436
 20
66.17680149129999
 10
61.1172226089
 20
66.19044365810001
 10
61.4166975917
 20
66.2042198393
 10
61.7007456572
 20
66.21804714939999
 10
61.9697201558
 20
66.2318079777
 10
62.224726712
 20
66.2454734314
 10
62.4662006729
 20
66.25894935229999
 10
62.69650622109999
 20
66.2723139249
 10
62.9174506481
 20
66.28557931180001
 10
63.13113997470001
 20
66.29884942050001
 10
63.3396713941
 20
66.3121931905
 10
63.54487868189999
 20
66.3257276881
 10
63.7492046857
 20
66.33958377509999
 10
63.95291938359999
 20
66.3537890044
 10
64.1571876917
 20
66.36840625800001
 10
64.36176764329999
 20
66.3834604102
 10
64.56724218319999
 20
66.3990039577
 10
64.7723014936
 20
66.415016916
 10
64.9757260051
 20
66.4314997684
 10
65.17782791710001
 20
66.448443608
 10
65.37734773210001
 20
66.46572923499999
 10
65.57778097169999
 20
66.4836880103
 10
65.78118685959999
 20
66.50248419829999
 10
65.9906147912
 20
66.52249988770001
 10
66.2089235839
 20
66.54402684819999
 10
66.4387441949
 20
66.56750030069999
 10
66.68358733560001
 20
66.59336500720001
 10
66.9436725604
 20
66.62188411390001
 10
67.220699057
 20
66.6534131729
 10
67.51373863649999
 20
66.68811972819999
 10
67.8223030302
 20
66.7261698273
 10
68.1467716662
 20
66.76792351199999
 10
68.48643227779999
 20
66.8135239583
 10
68.8440716801
 20
66.8637878112
 10
69.22142157989999
 20
66.91923423189999
 10
69.6209350348
 20
66.9808988485
 10
70.04494058209999
 20
67.04954825139999
 10
70.4955434887
 20
67.12650871539999
 10
70.97588271890001
 20
67.21298094819999
 10
71.4851857182
 20
67.31010824180001
 10
72.0250857258
 20
67.4192281973
 10
72.5915043242
 20
67.54095859439999
 10
73.18224398799999
 20
67.67620145720001
 10
73.79329528060001
 20
67.8254416526
 10
74.4235227133
 20
67.9901205291
 10
75.06210691639999
 20
68.1682706668
 10
75.7015107758
 20
68.35966833499999
 10
76.3307520359
 20
68.5605238138
 10
76.9364800182
 20
68.76747056140001
 10
77.51826287750001
 20
68.9790153126
 10
78.06961656529999
 20
69.1922668235
 10
78.5953470127
 20
69.4080524881
 10
79.0973647424
 20
69.62610136310001
 10
79.57787193129999
 20
69.8468172164
 10
80.03952613619999
 20
70.0705681491
 10
80.48287174130001
 20
70.2971902192
 10
80.90925387389999
 20
70.5267553701
 10
81.3189278629
 20
70.75892404770001
 10
81.71237045689998
 20
70.9934054392
 10
82.09026252479999
 20
71.23012526450001
 10
82.4531967683
 20
71.4688883738
 10
82.80191443840001
 20
71.70976656409999
 10
83.1372473166
 20
71.95282255390001
 10
83.4595165139
 20
72.1978884285
 10
83.76916798720001
 20
72.4448224744
 10
84.06665897979999
 20
72.693608806
 10
84.3524077774
 20
72.94412881060001
 10
84.62697721060001
 20
73.1965489557
 10
84.8909210006
 20
73.45094690649999
 10
85.1446847621
 20
73.70747045819999
 10
85.38880577029999
 20
73.96625540949999
 10
85.6235627651
 20
74.22741541429999
 10
85.84930268869999
 20
74.49103920909999
 10
86.0663582089
 20
74.7573373438
 10
86.27512187139998
 20
75.0265188418
 10
86.47576098409999
 20
75.2986770187
 10
86.66850921469999
 20
75.57388134899999
 10
86.85356002879998
 20
75.8524123799
 10
87.0311713929
 20
76.13457153209999
 10
87.2013834718
 20
76.42036566059999
 10
87.36428072770001
 20
76.709815016
 10
87.5199882343
 20
77.0031808326
 10
87.66867849709999
 20
77.30071142789999
 10
87.8102936816
 20
77.60246580399999
 10
87.9448101126
 20
77.908506606
 10
88.0722978174
 20
78.21907122279999
 10
88.192809565
 20
78.5342876551
 10
88.30637345479999
 20
78.8545467121
 10
88.4130651973
 20
79.1801636301
 10
88.51279472870002
 20
79.5114931282
 10
88.60551990209998
 20
79.8488353388
 10
88.69117267719998
 20
80.1926692576
 10
88.76973373870001
 20
80.5434571127
 10
88.84101476479999
 20
80.901549339
 10
88.9049007134
 20
81.26725591859999
 10
88.96115242989999
 20
81.64116043719999
 10
89.0095963003
 20
82.02386675680001
 10
89.0499206602
 20
82.41562403059999
 10
89.08187058680001
 20
82.81680904919999
 10
89.10510224099999
 20
83.22764276159999
 10
89.119133208
 20
83.64851503169999
 10
89.1241242927
 20
84.0792959048
  0
LINE
  5
16CF
330
220
100
AcDbEntity
  8
0
  6
Continuous
 62
     7
100
AcDbLine
 10
58.8527169684
 20
70.5230196064
 30
0.0
 11
58.6407075456
 21
70.51773815539999
 31
0.0
  0
LINE
  5
16D0
330
220
100
AcDbEntity
  8
0
  6
Continuous
 62
     7
100
AcDbLine
 10
58.6407075456
 20
70.51773815539999
 30
0.0
 11
58.4317170431
 21
70.51295114689999
 31
0.0
  0
LINE
  5
16D1
330
220
100
AcDbEntity
  8
0
  6
Continuous
 62
     7
100
AcDbLine
 10
58.4317170431
 20
70.51295114689999
 30
0.0
 11
58.2256838328
 21
70.5086367694
 31
0.0
  0
LWPOLYLINE
  5
16D2
330
220
100
AcDbEntity
  8
0
  6
Continuous
 62
     7
100
AcDbPolyline
 90
        7
 70
     0
 43
0.0
 10
58.2256838328
 20
70.5086367694
 10
57.8756341014
 20
70.50223435239999
 10
57.52548718649999
 20
70.49699541470001
 10
57.1752411502
 20
70.4929201859
 10
56.8249202013
 20
70.49000915579999
 10
56.4745485555
 20
70.48826255289999
 10
56.124124293
 20
70.4876803448
  0
LWPOLYLINE
  5
16D3
330
220
100
AcDbEntity
  8
0
  6
Continuous
 62
     7
100
AcDbPolyline
 90
        7
 70
     0
 43
0.0
 10
56.124124293
 20
70.4876803448
 10
55.7737000304
 20
70.48826255289999
 10
55.4233283847
 20
70.49000915579999
 10
55.0730074357
 20
70.4929201859
 10
54.7227613995
 20
70.49699541470001
 10
54.3726144845
 20
70.50223435239999
 10
54.02256475319999
 20
70.5086367694
  0
LINE
  5
16D4
330
220
100
AcDbEntity
  8
0
  6
Continuous
 62
     7
100
AcDbLine
 10
54.02256475319999
 20
70.5086367694
 30
0.0
 11
53.8165315428
 21
70.51295114689999
 31
0.0
  0
LINE
  5
16D5
330
220
100
AcDbEntity
  8
0
  6
Continuous
 62
     7
100
AcDbLine
 10
53.8165315428
 20
70.51295114689999
 30
0.0
 11
53.6075410403
 21
70.51773815539999
 31
0.0
  0
LINE
  5
16D6
330
220
100
AcDbEntity
  8
0
  6
Continuous
 62
     7
100
AcDbLine
 10
53.6075410403
 20
70.51773815539999
 30
0.0
 11
53.3955316176
 21
70.5230196064
 31
0.0
  0
LWPOLYLINE
  5
16D9
330
220
100
AcDbEntity
  8
0
  6
Continuous
 62
     7
100
AcDbPolyline
 90
       74
 70
     0
 43
0.0
 10
42.597065537
 20
93.61752099989999
 10
42.5533502023
 20
93.6037007216
 10
42.5063066808
 20
93.58859790590001
 10
42.45659748969999
 20
93.57237934670001
 10
42.4042732727
 20
93.55501814280001
 10
42.35054611729999
 20
93.53688117879999
 10
42.2966191545
 20
93.51835843729999
 10
42.24253470119999
 20
93.4994597344
 10
42.1888893722
 20
93.4803941228
 10
42.1352090801
 20
93.4609945094
 10
42.0813317826
 20
93.44119807450001
 10
42.02692799389999
 20
93.4208745197
 10
41.9717358751
 20
93.39991137860002
 10
41.9154058096
 20
93.378154652
 10
41.8576152693
 20
93.35545168719999
 10
41.7980415288
 20
93.3316393349
 10
41.73636641419999
 20
93.3065461696
 10
41.6722786373
 20
93.2799914015
 10
41.60546556889999
 20
93.25178169249999
 10
41.5356440726
 20
93.22172183259999
 10
41.46252808009999
 20
93.18960126959998
 10
41.38585213419999
 20
93.15520224370001
 10
41.30535573489999
 20
93.1182925304
 10
41.22078597369999
 20
93.0786241825
 10
41.1318877356
 20
93.0359278917
 10
41.0384683247
 20
92.98994075790002
 10
40.94006798699999
 20
92.9402403107
 10
40.83730745599999
 20
92.88693111549999
 10
40.73091137939999
 20
92.83019142769999
 10
40.6201216066
 20
92.7694026594
 10
40.5047836184
 20
92.70422700360001
 10
40.3839463356
 20
92.63382130629999
 10
40.25687968599999
 20
92.55737967459998
 10
40.12302647699999
 20
92.47410675700001
 10
39.9816664753
 20
92.38299948879999
 10
39.8328963699
 20
92.28348101100001
 10
39.6768158303
 20
92.1749056215
 10
39.5130336413
 20
92.0561894995
 10
39.3410163228
 20
91.92597210850001
 10
39.1618272533
 20
91.78397850969998
 10
38.9750183049
 20
91.62862769909999
 10
38.784939305
 20
91.4623828719
 10
38.5943974228
 20
91.28684275819999
 10
38.4065991646
 20
91.1044399965
 10
38.2256587104
 20
90.91915522429999
 10
38.0501334931
 20
90.72968156909999
 10
37.8799187184
 20
90.53594081339999
 10
37.7151757802
 20
90.3381373014
 10
37.556004563
 20
90.13641683690002
 10
37.4024583363
 20
89.93088150069999
 10
37.2546146089
 20
89.72168886860002
 10
37.1124821218
 20
89.50888468
 10
36.9761117554
 20
89.2925708263
 10
36.8454822495
 20
89.0727209423
 10
36.7205555811
 20
88.84923903459998
 10
36.6015115964
 20
88.62239617049999
 10
36.4884826487
 20
88.39248475999999
 10
36.3814301371
 20
88.1594356101
 10
36.2803487633
 20
87.92320755770001
 10
36.1853410174
 20
87.68397800379998
 10
36.096495079
 20
87.44193784569999
 10
36.01382682510001
 20
87.1970353284
 10
35.9373547159
 20
86.94923201520001
 10
35.8671596004
 20
86.6986732416
 10
35.8032931527
 20
86.4453955994
 10
35.74588299110001
 20
86.18969508259999
 10
35.6950300611
 20
85.93186288850001
 10
35.6507882173
 20
85.67195298580001
 10
35.6132184904
 20
85.4100347462
 10
35.5823945874
 20
85.146355585
 10
35.5583702142
 20
84.88105635169999
 10
35.5412194354
 20
84.61454656189999
 10
35.531003432
 20
84.3472551902
 10
35.5277136093
 20
84.07929590450001
  0
LINE
  5
16DB
330
220
100
AcDbEntity
  8
0
  6
Continuous
 62
     7
100
AcDbLine
 10
42.67672226280001
 20
93.64217753389999
 30
0.0
 11
42.597065537
 21
93.61752099989999
 31
0.0
  0
LINE
  5
16DC
330
220
100
AcDbEntity
  8
0
  6
Continuous
 62
     7
100
AcDbLine
 10
42.74759950129999
 20
93.66355114680001
 30
0.0
 11
42.67672226280001
 21
93.64217753389999
 31
0.0
  0
LINE
  5
16DD
330
220
100
AcDbEntity
  8
0
  6
Continuous
 62
     7
100
AcDbLine
 10
42.81090137369999
 20
93.6821963893
 30
0.0
 11
42.74759950129999
 21
93.66355114680001
 31
0.0
  0
LINE
  5
16DE
330
220
100
AcDbEntity
  8
0
  6
Continuous
 62
     7
100
AcDbLine
 10
42.86757954539999
 20
93.6985393065
 30
0.0
 11
42.81090137369999
 21
93.6821963893
 31
0.0
  0
LINE
  5
16DF
330
220
100
AcDbEntity
  8
0
  6
Continuous
 62
     7
100
AcDbLine
 10
69.30770071159999
 20
74.4733018883
 30
0.0
 11
69.36624918789999
 21
74.48974826619999
 31
0.0
  0
LINE
  5
16E0
330
220
100
AcDbEntity
  8
0
  6
Continuous
 62
     7
100
AcDbLine
 10
69.2546467692
 20
74.4587002185
 30
0.0
 11
69.30770071159999
 21
74.4733018883
 31
0.0
  0
LINE
  5
16E1
330
220
100
AcDbEntity
  8
0
  6
Continuous
 62
     7
100
AcDbLine
 10
69.1844532053
 20
74.43980903669999
 30
0.0
 11
69.2546467692
 21
74.4587002185
 31
0.0
  0
LINE
  5
16E2
330
220
100
AcDbEntity
  8
0
  6
Continuous
 62
     7
100
AcDbLine
 10
69.12391108850001
 20
74.42390572899999
 30
0.0
 11
69.1844532053
 21
74.43980903669999
 31
0.0
  0
LINE
  5
16E3
330
220
100
AcDbEntity
  8
0
  6
Continuous
 62
     7
100
AcDbLine
 10
69.0714510239
 20
74.41042134209999
 30
0.0
 11
69.12391108850001
 21
74.42390572899999
 31
0.0
  0
LINE
  5
16E4
330
220
100
AcDbEntity
  8
0
  6
Continuous
 62
     7
100
AcDbLine
 10
69.011837438
 20
74.39543538229999
 30
0.0
 11
69.0714510239
 21
74.41042134209999
 31
0.0
  0
LINE
  5
16E5
330
220
100
AcDbEntity
  8
0
  6
Continuous
 62
     7
100
AcDbLine
 10
68.9623761477
 20
74.38327659999998
 30
0.0
 11
69.011837438
 21
74.39543538229999
 31
0.0
  0
LINE
  5
16E6
330
220
100
AcDbEntity
  8
0
  6
Continuous
 62
     7
100
AcDbLine
 10
68.91357736109999
 20
74.371527528
 30
0.0
 11
68.9623761477
 21
74.38327659999998
 31
0.0
  0
LINE
  5
16E7
330
220
100
AcDbEntity
  8
0
  6
Continuous
 62
     7
100
AcDbLine
 10
68.8671775967
 20
74.3605853923
 30
0.0
 11
68.91357736109999
 21
74.371527528
 31
0.0
  0
LINE
  5
16E8
330
220
100
AcDbEntity
  8
0
  6
Continuous
 62
     7
100
AcDbLine
 10
68.8306034446
 20
74.3521400163
 30
0.0
 11
68.8671775967
 21
74.3605853923
 31
0.0
  0
LINE
  5
16E9
330
220
100
AcDbEntity
  8
0
  6
Continuous
 62
     7
100
AcDbLine
 10
68.7941031907
 20
74.34389293470001
 30
0.0
 11
68.8306034446
 21
74.3521400163
 31
0.0
  0
LINE
  5
16EA
330
220
100
AcDbEntity
  8
0
  6
Continuous
 62
     7
100
AcDbLine
 10
68.7501518886
 20
74.3341739253
 30
0.0
 11
68.7941031907
 21
74.34389293470001
 31
0.0
  0
LINE
  5
16EB
330
220
100
AcDbEntity
  8
0
  6
Continuous
 62
     7
100
AcDbLine
 10
68.69223022639999
 20
74.3216621816
 30
0.0
 11
68.7501518886
 21
74.3341739253
 31
0.0
  0
LINE
  5
16EC
330
220
100
AcDbEntity
  8
0
  6
Continuous
 62
     7
100
AcDbLine
 10
68.5546624046
 20
74.29272807609999
 30
0.0
 11
68.69223022639999
 21
74.3216621816
 31
0.0
  0
LINE
  5
16ED
330
220
100
AcDbEntity
  8
0
  6
Continuous
 62
     7
100
AcDbLine
 10
68.32009162850001
 20
74.2444820881
 30
0.0
 11
68.5546624046
 21
74.29272807609999
 31
0.0
  0
LINE
  5
16EE
330
220
100
AcDbEntity
  8
0
  6
Continuous
 62
     7
100
AcDbLine
 10
68.0888105947
 20
74.19797232149999
 30
0.0
 11
68.32009162850001
 21
74.2444820881
 31
0.0
  0
LINE
  5
16EF
330
220
100
AcDbEntity
  8
0
  6
Continuous
 62
     7
100
AcDbLine
 10
67.8740974335
 20
74.155745256
 30
0.0
 11
68.0888105947
 21
74.19797232149999
 31
0.0
  0
LINE
  5
16F0
330
220
100
AcDbEntity
  8
0
  6
Continuous
 62
     7
100
AcDbLine
 10
67.7173265096
 20
74.12549729689999
 30
0.0
 11
67.8740974335
 21
74.155745256
 31
0.0
  0
LINE
  5
16F1
330
220
100
AcDbEntity
  8
0
  6
Continuous
 62
     7
100
AcDbLine
 10
67.53640387189999
 20
74.0911926573
 30
0.0
 11
67.7173265096
 21
74.12549729689999
 31
0.0
  0
LINE
  5
16F2
330
220
100
AcDbEntity
  8
0
  6
Continuous
 62
     7
100
AcDbLine
 10
67.40121000090001
 20
74.0659755674
 30
0.0
 11
67.53640387189999
 21
74.0911926573
 31
0.0
  0
LINE
  5
16F3
330
220
100
AcDbEntity
  8
0
  6
Continuous
 62
     7
100
AcDbLine
 10
67.25367739149999
 20
74.03886136289999
 30
0.0
 11
67.40121000090001
 21
74.0659755674
 31
0.0
  0
LINE
  5
16F4
330
220
100
AcDbEntity
  8
0
  6
Continuous
 62
     7
100
AcDbLine
 10
67.0933778933
 20
74.00987661399999
 30
0.0
 11
67.25367739149999
 21
74.03886136289999
 31
0.0
  0
LINE
  5
16F6
330
220
100
AcDbEntity
  8
0
  6
Continuous
 62
     7
100
AcDbLine
 10
66.9197586324
 20
73.97903922739999
 30
0.0
 11
67.0933778933
 21
74.00987661399999
 31
0.0
  0
LWPOLYLINE
  5
16FB
330
220
100
AcDbEntity
  8
0
  6
Continuous
 62
     7
100
AcDbPolyline
 90
       26
 70
     0
 43
0.0
 10
63.3264434271
 20
73.4650115039
 10
63.43312378270001
 20
73.4769814129
 10
63.54469770319999
 20
73.48970991199999
 10
63.6614692872
 20
73.50326133770001
 10
63.78412532449999
 20
73.5177494722
 10
63.9132596468
 20
73.5332845974
 10
64.0494515721
 20
73.5499826438
 10
64.19327579139999
 20
73.567967286
 10
64.3453351845
 20
73.5873747706
 10
64.5070709708
 20
73.6084622835
 10
64.6765361475
 20
73.63105202359999
 10
64.8539923889
 20
73.6552522011
 10
65.0342568586
 20
73.6804097213
 10
65.21279320949999
 20
73.705899395
 10
65.3879475167
 20
73.7314640053
 10
65.5566093674
 20
73.75660551909999
 10
65.7186290633
 20
73.7812441918
 10
65.87298490310001
 20
73.8051635436
 10
66.01918990129999
 20
73.82822334069999
 10
66.1560078994
 20
73.8501598113
 10
66.28466910580001
 20
73.8711050673
 10
66.4057770835
 20
73.8911024713
 10
66.51997116789999
 20
73.9102095487
 10
66.62790773479999
 20
73.92849483229999
 10
66.7301349608
 20
73.94601545029999
 10
66.9197586324
 20
73.97903922739999
  0
LINE
  5
16FC
330
220
100
AcDbEntity
  8
0
  6
Continuous
 62
     7
100
AcDbLine
 10
63.12616205739999
 20
73.44306677919999
 30
0.0
 11
63.3264434271
 21
73.4650115039
 31
0.0
  0
LINE
  5
16FD
330
220
100
AcDbEntity
  8
0
  6
Continuous
 62
     7
100
AcDbLine
 10
62.9431236011
 20
73.4236114167
 30
0.0
 11
63.12616205739999
 21
73.44306677919999
 31
0.0
  0
LINE
  5
16FE
330
220
100
AcDbEntity
  8
0
  6
Continuous
 62
     7
100
AcDbLine
 10
62.77678770499999
 20
73.406426549
 30
0.0
 11
62.9431236011
 21
73.4236114167
 31
0.0
  0
LINE
  5
1700
330
220
100
AcDbEntity
  8
0
  6
Continuous
 62
     7
100
AcDbLine
 10
62.6263406138
 20
73.39128806339999
 30
0.0
 11
62.77678770499999
 21
73.406426549
 31
0.0
  0
LINE
  5
1702
330
220
100
AcDbEntity
  8
0
  6
Continuous
 62
     7
100
AcDbLine
 10
62.4283057486
 20
73.3719436306
 30
0.0
 11
62.6263406138
 21
73.39128806339999
 31
0.0
  0
LINE
  5
1703
330
220
100
AcDbEntity
  8
0
  6
Continuous
 62
     7
100
AcDbLine
 10
62.16382721729999
 20
73.3471253254
 30
0.0
 11
62.4283057486
 21
73.3719436306
 31
0.0
  0
LINE
  5
1704
330
220
100
AcDbEntity
  8
0
  6
Continuous
 62
     7
100
AcDbLine
 10
61.8601602243
 20
73.32003409239999
 30
0.0
 11
62.16382721729999
 21
73.3471253254
 31
0.0
  0
LINE
  5
1705
330
220
100
AcDbEntity
  8
0
  6
Continuous
 62
     7
100
AcDbLine
 10
61.5502401782
 20
73.2938978522
 30
0.0
 11
61.8601602243
 21
73.32003409239999
 31
0.0
  0
LINE
  5
1706
330
220
100
AcDbEntity
  8
0
  6
Continuous
 62
     7
100
AcDbLine
 10
61.2534534567
 20
73.2702870836
 30
0.0
 11
61.5502401782
 21
73.2938978522
 31
0.0
  0
LINE
  5
1707
330
220
100
AcDbEntity
  8
0
  6
Continuous
 62
     7
100
AcDbLine
 10
60.9854778906
 20
73.2501744696
 30
0.0
 11
61.2534534567
 21
73.2702870836
 31
0.0
  0
LINE
  5
1708
330
220
100
AcDbEntity
  8
0
  6
Continuous
 62
     7
100
AcDbLine
 10
60.7351740517
 20
73.2324201726
 30
0.0
 11
60.9854778906
 21
73.2501744696
 31
0.0
  0
LINE
  5
1709
330
220
100
AcDbEntity
  8
0
  6
Continuous
 62
     7
100
AcDbLine
 10
60.508430614
 20
73.21719580879999
 30
0.0
 11
60.7351740517
 21
73.2324201726
 31
0.0
  0
LINE
  5
170A
330
220
100
AcDbEntity
  8
0
  6
Continuous
 62
     7
100
AcDbLine
 10
60.30717095069999
 20
73.20436545069999
 30
0.0
 11
60.508430614
 21
73.21719580879999
 31
0.0
  0
LINE
  5
170B
330
220
100
AcDbEntity
  8
0
  6
Continuous
 62
     7
100
AcDbLine
 10
60.1311790163
 20
73.1936715616
 30
0.0
 11
60.30717095069999
 21
73.20436545069999
 31
0.0
  0
LINE
  5
170C
330
220
100
AcDbEntity
  8
0
  6
Continuous
 62
     7
100
AcDbLine
 10
59.92651271189999
 20
73.18185122279999
 30
0.0
 11
60.1311790163
 21
73.1936715616
 31
0.0
  0
LINE
  5
170F
330
220
100
AcDbEntity
  8
0
  6
Continuous
 62
     7
100
AcDbLine
 10
59.7719026688
 20
73.17336032979999
 30
0.0
 11
59.92651271189999
 21
73.18185122279999
 31
0.0
  0
LINE
  5
1710
330
220
100
AcDbEntity
  8
0
  6
Continuous
 62
     7
100
AcDbLine
 10
59.6019252461
 20
73.16446030859999
 30
0.0
 11
59.7719026688
 21
73.17336032979999
 31
0.0
  0
LINE
  5
1711
330
220
100
AcDbEntity
  8
0
  6
Continuous
 62
     7
100
AcDbLine
 10
59.4161590235
 20
73.1552535023
 30
0.0
 11
59.6019252461
 21
73.16446030859999
 31
0.0
  0
LWPOLYLINE
  5
1712
330
220
100
AcDbEntity
  8
0
  6
Continuous
 62
     7
100
AcDbPolyline
 90
       32
 70
     0
 43
0.0
 10
55.4822118728
 20
70.86197497020001
 10
55.41819567930001
 20
70.8602714953
 10
55.3530085022
 20
70.85834128870001
 10
55.2875520478
 20
70.8561958943
 10
55.22279576449999
 20
70.85385619829999
 10
55.1591385305
 20
70.8513309888
 10
55.0971232277
 20
70.8486395219
 10
55.03666002180001
 20
70.8457780904
 10
54.9777947123
 20
70.8427465884
 10
54.9207213913
 20
70.8395530748
 10
54.86552097899999
 20
70.8362001441
 10
54.8122883403
 20
70.8326912417
 10
54.7609318234
 20
70.82901789180001
 10
54.71167264
 20
70.8251924433
 10
54.66465379489999
 20
70.82122416819998
 10
54.6198267685
 20
70.8171075274
 10
54.57745512229999
 20
70.8128638443
 10
54.5373859618
 20
70.8084771022
 10
54.49970261659999
 20
70.80395336879999
 10
54.4644372025
 20
70.7992914106
 10
54.4317745819
 20
70.7945135186
 10
54.4015091929
 20
70.7895858847
 10
54.3738590272
 20
70.78453513869999
 10
54.3489306689
 20
70.77937925429999
 10
54.3266784893
 20
70.7741078215
 10
54.30742292
 20
70.7688015624
 10
54.2907726068
 20
70.76336708959999
 10
54.2769540317
 20
70.75786877289999
 10
54.26592064560001
 20
70.7523109623
 10
54.2575166237
 20
70.7465428258
 10
54.25081006300001
 20
70.74054283239999
 10
54.2120389363
 20
70.7055025178
  0
LWPOLYLINE
  5
1713
330
220
100
AcDbEntity
  8
0
  6
Continuous
 62
     7
100
AcDbPolyline
 90
       14
 70
     0
 43
0.0
 10
55.7714311715
 20
70.68367665450001
 10
55.7217093074
 20
70.68248706449999
 10
55.6724268868
 20
70.6811299552
 10
55.62369181560001
 20
70.679603246
 10
55.57556775430001
 20
70.67790399020001
 10
55.5283221879
 20
70.6760359943
 10
55.4821964352
 20
70.6740058739
 10
55.4372832858
 20
70.6718143664
 10
55.3936954425
 20
70.66946420249999
 10
55.3515915326
 20
70.66696086010001
 10
55.3111377044
 20
70.6643127861
 10
55.2723691098
 20
70.661520576
 10
55.2353436143
 20
70.65858613029999
 10
55.22099621439999
 20
70.65733360119999
  0
LINE
  5
1714
330
220
100
AcDbEntity
  8
0
  6
Continuous
 62
     7
100
AcDbLine
 10
55.60678249449999
 20
70.8647756619
 30
0.0
 11
55.4822118728
 21
70.86197497020001
 31
0.0
  0
LINE
  5
1715
330
220
100
AcDbEntity
  8
0
  6
Continuous
 62
     7
100
AcDbLine
 10
55.8717001703
 20
70.6855592136
 30
0.0
 11
55.7714311715
 21
70.68367665450001
 31
0.0
  0
LINE
  5
1716
330
220
100
AcDbEntity
  8
0
  6
Continuous
 62
     7
100
AcDbLine
 10
55.7729401581
 20
70.8082367128
 30
0.0
 11
55.87282750399999
 21
70.81010290729999
 31
0.0
  0
LINE
  5
1717
330
220
100
AcDbEntity
  8
0
  6
Continuous
 62
     7
100
AcDbLine
 10
55.72668667390001
 20
70.86686450880001
 30
0.0
 11
55.60678249449999
 21
70.8647756619
 31
0.0
  0
LINE
  5
171A
330
220
100
AcDbEntity
  8
0
  6
Continuous
 62
     7
100
AcDbLine
 10
55.8424152329
 20
70.8683420646
 30
0.0
 11
55.72668667390001
 21
70.86686450880001
 31
0.0
  0
LINE
  5
171B
330
220
100
AcDbEntity
  8
0
  6
Continuous
 62
     7
100
AcDbLine
 10
55.97261104859999
 20
70.6867979551
 30
0.0
 11
55.8717001703
 21
70.6855592136
 31
0.0
  0
LINE
  5
171C
330
220
100
AcDbEntity
  8
0
  6
Continuous
 62
     7
100
AcDbLine
 10
55.87282750399999
 20
70.81010290729999
 30
0.0
 11
55.9732837762
 21
70.8113301213
 31
0.0
  0
LINE
  5
171D
330
220
100
AcDbEntity
  8
0
  6
Continuous
 62
     7
100
AcDbLine
 10
55.95520890180001
 20
70.8692891907
 30
0.0
 11
55.8424152329
 21
70.8683420646
 31
0.0
  0
LINE
  5
171E
330
220
100
AcDbEntity
  8
0
  6
Continuous
 62
     7
100
AcDbLine
 10
56.07371443479999
 20
70.6874107035
 30
0.0
 11
55.97261104859999
 21
70.6867979551
 31
0.0
  0
LINE
  5
171F
330
220
100
AcDbEntity
  8
0
  6
Continuous
 62
     7
100
AcDbLine
 10
55.9732837762
 20
70.8113301213
 30
0.0
 11
56.07392987549999
 21
70.811937273
 31
0.0
  0
LINE
  5
1720
330
220
100
AcDbEntity
  8
0
  6
Continuous
 62
     7
100
AcDbLine
 10
56.0661277981
 20
70.8697565775
 30
0.0
 11
55.95520890180001
 21
70.8692891907
 31
0.0
  0
LWPOLYLINE
  5
1721
330
220
100
AcDbEntity
  8
0
  6
Continuous
 62
     7
100
AcDbPolyline
 90
       19
 70
     0
 43
0.0
 10
56.124124293
 20
73.0788333965
 10
56.3974525717
 20
73.07929665899999
 10
56.656586619
 20
73.0806856386
 10
56.9017238526
 20
73.0828089498
 10
57.1323036072
 20
73.085555042
 10
57.3467074276
 20
73.0887844041
 10
57.5482783751
 20
73.0924161142
 10
57.73882584209999
 20
73.09640033810001
 10
57.9213233036
 20
73.1007174409
 10
58.1010239956
 20
73.1054588988
 10
58.2728978493
 20
73.11045091709999
 10
58.4329934235
 20
73.11550729699999
 10
58.58332310419999
 20
73.12061262170001
 10
58.72424129979999
 20
73.1257157439
 10
58.8567715618
 20
73.13079535229999
 10
58.9820002636
 20
73.1358463311
 10
59.1000948627
 20
73.1408332618
 10
59.2113314994
 20
73.14573001540001
 10
59.4161590235
 20
73.1552535023
  0
LINE
  5
1722
330
220
100
AcDbEntity
  8
0
  6
Continuous
 62
     7
100
AcDbLine
 10
56.0661277981
 20
70.8697565775
 30
0.0
 11
56.1821207879
 21
70.8697565775
 31
0.0
  0
LINE
  5
1723
330
220
100
AcDbEntity
  8
0
  6
Continuous
 62
     7
100
AcDbLine
 10
56.1743066178
 20
70.6874113884
 30
0.0
 11
56.07371443479999
 21
70.6874107035
 31
0.0
  0
LINE
  5
1724
330
220
100
AcDbEntity
  8
0
  6
Continuous
 62
     7
100
AcDbLine
 10
56.07392987549999
 20
70.811937273
 30
0.0
 11
56.1745388809
 21
70.81193659330001
 31
0.0
  0
LWPOLYLINE
  5
1725
330
220
100
AcDbEntity
  8
0
  6
Continuous
 62
     7
100
AcDbPolyline
 90
       37
 70
     0
 43
0.0
 10
56.124124293
 20
70.61924398310001
 10
56.07570885680001
 20
70.61933702350001
 10
56.0271478271
 20
70.6196173556
 10
55.9785523192
 20
70.6200868223
 10
55.9299238978
 20
70.6207475504
 10
55.8813183166
 20
70.6216019143
 10
55.83270580629999
 20
70.6226539533
 10
55.7840524089
 20
70.6239098135
 10
55.73547088409999
 20
70.62537218119999
 10
55.6870304826
 20
70.6270454304
 10
55.6388674788
 20
70.6289307257
 10
55.5910579255
 20
70.6310319526
 10
55.54388197819999
 20
70.63334215880001
 10
55.49757840979999
 20
70.63585369560001
 10
55.45231290109999
 20
70.6385597754
 10
55.40826195000001
 20
70.64145150379999
 10
55.3655922718
 20
70.6445183543
 10
55.32446834739999
 20
70.6477477999
 10
55.28501465609999
 20
70.65112855439998
 10
55.2473753453
 20
70.6546454847
 10
55.2115951652
 20
70.6582915977
 10
55.1777373341
 20
70.66205787939999
 10
55.1458746887
 20
70.66593420930001
 10
55.11607836989999
 20
70.66990943189999
 10
55.0883914087
 20
70.67397607770001
 10
55.0628505179
 20
70.67812760390001
 10
55.03954088899999
 20
70.6823497314
 10
55.0185347217
 20
70.6866268431
 10
54.9998483035
 20
70.6909538044
 10
54.9835034731
 20
70.6953252105
 10
54.9695578044
 20
70.6997263259
 10
54.9580529762
 20
70.7041413351
 10
54.948993676
 20
70.7085664534
 10
54.94239193479999
 20
70.7129976006
 10
54.9382752342
 20
70.7174199751
 10
54.9366528338
 20
70.7218182299
 10
54.936624293
 20
70.7224816002
  0
LINE
  5
1726
330
220
100
AcDbEntity
  8
0
  6
Continuous
 62
     7
100
AcDbLine
 10
56.1821207879
 20
70.8697565775
 30
0.0
 11
56.2930396841
 21
70.8692891907
 31
0.0
  0
LINE
  5
1727
330
220
100
AcDbEntity
  8
0
  6
Continuous
 62
     7
100
AcDbLine
 10
56.27495329600001
 20
70.68680418699999
 30
0.0
 11
56.1743066178
 21
70.6874113884
 31
0.0
  0
LINE
  5
1728
330
220
100
AcDbEntity
  8
0
  6
Continuous
 62
     7
100
AcDbLine
 10
56.1745388809
 20
70.81193659330001
 30
0.0
 11
56.2756809509
 21
70.8113236083
 31
0.0
  0
LINE
  5
1729
330
220
100
AcDbEntity
  8
0
  6
Continuous
 62
     7
100
AcDbLine
 10
56.2930396841
 20
70.8692891907
 30
0.0
 11
56.40583335310001
 21
70.8683420646
 31
0.0
  0
LINE
  5
172A
330
220
100
AcDbEntity
  8
0
  6
Continuous
 62
     7
100
AcDbLine
 10
56.3754215663
 20
70.68557659549999
 30
0.0
 11
56.27495329600001
 21
70.68680418699999
 31
0.0
  0
LINE
  5
172B
330
220
100
AcDbEntity
  8
0
  6
Continuous
 62
     7
100
AcDbLine
 10
56.2756809509
 20
70.8113236083
 30
0.0
 11
56.3766477399
 21
70.81008398539999
 31
0.0
  0
LINE
  5
172C
330
220
100
AcDbEntity
  8
0
  6
Continuous
 62
     7
100
AcDbLine
 10
56.40583335310001
 20
70.8683420646
 30
0.0
 11
56.5215619121
 21
70.86686450880001
 31
0.0
  0
LINE
  5
172D
330
220
100
AcDbEntity
  8
0
  6
Continuous
 62
     7
100
AcDbLine
 10
56.5215619121
 20
70.86686450880001
 30
0.0
 11
56.64146609149999
 21
70.8647756619
 31
0.0
  0
LWPOLYLINE
  5
172E
330
220
100
AcDbEntity
  8
0
  6
Continuous
 62
     7
100
AcDbPolyline
 90
       30
 70
     0
 43
0.0
 10
56.3766477399
 20
70.81008398539999
 10
56.4769703296
 20
70.80819996799999
 10
56.52671560569999
 20
70.80700947449999
 10
56.576011381
 20
70.80565158999999
 10
56.6247564783
 20
70.8041241146
 10
56.6728920551
 20
70.80242393649999
 10
56.7201488745
 20
70.80055490300001
 10
56.7662868912
 20
70.7985235583
 10
56.81120900979999
 20
70.796330815
 10
56.8547980708
 20
70.7939796846
 10
56.8968992641
 20
70.7914755126
 10
56.9373575681
 20
70.78882603609999
 10
56.9761105358
 20
70.78603372100001
 10
57.0130796237
 20
70.7831026194
 10
57.0481796408
 20
70.78003769600001
 10
57.0813279936
 20
70.77684472930001
 10
57.11246870850001
 20
70.7735275943
 10
57.1415438147
 20
70.77009068169999
 10
57.1684932724
 20
70.7665392262
 10
57.1932663769
 20
70.76287774939999
 10
57.2157985095
 20
70.75911396630001
 10
57.2360327067
 20
70.7552560262
 10
57.2539380478
 20
70.75130894129999
 10
57.26948694109999
 20
70.74727668680001
 10
57.2826296016
 20
70.74317105770001
 10
57.2933298751
 20
70.73900471189999
 10
57.3015875124
 20
70.7347804769
 10
57.3073944868
 20
70.7305011468
 10
57.3107322226
 20
70.72617919729999
 10
57.311624293
 20
70.72248172630001
  0
LWPOLYLINE
  5
172F
330
220
100
AcDbEntity
  8
0
  6
Continuous
 62
     7
100
AcDbPolyline
 90
       31
 70
     0
 43
0.0
 10
56.64146609149999
 20
70.8647756619
 10
56.76603671319999
 20
70.86197497020001
 10
56.8300529067
 20
70.8602714953
 10
56.89524008380001
 20
70.85834128870001
 10
56.9606965382
 20
70.8561958943
 10
57.0254528214
 20
70.85385619829999
 10
57.0891100555
 20
70.8513309888
 10
57.1511253582
 20
70.8486395219
 10
57.21158856409999
 20
70.8457780904
 10
57.2704538736
 20
70.8427465884
 10
57.3275271947
 20
70.8395530748
 10
57.3827276069
 20
70.8362001441
 10
57.43596024569999
 20
70.8326912417
 10
57.4873167626
 20
70.82901789180001
 10
57.536575946
 20
70.8251924433
 10
57.58359479100001
 20
70.82122416819998
 10
57.62842181749999
 20
70.8171075274
 10
57.6707934637
 20
70.8128638443
 10
57.7108626242
 20
70.8084771022
 10
57.7485459694
 20
70.80395336879999
 10
57.7838113834
 20
70.7992914106
 10
57.8164740041
 20
70.7945135186
 10
57.8467393931
 20
70.7895858847
 10
57.87438955869999
 20
70.78453513869999
 10
57.89931791709999
 20
70.77937925429999
 10
57.9215700966
 20
70.7741078215
 10
57.9408256659
 20
70.7688015624
 10
57.9574759791
 20
70.76336708959999
 10
57.9712945543
 20
70.75786877289999
 10
57.9823279404
 20
70.7523109623
 10
57.9907319622
 20
70.7465428258
  0
LWPOLYLINE
  5
1732
330
220
100
AcDbEntity
  8
0
  6
Continuous
 62
     7
100
AcDbPolyline
 90
       18
 70
     0
 43
0.0
 10
53.04088677300001
 20
73.145551938
 10
53.15226297209999
 20
73.1406560754
 10
53.2704949026
 20
73.135671054
 10
53.3958612141
 20
73.13062294489999
 10
53.52852943600001
 20
73.12554721959999
 10
53.6695895801
 20
73.12044897459999
 10
53.8200932883
 20
73.115348747
 10
53.9803216827
 20
73.1103002098
 10
54.15221653029999
 20
73.10532060119999
 10
54.3318465501
 20
73.10059444140001
 10
54.5141307703
 20
73.0962955107
 10
54.70446503489999
 20
73.09232861640001
 10
54.9060636475
 20
73.08870947549999
 10
55.1203903071
 20
73.0854950466
 10
55.35053336869999
 20
73.08276750640001
 10
55.5948425754
 20
73.08066345020001
 10
55.8526258166
 20
73.07929080699999
 10
56.124124293
 20
73.0788333965
  0
LINE
  5
1733
330
220
100
AcDbEntity
  8
0
  6
Continuous
 62
     7
100
AcDbLine
 10
52.8357909116
 20
73.1550755686
 30
0.0
 11
53.04088677300001
 21
73.145551938
 31
0.0
  0
LINE
  5
1734
330
220
100
AcDbEntity
  8
0
  6
Continuous
 62
     7
100
AcDbLine
 10
52.6497447197
 20
73.16428583549999
 30
0.0
 11
52.8357909116
 21
73.1550755686
 31
0.0
  0
LINE
  5
1735
330
220
100
AcDbEntity
  8
0
  6
Continuous
 62
     7
100
AcDbLine
 10
52.4794495537
 20
73.1731937437
 30
0.0
 11
52.6497447197
 21
73.16428583549999
 31
0.0
  0
LINE
  5
1736
330
220
100
AcDbEntity
  8
0
  6
Continuous
 62
     7
100
AcDbLine
 10
52.3245357043
 20
73.1816941079
 30
0.0
 11
52.4794495537
 21
73.1731937437
 31
0.0
  0
LINE
  5
1737
330
220
100
AcDbEntity
  8
0
  6
Continuous
 62
     7
100
AcDbLine
 10
52.1191299778
 20
73.19354926569999
 30
0.0
 11
52.3245357043
 21
73.1816941079
 31
0.0
  0
LINE
  5
1738
330
220
100
AcDbEntity
  8
0
  6
Continuous
 62
     7
100
AcDbLine
 10
51.8869970518
 20
73.2077500531
 30
0.0
 11
52.1191299778
 21
73.19354926569999
 31
0.0
  0
LINE
  5
1739
330
220
100
AcDbEntity
  8
0
  6
Continuous
 62
     7
100
AcDbLine
 10
51.6440273806
 20
73.223528015
 30
0.0
 11
51.8869970518
 21
73.2077500531
 31
0.0
  0
LINE
  5
173B
330
220
100
AcDbEntity
  8
0
  6
Continuous
 62
     7
100
AcDbLine
 10
51.3498235602
 20
73.24388680930001
 30
0.0
 11
51.6440273806
 21
73.223528015
 31
0.0
  0
LINE
  5
173D
330
220
100
AcDbEntity
  8
0
  6
Continuous
 62
     7
100
AcDbLine
 10
51.04686623479999
 20
73.2662892891
 30
0.0
 11
51.3498235602
 21
73.24388680930001
 31
0.0
  0
LINE
  5
173E
330
220
100
AcDbEntity
  8
0
  6
Continuous
 62
     7
100
AcDbLine
 10
50.7476358478
 20
73.2898528579
 30
0.0
 11
51.04686623479999
 21
73.2662892891
 31
0.0
  0
LINE
  5
173F
330
220
100
AcDbEntity
  8
0
  6
Continuous
 62
     7
100
AcDbLine
 10
50.4659587952
 20
73.3133244932
 30
0.0
 11
50.7476358478
 21
73.2898528579
 31
0.0
  0
LWPOLYLINE
  5
1740
330
220
100
AcDbEntity
  8
0
  6
Continuous
 62
     7
100
AcDbPolyline
 90
       15
 70
     0
 43
0.0
 10
57.0272360904
 20
70.6573342219
 10
57.0117529535
 20
70.65868178609999
 10
56.9746225424
 20
70.66161537890001
 10
56.9357284487
 20
70.66440755569999
 10
56.89514579529999
 20
70.6670549859
 10
56.85292511260001
 20
70.6695562324
 10
56.80923457310001
 20
70.67190298979999
 10
56.7642367766
 20
70.6740898721
 10
56.7180559358
 20
70.6761138958
 10
56.6707991213
 20
70.67797419289999
 10
56.6227064294
 20
70.6796646968
 10
56.5740510785
 20
70.6811818929
 10
56.5248869892
 20
70.6825294415
 10
56.47531278899999
 20
70.68370992600001
 10
56.3754215663
 20
70.68557659549999
  0
LINE
  5
1741
330
220
100
AcDbEntity
  8
0
  6
Continuous
 62
     7
100
AcDbLine
 10
50.17393026709999
 20
73.3389853674
 30
0.0
 11
50.4659587952
 21
73.3133244932
 31
0.0
  0
LINE
  5
1742
330
220
100
AcDbEntity
  8
0
  6
Continuous
 62
     7
100
AcDbLine
 10
49.9853631674
 20
73.35628595760001
 30
0.0
 11
50.17393026709999
 21
73.3389853674
 31
0.0
  0
LINE
  5
1743
330
220
100
AcDbEntity
  8
0
  6
Continuous
 62
     7
100
AcDbLine
 10
49.8103634924
 20
73.3728642503
 30
0.0
 11
49.9853631674
 21
73.35628595760001
 31
0.0
  0
LINE
  5
1744
330
220
100
AcDbEntity
  8
0
  6
Continuous
 62
     7
100
AcDbLine
 10
49.60371955279999
 20
73.393097838
 30
0.0
 11
49.8103634924
 21
73.3728642503
 31
0.0
  0
LINE
  5
1745
330
220
100
AcDbEntity
  8
0
  6
Continuous
 62
     7
100
AcDbLine
 10
49.4467991032
 20
73.40894475739999
 30
0.0
 11
49.60371955279999
 21
73.393097838
 31
0.0
  0
LINE
  5
1746
330
220
100
AcDbEntity
  8
0
  6
Continuous
 62
     7
100
AcDbLine
 10
49.2732932918
 20
73.4269537762
 30
0.0
 11
49.4467991032
 21
73.40894475739999
 31
0.0
  0
LWPOLYLINE
  5
174B
330
220
100
AcDbEntity
  8
0
  6
Continuous
 62
     7
100
AcDbPolyline
 90
       28
 70
     0
 43
0.0
 10
45.46031211259999
 20
73.95600950089999
 10
45.5634241367
 20
73.9382253622
 10
45.6716956471
 20
73.919767579
 10
45.785336521
 20
73.9006317938
 10
45.90456033159999
 20
73.88081612319999
 10
46.0295738638
 20
73.8603231483
 10
46.1606087456
 20
73.8391548382
 10
46.2979867856
 20
73.8173028291
 10
46.44164558449999
 20
73.7948233741
 10
46.5916548203
 20
73.7717538075
 10
46.747940185
 20
73.7481556699
 10
46.9107725402
 20
73.7240406283
 10
47.07918506579999
 20
73.6996032209
 10
47.253412523
 20
73.67485854609999
 10
47.43011570100001
 20
73.65031690790001
 10
47.6072621839
 20
73.62627110529999
 10
47.7811494093
 20
73.6032078228
 10
47.94765694739999
 20
73.58162204670001
 10
48.10598722399999
 20
73.56154683549999
 10
48.25325537699999
 20
73.5432669786
 10
48.39159870100001
 20
73.5264386947
 10
48.5219011284
 20
73.51089232539999
 10
48.6450456412
 20
73.49647004880001
 10
48.76200354739999
 20
73.4830148203
 10
48.8733993912
 20
73.4704185514
 10
48.98021486840001
 20
73.4585405606
 10
49.082353431
 20
73.4473656747
 10
49.2732932918
 20
73.4269537762
  0
LINE
  5
174C
330
220
100
AcDbEntity
  8
0
  6
Continuous
 62
     7
100
AcDbLine
 10
45.2687247972
 20
73.9895893962
 30
0.0
 11
45.46031211259999
 21
73.95600950089999
 31
0.0
  0
LINE
  5
174D
330
220
100
AcDbEntity
  8
0
  6
Continuous
 62
     7
100
AcDbLine
 10
45.0952445908
 20
74.0206002721
 30
0.0
 11
45.2687247972
 21
73.9895893962
 31
0.0
  0
LINE
  5
174E
330
220
100
AcDbEntity
  8
0
  6
Continuous
 62
     7
100
AcDbLine
 10
44.9381272772
 20
74.04918517289999
 30
0.0
 11
45.0952445908
 21
74.0206002721
 31
0.0
  0
LINE
  5
174F
330
220
100
AcDbEntity
  8
0
  6
Continuous
 62
     7
100
AcDbLine
 10
44.79560480189999
 20
74.0755274073
 30
0.0
 11
44.9381272772
 21
74.04918517289999
 31
0.0
  0
LINE
  5
1750
330
220
100
AcDbEntity
  8
0
  6
Continuous
 62
     7
100
AcDbLine
 10
44.60559096569999
 20
74.111261597
 30
0.0
 11
44.79560480189999
 21
74.0755274073
 31
0.0
  0
LINE
  5
1751
330
220
100
AcDbEntity
  8
0
  6
Continuous
 62
     7
100
AcDbLine
 10
44.3901512739
 20
74.1526356861
 30
0.0
 11
44.60559096569999
 21
74.111261597
 31
0.0
  0
LINE
  5
1752
330
220
100
AcDbEntity
  8
0
  6
Continuous
 62
     7
100
AcDbLine
 10
44.1322386459
 20
74.2033876073
 30
0.0
 11
44.3901512739
 21
74.1526356861
 31
0.0
  0
LINE
  5
1753
330
220
100
AcDbEntity
  8
0
  6
Continuous
 62
     7
100
AcDbLine
 10
43.8727127284
 20
74.25578594699999
 30
0.0
 11
44.1322386459
 21
74.2033876073
 31
0.0
  0
LINE
  5
1754
330
220
100
AcDbEntity
  8
0
  6
Continuous
 62
     7
100
AcDbLine
 10
43.6657271312
 20
74.2985414554
 30
0.0
 11
43.8727127284
 21
74.25578594699999
 31
0.0
  0
LINE
  5
1755
330
220
100
AcDbEntity
  8
0
  6
Continuous
 62
     7
100
AcDbLine
 10
43.5499986612
 20
74.3229488609
 30
0.0
 11
43.6657271312
 21
74.2985414554
 31
0.0
  0
LINE
  5
1756
330
220
100
AcDbEntity
  8
0
  6
Continuous
 62
     7
100
AcDbLine
 10
43.49582312289999
 20
74.33467151100001
 30
0.0
 11
43.5499986612
 21
74.3229488609
 31
0.0
  0
LINE
  5
1757
330
220
100
AcDbEntity
  8
0
  6
Continuous
 62
     7
100
AcDbLine
 10
43.44739264109999
 20
74.3454059148
 30
0.0
 11
43.49582312289999
 21
74.33467151100001
 31
0.0
  0
LINE
  5
1758
330
220
100
AcDbEntity
  8
0
  6
Continuous
 62
     7
100
AcDbLine
 10
43.41165355890001
 20
74.35351058310001
 30
0.0
 11
43.44739264109999
 21
74.3454059148
 31
0.0
  0
LINE
  5
1759
330
220
100
AcDbEntity
  8
0
  6
Continuous
 62
     7
100
AcDbLine
 10
43.3750137068
 20
74.3620009301
 30
0.0
 11
43.41165355890001
 21
74.35351058310001
 31
0.0
  0
LINE
  5
175A
330
220
100
AcDbEntity
  8
0
  6
Continuous
 62
     7
100
AcDbLine
 10
43.3276235874
 20
74.373209124
 30
0.0
 11
43.3750137068
 21
74.3620009301
 31
0.0
  0
LINE
  5
175B
330
220
100
AcDbEntity
  8
0
  6
Continuous
 62
     7
100
AcDbLine
 10
43.2770880304
 20
74.3854176894
 30
0.0
 11
43.3276235874
 21
74.373209124
 31
0.0
  0
LINE
  5
175C
330
220
100
AcDbEntity
  8
0
  6
Continuous
 62
     7
100
AcDbLine
 10
43.2257180567
 20
74.3980968952
 30
0.0
 11
43.2770880304
 21
74.3854176894
 31
0.0
  0
LINE
  5
175D
330
220
100
AcDbEntity
  8
0
  6
Continuous
 62
     7
100
AcDbLine
 10
43.1797136114
 20
74.4096799187
 30
0.0
 11
43.2257180567
 21
74.3980968952
 31
0.0
  0
LINE
  5
175E
330
220
100
AcDbEntity
  8
0
  6
Continuous
 62
     7
100
AcDbLine
 10
43.12581498189999
 20
74.42352217859999
 30
0.0
 11
43.1797136114
 21
74.4096799187
 31
0.0
  0
LINE
  5
175F
330
220
100
AcDbEntity
  8
0
  6
Continuous
 62
     7
100
AcDbLine
 10
43.06213078329999
 20
74.4402514179
 30
0.0
 11
43.12581498189999
 21
74.42352217859999
 31
0.0
  0
LINE
  5
1760
330
220
100
AcDbEntity
  8
0
  6
Continuous
 62
     7
100
AcDbLine
 10
43.01377271229999
 20
74.4532218913
 30
0.0
 11
43.06213078329999
 21
74.4402514179
 31
0.0
  0
LINE
  5
1761
330
220
100
AcDbEntity
  8
0
  6
Continuous
 62
     7
100
AcDbLine
 10
42.9606299979
 20
74.46774160470001
 30
0.0
 11
43.01377271229999
 21
74.4532218913
 31
0.0
  0
LINE
  5
1762
330
220
100
AcDbEntity
  8
0
  6
Continuous
 62
     7
100
AcDbLine
 10
42.9021381456
 20
74.4840516287
 30
0.0
 11
42.9606299979
 21
74.46774160470001
 31
0.0
  0
LINE
  5
1763
330
220
100
AcDbEntity
  8
0
  6
Continuous
 62
     7
100
AcDbLine
 10
42.8372958367
 20
74.5025427752
 30
0.0
 11
42.9021381456
 21
74.4840516287
 31
0.0
  0
LINE
  5
1764
330
220
100
AcDbEntity
  8
0
  6
Continuous
 62
     7
100
AcDbLine
 10
42.7651150765
 20
74.52363948109999
 30
0.0
 11
42.8372958367
 21
74.5025427752
 31
0.0
  0
LINE
  5
17CD
330
220
100
AcDbEntity
  8
0
  6
Continuous
 62
     7
100
AcDbLine
 10
57.9907319622
 20
70.7465428258
 30
0.0
 11
58.00423081899999
 21
70.7344178611
 31
0.0
  0
LINE
  5
17CE
330
220
100
AcDbEntity
  8
0
  6
Continuous
 62
     7
100
AcDbLine
 10
58.00423081899999
 20
70.7344178611
 30
0.0
 11
58.0627186859
 21
70.681444235
 31
0.0
  0
LINE
  5
17CF
330
220
100
AcDbEntity
  8
0
  6
Continuous
 62
     7
100
AcDbLine
 10
58.0627186859
 20
70.681444235
 30
0.0
 11
58.0875546051
 21
70.6587451557
 31
0.0
  0
LINE
  5
17D0
330
220
100
AcDbEntity
  8
0
  6
Continuous
 62
     7
100
AcDbLine
 10
58.0875546051
 20
70.6587451557
 30
0.0
 11
58.1044855798
 21
70.64313249
 31
0.0
  0
LINE
  5
17D1
330
220
100
AcDbEntity
  8
0
  6
Continuous
 62
     7
100
AcDbLine
 10
58.1044855798
 20
70.64313249
 30
0.0
 11
58.1196192742
 21
70.6290397029
 31
0.0
  0
LWPOLYLINE
  5
17D2
330
220
100
AcDbEntity
  8
0
  6
Continuous
 62
     7
100
AcDbPolyline
 90
       18
 70
     0
 43
0.0
 10
58.1196192742
 20
70.6290397029
 10
58.1350332646
 20
70.6144981129
 10
58.14315686689999
 20
70.60673119010001
 10
58.1510905182
 20
70.5990555077
 10
58.15848380609999
 20
70.59180010590001
 10
58.16559448020001
 20
70.58470336970001
 10
58.1721099683
 20
70.57806950539999
 10
58.17826639899999
 20
70.57165118479999
 10
58.1840034632
 20
70.5654993688
 10
58.18932819810001
 20
70.5596048624
 10
58.194553598
 20
70.55360561659999
 10
58.1994693443
 20
70.5477174561
 10
58.20414585069999
 20
70.54183175909999
 10
58.2085489967
 20
70.5359615478
 10
58.2126708722
 20
70.5300984909
 10
58.2168491162
 20
70.5237098629
 10
58.221217152
 20
70.51648354300001
 10
58.2256838328
 20
70.5086367694
  0
LINE
  5
17E0
330
220
100
AcDbEntity
  8
DEFAULT_1
  6
CENTER
 62
     7
100
AcDbLine
 10
56.124124293
 20
77.5792959045
 30
0.0
 11
55.0573576263
 21
77.5792959045
 31
0.0
  0
LINE
  5
17E1
330
220
100
AcDbEntity
  8
DEFAULT_1
  6
CENTER
 62
     7
100
AcDbLine
 10
56.124124293
 20
77.5792959045
 30
0.0
 11
57.1908909596
 21
77.5792959045
 31
0.0
  0
LWPOLYLINE
  5
17EB
330
220
100
AcDbEntity
  8
0
  6
Continuous
 62
     7
100
AcDbPolyline
 90
       41
 70
     0
 43
0.0
 10
56.124124293
 20
79.55187180919999
 10
56.0474001133
 20
79.5503816129
 10
55.97078248959999
 20
79.54591567459999
 10
55.8943948049
 20
79.5384778172
 10
55.81835368770001
 20
79.5280809872
 10
55.7427774082
 20
79.51474021979999
 10
55.6677803872
 20
79.4984770886
 10
55.593477356
 20
79.4793158237
 10
55.51997911229999
 20
79.4572864391
 10
55.4473944217
 20
79.4324207954
 10
55.3758355688
 20
79.4047581977
 10
55.3054120608
 20
79.37434106729999
 10
55.2362292426
 20
79.34121564199999
 10
55.16839065430001
 20
79.3054319682
 10
55.1019979597
 20
79.2670440681
 10
55.037140868
 20
79.2261035099
 10
54.9739439108
 20
79.1826895802
 10
54.9125135642
 20
79.1368770272
 10
54.852964789
 20
79.0887686449
 10
54.7954535965
 20
79.0384877817
 10
54.7399309656
 20
78.9860368977
 10
54.68635292640001
 20
78.93132847629999
 10
54.6349277263
 20
78.8745375096
 10
54.5858068216
 20
78.8158690783
 10
54.53901025949999
 20
78.7553483792
 10
54.494582325
 20
78.6930290802
 10
54.4526051963
 20
78.62902491779999
 10
54.4131488577
 20
78.5634407191
 10
54.37626976869999
 20
78.49637312049999
 10
54.3420244144
 20
78.4279222528
 10
54.31046347529999
 20
78.3581922816
 10
54.2816353871
 20
78.28728631629999
 10
54.25558411729999
 20
78.2153157203
 10
54.23235115669999
 20
78.14239275680001
 10
54.21196994359999
 20
78.0686258896
 10
54.1944712335
 20
77.994125733
 10
54.17988132859999
 20
77.9190057702
 10
54.1682219239
 20
77.8433750703
 10
54.15951142459999
 20
77.76736248529999
 10
54.1537606117
 20
77.6910967224
 10
54.1509830241
 20
77.61468853630001
  0
LINE
  5
17EC
330
220
100
AcDbEntity
  8
DEFAULT_1
  6
CENTER
 62
     7
100
AcDbLine
 10
56.124124293
 20
80.8292959045
 30
0.0
 11
53.9324576263
 21
80.8292959045
 31
0.0
  0
LINE
  5
17ED
330
220
100
AcDbEntity
  8
DEFAULT_1
  6
CENTER
 62
     7
100
AcDbLine
 10
56.124124293
 20
80.8292959045
 30
0.0
 11
58.3157909596
 21
80.8292959045
 31
0.0
  0
LWPOLYLINE
  5
17F0
330
220
100
AcDbEntity
  8
0
  6
Continuous
 62
     7
100
AcDbPolyline
 90
       74
 70
     0
 43
0.0
 10
58.61707806560001
 20
70.9418443487
 10
58.6159283267
 20
70.9438685466
 10
58.61476217119999
 20
70.94588722500001
 10
58.6135675687
 20
70.9478990301
 10
58.6123361158
 20
70.9498945376
 10
58.6110594226
 20
70.9518827363
 10
58.60973112629999
 20
70.95386295549999
 10
58.60833678409999
 20
70.9558547509
 10
58.6068689613
 20
70.9578700644
 10
58.6053003471
 20
70.95993106989999
 10
58.6036162078
 20
70.9620543094
 10
58.6017715276
 20
70.9642686273
 10
58.5997329944
 20
70.9666000058
 10
58.5974510525
 20
70.96907358840001
 10
58.59487978819999
 20
70.971720562
 10
58.591975403
 20
70.97454880339999
 10
58.5886800481
 20
70.9775855059
 10
58.5849905006
 20
70.980803947
 10
58.58085723600001
 20
70.98421102669999
 10
58.5763616195
 20
70.9877331088
 10
58.5715531615
 20
70.99130816270001
 10
58.56647731319999
 20
70.9949082599
 10
58.56120708729999
 20
70.9984765545
 10
58.55570865709999
 20
71.00203774159999
 10
58.549989865
 20
71.00558928259999
 10
58.5439988176
 20
71.00915605129999
 10
58.5377173494
 20
71.0127491929
 10
58.53105265109999
 20
71.0164074118
 10
58.5239418214
 20
71.0201627248
 10
58.51627811850001
 20
71.0240464641
 10
58.5079773371
 20
71.0280921001
 10
58.4989105978
 20
71.03232543909999
 10
58.48895318979999
 20
71.03678435339999
 10
58.47801065479999
 20
71.0414664408
 10
58.46597496720001
 20
71.046384813
 10
58.452764328
 20
71.0515312136
 10
58.4383204747
 20
71.0568975736
 10
58.42246692479999
 20
71.0624969522
 10
58.4050796729
 20
71.06833386439999
 10
58.3859467305
 20
71.07442675520001
 10
58.36489556770001
 20
71.0807942926
 10
58.34168925229999
 20
71.08744169819999
 10
58.316150171
 20
71.0943754499
 10
58.2879346772
 20
71.10161248
 10
58.2568290055
 20
71.1091692711
 10
58.22227610199999
 20
71.11705696029999
 10
58.1837778723
 20
71.1253064237
 10
58.1409597535
 20
71.13388097880001
 10
58.09309806939999
 20
71.1428205121
 10
58.04075628939999
 20
71.1519339562
 10
57.9839369057
 20
71.16109843210001
 10
57.9235817351
 20
71.17015068419999
 10
57.8606475837
 20
71.1788735886
 10
57.7950512068
 20
71.1872987613
 10
57.72696171319999
 20
71.19539014299999
 10
57.6565660273
 20
71.20313246010001
 10
57.5840586945
 20
71.21050097449999
 10
57.5095740837
 20
71.21748608029999
 10
57.4333135275
 20
71.2240675914
 10
57.35526083819999
 20
71.2302506062
 10
57.2754678138
 20
71.23603373139999
 10
57.1939267509
 20
71.241416156
 10
57.11066042310001
 20
71.24639681159999
 10
57.02562474649999
 20
71.2509755082
 10
56.93865950359999
 20
71.2551578328
 10
56.8501319165
 20
71.25892653390001
 10
56.760191378
 20
71.2622680895
 10
56.66932135939999
 20
71.26517193859999
 10
56.577953727
 20
71.2676186702
 10
56.48638299249999
 20
71.26961191319999
 10
56.3949683623
 20
71.2711436854
 10
56.3039435856
 20
71.27222130310001
 10
56.2137140117
 20
71.2728484589
 10
56.124124293
 20
71.2730214405
  0
LINE
  5
17F1
330
220
100
AcDbEntity
  8
0
  6
Continuous
 62
     7
100
AcDbLine
 10
58.6518794914
 20
70.87995071379999
 30
0.0
 11
58.64234237189999
 21
70.8968986559
 31
0.0
  0
LINE
  5
17F2
330
220
100
AcDbEntity
  8
0
  6
Continuous
 62
     7
100
AcDbLine
 10
58.64234237189999
 20
70.8968986559
 30
0.0
 11
58.64022567600001
 21
70.90066075260001
 31
0.0
  0
LINE
  5
17F3
330
220
100
AcDbEntity
  8
0
  6
Continuous
 62
     7
100
AcDbLine
 10
58.8527169684
 20
70.5230196064
 30
0.0
 11
58.6518794914
 21
70.87995071379999
 31
0.0
  0
LWPOLYLINE
  5
17F4
330
220
100
AcDbEntity
  8
0
  6
Continuous
 62
     7
100
AcDbPolyline
 90
        3
 70
     0
 43
0.0
 10
58.64022567600001
 20
70.90066075260001
 10
58.6362600555
 20
70.90771036149999
 10
58.6343994013
 20
70.9110187208
  0
LINE
  5
17F5
330
220
100
AcDbEntity
  8
0
  6
Continuous
 62
     7
100
AcDbLine
 10
58.6343994013
 20
70.9110187208
 30
0.0
 11
58.63091981170001
 21
70.91720707890001
 31
0.0
  0
LINE
  5
17F6
330
220
100
AcDbEntity
  8
0
  6
Continuous
 62
     7
100
AcDbLine
 10
58.63091981170001
 20
70.91720707890001
 30
0.0
 11
58.61707806560001
 21
70.9418443487
 31
0.0
  0
LWPOLYLINE
  5
17F7
330
220
100
AcDbEntity
  8
0
  6
Continuous
 62
     7
100
AcDbPolyline
 90
       41
 70
     0
 43
0.0
 10
54.1506979038
 20
77.57944794380001
 10
54.1522905809
 20
77.5018949128
 10
54.1569122655
 20
77.4244773708
 10
54.16457876369999
 20
77.34731080749999
 10
54.1752663016
 20
77.2705226344
 10
54.1889592449
 20
77.19424037979999
 10
54.2056316773
 20
77.1185752424
 10
54.22526266550001
 20
77.04363734330001
 10
54.2478135412
 20
76.969551
 10
54.2732525692
 20
76.8964339791
 10
54.3015283939
 20
76.8244041554
 10
54.3326020954
 20
76.7535787625
 10
54.3664095943
 20
76.6840676266
 10
54.4029121958
 20
76.6159755297
 10
54.44201841379999
 20
76.54943075670001
 10
54.4836714136
 20
76.4845563216
 10
54.527759351
 20
76.4214668245
 10
54.5741014653
 20
76.3604449835
 10
54.62291240929999
 20
76.3011118288
 10
54.67474050979999
 20
76.2429453092
 10
54.7289241463
 20
76.18697677899999
 10
54.7846617562
 20
76.13374504380001
 10
54.8422593983
 20
76.0828422315
 10
54.9019185605
 20
76.0342072509
 10
54.9633981932
 20
75.98801148639999
 10
55.0265146537
 20
75.9443660466
 10
55.09128869859999
 20
75.9032620041
 10
55.1577298988
 20
75.86467462049999
 10
55.225743535
 20
75.82871027020001
 10
55.2951640883
 20
75.7954117493
 10
55.3660760242
 20
75.7648061611
 10
55.438447345
 20
75.73686631930001
 10
55.5122130578
 20
75.71171593779999
 10
55.5871686895
 20
75.6893783732
 10
55.6631161888
 20
75.6699776506
 10
55.73950265939999
 20
75.6535977983
 10
55.81636661600001
 20
75.6402091244
 10
55.89337599140001
 20
75.6298516489
 10
55.9704778642
 20
75.62246051310001
 10
56.04765181739999
 20
75.61808895670001
 10
56.124124293
 20
75.6166010844
  0
LINE
  5
17F9
330
220
100
AcDbEntity
  8
0
  6
Continuous
 62
     7
100
AcDbLine
 10
56.1241231729
 20
70.8698190212
 30
0.0
 11
56.1241238064
 21
70.81201264749999
 31
0.0
  0
LINE
  5
17FA
330
220
100
AcDbEntity
  8
DEFAULT_1
  6
CENTER
 62
     7
100
AcDbLine
 10
56.124124293
 20
84.07929590450001
 30
0.0
 11
56.124124293
 21
79.55187180919999
 31
0.0
  0
LINE
  5
17FB
330
220
100
AcDbEntity
  8
DEFAULT_1
  6
CENTER
 62
     7
100
AcDbLine
 10
56.1241238064
 20
70.81201264749999
 30
0.0
 11
56.124124293
 21
66.1233107833
 31
0.0
  0
LINE
  5
17FC
330
220
100
AcDbEntity
  8
DEFAULT_1
  6
CENTER
 62
     7
100
AcDbLine
 10
56.124124293
 20
75.28090262860001
 30
0.0
 11
56.1241231729
 21
70.8698190212
 31
0.0
  0
LINE
  5
17FD
330
220
100
AcDbEntity
  8
DEFAULT_1
  6
CENTER
 62
     7
100
AcDbLine
 10
56.124124293
 20
79.3852424105
 30
0.0
 11
56.124124293
 21
75.7666626238
 31
0.0
  0
LINE
  5
17FE
330
220
100
AcDbEntity
  8
DEFAULT_1
  6
CENTER
 62
     7
100
AcDbLine
 10
56.124124293
 20
66.0792959045
 30
0.0
 11
56.124124293
 21
62.9871821995
 31
0.0
  0
LINE
  5
17FF
330
220
100
AcDbEntity
  8
0
  6
Continuous
 62
     7
100
AcDbLine
 10
56.124124293
 20
66.1233107833
 30
0.0
 11
56.124124293
 21
66.0792959045
 31
0.0
  0
LINE
  5
1800
330
220
100
AcDbEntity
  8
0
  6
Continuous
 62
     7
100
AcDbLine
 10
56.124124293
 20
75.28090262860001
 30
0.0
 11
56.124124293
 21
75.7666626238
 31
0.0
  0
LINE
  5
1801
330
220
100
AcDbEntity
  8
0
  6
Continuous
 62
     7
100
AcDbLine
 10
56.124124293
 20
79.3852424105
 30
0.0
 11
56.124124293
 21
79.55187180919999
 31
0.0
  0
LINE
  5
1802
330
220
100
AcDbEntity
  8
0
  6
Continuous
 62
     7
100
AcDbLine
 10
56.124124293
 20
97.6709114642
 30
0.0
 11
56.124124293
 21
97.69540469729999
 31
0.0
  0
LINE
  5
1803
330
220
100
AcDbEntity
  8
0
  6
Continuous
 62
     7
100
AcDbLine
 10
56.124124293
 20
102.0352810257
 30
0.0
 11
56.124124293
 21
102.0792959045
 31
0.0
  0
LINE
  5
1804
330
220
100
AcDbEntity
  8
DEFAULT_1
  6
CENTER
 62
     7
100
AcDbLine
 10
56.124124293
 20
84.07929590450001
 30
0.0
 11
56.124124293
 21
97.6709114642
 31
0.0
  0
LINE
  5
1805
330
220
100
AcDbEntity
  8
DEFAULT_1
  6
CENTER
 62
     7
100
AcDbLine
 10
56.124124293
 20
97.69540469729999
 30
0.0
 11
56.124124293
 21
102.0352810257
 31
0.0
  0
LINE
  5
1806
330
220
100
AcDbEntity
  8
DEFAULT_1
  6
CENTER
 62
     7
100
AcDbLine
 10
56.124124293
 20
102.0792959045
 30
0.0
 11
56.124124293
 21
105.1714096095
 31
0.0
  0
LWPOLYLINE
  5
1807
330
220
100
AcDbEntity
  8
0
  6
Continuous
 62
     7
100
AcDbPolyline
 90
        5
 70
     0
 43
0.0
 10
54.1509830241
 20
77.61468853630001
 10
54.15085283839999
 20
77.6058734627
 10
54.1507619427
 20
77.59706152939999
 10
54.1507103077
 20
77.58825295140001
 10
54.1506979038
 20
77.57944794380001
  0
LINE
  5
180C
330
220
100
AcDbEntity
  8
DEFAULT_1
  6
CENTER
 62
     7
100
AcDbLine
 10
56.124124293
 20
84.07929590450001
 30
0.0
 11
20.7523259669
 21
84.07929590450001
 31
0.0
  0
LINE
  5
180D
330
220
100
AcDbEntity
  8
DEFAULT_1
  6
CENTER
 62
     7
100
AcDbLine
 10
56.124124293
 20
84.07929590450001
 30
0.0
 11
89.08868502049999
 21
84.07929590450001
 31
0.0
  0
LINE
  5
180E
330
220
100
AcDbEntity
  8
DEFAULT_1
  6
CENTER
 62
     7
100
AcDbLine
 10
89.12412429299999
 20
84.07929590450001
 30
0.0
 11
91.75215110729999
 21
84.07929590450001
 31
0.0
  0
LINE
  5
180F
330
220
100
AcDbEntity
  8
0
  6
Continuous
 62
     7
100
AcDbLine
 10
89.08868502049999
 20
84.07929590450001
 30
0.0
 11
89.12412429299999
 21
84.07929590450001
 31
0.0
  0
LWPOLYLINE
  5
1813
330
220
100
AcDbEntity
  8
0
  6
Continuous
 62
     7
100
AcDbPolyline
 90
       41
 70
     0
 43
0.0
 10
58.0972655619
 20
77.61468853630001
 10
58.0944876859
 20
77.6911018872
 10
58.08873617439999
 20
77.76737287909999
 10
58.0800245531
 20
77.8433907708
 10
58.0683636103
 20
77.91902671549999
 10
58.05377180149999
 20
77.9941516123
 10
58.03627075899999
 20
78.0686567449
 10
58.0158865965
 20
78.14242919520001
 10
57.99265028859999
 20
78.21535740819999
 10
57.9665958544
 20
78.28733146080001
 10
57.9377640276
 20
78.3582413787
 10
57.9061976168
 20
78.4279780139
 10
57.8719455661
 20
78.49643647349999
 10
57.8350585191
 20
78.5635123351
 10
57.7955941079
 20
78.6291033378
 10
57.75361156609999
 20
78.6931090219
 10
57.7091774636
 20
78.7554303297
 10
57.6623641401
 20
78.81596561479999
 10
57.6132348745
 20
78.87463623640001
 10
57.5618349955
 20
78.93139282079999
 10
57.5083015234
 20
78.98605270979999
 10
57.4528442956
 20
79.0384429999
 10
57.3953878287
 20
79.0886811984
 10
57.33583021640001
 20
79.13680311350001
 10
57.2743732455
 20
79.1826404862
 10
57.2111729578
 20
79.2260605339
 10
57.14631652489999
 20
79.2670042367
 10
57.0799207828
 20
79.30539723709999
 10
57.0120783228
 20
79.34118597939999
 10
56.9428911114
 20
79.3743162207
 10
56.8724629117
 20
79.4047377867
 10
56.8008994885
 20
79.43240427780001
 10
56.7283101702
 20
79.4572733741
 10
56.65480719529999
 20
79.47930580010001
 10
56.58049932529999
 20
79.498469703
 10
56.5054973585
 20
79.51473507189999
 10
56.42991595499999
 20
79.5280776897
 10
56.35386933479999
 20
79.53847599689999
 10
56.277476147
 20
79.5459148936
 10
56.20085336479999
 20
79.55038142399999
 10
56.124124293
 20
79.55187180919999
  0
LINE
  5
1814
330
220
100
AcDbEntity
  8
0
  6
Continuous
 62
     7
100
AcDbLine
 10
58.0972655619
 20
77.61468853630001
 30
0.0
 11
58.0974304255
 21
77.60293568279999
 31
0.0
  0
LINE
  5
1815
330
220
100
AcDbEntity
  8
0
  6
Continuous
 62
     7
100
AcDbLine
 10
58.0974304255
 20
77.60293568279999
 30
0.0
 11
58.0975254131
 21
77.59118871600001
 31
0.0
  0
LINE
  5
1816
330
220
100
AcDbEntity
  8
0
  6
Continuous
 62
     7
100
AcDbLine
 10
58.0975254131
 20
77.59118871600001
 30
0.0
 11
58.0975506821
 21
77.57944794380001
 31
0.0
  0
LWPOLYLINE
  5
1818
330
220
100
AcDbEntity
  8
0
  6
Continuous
 62
     7
100
AcDbPolyline
 90
       41
 70
     0
 43
0.0
 10
58.0975506821
 20
77.57944794380001
 10
58.0959585922
 20
77.50190883070001
 10
58.0913386479
 20
77.42450638200001
 10
58.0836752405
 20
77.34735632759999
 10
58.07299219189999
 20
77.2705850458
 10
58.0593050251
 20
77.19431897459999
 10
58.0426396776
 20
77.1186697479
 10
58.0230170964
 20
77.043747529
 10
58.0004760041
 20
76.9696767058
 10
57.9750483493
 20
76.89657544790001
 10
57.9467851745
 20
76.8245606164
 10
57.9157249508
 20
76.7537485112
 10
57.8819318113
 20
76.68424934009999
 10
57.845444199
 20
76.61616749779999
 10
57.8063542092
 20
76.54963262709999
 10
57.76471986829999
 20
76.4847693465
 10
57.7206521675
 20
76.4216905386
 10
57.6743295236
 20
76.3606754913
 10
57.6255422822
 20
76.30135234179999
 10
57.573753388
 20
76.24321047630001
 10
57.5196094764
 20
76.18726051819999
 10
57.4638895368
 20
76.13402320849999
 10
57.4063050346
 20
76.0831102325
 10
57.3466724246
 20
76.034475434
 10
57.2852213918
 20
75.9882790608
 10
57.22212634069999
 20
75.94462613880001
 10
57.15737204669999
 20
75.90351238149999
 10
57.0909518836
 20
75.8649149012
 10
57.02296143819999
 20
75.82894033489999
 10
56.9535694835
 20
75.7956327638
 10
56.8826882652
 20
75.76501698220001
 10
56.8103476809
 20
75.73706497669999
 10
56.73660923699999
 20
75.71189926640001
 10
56.66166898350001
 20
75.68954137670001
 10
56.58573355499999
 20
75.6701189434
 10
56.5093625208
 20
75.6537176432
 10
56.4325184102
 20
75.6403074383
 10
56.3555858702
 20
75.62993211990001
 10
56.2784705058
 20
75.6225140835
 10
56.2010429727
 20
75.6181095532
 10
56.124124293
 20
75.6166010844
  0
LWPOLYLINE
  5
1819
330
220
100
AcDbEntity
  8
0
  6
Continuous
 62
     7
100
AcDbPolyline
 90
       37
 70
     0
 43
0.0
 10
57.311624293
 20
70.72248172630001
 10
57.3115965212
 20
70.721827245
 10
57.30999149729999
 20
70.7174479553
 10
57.3059118917
 20
70.71304334770001
 10
57.2993635639
 20
70.70862801979998
 10
57.29036806359999
 20
70.7042156205
 10
57.27893370060001
 20
70.6998106427
 10
57.26506011
 20
70.69541659009999
 10
57.2487886314
 20
70.6910503831
 10
57.2301772726
 20
70.6867274425
 10
57.20925069999999
 20
70.6824540341
 10
57.18603355089999
 20
70.6782366999
 10
57.16059235060001
 20
70.6740897464
 10
57.1330056711
 20
70.6700264799
 10
57.1033142352
 20
70.66605413100001
 10
57.07156553609999
 20
70.66218067220001
 10
57.037826332
 20
70.6584166418
 10
57.0021630327
 20
70.65477152529999
 10
56.9646460118
 20
70.6512551176
 10
56.92533337949999
 20
70.64787544319999
 10
56.8843493796
 20
70.64464580939999
 10
56.8417994275
 20
70.64157629479999
 10
56.7978470642
 20
70.63867980270001
 10
56.7526552834
 20
70.63596702689999
 10
56.7063890414
 20
70.63344668870001
 10
56.659199398
 20
70.6311254217
 10
56.61132858569999
 20
70.62901176390001
 10
56.56305106579999
 20
70.62711307339999
 10
56.5144601242
 20
70.6254266472
 10
56.4657100264
 20
70.623952206
 10
56.4168693955
 20
70.62268547869999
 10
56.36805583140001
 20
70.621624024
 10
56.3192385696
 20
70.6207618151
 10
56.27039380220001
 20
70.6200949443
 10
56.22157435720001
 20
70.6196210164
 10
56.17278012159999
 20
70.6193379547
 10
56.124124293
 20
70.61924398310001
  0
LWPOLYLINE
  5
181B
330
220
100
AcDbEntity
  8
0
  6
Continuous
 62
     7
100
AcDbPolyline
 90
       29
 70
     0
 43
0.0
 10
54.936624293
 20
70.7224816002
 10
54.9375212657
 20
70.7261893107
 10
54.9408843185
 20
70.7305295134
 10
54.9467356074
 20
70.734825448
 10
54.9550521691
 20
70.7390636669
 10
54.9658212659
 20
70.7432411171
 10
54.97903432840001
 20
70.74735390089999
 10
54.99465569329999
 20
70.7513911197
 10
55.0126381612
 20
70.7553423026
 10
55.0329534869
 20
70.75920354069999
 10
55.0555725683
 20
70.76297026759999
 10
55.0804388118
 20
70.76663438869999
 10
55.10749096439999
 20
70.77018859129999
 10
55.13667340529999
 20
70.77362765210001
 10
55.1679184636
 20
70.77694561040001
 10
55.2011740617
 20
70.78013885919999
 10
55.2363897953
 20
70.7832040153
 10
55.2734818565
 20
70.78613510930001
 10
55.31236779140001
 20
70.7889273021
 10
55.35296280569999
 20
70.7915760338
 10
55.3952030227
 20
70.79407878090001
 10
55.43891731489999
 20
70.79642698649999
 10
55.4839319436
 20
70.79861473459999
 10
55.530128209
 20
70.80063939850001
 10
55.5774018013
 20
70.80250025009999
 10
55.6255112482
 20
70.80419117739999
 10
55.6741845423
 20
70.8057087225
 10
55.7233627131
 20
70.8070564047
 10
55.7729401581
 20
70.8082367128
  0
LINE
  5
1827
330
220
100
AcDbEntity
  8
0
  6
Continuous
 62
     7
100
AcDbLine
 10
53.6156318475
 20
70.914188963
 30
0.0
 11
53.6189348412
 21
70.9200643125
 31
0.0
  0
LWPOLYLINE
  5
1828
330
220
100
AcDbEntity
  8
0
  6
Continuous
 62
     7
100
AcDbPolyline
 90
        3
 70
     0
 43
0.0
 10
53.6100454277
 20
70.9042558923
 10
53.6119885304
 20
70.90771036149999
 10
53.6156318475
 20
70.914188963
  0
LINE
  5
1829
330
220
100
AcDbEntity
  8
0
  6
Continuous
 62
     7
100
AcDbLine
 10
53.6059062141
 20
70.8968986559
 30
0.0
 11
53.6100454277
 21
70.9042558923
 31
0.0
  0
LINE
  5
182A
330
220
100
AcDbEntity
  8
0
  6
Continuous
 62
     7
100
AcDbLine
 10
53.3955316176
 20
70.5230196064
 30
0.0
 11
53.6059062141
 21
70.8968986559
 31
0.0
  0
LWPOLYLINE
  5
182B
330
220
100
AcDbEntity
  8
0
  6
Continuous
 62
     7
100
AcDbPolyline
 90
       74
 70
     0
 43
0.0
 10
53.6189348412
 20
70.9200643125
 10
53.6323202593
 20
70.9438685466
 10
53.6334864147
 20
70.94588722500001
 10
53.63468101729999
 20
70.9478990301
 10
53.6359124701
 20
70.9498945376
 10
53.6371891633
 20
70.9518827363
 10
53.6385174597
 20
70.95386295549999
 10
53.6399118019
 20
70.9558547509
 10
53.6413796247
 20
70.9578700644
 10
53.6429482388
 20
70.95993106989999
 10
53.6446323781
 20
70.9620543094
 10
53.6464770583
 20
70.9642686273
 10
53.64851559159999
 20
70.9666000058
 10
53.6507975334
 20
70.96907358840001
 10
53.6533687977
 20
70.971720562
 10
53.656273183
 20
70.97454880339999
 10
53.6595685378
 20
70.9775855059
 10
53.6632580854
 20
70.980803947
 10
53.66739135
 20
70.98421102669999
 10
53.6718869664
 20
70.9877331088
 10
53.67669542439999
 20
70.99130816270001
 10
53.6817712727
 20
70.9949082599
 10
53.6870414987
 20
70.9984765545
 10
53.6925399289
 20
71.00203774159999
 10
53.6982587209
 20
71.00558928259999
 10
53.7042497684
 20
71.00915605129999
 10
53.7105312366
 20
71.0127491929
 10
53.71719593489999
 20
71.0164074118
 10
53.7243067645
 20
71.0201627248
 10
53.7319704675
 20
71.0240464641
 10
53.7402712489
 20
71.0280921001
 10
53.74933798819999
 20
71.03232543909999
 10
53.75929539619999
 20
71.03678435339999
 10
53.7702379312
 20
71.0414664408
 10
53.7822736188
 20
71.046384813
 10
53.795484258
 20
71.0515312136
 10
53.8099281112
 20
71.0568975736
 10
53.8257816612
 20
71.0624969522
 10
53.8431689131
 20
71.06833386439999
 10
53.8623018555
 20
71.07442675520001
 10
53.88335301819999
 20
71.0807942926
 10
53.90655933369999
 20
71.08744169819999
 10
53.932098415
 20
71.0943754499
 10
53.9603139087
 20
71.10161248
 10
53.9914195805
 20
71.1091692711
 10
54.02597248390001
 20
71.11705696029999
 10
54.06447071369999
 20
71.1253064237
 10
54.1072888325
 20
71.13388097880001
 10
54.15515051659999
 20
71.1428205121
 10
54.2074922966
 20
71.1519339562
 10
54.26431168029999
 20
71.16109843210001
 10
54.3246668509
 20
71.17015068419999
 10
54.3876010022
 20
71.1788735886
 10
54.4531973792
 20
71.1872987613
 10
54.5212868728
 20
71.19539014299999
 10
54.5916825587
 20
71.20313246010001
 10
54.66418989140001
 20
71.21050097449999
 10
54.73867450220001
 20
71.21748608029999
 10
54.8149350585
 20
71.2240675914
 10
54.8929877477
 20
71.2302506062
 10
54.9727807721
 20
71.23603373139999
 10
55.054321835
 20
71.241416156
 10
55.1375881629
 20
71.24639681159999
 10
55.22262383939999
 20
71.2509755082
 10
55.30958908239999
 20
71.2551578328
 10
55.3981166694
 20
71.25892653390001
 10
55.48805720789999
 20
71.2622680895
 10
55.5789272265
 20
71.26517193859999
 10
55.6702948589
 20
71.2676186702
 10
55.7618655935
 20
71.26961191319999
 10
55.85328022359999
 20
71.2711436854
 10
55.9443050003
 20
71.27222130310001
 10
56.0345345743
 20
71.2728484589
 10
56.124124293
 20
71.2730214405
  0
LWPOLYLINE
  5
183A
330
220
100
AcDbEntity
  8
0
  6
Continuous
 62
     7
100
AcDbPolyline
 90
       17
 70
     0
 43
0.0
 10
54.1132153213
 20
70.6144981129
 10
54.10509171899999
 20
70.60673119010001
 10
54.09715806770001
 20
70.5990555077
 10
54.08976477979999
 20
70.59180010590001
 10
54.0826541058
 20
70.58470336970001
 10
54.0761386176
 20
70.57806950539999
 10
54.069982187
 20
70.57165118479999
 10
54.0642451228
 20
70.5654993688
 10
54.0589203879
 20
70.5596048624
 10
54.0536949879
 20
70.55360561659999
 10
54.0487792417
 20
70.5477174561
 10
54.0441027352
 20
70.54183175909999
 10
54.0396995892
 20
70.5359615478
 10
54.0355777137
 20
70.5300984909
 10
54.03139946979999
 20
70.5237098629
 10
54.027031434
 20
70.51648354300001
 10
54.02256475319999
 20
70.5086367694
  0
LINE
  5
183B
330
220
100
AcDbEntity
  8
0
  6
Continuous
 62
     7
100
AcDbLine
 10
54.12862931180001
 20
70.6290397029
 30
0.0
 11
54.1132153213
 21
70.6144981129
 31
0.0
  0
LINE
  5
183C
330
220
100
AcDbEntity
  8
0
  6
Continuous
 62
     7
100
AcDbLine
 10
54.14376300619999
 20
70.64313249
 30
0.0
 11
54.12862931180001
 21
70.6290397029
 31
0.0
  0
LINE
  5
183D
330
220
100
AcDbEntity
  8
0
  6
Continuous
 62
     7
100
AcDbLine
 10
54.1693467283
 20
70.6666764796
 30
0.0
 11
54.14376300619999
 21
70.64313249
 31
0.0
  0
LINE
  5
183E
330
220
100
AcDbEntity
  8
0
  6
Continuous
 62
     7
100
AcDbLine
 10
54.2120389363
 20
70.7055025178
 30
0.0
 11
54.1693467283
 21
70.6666764796
 31
0.0
  0
LWPOLYLINE
  5
186E
330
220
100
AcDbEntity
  8
0
  6
Continuous
 62
     7
100
AcDbPolyline
 90
       39
 70
     0
 43
0.0
 10
56.124124293
 20
95.1603105683
 10
55.5847644156
 20
95.1580336684
 10
55.07314566939999
 20
95.15167875859999
 10
54.59023381359999
 20
95.14192223370001
 10
54.13324863869999
 20
95.12932818180001
 10
53.7001720261
 20
95.11437417969998
 10
53.28963156109999
 20
95.09748097520001
 10
52.89997645119999
 20
95.07899800889999
 10
52.5299957067
 20
95.0592361638
 10
52.1782258937
 20
95.03844702190001
 10
51.84375871100001
 20
95.01686972299999
 10
51.5254599091
 20
94.9946949485
 10
51.22253724050001
 20
94.9721031544
 10
50.9341418646
 20
94.94924418
 10
50.6593088247
 20
94.92622830429999
 10
50.396921775
 20
94.90312627660001
 10
50.1465899527
 20
94.8800508759
 10
49.90780715229999
 20
94.85708200080001
 10
49.67980166109999
 20
94.8342588374
 10
49.4617008297
 20
94.81159750139999
 10
49.2533032722
 20
94.7891749753
 10
49.05430364649999
 20
94.767060639
 10
48.8641422971
 20
94.74528365160001
 10
48.6822953644
 20
94.72386758979999
 10
48.50835382899999
 20
94.70283969709999
 10
48.34182390350001
 20
94.6822088573
 10
48.1824397311
 20
94.6620046848
 10
48.0298499409
 20
94.64224029110001
 10
47.88382016189999
 20
94.62293825699999
 10
47.7441400121
 20
94.6041199553
 10
47.6103887318
 20
94.58577330469999
 10
47.4821850082
 20
94.5678858453
 10
47.3592036555
 20
94.5504483747
 10
47.2409743499
 20
94.5334264737
 10
47.1275541792
 20
94.5168581637
 10
47.01888444739999
 20
94.50076368120001
 10
46.91484306609999
 20
94.4851521478
 10
46.81541286569999
 20
94.4700468167
 10
46.6289939467
 20
94.4412351719
  0
LWPOLYLINE
  5
189F
330
220
100
AcDbEntity
  8
0
  6
Continuous
 62
     7
100
AcDbPolyline
 90
      130
 70
     0
 43
0.0
 10
69.62049984450001
 20
74.5653062454
 10
69.66533349939999
 20
74.57934235229998
 10
69.7133382214
 20
74.59461144689999
 10
69.7641022087
 20
74.6110290621
 10
69.81758349319999
 20
74.6286274528
 10
69.87317523379999
 20
74.6472504462
 10
69.9304623343
 20
74.6667957196
 10
69.988841424
 20
74.68708542299999
 10
70.047910676
 20
74.70799985479999
 10
70.10667346399999
 20
74.72919212810001
 10
70.1643084977
 20
74.75035581659999
 10
70.21992969039999
 20
74.7711370696
 10
70.2722952088
 20
74.7910253817
 10
70.3216945556
 20
74.8100766135
 10
70.36770653569999
 20
74.8280758594
 10
70.41122388640001
 20
74.84532683350001
 10
70.4527893338
 20
74.8620115258
 10
70.49300588539999
 20
74.8783493046
 10
70.5325598047
 20
74.8946053099
 10
70.57172013769999
 20
74.9108840267
 10
70.6110341099
 20
74.9274121825
 10
70.6503386456
 20
74.9441234488
 10
70.6896825662
 20
74.96103997029999
 10
70.7289767272
 20
74.978124511
 10
70.7681776315
 20
74.9953584025
 10
70.80719940819999
 20
75.01270300819999
 10
70.8458193406
 20
75.03005627270001
 10
70.88440778679999
 20
75.0475826287
 10
70.9230618442
 20
75.0653273143
 10
70.96236879670001
 20
75.08356670810001
 10
71.0027829262
 20
75.1025258983
 10
71.04477791879999
 20
75.12244983789999
 10
71.0889419768
 20
75.143649645
 10
71.1353582199
 20
75.16620553740001
 10
71.1844340816
 20
75.19036273800001
 10
71.2357647651
 20
75.2159724663
 10
71.2891491571
 20
75.2429820065
 10
71.344386958
 20
75.2713357809
 10
71.4011081502
 20
75.30088577810001
 10
71.4596268475
 20
75.33183903600001
 10
71.5200038179
 20
75.3642776615
 10
71.5826088333
 20
75.3984590134
 10
71.6477243058
 20
75.4346077079
 10
71.7156338037
 20
75.47296478239999
 10
71.7866102446
 20
75.51378150969999
 10
71.8609184676
 20
75.55732361850001
 10
71.9388122431
 20
75.60387011510001
 10
72.02053521329999
 20
75.6537170655
 10
72.1063279583
 20
75.70718324970001
 10
72.1963743641
 20
75.764579068
 10
72.29087069640001
 20
75.82625171460001
 10
72.3899242765
 20
75.89251941029999
 10
72.4936099862
 20
75.96370837800001
 10
72.60210860109999
 20
76.0402529645
 10
72.7154987926
 20
76.1225585646
 10
72.83400709430001
 20
76.2111852397
 10
72.9576957294
 20
76.306630288
 10
73.0869182253
 20
76.4096833672
 10
73.2218485894
 20
76.5210885443
 10
73.3627554661
 20
76.6417669254
 10
73.5119509943
 20
76.7746357801
 10
73.66301769989999
 20
76.914810913
 10
73.8124484206
 20
77.0593946896
 10
73.9553473754
 20
77.2035327709
 10
74.08546079529999
 20
77.3400893819
 10
74.2055435828
 20
77.4709107506
 10
74.3158111603
 20
77.59534317149999
 10
74.41753711930001
 20
77.7140174341
 10
74.5116119729
 20
77.827278667
 10
74.5990535965
 20
77.9357559047
 10
74.6809936346
 20
78.04036720960001
 10
74.7576364073
 20
78.14094762739999
 10
74.8296721585
 20
78.23801412839999
 10
74.89664849319999
 20
78.3305806404
 10
74.95797711129999
 20
78.41739756459999
 10
75.0148493467
 20
78.4997461979
 10
75.0679266983
 20
78.5782746342
 10
75.117959215
 20
78.6538421887
 10
75.1656227488
 20
78.727289021
 10
75.21157069979999
 20
78.7994932007
 10
75.2565170111
 20
78.87151364659999
 10
75.30074966649999
 20
78.943789059
 10
75.34484098729999
 20
79.0172773969
 10
75.38851941629999
 20
79.0915636925
 10
75.43177369449999
 20
79.1666548627
 10
75.47441030600001
 20
79.2422326826
 10
75.5163109769
 20
79.31808801229999
 10
75.5572910061
 20
79.39386999539999
 10
75.59698014040001
 20
79.46883956819999
 10
75.6358889964
 20
79.54391323350001
 10
75.67415584079999
 20
79.61935181050001
 10
75.71241494510001
 20
79.69644415640001
 10
75.7514245135
 20
79.7768658935
 10
75.79071698109999
 20
79.85983224459999
 10
75.8302257676
 20
79.9453605939
 10
75.86953795799999
 20
80.0326960563
 10
75.9083588591
 20
80.12126886289999
 10
75.9464021677
 20
80.21047244749999
 10
75.9834122286
 20
80.29969382089999
 10
76.0191537732
 20
80.38831399180001
 10
76.05332199199999
 20
80.4754552182
 10
76.08601657359999
 20
80.56122385050001
 10
76.1170440992
 20
80.6449432768
 10
76.14700146930001
 20
80.7280825878
 10
76.17638333710001
 20
80.8120056035
 10
76.2050830846
 20
80.8964362781
 10
76.23320394550001
 20
80.98171032160001
 10
76.2605838577
 20
81.0673657681
 10
76.2871019091
 20
81.1530106993
 10
76.3127976791
 20
81.23875075049999
 10
76.3376384239
 20
81.3244531744
 10
76.3617222305
 20
81.41044102329999
 10
76.3850451267
 20
81.4967059067
 10
76.40783127369999
 20
81.58412332380001
 10
76.43020543209999
 20
81.67331437539999
 10
76.45231056680001
 20
81.76507129859999
 10
76.4742476305
 20
81.860155671
 10
76.4960840124
 20
81.95931929069999
 10
76.5179185722
 20
82.06365265229999
 10
76.53954483549999
 20
82.1729342829
 10
76.5609161686
 20
82.28780453049999
 10
76.5815864324
 20
82.4067599332
 10
76.6012870363
 20
82.5289661905
 10
76.6196998731
 20
82.65298953149999
 10
76.6365690427
 20
82.77727923890001
 10
76.6518304108
 20
82.90128461790001
 10
76.66540559419999
 20
83.0240528464
 10
76.6773174889
 20
83.14521116219999
 10
76.6875721385
 20
83.2639934292
 10
76.6962799141
 20
83.3806218199
  0
LINE
  5
18A0
330
220
100
AcDbEntity
  8
0
  6
Continuous
 62
     7
100
AcDbLine
 10
69.53857090149999
 20
74.54021364319999
 30
0.0
 11
69.62049984450001
 21
74.5653062454
 31
0.0
  0
LINE
  5
18A1
330
220
100
AcDbEntity
  8
0
  6
Continuous
 62
     7
100
AcDbLine
 10
69.4649045659
 20
74.5182602654
 30
0.0
 11
69.53857090149999
 21
74.54021364319999
 31
0.0
  0
LWPOLYLINE
  5
18A2
330
220
100
AcDbEntity
  8
0
  6
Continuous
 62
     7
100
AcDbPolyline
 90
        3
 70
     0
 43
0.0
 10
69.36624918789999
 20
74.48974826619999
 10
69.39766722209999
 20
74.4987188029
 10
69.4649045659
 20
74.5182602654
  0
LINE
  5
18A3
330
220
100
AcDbEntity
  8
0
  6
Continuous
 62
     7
100
AcDbLine
 10
42.9186314879
 20
93.7129784565
 30
0.0
 11
42.86757954539999
 21
93.6985393065
 31
0.0
  0
LINE
  5
18A4
330
220
100
AcDbEntity
  8
0
  6
Continuous
 62
     7
100
AcDbLine
 10
42.986489377
 20
93.73176564639999
 30
0.0
 11
42.9186314879
 21
93.7129784565
 31
0.0
  0
LINE
  5
18A5
330
220
100
AcDbEntity
  8
0
  6
Continuous
 62
     7
100
AcDbLine
 10
43.045465835
 20
93.7477251283
 30
0.0
 11
42.986489377
 21
93.73176564639999
 31
0.0
  0
LINE
  5
18A6
330
220
100
AcDbEntity
  8
0
  6
Continuous
 62
     7
100
AcDbLine
 10
43.0968968835
 20
93.76136049879999
 30
0.0
 11
43.045465835
 21
93.7477251283
 31
0.0
  0
LINE
  5
18A7
330
220
100
AcDbEntity
  8
0
  6
Continuous
 62
     7
100
AcDbLine
 10
43.15576081439999
 20
93.77664028959999
 30
0.0
 11
43.0968968835
 21
93.76136049879999
 31
0.0
  0
LINE
  5
18A8
330
220
100
AcDbEntity
  8
0
  6
Continuous
 62
     7
100
AcDbLine
 10
43.2059338054
 20
93.78938652790001
 30
0.0
 11
43.15576081439999
 21
93.77664028959999
 31
0.0
  0
LINE
  5
18A9
330
220
100
AcDbEntity
  8
0
  6
Continuous
 62
     7
100
AcDbLine
 10
43.2579804187
 20
93.80233617
 30
0.0
 11
43.2059338054
 21
93.78938652790001
 31
0.0
  0
LINE
  5
18AA
330
220
100
AcDbEntity
  8
0
  6
Continuous
 62
     7
100
AcDbLine
 10
43.30668026549999
 20
93.8141994517
 30
0.0
 11
43.2579804187
 21
93.80233617
 31
0.0
  0
LINE
  5
18AB
330
220
100
AcDbEntity
  8
0
  6
Continuous
 62
     7
100
AcDbLine
 10
43.3497913422
 20
93.8244934491
 30
0.0
 11
43.30668026549999
 21
93.8141994517
 31
0.0
  0
LINE
  5
18AC
330
220
100
AcDbEntity
  8
0
  6
Continuous
 62
     7
100
AcDbLine
 10
43.3850963693
 20
93.83274953629998
 30
0.0
 11
43.3497913422
 21
93.8244934491
 31
0.0
  0
LINE
  5
18AD
330
220
100
AcDbEntity
  8
0
  6
Continuous
 62
     7
100
AcDbLine
 10
43.43049388999999
 20
93.8431369985
 30
0.0
 11
43.3850963693
 21
93.83274953629998
 31
0.0
  0
LINE
  5
18AE
330
220
100
AcDbEntity
  8
0
  6
Continuous
 62
     7
100
AcDbLine
 10
43.4849391954
 20
93.85530714379999
 30
0.0
 11
43.43049388999999
 21
93.8431369985
 31
0.0
  0
LINE
  5
18AF
330
220
100
AcDbEntity
  8
0
  6
Continuous
 62
     7
100
AcDbLine
 10
43.56723369229999
 20
93.8732562218
 30
0.0
 11
43.4849391954
 21
93.85530714379999
 31
0.0
  0
LINE
  5
18B0
330
220
100
AcDbEntity
  8
0
  6
Continuous
 62
     7
100
AcDbLine
 10
43.77194921930001
 20
93.91696256400001
 30
0.0
 11
43.56723369229999
 21
93.8732562218
 31
0.0
  0
LINE
  5
18B1
330
220
100
AcDbEntity
  8
0
  6
Continuous
 62
     7
100
AcDbLine
 10
44.01277071109999
 20
93.96726812959999
 30
0.0
 11
43.77194921930001
 21
93.91696256400001
 31
0.0
  0
LINE
  5
18B2
330
220
100
AcDbEntity
  8
0
  6
Continuous
 62
     7
100
AcDbLine
 10
44.2496643081
 20
94.0156543786
 30
0.0
 11
44.01277071109999
 21
93.96726812959999
 31
0.0
  0
LINE
  5
18B3
330
220
100
AcDbEntity
  8
0
  6
Continuous
 62
     7
100
AcDbLine
 10
44.4823571792
 20
94.062099027
 30
0.0
 11
44.2496643081
 21
94.0156543786
 31
0.0
  0
LINE
  5
18B4
330
220
100
AcDbEntity
  8
0
  6
Continuous
 62
     7
100
AcDbLine
 10
44.731204147
 20
94.11059975299998
 30
0.0
 11
44.4823571792
 21
94.062099027
 31
0.0
  0
LINE
  5
18B5
330
220
100
AcDbEntity
  8
0
  6
Continuous
 62
     7
100
AcDbLine
 10
44.9668839622
 20
94.1554336058
 30
0.0
 11
44.731204147
 21
94.11059975299998
 31
0.0
  0
LINE
  5
18B6
330
220
100
AcDbEntity
  8
0
  6
Continuous
 62
     7
100
AcDbLine
 10
45.21815919709999
 20
94.2020393778
 30
0.0
 11
44.9668839622
 21
94.1554336058
 31
0.0
  0
LINE
  5
18B7
330
220
100
AcDbEntity
  8
0
  6
Continuous
 62
     7
100
AcDbLine
 10
45.4452543285
 20
94.24310399520001
 30
0.0
 11
45.21815919709999
 21
94.2020393778
 31
0.0
  0
LINE
  5
18B9
330
220
100
AcDbEntity
  8
0
  6
Continuous
 62
     7
100
AcDbLine
 10
45.6709302615
 20
94.28292692840001
 30
0.0
 11
45.4452543285
 21
94.24310399520001
 31
0.0
  0
LINE
  5
18BA
330
220
100
AcDbEntity
  8
0
  6
Continuous
 62
     7
100
AcDbLine
 10
45.8305634747
 20
94.31050729110001
 30
0.0
 11
45.6709302615
 21
94.28292692840001
 31
0.0
  0
LINE
  5
18BC
330
220
100
AcDbEntity
  8
0
  6
Continuous
 62
     7
100
AcDbLine
 10
46.01313736149999
 20
94.34145726830001
 30
0.0
 11
45.8305634747
 21
94.31050729110001
 31
0.0
  0
LINE
  5
18BD
330
220
100
AcDbEntity
  8
0
  6
Continuous
 62
     7
100
AcDbLine
 10
46.1494571896
 20
94.36415533520001
 30
0.0
 11
46.01313736149999
 21
94.34145726830001
 31
0.0
  0
LINE
  5
18BE
330
220
100
AcDbEntity
  8
0
  6
Continuous
 62
     7
100
AcDbLine
 10
46.2976776296
 20
94.38843850200001
 30
0.0
 11
46.1494571896
 21
94.36415533520001
 31
0.0
  0
LINE
  5
18C0
330
220
100
AcDbEntity
  8
0
  6
Continuous
 62
     7
100
AcDbLine
 10
46.4571993447
 20
94.41411402059999
 30
0.0
 11
46.2976776296
 21
94.38843850200001
 31
0.0
  0
LINE
  5
18C1
330
220
100
AcDbEntity
  8
0
  6
Continuous
 62
     7
100
AcDbLine
 10
46.6289939467
 20
94.4412351719
 30
0.0
 11
46.4571993447
 21
94.41411402059999
 31
0.0
  0
LWPOLYLINE
  5
18C6
330
220
100
AcDbEntity
  8
0
  6
Continuous
 62
     7
100
AcDbPolyline
 90
       38
 70
     0
 43
0.0
 10
65.4247521729
 20
94.4712816524
 10
65.3254104959
 20
94.4863588517
 10
65.22143634249999
 20
94.50194512469998
 10
65.1128394551
 20
94.51801316079999
 10
64.99952698979999
 20
94.53454964249999
 10
64.881426714
 20
94.55153650559999
 10
64.7585979231
 20
94.5689356007
 10
64.6305522923
 20
94.58678397459999
 10
64.49694538279999
 20
94.60509348850001
 10
64.35740174430001
 20
94.62387572469999
 10
64.21149311579999
 20
94.6431436651
 10
64.05902993979999
 20
94.6628731578
 10
63.8998013826
 20
94.6830387362
 10
63.7334405697
 20
94.70362944969998
 10
63.5596764647
 20
94.7246164573
 10
63.3780077992
 20
94.7459918386
 10
63.1880085966
 20
94.7677303092
 10
62.9891781827
 20
94.7898056036
 10
62.78098163560001
 20
94.81218604129999
 10
62.5630921552
 20
94.83480495690001
 10
62.33529030109999
 20
94.85758750040002
 10
62.0967178512
 20
94.88051618870001
 10
61.84661519149999
 20
94.9035508859
 10
61.5844651138
 20
94.92661269950001
 10
61.30986524229999
 20
94.9495899395
 10
61.02171308409999
 20
94.97241079910001
 10
60.719057688
 20
94.99496415160001
 10
60.4010381411
 20
95.0171014206
 10
60.06685274569999
 20
95.0386430758
 10
59.7153733704
 20
95.0593982914
 10
59.3456935409
 20
95.07912817350002
 10
58.9563532489
 20
95.0975813826
 10
58.5461466883
 20
95.11444734239999
 10
58.1134195997
 20
95.12937736860001
 10
57.6567949544
 20
95.14195147429999
 10
57.17426317979999
 20
95.1516925481
 10
56.6630519453
 20
95.1580373166
 10
56.124124293
 20
95.1603105683
  0
LINE
  5
18C7
330
220
100
AcDbEntity
  8
0
  6
Continuous
 62
     7
100
AcDbLine
 10
65.6109466386
 20
94.442532875
 30
0.0
 11
65.4247521729
 21
94.4712816524
 31
0.0
  0
LINE
  5
18C8
330
220
100
AcDbEntity
  8
0
  6
Continuous
 62
     7
100
AcDbLine
 10
65.78245182659999
 20
94.41548432709998
 30
0.0
 11
65.6109466386
 21
94.442532875
 31
0.0
  0
LINE
  5
18C9
330
220
100
AcDbEntity
  8
0
  6
Continuous
 62
     7
100
AcDbLine
 10
65.9416799526
 20
94.38988204180001
 30
0.0
 11
65.78245182659999
 21
94.41548432709998
 31
0.0
  0
LINE
  5
18CC
330
220
100
AcDbEntity
  8
0
  6
Continuous
 62
     7
100
AcDbLine
 10
66.0897494182
 20
94.36564850389999
 30
0.0
 11
65.9416799526
 21
94.38988204180001
 31
0.0
  0
LINE
  5
18CD
330
220
100
AcDbEntity
  8
0
  6
Continuous
 62
     7
100
AcDbLine
 10
66.28968479850001
 20
94.33227211950001
 30
0.0
 11
66.0897494182
 21
94.36564850389999
 31
0.0
  0
LINE
  5
18CE
330
220
100
AcDbEntity
  8
0
  6
Continuous
 62
     7
100
AcDbLine
 10
66.4640041729
 20
94.30255461889998
 30
0.0
 11
66.28968479850001
 21
94.33227211950001
 31
0.0
  0
LINE
  5
18CF
330
220
100
AcDbEntity
  8
0
  6
Continuous
 62
     7
100
AcDbLine
 10
66.7081674761
 20
94.25995634819999
 30
0.0
 11
66.4640041729
 21
94.30255461889998
 31
0.0
  0
LINE
  5
18D0
330
220
100
AcDbEntity
  8
0
  6
Continuous
 62
     7
100
AcDbLine
 10
66.94699944689999
 20
94.217180044
 30
0.0
 11
66.7081674761
 21
94.25995634819999
 31
0.0
  0
LINE
  5
18D1
330
220
100
AcDbEntity
  8
0
  6
Continuous
 62
     7
100
AcDbLine
 10
67.19584116899999
 20
94.1714346886
 30
0.0
 11
66.94699944689999
 21
94.217180044
 31
0.0
  0
LINE
  5
18D2
330
220
100
AcDbEntity
  8
0
  6
Continuous
 62
     7
100
AcDbLine
 10
67.4318286206
 20
94.12693497739999
 30
0.0
 11
67.19584116899999
 21
94.1714346886
 31
0.0
  0
LINE
  5
18D3
330
220
100
AcDbEntity
  8
0
  6
Continuous
 62
     7
100
AcDbLine
 10
67.678870463
 20
94.0791953759
 30
0.0
 11
67.4318286206
 21
94.12693497739999
 31
0.0
  0
LINE
  5
18D4
330
220
100
AcDbEntity
  8
0
  6
Continuous
 62
     7
100
AcDbLine
 10
67.92364627640001
 20
94.03072849919999
 30
0.0
 11
67.678870463
 21
94.0791953759
 31
0.0
  0
LINE
  5
18D5
330
220
100
AcDbEntity
  8
0
  6
Continuous
 62
     7
100
AcDbLine
 10
68.15500075279999
 20
93.9838299019
 30
0.0
 11
67.92364627640001
 21
94.03072849919999
 31
0.0
  0
LINE
  5
18D6
330
220
100
AcDbEntity
  8
0
  6
Continuous
 62
     7
100
AcDbLine
 10
68.3916869352
 20
93.93476354459998
 30
0.0
 11
68.15500075279999
 21
93.9838299019
 31
0.0
  0
LINE
  5
18D7
330
220
100
AcDbEntity
  8
0
  6
Continuous
 62
     7
100
AcDbLine
 10
68.6113938787
 20
93.8882359781
 30
0.0
 11
68.3916869352
 21
93.93476354459998
 31
0.0
  0
LINE
  5
18D8
330
220
100
AcDbEntity
  8
0
  6
Continuous
 62
     7
100
AcDbLine
 10
68.73440436510001
 20
93.8616622025
 30
0.0
 11
68.6113938787
 21
93.8882359781
 31
0.0
  0
LINE
  5
18D9
330
220
100
AcDbEntity
  8
0
  6
Continuous
 62
     7
100
AcDbLine
 10
68.79284742899999
 20
93.848739851
 30
0.0
 11
68.73440436510001
 21
93.8616622025
 31
0.0
  0
LINE
  5
18DA
330
220
100
AcDbEntity
  8
0
  6
Continuous
 62
     7
100
AcDbLine
 10
68.83618942359999
 20
93.8389477657
 30
0.0
 11
68.79284742899999
 21
93.848739851
 31
0.0
  0
LINE
  5
18DB
330
220
100
AcDbEntity
  8
0
  6
Continuous
 62
     7
100
AcDbLine
 10
68.87585571629999
 20
93.82979800420001
 30
0.0
 11
68.83618942359999
 21
93.8389477657
 31
0.0
  0
LINE
  5
18DC
330
220
100
AcDbEntity
  8
0
  6
Continuous
 62
     7
100
AcDbLine
 10
68.91647210399999
 20
93.82021672170001
 30
0.0
 11
68.87585571629999
 21
93.82979800420001
 31
0.0
  0
LINE
  5
18DD
330
220
100
AcDbEntity
  8
0
  6
Continuous
 62
     7
100
AcDbLine
 10
68.966685629
 20
93.80811163799998
 30
0.0
 11
68.91647210399999
 21
93.82021672170001
 31
0.0
  0
LINE
  5
18DE
330
220
100
AcDbEntity
  8
0
  6
Continuous
 62
     7
100
AcDbLine
 10
69.01728409010001
 20
93.7956491807
 30
0.0
 11
68.966685629
 21
93.80811163799998
 31
0.0
  0
LINE
  5
18DF
330
220
100
AcDbEntity
  8
0
  6
Continuous
 62
     7
100
AcDbLine
 10
69.06858709159999
 20
93.78274417780001
 30
0.0
 11
69.01728409010001
 21
93.7956491807
 31
0.0
  0
LINE
  5
18E0
330
220
100
AcDbEntity
  8
0
  6
Continuous
 62
     7
100
AcDbLine
 10
69.1138613208
 20
93.7711326608
 30
0.0
 11
69.06858709159999
 21
93.78274417780001
 31
0.0
  0
LINE
  5
18E1
330
220
100
AcDbEntity
  8
0
  6
Continuous
 62
     7
100
AcDbLine
 10
69.166354649
 20
93.75741026049999
 30
0.0
 11
69.1138613208
 21
93.7711326608
 31
0.0
  0
LINE
  5
18E2
330
220
100
AcDbEntity
  8
0
  6
Continuous
 62
     7
100
AcDbLine
 10
69.22849908989999
 20
93.74080839680001
 30
0.0
 11
69.166354649
 21
93.75741026049999
 31
0.0
  0
LINE
  5
18E3
330
220
100
AcDbEntity
  8
0
  6
Continuous
 62
     7
100
AcDbLine
 10
69.2763107926
 20
93.72777540319999
 30
0.0
 11
69.22849908989999
 21
93.74080839680001
 31
0.0
  0
LINE
  5
18E4
330
220
100
AcDbEntity
  8
0
  6
Continuous
 62
     7
100
AcDbLine
 10
69.32967981649999
 20
93.7129607962
 30
0.0
 11
69.2763107926
 21
93.72777540319999
 31
0.0
  0
LINE
  5
18E5
330
220
100
AcDbEntity
  8
0
  6
Continuous
 62
     7
100
AcDbLine
 10
69.38913690709999
 20
93.69611858319998
 30
0.0
 11
69.32967981649999
 21
93.7129607962
 31
0.0
  0
LINE
  5
18E6
330
220
100
AcDbEntity
  8
0
  6
Continuous
 62
     7
100
AcDbLine
 10
69.45555934179999
 20
93.67687472670001
 30
0.0
 11
69.38913690709999
 21
93.69611858319998
 31
0.0
  0
LWPOLYLINE
  5
18EB
330
220
100
AcDbEntity
  8
0
  6
Continuous
 62
     7
100
AcDbPolyline
 90
      113
 70
     0
 43
0.0
 10
56.1241242931
 20
102.0792959045
 10
55.5978200926
 20
102.0779230716
 10
55.0928487288
 20
102.0745682052
 10
54.60947534119999
 20
102.0691042972
 10
54.1469045118
 20
102.0619123724
 10
53.70460861739999
 20
102.0532659849
 10
53.282049414
 20
102.0433605386
 10
52.8786941486
 20
102.0324285739
 10
52.49399872609999
 20
102.0206322345
 10
52.1274196551
 20
102.0081668776
 10
51.77842237100001
 20
101.9951654022
 10
51.44647084239999
 20
101.9817903178
 10
51.1310259771
 20
101.9681481509
 10
50.8315509942
 20
101.9543719697
 10
50.5475029287
 20
101.9405446597
 10
50.2785284301
 20
101.9267838313
 10
50.0235218739
 20
101.9131183777
 10
49.7820479131
 20
101.8996424567
 10
49.55174236479999
 20
101.8862778841
 10
49.3307979379
 20
101.8730124972
 10
49.11710861119999
 20
101.8597423885
 10
48.90857719189999
 20
101.8463986185
 10
48.703369904
 20
101.8328641209
 10
48.4990439002
 20
101.8190080339
 10
48.2953292024
 20
101.8048028046
 10
48.0910608943
 20
101.790185551
 10
47.8864809427
 20
101.7751313988
 10
47.68100640279999
 20
101.7595878513
 10
47.4759470924
 20
101.7435748931
 10
47.2725225809
 20
101.7270920406
 10
47.0704206688
 20
101.7101482011
 10
46.8709008538
 20
101.692862574
 10
46.67046761429999
 20
101.6749037988
 10
46.4670617263
 20
101.6561076107
 10
46.2576337947
 20
101.6360919213
 10
46.03932500199999
 20
101.6145649608
 10
45.8095043911
 20
101.5910915084
 10
45.5646612503
 20
101.5652268019
 10
45.30457602560001
 20
101.5367076952
 10
45.027549529
 20
101.5051786362
 10
44.73450994939999
 20
101.4704720809
 10
44.42594555569999
 20
101.4324219818
 10
44.10147691979999
 20
101.390668297
 10
43.7618163081
 20
101.3450678508
 10
43.40417690579999
 20
101.2948039978
 10
43.02682700600001
 20
101.2393575771
 10
42.62731355119999
 20
101.1776929605
 10
42.2033080039
 20
101.1090435576
 10
41.7527050973
 20
101.0320830936
 10
41.27236586699999
 20
100.9456108608
 10
40.7630628678
 20
100.8484835673
 10
40.22316286019999
 20
100.7393636117
 10
39.6567442617
 20
100.6176332146
 10
39.0660045979
 20
100.4823903519
 10
38.4549533054
 20
100.3331501565
 10
37.8247258727
 20
100.1684712799
 10
37.1861416696
 20
99.99032114229999
 10
36.5467378102
 20
99.7989234741
 10
35.91749655
 20
99.59806799530001
 10
35.3117685677
 20
99.39112124760001
 10
34.7299857084
 20
99.17957649639999
 10
34.1786320207
 20
98.96632498549999
 10
33.6529015732
 20
98.75053932090001
 10
33.1508838436
 20
98.532490446
 10
32.6703766546
 20
98.3117745926
 10
32.2087224498
 20
98.08802366000001
 10
31.7653768446
 20
97.8614015898
 10
31.3389947121
 20
97.6318364389
 10
30.9293207231
 20
97.3996677613
 10
30.5358781291
 20
97.1651863699
 10
30.1579860611
 20
96.92846654459998
 10
29.7950518177
 20
96.68970343520001
 10
29.4463341475
 20
96.44882524499999
 10
29.1110012693
 20
96.20576925520001
 10
28.7887320721
 20
95.9607033806
 10
28.4790805988
 20
95.71376933459999
 10
28.1815896061
 20
95.46498300299999
 10
27.8958408086
 20
95.21446299850001
 10
27.6212713754
 20
94.9620428533
 10
27.3573275854
 20
94.70764490249999
 10
27.1035638239
 20
94.45112135089999
 10
26.8594428156
 20
94.1923363995
 10
26.6246858208
 20
93.93117639479999
 10
26.3989458972
 20
93.66755259989998
 10
26.1818903771
 20
93.40125446520001
 10
25.9731267145
 20
93.13207296719999
 10
25.7724876019
 20
92.8599147903
 10
25.5797393713
 20
92.58471046009999
 10
25.3946885572
 20
92.30617942909999
 10
25.2170771931
 20
92.0240202769
 10
25.0468651142
 20
91.7382261484
 10
24.8839678582
 20
91.44877679309999
 10
24.7282603517
 20
91.15541097639999
 10
24.5795700888
 20
90.8578803812
 10
24.4379549043
 20
90.55612600499999
 10
24.3034384733
 20
90.250085203
 10
24.1759507685
 20
89.93952058629998
 10
24.055439021
 20
89.624304154
 10
23.9418751311
 20
89.30404509700002
 10
23.8351833886
 20
88.97842817889999
 10
23.7354538572
 20
88.64709868090001
 10
23.6427286839
 20
88.30975647029999
 10
23.5570759088
 20
87.96592255150001
 10
23.4785148472
 20
87.61513469629999
 10
23.4072338211
 20
87.25704247000001
 10
23.3433478725
 20
86.89133589040002
 10
23.2870961561
 20
86.51743137190001
 10
23.2386522857
 20
86.1347250522
 10
23.1983279258
 20
85.74296777849999
 10
23.1663779992
 20
85.3417827598
 10
23.1431463449
 20
84.93094904739999
 10
23.129115378
 20
84.51007677739999
 10
23.1241242933
 20
84.07929590429999
  0
LWPOLYLINE
  5
18EC
330
220
100
AcDbEntity
  8
0
  6
Continuous
 62
     7
100
AcDbPolyline
 90
       77
 70
     0
 43
0.0
 10
76.72053497669999
 20
84.07929590450001
 10
76.71724295229999
 20
84.34734204520001
 10
76.7070204157
 20
84.6147168126
 10
76.68985906999999
 20
84.88130553479999
 10
76.6658201825
 20
85.14668158010001
 10
76.63497760029999
 20
85.4104380487
 10
76.597385207
 20
85.67243224939998
 10
76.5531169706
 20
85.93241561090001
 10
76.50223394560001
 20
86.1903193668
 10
76.44479011140001
 20
86.44608923719999
 10
76.38088606930001
 20
86.69943562700002
 10
76.3106488609
 20
86.95006435439999
 10
76.2341302655
 20
87.19793761540001
 10
76.15141059329999
 20
87.44291115930002
 10
76.0625100279
 20
87.68501841009999
 10
75.9674471822
 20
87.9243048684
 10
75.86630847890001
 20
88.16058518870001
 10
75.7591950862
 20
88.39368537799998
 10
75.64610170289999
 20
88.6236463262
 10
75.5269886532
 20
88.8505388615
 10
75.40198968029999
 20
89.07406795940001
 10
75.2712865477
 20
89.29395956229999
 10
75.13483941140001
 20
89.51031283629999
 10
74.9926247465
 20
89.7231573334
 10
74.84469555050001
 20
89.93238762169999
 10
74.6910626328
 20
90.1379551017
 10
74.531802463
 20
90.3397038788
 10
74.36696960359999
 20
90.53753056219999
 10
74.196658685
 20
90.73129549289999
 10
74.0210160915
 20
90.9208094815
 10
73.83996489659999
 20
91.10611975700001
 10
73.6521117219
 20
91.2884875001
 10
73.4615035133
 20
91.46400286379998
 10
73.27130749930001
 20
91.63026633520001
 10
73.0842717646
 20
91.78572174899999
 10
72.904629563
 20
91.9279859757
 10
72.73204599669999
 20
92.058534381
 10
72.56764641229999
 20
92.17759134819999
 10
72.4109660294
 20
92.28646979590001
 10
72.26173558880001
 20
92.38617808689999
 10
72.1199768698
 20
92.47742411719999
 10
71.98574835239999
 20
92.56081405809998
 10
71.858320627
 20
92.63735843799999
 10
71.7371139869
 20
92.7078668486
 10
71.6213951905
 20
92.7731466628
 10
71.5101786438
 20
92.83405895120001
 10
71.40337965180001
 20
92.8909033907
 10
71.30031860319999
 20
92.9442593809
 10
71.20166574799999
 20
92.9939812019
 10
71.10801147779999
 20
93.03998189389998
 10
71.0188985745
 20
93.08268310889999
 10
70.9341226714
 20
93.1223538363
 10
70.8534399506
 20
93.1592584172
 10
70.7766034869
 20
93.19364259489999
 10
70.7033574025
 20
93.2257372057
 10
70.63345002050001
 20
93.25575473629999
 10
70.5665739219
 20
93.2839154084
 10
70.502453457
 20
93.31041158059999
 10
70.4407022268
 20
93.33546648690001
 10
70.3809574927
 20
93.35927997270001
 10
70.32283846439999
 20
93.38204544889999
 10
70.2659614356
 20
93.40394599959999
 10
70.20994472560001
 20
93.4251520301
 10
70.1543822862
 20
93.44583296299999
 10
70.0989406568
 20
93.46612095430002
 10
70.0432058808
 20
93.48616877319999
 10
69.98699510609999
 20
93.5060372544
 10
69.9296072933
 20
93.52596108870001
 10
69.8721715701
 20
93.54553916909999
 10
69.8151497657
 20
93.5646192415
 10
69.7598742809
 20
93.5827778812
 10
69.7079857521
 20
93.59952309459998
 10
69.65906582009999
 20
93.6150442345
 10
69.6134130816
 20
93.62929653100001
 10
69.57051279019999
 20
93.64248687419999
 10
69.52996790739999
 20
93.6547738832
 10
69.45555934179999
 20
93.67687472670001
  0
LWPOLYLINE
  5
18EF
330
220
100
AcDbEntity
  8
0
  6
Continuous
 62
     7
100
AcDbPolyline
 90
        7
 70
     0
 43
0.0
 10
76.6962799141
 20
83.3806218199
 10
76.7035979077
 20
83.49644263989999
 10
76.7096106283
 20
83.6125193055
 10
76.71431389529999
 20
83.728821915
 10
76.7177054859
 20
83.84537726739999
 10
76.71978122029999
 20
83.96221205139999
 10
76.72053497669999
 20
84.07929590450001
  0
LWPOLYLINE
  5
18F4
330
220
100
AcDbEntity
  8
0
  6
Continuous
 62
     7
100
AcDbPolyline
 90
       99
 70
     0
 43
0.0
 10
84.7225466665
 20
84.07929590450001
 10
84.72042471829999
 20
84.32413761319999
 10
84.71418354769999
 20
84.5641568151
 10
84.70393519060001
 20
84.7991402248
 10
84.6898151455
 20
85.02932075310001
 10
84.67194714559999
 20
85.2548418823
 10
84.6504453532
 20
85.4758243741
 10
84.6254185277
 20
85.6924190782
 10
84.59696906700001
 20
85.9047294556
 10
84.5651953141
 20
86.11287767440002
 10
84.53018334419999
 20
86.3169970528
 10
84.49202128199999
 20
86.51719779770001
 10
84.45077577859999
 20
86.7136588716
 10
84.40650695349999
 20
86.90654173819998
 10
84.35926193550001
 20
87.096011599
 10
84.30907089760001
 20
87.28225564049999
 10
84.2559708655
 20
87.4653833207
 10
84.1999951564
 20
87.6455362925
 10
84.14119454600001
 20
87.8227761545
 10
84.0796230393
 20
87.99714160120002
 10
84.01526092640001
 20
88.1688471045
 10
83.948099242
 20
88.33803049049999
 10
83.87806678270001
 20
88.50494834959999
 10
83.805071439
 20
88.66989579330001
 10
83.72914525789999
 20
88.8328670105
 10
83.65027600700001
 20
88.9939383601
 10
83.5684608617
 20
89.15314342790001
 10
83.4837129305
 20
89.31047380169999
 10
83.39592538720001
 20
89.46611520999999
 10
83.3050483329
 20
89.6201570878
 10
83.21091277089999
 20
89.7728896131
 10
83.11331663149999
 20
89.9245974987
 10
83.01219747560001
 20
90.07531519229999
 10
82.90743287700001
 20
90.22514356870001
 10
82.7989326303
 20
90.37410870829999
 10
82.68661261629999
 20
90.52223919339999
 10
82.5703445643
 20
90.6696263186
 10
82.45002916209999
 20
90.8163062484
 10
82.3254663424
 20
90.9624237016
 10
82.19646389000001
 20
91.10807923280001
 10
82.062833134
 20
91.2533471032
 10
81.9243596567
 20
91.39832267690001
 10
81.78088605460001
 20
91.543032399
 10
81.63223663770001
 20
91.6875078043
 10
81.4782328581
 20
91.83176925499999
 10
81.3187159167
 20
91.9758035783
 10
81.15343592329999
 20
92.1196706483
 10
80.9821514427
 20
92.26340593629998
 10
80.80457270450001
 20
92.40707168760001
 10
80.6204260346
 20
92.5506973292
 10
80.4294010623
 20
92.69432730030001
 10
80.23118381659999
 20
92.83798858819999
 10
80.0255085204
 20
92.98166320989999
 10
79.8120623847
 20
93.1253515034
 10
79.590702604
 20
93.2689363322
 10
79.3612676938
 20
93.41230835360001
 10
79.12348166619999
 20
93.5554077601
 10
78.87712158560001
 20
93.6981318688
 10
78.62179039389999
 20
93.84046630799998
 10
78.35716589819999
 20
93.98234665209999
 10
78.08283520899999
 20
94.12374712809999
 10
77.7983266106
 20
94.26466114410001
 10
77.50355278109999
 20
94.4048897432
 10
77.1983607163
 20
94.544247405
 10
76.88238226270001
 20
94.6826162193
 10
76.5553985146
 20
94.81980990629999
 10
76.2168184045
 20
94.95579636059998
 10
75.8661617349
 20
95.0904854292
 10
75.5029414193
 20
95.2237844967
 10
75.12636173939999
 20
95.3556800986
 10
74.73682324249999
 20
95.4857042777
 10
74.3351748234
 20
95.61329929080001
 10
73.91934271869999
 20
95.73882815899999
 10
73.48858122850001
 20
95.86217401879999
 10
73.0397117433
 20
95.98384572870001
 10
72.5696229161
 20
96.10417633309999
 10
72.0772291129
 20
96.22316821970001
 10
71.5589082684
 20
96.341129698
 10
71.0190135409
 20
96.4564655052
 10
70.4603999393
 20
96.56813391760001
 10
69.8841334464
 20
96.67559575209999
 10
69.29250099810001
 20
96.7781770336
 10
68.6848044634
 20
96.87578779049999
 10
68.06031095929999
 20
96.96831202630001
 10
67.4214477852
 20
97.05521757559999
 10
66.7724702655
 20
97.13591182850001
 10
66.1071912876
 20
97.2110736439
 10
65.4239110435
 20
97.28057930709999
 10
64.7133298451
 20
97.34489587510001
 10
63.9660941122
 20
97.4045643122
 10
63.18058913979999
 20
97.4603295096
 10
62.3457296211
 20
97.51284880680001
 10
61.4806963992
 20
97.56023650320001
 10
60.599342421
 20
97.60117628709998
 10
59.7063800015
 20
97.6350915849
 10
58.811009628
 20
97.6614944401
 10
57.91372268699999
 20
97.6803640293
 10
57.0185094207
 20
97.69164707620001
 10
56.124124293
 20
97.69540469729999
  0
LWPOLYLINE
  5
18F5
330
220
100
AcDbEntity
  8
0
  6
Continuous
 62
     7
100
AcDbPolyline
 90
       99
 70
     0
 43
0.0
 10
84.7225466665
 20
84.07929590450001
 10
84.72042471829999
 20
83.83445419590001
 10
84.71418354769999
 20
83.59443499399999
 10
84.70393519060001
 20
83.3594515843
 10
84.6898151455
 20
83.1292710559
 10
84.67194714559999
 20
82.9037499268
 10
84.6504453532
 20
82.68276743500001
 10
84.6254185277
 20
82.4661727308
 10
84.59696906700001
 20
82.25386235349999
 10
84.5651953141
 20
82.0457141347
 10
84.53018334419999
 20
81.8415947563
 10
84.49202128199999
 20
81.6413940113
 10
84.45077577859999
 20
81.4449329375
 10
84.40650695349999
 20
81.25205007079999
 10
84.35926193550001
 20
81.06258021
 10
84.30907089760001
 20
80.8763361685
 10
84.2559708655
 20
80.6932084884
 10
84.1999951564
 20
80.5130555166
 10
84.14119454600001
 20
80.3358156546
 10
84.0796230393
 20
80.1614502079
 10
84.01526092640001
 20
79.9897447046
 10
83.948099242
 20
79.8205613185
 10
83.87806678270001
 20
79.6536434594
 10
83.805071439
 20
79.4886960157
 10
83.72914525789999
 20
79.32572479850001
 10
83.65027600700001
 20
79.16465344889999
 10
83.5684608617
 20
79.0054483812
 10
83.4837129305
 20
78.8481180074
 10
83.39592538720001
 20
78.692476599
 10
83.3050483329
 20
78.53843472120001
 10
83.21091277089999
 20
78.3857021959
 10
83.11331663149999
 20
78.23399431039999
 10
83.01219747560001
 20
78.0832766168
 10
82.90743287700001
 20
77.9334482404
 10
82.7989326303
 20
77.7844831007
 10
82.68661261629999
 20
77.63635261569999
 10
82.5703445643
 20
77.48896549050001
 10
82.45002916209999
 20
77.3422855606
 10
82.3254663424
 20
77.1961681075
 10
82.19646389000001
 20
77.05051257619999
 10
82.062833134
 20
76.9052447058
 10
81.9243596567
 20
76.76026913210001
 10
81.78088605460001
 20
76.61555941
 10
81.63223663770001
 20
76.4710840047
 10
81.4782328581
 20
76.3268225541
 10
81.3187159167
 20
76.18278823069999
 10
81.15343592329999
 20
76.0389211608
 10
80.9821514427
 20
75.89518587270001
 10
80.80457270450001
 20
75.75152012149999
 10
80.6204260346
 20
75.60789447979999
 10
80.4294010623
 20
75.4642645088
 10
80.23118381659999
 20
75.3206032209
 10
80.0255085204
 20
75.17692859909999
 10
79.8120623847
 20
75.03324030569999
 10
79.590702604
 20
74.8896554768
 10
79.3612676938
 20
74.74628345540001
 10
79.12348166619999
 20
74.6031840489
 10
78.87712158560001
 20
74.46045994020001
 10
78.62179039389999
 20
74.3181255011
 10
78.35716589819999
 20
74.176245157
 10
78.08283520899999
 20
74.03484468100001
 10
77.7983266106
 20
73.8939306649
 10
77.50355278109999
 20
73.7537020659
 10
77.1983607163
 20
73.6143444041
 10
76.88238226270001
 20
73.4759755898
 10
76.5553985146
 20
73.3387819027
 10
76.2168184045
 20
73.20279544849999
 10
75.8661617349
 20
73.0681063799
 10
75.5029414193
 20
72.93480731239999
 10
75.12636173939999
 20
72.8029117105
 10
74.73682324249999
 20
72.6728875313
 10
74.3351748234
 20
72.5452925182
 10
73.91934271869999
 20
72.41976365010001
 10
73.48858122850001
 20
72.29641779020001
 10
73.0397117433
 20
72.17474608029999
 10
72.5696229161
 20
72.0544154759
 10
72.0772291129
 20
71.9354235894
 10
71.5589082684
 20
71.8174621111
 10
71.0190135409
 20
71.7021263038
 10
70.4603999393
 20
71.59045789140001
 10
69.8841334464
 20
71.482996057
 10
69.29250099810001
 20
71.38041477539999
 10
68.6848044634
 20
71.2828040185
 10
68.06031095929999
 20
71.19027978270001
 10
67.4214477852
 20
71.1033742335
 10
66.7724702655
 20
71.0226799806
 10
66.1071912876
 20
70.94751816520001
 10
65.4239110435
 20
70.8780125019
 10
64.7133298451
 20
70.8136959339
 10
63.9660941122
 20
70.75402749680001
 10
63.18058913979999
 20
70.6982622994
 10
62.3457296211
 20
70.64574300229999
 10
61.4806963992
 20
70.5983553058
 10
60.599342421
 20
70.557415522
 10
59.7063800015
 20
70.5235002242
 10
58.811009628
 20
70.497097369
 10
57.91372268699999
 20
70.47822777979999
 10
57.0185094207
 20
70.4669447329
 10
56.124124293
 20
70.46318711179999
  0
LWPOLYLINE
  5
18F6
330
220
100
AcDbEntity
  8
0
  6
Continuous
 62
     7
100
AcDbPolyline
 90
      113
 70
     0
 43
0.0
 10
89.1241242927
 20
84.0792959048
 10
89.1192084665
 20
84.50688709739999
 10
89.105382801
 20
84.92471425819999
 10
89.0824898083
 20
85.33265078040001
 10
89.0510019519
 20
85.73107648449999
 10
89.0112558154
 20
86.1202072809
 10
88.96350155040002
 20
86.50040829239999
 10
88.9080439485
 20
86.87192005680001
 10
88.84505567439999
 20
87.2353322384
 10
88.7747729169
 20
87.5912110902
 10
88.69730989469999
 20
87.9398673833
 10
88.61285217870001
 20
88.28165299410001
 10
88.52142190089999
 20
88.61701085909999
 10
88.42308967159999
 20
88.9463981817
 10
88.31789562770001
 20
89.2701240375
 10
88.20592456719998
 20
89.5885508906
 10
88.08711311659999
 20
89.9019757794
 10
87.96144809229998
 20
90.21076512350001
 10
87.8288637216
 20
90.51507324360001
 10
87.6892779956
 20
90.8151638238
 10
87.5427264386
 20
91.11107519429999
 10
87.3892727577
 20
91.40284805669999
 10
87.22875039479999
 20
91.69073898159998
 10
87.06104120059999
 20
91.97501402610001
 10
86.8860636544
 20
92.2556854329
 10
86.7037762844
 20
92.5327583456
 10
86.5139407949
 20
92.8065201201
 10
86.31638340610001
 20
93.0772291219
 10
86.110869099
 20
93.34497746649999
 10
85.89722521770001
 20
93.60988446309999
 10
85.67509089339999
 20
93.87212689540001
 10
85.44416251420001
 20
94.13188461450001
 10
85.2040956527
 20
94.3892677272
 10
84.95460062399999
 20
94.64441483239999
 10
84.69520958869999
 20
94.89742030459998
 10
84.42555943050001
 20
95.14837701709998
 10
84.1450462947
 20
95.3974280725
 10
83.8530877832
 20
95.64477934850001
 10
83.5492564101
 20
95.89033539319999
 10
83.23307841790001
 20
96.13411499979999
 10
82.9041102236
 20
96.375981311
 10
82.5619970416
 20
96.6157973053
 10
82.2059987223
 20
96.8535822675
 10
81.83543413589999
 20
97.08937655820001
 10
81.44977143750001
 20
97.32297992799999
 10
81.04836990390001
 20
97.5543133714
 10
80.6308750408
 20
97.783053518
 10
80.19705814539999
 20
98.0088550459
 10
79.7459011208
 20
98.2317048035
 10
79.27735168079999
 20
98.45125753840001
 10
78.7882836896
 20
98.6681642315
 10
78.27645939189999
 20
98.882952705
 10
77.7391613602
 20
99.0956471822
 10
77.17174973199999
 20
99.30717826120002
 10
76.5777540574
 20
99.5153546398
 10
75.9547193042
 20
99.71959768579999
 10
75.3159593573
 20
99.91599998620001
 10
74.67088602939999
 20
100.1007763539
 10
74.02875050590001
 20
100.2729814787
 10
73.40105430310001
 20
100.4300311588
 10
72.79045824100001
 20
100.5730568832
 10
72.20242296069999
 20
100.7020457036
 10
71.64005051560001
 20
100.817846731
 10
71.108567597
 20
100.920852208
 10
70.6070609322
 20
101.012419793
 10
70.1376381976
 20
101.0935639825
 10
69.69646323710001
 20
101.1657065057
 10
69.2812882509
 20
101.2303214813
 10
68.88945584609999
 20
101.2882662367
 10
68.51819577090001
 20
101.3407020474
 10
68.16559880300001
 20
101.3881911878
 10
67.8284149321
 20
101.4316507972
 10
67.5078962697
 20
101.4711775568
 10
67.20387742779999
 20
101.5071267972
 10
66.91736089399999
 20
101.5396397102
 10
66.64996754899999
 20
101.5688367525
 10
66.39967682439999
 20
101.5951354589
 10
66.1663352699
 20
101.6188266107
 10
65.94596241089999
 20
101.6404109249
 10
65.735585622
 20
101.6603789218
 10
65.5320279054
 20
101.6790519727
 10
65.3318028929
 20
101.6968610816
 10
65.13286607080001
 20
101.7139678707
 10
64.9315591104
 20
101.7307176625
 10
64.7292370886
 20
101.7469903602
 10
64.5257222326
 20
101.7627729314
 10
64.3219547632
 20
101.7780895054
 10
64.1189984232
 20
101.7929471948
 10
63.9163048733
 20
101.8073840175
 10
63.71409392060001
 20
101.821417143
 10
63.51112487
 20
101.8351162291
 10
63.3070333291
 20
101.8485144629
 10
63.0994101967
 20
101.8617384252
 10
62.886404431
 20
101.874904412
 10
62.6659774607
 20
101.8880764646
 10
62.4360473112
 20
101.9013550667
 10
62.194893151
 20
101.9147471871
 10
61.9402209505
 20
101.9283254784
 10
61.6716683288
 20
101.9419933733
 10
61.3882312143
 20
101.9557167443
 10
61.08954064979999
 20
101.969380925
 10
60.775067766
 20
101.9829035954
 10
60.4442882265
 20
101.9961535894
 10
60.0966758331
 20
102.0090255812
 10
59.7317073013
 20
102.0213597307
 10
59.3488608754
 20
102.0330250184
 10
58.9476057704
 20
102.0438296564
 10
58.5274105089
 20
102.0536141586
 10
58.08775541220001
 20
102.0621506001
 10
57.6281153404
 20
102.0692471373
 10
57.1479752
 20
102.0746360395
 10
56.6465585834
 20
102.0779441688
 10
56.1241242931
 20
102.0792959045
  0
CIRCLE
  5
1ACB
330
220
100
AcDbEntity
  8
DEFAULT_2
  6
HIDDEN
 62
     7
100
AcDbCircle
 10
56.124124293
 20
80.8292959045
 30
0.0
 40
0.9375
  0
CIRCLE
  5
1AE9
330
220
100
AcDbEntity
  8
0
  6
Continuous
 62
     7
100
AcDbCircle
 10
56.124124293
 20
77.5792959045
 30
0.0
 40
1.448223304699999
  0
ENDSEC
  0
SECTION
  2
OBJECTS
  0
DICTIONARY
  5
C
330
0
100
AcDbDictionary
281
     1
  3
ACAD_COLOR
350
1B26
  3
ACAD_GROUP
350
D
  3
ACAD_LAYOUT
350
1A
  3
ACAD_MATERIAL
350
1AF9
  3
ACAD_MLEADERSTYLE
350
1B4B
  3
ACAD_MLINESTYLE
350
17
  3
ACAD_PLOTSETTINGS
350
19
  3
ACAD_PLOTSTYLENAME
350
E
  3
ACAD_SCALELIST
350
1B29
  3
ACAD_TABLESTYLE
350
1B27
  3
ACAD_VISUALSTYLE
350
1B12
  3
ACDB_RECOMPOSE_DATA
350
1B51
  3
AcDbVariableDictionary
350
1B83
  3
DWGPROPS
350
1BEC
  0
DICTIONARY
  5
1B52
330
8
100
AcDbDictionary
280
     1
281
     1
  0
DICTIONARY
  5
1B97
330
10
100
AcDbDictionary
280
     1
281
     1
  3
ADSK_XREC_LAYER_RECONCILED
360
1B98
  0
DICTIONARY
  5
1B99
330
1FA
100
AcDbDictionary
280
     1
281
     1
  3
ADSK_XREC_LAYER_RECONCILED
360
1B9A
  0
DICTIONARY
  5
1B9B
330
1FB
100
AcDbDictionary
280
     1
281
     1
  3
ADSK_XREC_LAYER_RECONCILED
360
1B9C
  0
DICTIONARY
  5
1B9D
330
1FC
100
AcDbDictionary
280
     1
281
     1
  3
ADSK_XREC_LAYER_RECONCILED
360
1B9E
  0
DICTIONARY
  5
1B9F
330
1FD
100
AcDbDictionary
280
     1
281
     1
  3
ADSK_XREC_LAYER_RECONCILED
360
1BA0
  0
DICTIONARY
  5
1BA1
330
1FE
100
AcDbDictionary
280
     1
281
     1
  3
ADSK_XREC_LAYER_RECONCILED
360
1BA2
  0
DICTIONARY
  5
1BA3
330
1FF
100
AcDbDictionary
280
     1
281
     1
  3
ADSK_XREC_LAYER_RECONCILED
360
1BA4
  0
DICTIONARY
  5
1BA5
330
200
100
AcDbDictionary
280
     1
281
     1
  3
ADSK_XREC_LAYER_RECONCILED
360
1BA6
  0
DICTIONARY
  5
1BA7
330
201
100
AcDbDictionary
280
     1
281
     1
  3
ADSK_XREC_LAYER_RECONCILED
360
1BA8
  0
DICTIONARY
  5
1BA9
330
202
100
AcDbDictionary
280
     1
281
     1
  3
ADSK_XREC_LAYER_RECONCILED
360
1BAA
  0
DICTIONARY
  5
1BAB
330
203
100
AcDbDictionary
280
     1
281
     1
  3
ADSK_XREC_LAYER_RECONCILED
360
1BAC
  0
DICTIONARY
  5
1BAD
330
204
100
AcDbDictionary
280
     1
281
     1
  3
ADSK_XREC_LAYER_RECONCILED
360
1BAE
  0
DICTIONARY
  5
1BAF
330
205
100
AcDbDictionary
280
     1
281
     1
  3
ADSK_XREC_LAYER_RECONCILED
360
1BB0
  0
DICTIONARY
  5
1BB1
330
206
100
AcDbDictionary
280
     1
281
     1
  3
ADSK_XREC_LAYER_RECONCILED
360
1BB2
  0
DICTIONARY
  5
1BB3
330
207
100
AcDbDictionary
280
     1
281
     1
  3
ADSK_XREC_LAYER_RECONCILED
360
1BB4
  0
DICTIONARY
  5
1BB5
330
208
100
AcDbDictionary
280
     1
281
     1
  3
ADSK_XREC_LAYER_RECONCILED
360
1BB6
  0
DICTIONARY
  5
1BB7
330
209
100
AcDbDictionary
280
     1
281
     1
  3
ADSK_XREC_LAYER_RECONCILED
360
1BB8
  0
DICTIONARY
  5
1BB9
330
20A
100
AcDbDictionary
280
     1
281
     1
  3
ADSK_XREC_LAYER_RECONCILED
360
1BBA
  0
DICTIONARY
  5
1BBB
330
20B
100
AcDbDictionary
280
     1
281
     1
  3
ADSK_XREC_LAYER_RECONCILED
360
1BBC
  0
DICTIONARY
  5
1BBD
330
20C
100
AcDbDictionary
280
     1
281
     1
  3
ADSK_XREC_LAYER_RECONCILED
360
1BBE
  0
DICTIONARY
  5
1BBF
330
20D
100
AcDbDictionary
280
     1
281
     1
  3
ADSK_XREC_LAYER_RECONCILED
360
1BC0
  0
DICTIONARY
  5
1BC1
330
20E
100
AcDbDictionary
280
     1
281
     1
  3
ADSK_XREC_LAYER_RECONCILED
360
1BC2
  0
DICTIONARY
  5
1BC3
330
20F
100
AcDbDictionary
280
     1
281
     1
  3
ADSK_XREC_LAYER_RECONCILED
360
1BC4
  0
DICTIONARY
  5
1BC5
330
210
100
AcDbDictionary
280
     1
281
     1
  3
ADSK_XREC_LAYER_RECONCILED
360
1BC6
  0
DICTIONARY
  5
1BC7
330
211
100
AcDbDictionary
280
     1
281
     1
  3
ADSK_XREC_LAYER_RECONCILED
360
1BC8
  0
DICTIONARY
  5
1BC9
330
212
100
AcDbDictionary
280
     1
281
     1
  3
ADSK_XREC_LAYER_RECONCILED
360
1BCA
  0
DICTIONARY
  5
1BCB
330
213
100
AcDbDictionary
280
     1
281
     1
  3
ADSK_XREC_LAYER_RECONCILED
360
1BCC
  0
DICTIONARY
  5
1BCD
330
214
100
AcDbDictionary
280
     1
281
     1
  3
ADSK_XREC_LAYER_RECONCILED
360
1BCE
  0
DICTIONARY
  5
1BCF
330
215
100
AcDbDictionary
280
     1
281
     1
  3
ADSK_XREC_LAYER_RECONCILED
360
1BD0
  0
DICTIONARY
  5
1BD1
330
216
100
AcDbDictionary
280
     1
281
     1
  3
ADSK_XREC_LAYER_RECONCILED
360
1BD2
  0
DICTIONARY
  5
1BD3
330
217
100
AcDbDictionary
280
     1
281
     1
  3
ADSK_XREC_LAYER_RECONCILED
360
1BD4
  0
DICTIONARY
  5
1B26
102
{ACAD_REACTORS
330
C
102
}
330
C
100
AcDbDictionary
281
     1
  0
DICTIONARY
  5
D
102
{ACAD_REACTORS
330
C
102
}
330
C
100
AcDbDictionary
281
     1
  0
DICTIONARY
  5
1A
102
{ACAD_REACTORS
330
C
102
}
330
C
100
AcDbDictionary
281
     1
  3
Layout1
350
1AF5
  3
Model
350
1AF4
  0
DICTIONARY
  5
1AF9
102
{ACAD_REACTORS
330
C
102
}
330
C
100
AcDbDictionary
281
     1
  3
ByBlock
350
1B02
  3
ByLayer
350
1AFA
  3
Global
350
1B0A
  0
DICTIONARY
  5
1B4B
102
{ACAD_REACTORS
330
C
102
}
330
C
100
AcDbDictionary
281
     1
  3
Standard
350
1B4C
  0
DICTIONARY
  5
17
102
{ACAD_REACTORS
330
C
102
}
330
C
100
AcDbDictionary
281
     1
  3
Standard
350
18
  0
DICTIONARY
  5
19
102
{ACAD_REACTORS
330
C
102
}
330
C
100
AcDbDictionary
281
     1
  0
ACDBDICTIONARYWDFLT
  5
E
102
{ACAD_REACTORS
330
C
102
}
330
C
100
AcDbDictionary
281
     1
  3
Normal
350
F
100
AcDbDictionaryWithDefault
340
F
  0
DICTIONARY
  5
1B29
102
{ACAD_REACTORS
330
C
102
}
330
C
100
AcDbDictionary
281
     1
  3
A0
350
1B2A
  3
A1
350
1B2B
  3
A2
350
1B2C
  3
A3
350
1B2D
  3
A4
350
1B2E
  3
A5
350
1B2F
  3
A6
350
1B30
  3
A7
350
1B31
  3
A8
350
1B32
  3
A9
350
1B33
  3
B0
350
1B34
  3
B1
350
1B35
  3
B2
350
1B36
  3
B3
350
1B37
  3
B4
350
1B38
  3
B5
350
1B39
  3
B6
350
1B3A
  3
B7
350
1B3B
  3
B8
350
1B3C
  3
B9
350
1B3D
  3
C0
350
1B3E
  3
C1
350
1B3F
  3
C2
350
1B40
  3
C3
350
1B41
  3
C4
350
1B42
  3
C5
350
1B43
  3
C6
350
1B44
  3
C7
350
1B45
  3
C8
350
1B46
  3
C9
350
1B47
  3
D0
350
1B48
  3
D1
350
1B49
  3
D2
350
1B4A
  0
DICTIONARY
  5
1B27
102
{ACAD_REACTORS
330
C
102
}
330
C
100
AcDbDictionary
281
     1
  3
Standard
350
1B28
  0
DICTIONARY
  5
1B12
102
{ACAD_REACTORS
330
C
102
}
330
C
100
AcDbDictionary
281
     1
  3
2dWireframe
350
1B18
  3
3D Hidden
350
1B1A
  3
3dWireframe
350
1B19
  3
Basic
350
1B17
  3
Brighten
350
1B1E
  3
ColorChange
350
1B22
  3
Conceptual
350
1B1B
  3
Dim
350
1B1D
  3
EdgeColorOff
350
1B25
  3
Facepattern
350
1B21
  3
Flat
350
1B13
  3
FlatWithEdges
350
1B14
  3
Gouraud
350
1B15
  3
GouraudWithEdges
350
1B16
  3
JitterOff
350
1B23
  3
Linepattern
350
1B20
  3
OverhangOff
350
1B24
  3
Realistic
350
1B1C
  3
Thicken
350
1B1F
  0
XRECORD
  5
1B51
102
{ACAD_REACTORS
330
C
102
}
330
C
100
AcDbXrecord
280
     1
 90
        1
330
1B28
  0
DICTIONARY
  5
1B83
102
{ACAD_REACTORS
330
C
102
}
330
C
100
AcDbDictionary
281
     1
  3
CANNOSCALE
350
1B86
  3
CMLEADERSTYLE
350
1B85
  3
CTABLESTYLE
350
1B84
  3
DIMASSOC
350
1B89
  3
INDEXCTL
350
1B88
  3
LAYEREVAL
350
1BD8
  3
LAYERNOTIFY
350
1BD9
  3
LIGHTINGUNITS
350
1BD7
  3
MSLTSCALE
350
1BD6
  3
SORTENTS
350
1B87
  3
XCLIPFRAME
350
1B8A
  0
XRECORD
  5
1BEC
102
{ACAD_REACTORS
330
C
102
}
330
C
100
AcDbXrecord
280
     1
  1
DWGPROPS COOKIE
  2

  3

  4

  6

  7

  8
francoisbu
  9

300
=
301
=
302
=
303
=
304
=
305
=
306
=
307
=
308
=
309
=
 40
0.0127075347222222
 41
2456087.40924669
 42
2456087.437716435
  1

 90
        0
  0
XRECORD
  5
1B98
102
{ACAD_REACTORS
330
1B97
102
}
330
1B97
100
AcDbXrecord
280
     1
290
     1
  0
XRECORD
  5
1B9A
102
{ACAD_REACTORS
330
1B99
102
}
330
1B99
100
AcDbXrecord
280
     1
290
     1
  0
XRECORD
  5
1B9C
102
{ACAD_REACTORS
330
1B9B
102
}
330
1B9B
100
AcDbXrecord
280
     1
290
     1
  0
XRECORD
  5
1B9E
102
{ACAD_REACTORS
330
1B9D
102
}
330
1B9D
100
AcDbXrecord
280
     1
290
     1
  0
XRECORD
  5
1BA0
102
{ACAD_REACTORS
330
1B9F
102
}
330
1B9F
100
AcDbXrecord
280
     1
290
     1
  0
XRECORD
  5
1BA2
102
{ACAD_REACTORS
330
1BA1
102
}
330
1BA1
100
AcDbXrecord
280
     1
290
     1
  0
XRECORD
  5
1BA4
102
{ACAD_REACTORS
330
1BA3
102
}
330
1BA3
100
AcDbXrecord
280
     1
290
     1
  0
XRECORD
  5
1BA6
102
{ACAD_REACTORS
330
1BA5
102
}
330
1BA5
100
AcDbXrecord
280
     1
290
     1
  0
XRECORD
  5
1BA8
102
{ACAD_REACTORS
330
1BA7
102
}
330
1BA7
100
AcDbXrecord
280
     1
290
     1
  0
XRECORD
  5
1BAA
102
{ACAD_REACTORS
330
1BA9
102
}
330
1BA9
100
AcDbXrecord
280
     1
290
     1
  0
XRECORD
  5
1BAC
102
{ACAD_REACTORS
330
1BAB
102
}
330
1BAB
100
AcDbXrecord
280
     1
290
     1
  0
XRECORD
  5
1BAE
102
{ACAD_REACTORS
330
1BAD
102
}
330
1BAD
100
AcDbXrecord
280
     1
290
     1
  0
XRECORD
  5
1BB0
102
{ACAD_REACTORS
330
1BAF
102
}
330
1BAF
100
AcDbXrecord
280
     1
290
     1
  0
XRECORD
  5
1BB2
102
{ACAD_REACTORS
330
1BB1
102
}
330
1BB1
100
AcDbXrecord
280
     1
290
     1
  0
XRECORD
  5
1BB4
102
{ACAD_REACTORS
330
1BB3
102
}
330
1BB3
100
AcDbXrecord
280
     1
290
     1
  0
XRECORD
  5
1BB6
102
{ACAD_REACTORS
330
1BB5
102
}
330
1BB5
100
AcDbXrecord
280
     1
290
     1
  0
XRECORD
  5
1BB8
102
{ACAD_REACTORS
330
1BB7
102
}
330
1BB7
100
AcDbXrecord
280
     1
290
     1
  0
XRECORD
  5
1BBA
102
{ACAD_REACTORS
330
1BB9
102
}
330
1BB9
100
AcDbXrecord
280
     1
290
     1
  0
XRECORD
  5
1BBC
102
{ACAD_REACTORS
330
1BBB
102
}
330
1BBB
100
AcDbXrecord
280
     1
290
     1
  0
XRECORD
  5
1BBE
102
{ACAD_REACTORS
330
1BBD
102
}
330
1BBD
100
AcDbXrecord
280
     1
290
     1
  0
XRECORD
  5
1BC0
102
{ACAD_REACTORS
330
1BBF
102
}
330
1BBF
100
AcDbXrecord
280
     1
290
     1
  0
XRECORD
  5
1BC2
102
{ACAD_REACTORS
330
1BC1
102
}
330
1BC1
100
AcDbXrecord
280
     1
290
     1
  0
XRECORD
  5
1BC4
102
{ACAD_REACTORS
330
1BC3
102
}
330
1BC3
100
AcDbXrecord
280
     1
290
     1
  0
XRECORD
  5
1BC6
102
{ACAD_REACTORS
330
1BC5
102
}
330
1BC5
100
AcDbXrecord
280
     1
290
     1
  0
XRECORD
  5
1BC8
102
{ACAD_REACTORS
330
1BC7
102
}
330
1BC7
100
AcDbXrecord
280
     1
290
     1
  0
XRECORD
  5
1BCA
102
{ACAD_REACTORS
330
1BC9
102
}
330
1BC9
100
AcDbXrecord
280
     1
290
     1
  0
XRECORD
  5
1BCC
102
{ACAD_REACTORS
330
1BCB
102
}
330
1BCB
100
AcDbXrecord
280
     1
290
     1
  0
XRECORD
  5
1BCE
102
{ACAD_REACTORS
330
1BCD
102
}
330
1BCD
100
AcDbXrecord
280
     1
290
     1
  0
XRECORD
  5
1BD0
102
{ACAD_REACTORS
330
1BCF
102
}
330
1BCF
100
AcDbXrecord
280
     1
290
     1
  0
XRECORD
  5
1BD2
102
{ACAD_REACTORS
330
1BD1
102
}
330
1BD1
100
AcDbXrecord
280
     1
290
     1
  0
XRECORD
  5
1BD4
102
{ACAD_REACTORS
330
1BD3
102
}
330
1BD3
100
AcDbXrecord
280
     1
290
     1
  0
LAYOUT
  5
1AF5
102
{ACAD_XDICTIONARY
360
1BEF
102
}
102
{ACAD_REACTORS
330
1A
102
}
330
1A
100
AcDbPlotSettings
  1

  2
none_device
  4
ANSI_B_(17.00_x_11.00_Inches)
  6

 40
0.0
 41
0.0
 42
0.0
 43
0.0
 44
431.8
 45
279.4
 46
0.0
 47
0.0
 48
0.0
 49
0.0
140
0.0
141
0.0
142
1.0
143
1.0
 70
     0
 72
     0
 73
     0
 74
     0
  7

 75
     0
147
1.0
148
0.0
149
0.0
100
AcDbLayout
  1
Layout1
 70
     1
 71
     1
 10
0.0
 20
0.0
 11
12.0
 21
9.0
 12
0.0
 22
0.0
 32
0.0
 14
1.000000000000000E+20
 24
1.000000000000000E+20
 34
1.000000000000000E+20
 15
-1.000000000000000E+20
 25
-1.000000000000000E+20
 35
-1.000000000000000E+20
146
0.0
 13
0.0
 23
0.0
 33
0.0
 16
1.0
 26
0.0
 36
0.0
 17
0.0
 27
1.0
 37
0.0
 76
     0
330
221
  0
LAYOUT
  5
1AF4
102
{ACAD_XDICTIONARY
360
1BED
102
}
102
{ACAD_REACTORS
330
1A
102
}
330
1A
100
AcDbPlotSettings
  1

  2
none_device
  4
ANSI_B_(17.00_x_11.00_Inches)
  6

 40
0.0
 41
0.0
 42
0.0
 43
0.0
 44
431.8
 45
279.4
 46
0.0
 47
0.0
 48
0.0
 49
0.0
140
0.0
141
0.0
142
1.0
143
1.0
 70
  1024
 72
     0
 73
     0
 74
     0
  7

 75
     0
147
1.0
148
0.0
149
0.0
100
AcDbLayout
  1
Model
 70
     0
 71
     0
 10
0.0
 20
0.0
 11
17.0
 21
11.0
 12
0.0
 22
0.0
 32
0.0
 14
0.0
 24
0.0
 34
0.0
 15
0.0
 25
0.0
 35
0.0
146
0.0
 13
0.0
 23
0.0
 33
0.0
 16
1.0
 26
0.0
 36
0.0
 17
0.0
 27
1.0
 37
0.0
 76
     0
330
220
331
1F4
  0
MATERIAL
  5
1B02
102
{ACAD_XDICTIONARY
360
1B03
102
}
102
{ACAD_REACTORS
330
1AF9
102
}
330
1AF9
100
AcDbMaterial
  1
ByBlock
 72
     0
 43
0.0208333333333333
 43
0.0
 43
0.0
 43
0.0
 43
0.0
 43
0.0208333333333333
 43
0.0
 43
0.0
 43
0.0
 43
0.0
 43
1.0
 43
0.0
 43
0.0
 43
0.0
 43
0.0
 43
1.0
 77
     0
 47
0.0208333333333333
 47
0.0
 47
0.0
 47
0.0
 47
0.0
 47
0.0208333333333333
 47
0.0
 47
0.0
 47
0.0
 47
0.0
 47
1.0
 47
0.0
 47
0.0
 47
0.0
 47
0.0
 47
1.0
171
     0
 49
0.0208333333333333
 49
0.0
 49
0.0
 49
0.0
 49
0.0
 49
0.0208333333333333
 49
0.0
 49
0.0
 49
0.0
 49
0.0
 49
1.0
 49
0.0
 49
0.0
 49
0.0
 49
0.0
 49
1.0
175
     0
142
0.0208333333333333
142
0.0
142
0.0
142
0.0
142
0.0
142
0.0208333333333333
142
0.0
142
0.0
142
0.0
142
0.0
142
1.0
142
0.0
142
0.0
142
0.0
142
0.0
142
1.0
179
     0
144
0.0208333333333333
144
0.0
144
0.0
144
0.0
144
0.0
144
0.0208333333333333
144
0.0
144
0.0
144
0.0
144
0.0
144
1.0
144
0.0
144
0.0
144
0.0
144
0.0
144
1.0
147
0.0208333333333333
147
0.0
147
0.0
147
0.0
147
0.0
147
0.0208333333333333
147
0.0
147
0.0
147
0.0
147
0.0
147
1.0
147
0.0
147
0.0
147
0.0
147
0.0
147
1.0
  0
MATERIAL
  5
1AFA
102
{ACAD_XDICTIONARY
360
1AFB
102
}
102
{ACAD_REACTORS
330
1AF9
102
}
330
1AF9
100
AcDbMaterial
  1
ByLayer
 72
     0
 43
0.0208333333333333
 43
0.0
 43
0.0
 43
0.0
 43
0.0
 43
0.0208333333333333
 43
0.0
 43
0.0
 43
0.0
 43
0.0
 43
1.0
 43
0.0
 43
0.0
 43
0.0
 43
0.0
 43
1.0
 77
     0
 47
0.0208333333333333
 47
0.0
 47
0.0
 47
0.0
 47
0.0
 47
0.0208333333333333
 47
0.0
 47
0.0
 47
0.0
 47
0.0
 47
1.0
 47
0.0
 47
0.0
 47
0.0
 47
0.0
 47
1.0
171
     0
 49
0.0208333333333333
 49
0.0
 49
0.0
 49
0.0
 49
0.0
 49
0.0208333333333333
 49
0.0
 49
0.0
 49
0.0
 49
0.0
 49
1.0
 49
0.0
 49
0.0
 49
0.0
 49
0.0
 49
1.0
175
     0
142
0.0208333333333333
142
0.0
142
0.0
142
0.0
142
0.0
142
0.0208333333333333
142
0.0
142
0.0
142
0.0
142
0.0
142
1.0
142
0.0
142
0.0
142
0.0
142
0.0
142
1.0
179
     0
144
0.0208333333333333
144
0.0
144
0.0
144
0.0
144
0.0
144
0.0208333333333333
144
0.0
144
0.0
144
0.0
144
0.0
144
1.0
144
0.0
144
0.0
144
0.0
144
0.0
144
1.0
147
0.0208333333333333
147
0.0
147
0.0
147
0.0
147
0.0
147
0.0208333333333333
147
0.0
147
0.0
147
0.0
147
0.0
147
1.0
147
0.0
147
0.0
147
0.0
147
0.0
147
1.0
  0
MATERIAL
  5
1B0A
102
{ACAD_XDICTIONARY
360
1B0B
102
}
102
{ACAD_REACTORS
330
1AF9
102
}
330
1AF9
100
AcDbMaterial
  1
Global
 72
     0
 43
0.0208333333333333
 43
0.0
 43
0.0
 43
0.0
 43
0.0
 43
0.0208333333333333
 43
0.0
 43
0.0
 43
0.0
 43
0.0
 43
1.0
 43
0.0
 43
0.0
 43
0.0
 43
0.0
 43
1.0
 77
     0
 47
0.0208333333333333
 47
0.0
 47
0.0
 47
0.0
 47
0.0
 47
0.0208333333333333
 47
0.0
 47
0.0
 47
0.0
 47
0.0
 47
1.0
 47
0.0
 47
0.0
 47
0.0
 47
0.0
 47
1.0
171
     0
 49
0.0208333333333333
 49
0.0
 49
0.0
 49
0.0
 49
0.0
 49
0.0208333333333333
 49
0.0
 49
0.0
 49
0.0
 49
0.0
 49
1.0
 49
0.0
 49
0.0
 49
0.0
 49
0.0
 49
1.0
175
     0
142
0.0208333333333333
142
0.0
142
0.0
142
0.0
142
0.0
142
0.0208333333333333
142
0.0
142
0.0
142
0.0
142
0.0
142
1.0
142
0.0
142
0.0
142
0.0
142
0.0
142
1.0
179
     0
144
0.0208333333333333
144
0.0
144
0.0
144
0.0
144
0.0
144
0.0208333333333333
144
0.0
144
0.0
144
0.0
144
0.0
144
1.0
144
0.0
144
0.0
144
0.0
144
0.0
144
1.0
147
0.0208333333333333
147
0.0
147
0.0
147
0.0
147
0.0
147
0.0208333333333333
147
0.0
147
0.0
147
0.0
147
0.0
147
1.0
147
0.0
147
0.0
147
0.0
147
0.0
147
1.0
  0
MLEADERSTYLE
  5
1B4C
102
{ACAD_REACTORS
330
1B4B
102
}
330
1B4B
100
AcDbMLeaderStyle
170
     2
171
     1
172
     0
 90
        2
 40
0.0
 41
0.0
173
     1
 91
-1056964608
340
14
 92
       -2
290
     1
 42
0.09
291
     1
 43
0.36
  3
Standard
 44
0.18
300

342
11
174
     1
178
     6
175
     1
176
     0
 93
-1056964608
 45
0.18
292
     0
297
     0
 46
0.18
 94
-1056964608
 47
1.0
 49
1.0
140
1.0
293
     1
141
0.0
294
     1
177
     0
142
1.0
295
     0
296
     0
143
0.125
1001
ACAD_MLEADERVER
1070
     2
  0
MLINESTYLE
  5
18
102
{ACAD_REACTORS
330
17
102
}
330
17
100
AcDbMlineStyle
  2
STANDARD
 70
     0
  3

 62
   256
 51
90.0
 52
90.0
 71
     2
 49
0.5
 62
   256
  6
BYLAYER
 49
-0.5
 62
   256
  6
BYLAYER
  0
ACDBPLACEHOLDER
  5
F
102
{ACAD_REACTORS
330
E
102
}
330
E
  0
SCALE
  5
1B2A
102
{ACAD_REACTORS
330
1B29
102
}
330
1B29
100
AcDbScale
 70
     0
300
1:1
140
1.0
141
1.0
290
     1
  0
SCALE
  5
1B2B
102
{ACAD_REACTORS
330
1B29
102
}
330
1B29
100
AcDbScale
 70
     0
300
1:2
140
1.0
141
2.0
290
     0
  0
SCALE
  5
1B2C
102
{ACAD_REACTORS
330
1B29
102
}
330
1B29
100
AcDbScale
 70
     0
300
1:4
140
1.0
141
4.0
290
     0
  0
SCALE
  5
1B2D
102
{ACAD_REACTORS
330
1B29
102
}
330
1B29
100
AcDbScale
 70
     0
300
1:5
140
1.0
141
5.0
290
     0
  0
SCALE
  5
1B2E
102
{ACAD_REACTORS
330
1B29
102
}
330
1B29
100
AcDbScale
 70
     0
300
1:8
140
1.0
141
8.0
290
     0
  0
SCALE
  5
1B2F
102
{ACAD_REACTORS
330
1B29
102
}
330
1B29
100
AcDbScale
 70
     0
300
1:10
140
1.0
141
10.0
290
     0
  0
SCALE
  5
1B30
102
{ACAD_REACTORS
330
1B29
102
}
330
1B29
100
AcDbScale
 70
     0
300
1:16
140
1.0
141
16.0
290
     0
  0
SCALE
  5
1B31
102
{ACAD_REACTORS
330
1B29
102
}
330
1B29
100
AcDbScale
 70
     0
300
1:20
140
1.0
141
20.0
290
     0
  0
SCALE
  5
1B32
102
{ACAD_REACTORS
330
1B29
102
}
330
1B29
100
AcDbScale
 70
     0
300
1:30
140
1.0
141
30.0
290
     0
  0
SCALE
  5
1B33
102
{ACAD_REACTORS
330
1B29
102
}
330
1B29
100
AcDbScale
 70
     0
300
1:40
140
1.0
141
40.0
290
     0
  0
SCALE
  5
1B34
102
{ACAD_REACTORS
330
1B29
102
}
330
1B29
100
AcDbScale
 70
     0
300
1:50
140
1.0
141
50.0
290
     0
  0
SCALE
  5
1B35
102
{ACAD_REACTORS
330
1B29
102
}
330
1B29
100
AcDbScale
 70
     0
300
1:100
140
1.0
141
100.0
290
     0
  0
SCALE
  5
1B36
102
{ACAD_REACTORS
330
1B29
102
}
330
1B29
100
AcDbScale
 70
     0
300
2:1
140
2.0
141
1.0
290
     0
  0
SCALE
  5
1B37
102
{ACAD_REACTORS
330
1B29
102
}
330
1B29
100
AcDbScale
 70
     0
300
4:1
140
4.0
141
1.0
290
     0
  0
SCALE
  5
1B38
102
{ACAD_REACTORS
330
1B29
102
}
330
1B29
100
AcDbScale
 70
     0
300
8:1
140
8.0
141
1.0
290
     0
  0
SCALE
  5
1B39
102
{ACAD_REACTORS
330
1B29
102
}
330
1B29
100
AcDbScale
 70
     0
300
10:1
140
10.0
141
1.0
290
     0
  0
SCALE
  5
1B3A
102
{ACAD_REACTORS
330
1B29
102
}
330
1B29
100
AcDbScale
 70
     0
300
100:1
140
100.0
141
1.0
290
     0
  0
SCALE
  5
1B3B
102
{ACAD_REACTORS
330
1B29
102
}
330
1B29
100
AcDbScale
 70
     0
300
1/128" = 1'-0"
140
0.0078125
141
12.0
290
     0
  0
SCALE
  5
1B3C
102
{ACAD_REACTORS
330
1B29
102
}
330
1B29
100
AcDbScale
 70
     0
300
1/64" = 1'-0"
140
0.015625
141
12.0
290
     0
  0
SCALE
  5
1B3D
102
{ACAD_REACTORS
330
1B29
102
}
330
1B29
100
AcDbScale
 70
     0
300
1/32" = 1'-0"
140
0.03125
141
12.0
290
     0
  0
SCALE
  5
1B3E
102
{ACAD_REACTORS
330
1B29
102
}
330
1B29
100
AcDbScale
 70
     0
300
1/16" = 1'-0"
140
0.0625
141
12.0
290
     0
  0
SCALE
  5
1B3F
102
{ACAD_REACTORS
330
1B29
102
}
330
1B29
100
AcDbScale
 70
     0
300
3/32" = 1'-0"
140
0.09375
141
12.0
290
     0
  0
SCALE
  5
1B40
102
{ACAD_REACTORS
330
1B29
102
}
330
1B29
100
AcDbScale
 70
     0
300
1/8" = 1'-0"
140
0.125
141
12.0
290
     0
  0
SCALE
  5
1B41
102
{ACAD_REACTORS
330
1B29
102
}
330
1B29
100
AcDbScale
 70
     0
300
3/16" = 1'-0"
140
0.1875
141
12.0
290
     0
  0
SCALE
  5
1B42
102
{ACAD_REACTORS
330
1B29
102
}
330
1B29
100
AcDbScale
 70
     0
300
1/4" = 1'-0"
140
0.25
141
12.0
290
     0
  0
SCALE
  5
1B43
102
{ACAD_REACTORS
330
1B29
102
}
330
1B29
100
AcDbScale
 70
     0
300
3/8" = 1'-0"
140
0.375
141
12.0
290
     0
  0
SCALE
  5
1B44
102
{ACAD_REACTORS
330
1B29
102
}
330
1B29
100
AcDbScale
 70
     0
300
1/2" = 1'-0"
140
0.5
141
12.0
290
     0
  0
SCALE
  5
1B45
102
{ACAD_REACTORS
330
1B29
102
}
330
1B29
100
AcDbScale
 70
     0
300
3/4" = 1'-0"
140
0.75
141
12.0
290
     0
  0
SCALE
  5
1B46
102
{ACAD_REACTORS
330
1B29
102
}
330
1B29
100
AcDbScale
 70
     0
300
1" = 1'-0"
140
1.0
141
12.0
290
     0
  0
SCALE
  5
1B47
102
{ACAD_REACTORS
330
1B29
102
}
330
1B29
100
AcDbScale
 70
     0
300
1-1/2" = 1'-0"
140
1.5
141
12.0
290
     0
  0
SCALE
  5
1B48
102
{ACAD_REACTORS
330
1B29
102
}
330
1B29
100
AcDbScale
 70
     0
300
3" = 1'-0"
140
3.0
141
12.0
290
     0
  0
SCALE
  5
1B49
102
{ACAD_REACTORS
330
1B29
102
}
330
1B29
100
AcDbScale
 70
     0
300
6" = 1'-0"
140
6.0
141
12.0
290
     0
  0
SCALE
  5
1B4A
102
{ACAD_REACTORS
330
1B29
102
}
330
1B29
100
AcDbScale
 70
     0
300
1'-0" = 1'-0"
140
12.0
141
12.0
290
     0
  0
TABLESTYLE
  5
1B28
102
{ACAD_XDICTIONARY
360
1B4F
102
}
102
{ACAD_REACTORS
330
1B27
102
}
330
1B27
100
AcDbTableStyle
  3
Standard
 70
     0
 71
     0
 40
0.06
 41
0.06
280
     0
281
     0
  7
STANDARD
140
0.18
170
     2
 62
     0
 63
     7
283
     0
274
    -2
284
     1
 64
     0
275
    -2
285
     1
 65
     0
276
    -2
286
     1
 66
     0
277
    -2
287
     1
 67
     0
278
    -2
288
     1
 68
     0
279
    -2
289
     1
 69
     0
  7
STANDARD
140
0.25
170
     5
 62
     0
 63
     7
283
     0
274
    -2
284
     1
 64
     0
275
    -2
285
     1
 65
     0
276
    -2
286
     1
 66
     0
277
    -2
287
     1
 67
     0
278
    -2
288
     1
 68
     0
279
    -2
289
     1
 69
     0
  7
STANDARD
140
0.18
170
     5
 62
     0
 63
     7
283
     0
274
    -2
284
     1
 64
     0
275
    -2
285
     1
 65
     0
276
    -2
286
     1
 66
     0
277
    -2
287
     1
 67
     0
278
    -2
288
     1
 68
     0
279
    -2
289
     1
 69
     0
  0
VISUALSTYLE
  5
1B18
102
{ACAD_XDICTIONARY
360
1B65
102
}
102
{ACAD_REACTORS
330
1B12
102
}
330
1B12
100
AcDbVisualStyle
  2
2dWireframe
 70
     4
 71
     0
 72
     2
 73
     0
 90
        0
 40
-0.6
 41
-30.0
 62
     5
 63
     7
 74
     1
 91
        4
 64
     7
 65
   257
 75
     1
175
     1
 42
1.0
 92
        0
 66
   257
 43
1.0
 76
     1
 77
     6
 78
     2
 67
     7
 79
     5
170
     0
171
     0
290
     0
174
     0
 93
        1
 44
0.0
173
     0
291
     0
 45
0.0
1001
ACAD
1000
AcDbSavedByObjectVersion
1070
     0
  0
VISUALSTYLE
  5
1B1A
102
{ACAD_XDICTIONARY
360
1B69
102
}
102
{ACAD_REACTORS
330
1B12
102
}
330
1B12
100
AcDbVisualStyle
  2
3D Hidden
 70
     6
 71
     1
 72
     2
 73
     2
 90
        0
 40
-0.6
 41
-30.0
 62
     5
 63
     7
 74
     2
 91
        2
 64
     7
 65
   257
 75
     2
175
     1
 42
179.0
 92
        0
 66
   257
 43
1.0
 76
     1
 77
     6
 78
     2
 67
     7
 79
     3
170
     0
171
     0
290
     0
174
     0
 93
        1
 44
0.0
173
     0
291
     0
 45
0.0
1001
ACAD
1000
AcDbSavedByObjectVersion
1070
     0
  0
VISUALSTYLE
  5
1B19
102
{ACAD_XDICTIONARY
360
1B67
102
}
102
{ACAD_REACTORS
330
1B12
102
}
330
1B12
100
AcDbVisualStyle
  2
3dWireframe
 70
     5
 71
     0
 72
     2
 73
     0
 90
        0
 40
-0.6
 41
-30.0
 62
     5
 63
     7
 74
     1
 91
        4
 64
     7
 65
   257
 75
     1
175
     1
 42
1.0
 92
        0
 66
   257
 43
1.0
 76
     1
 77
     6
 78
     2
 67
     7
 79
     5
170
     0
171
     0
290
     0
174
     0
 93
        1
 44
0.0
173
     0
291
     0
 45
0.0
1001
ACAD
1000
AcDbSavedByObjectVersion
1070
     0
  0
VISUALSTYLE
  5
1B17
102
{ACAD_XDICTIONARY
360
1B63
102
}
102
{ACAD_REACTORS
330
1B12
102
}
330
1B12
100
AcDbVisualStyle
  2
Basic
 70
     7
 71
     1
 72
     0
 73
     1
 90
        0
 40
-0.6
 41
-30.0
 62
     5
 63
     7
 74
     0
 91
        4
 64
     7
 65
   257
 75
     1
175
     1
 42
1.0
 92
        8
 66
     7
 43
1.0
 76
     1
 77
     6
 78
     2
 67
     7
 79
     5
170
     0
171
     0
290
     0
174
     0
 93
        1
 44
0.0
173
     0
291
     1
 45
0.0
1001
ACAD
1000
AcDbSavedByObjectVersion
1070
     0
  0
VISUALSTYLE
  5
1B1E
102
{ACAD_XDICTIONARY
360
1B71
102
}
102
{ACAD_REACTORS
330
1B12
102
}
330
1B12
100
AcDbVisualStyle
  2
Brighten
 70
    12
 71
     2
 72
     2
 73
     0
 90
        0
 40
-0.6
 41
-30.0
 62
     5
 63
     7
 74
     1
 91
        4
 64
     7
 65
   257
 75
     1
175
     1
 42
1.0
 92
        8
 66
     7
 43
1.0
 76
     1
 77
     6
 78
     2
 67
     7
 79
     5
170
     0
171
     0
290
     0
174
     0
 93
        1
 44
50.0
173
     0
291
     1
 45
0.0
1001
ACAD
1000
AcDbSavedByObjectVersion
1070
     0
  0
VISUALSTYLE
  5
1B22
102
{ACAD_XDICTIONARY
360
1B79
102
}
102
{ACAD_REACTORS
330
1B12
102
}
330
1B12
100
AcDbVisualStyle
  2
ColorChange
 70
    16
 71
     2
 72
     2
 73
     3
 90
        0
 40
-0.6
 41
-30.0
 62
     5
 63
     8
 74
     1
 91
        4
 64
     7
 65
   257
 75
     1
175
     1
 42
1.0
 92
        8
 66
     8
 43
1.0
 76
     1
 77
     6
 78
     2
 67
     7
 79
     5
170
     0
171
     0
290
     0
174
     0
 93
        1
 44
0.0
173
     0
291
     1
 45
0.0
1001
ACAD
1000
AcDbSavedByObjectVersion
1070
     0
  0
VISUALSTYLE
  5
1B1B
102
{ACAD_XDICTIONARY
360
1B6B
102
}
102
{ACAD_REACTORS
330
1B12
102
}
330
1B12
100
AcDbVisualStyle
  2
Conceptual
 70
     9
 71
     3
 72
     2
 73
     0
 90
        0
 40
-0.6
 41
-30.0
 62
     5
 63
     7
 74
     2
 91
        2
 64
     7
 65
   257
 75
     1
175
     1
 42
179.0
 92
        8
 66
     7
 43
1.0
 76
     1
 77
     6
 78
     2
 67
     7
 79
     3
170
     0
171
     0
290
     0
174
     0
 93
        1
 44
0.0
173
     0
291
     0
 45
0.0
1001
ACAD
1000
AcDbSavedByObjectVersion
1070
     0
  0
VISUALSTYLE
  5
1B1D
102
{ACAD_XDICTIONARY
360
1B6F
102
}
102
{ACAD_REACTORS
330
1B12
102
}
330
1B12
100
AcDbVisualStyle
  2
Dim
 70
    11
 71
     2
 72
     2
 73
     0
 90
        0
 40
-0.6
 41
-30.0
 62
     5
 63
     7
 74
     1
 91
        4
 64
     7
 65
   257
 75
     1
175
     1
 42
1.0
 92
        8
 66
     7
 43
1.0
 76
     1
 77
     6
 78
     2
 67
     7
 79
     5
170
     0
171
     0
290
     0
174
     0
 93
        1
 44
-50.0
173
     0
291
     1
 45
0.0
1001
ACAD
1000
AcDbSavedByObjectVersion
1070
     0
  0
VISUALSTYLE
  5
1B25
102
{ACAD_XDICTIONARY
360
1B7F
102
}
102
{ACAD_REACTORS
330
1B12
102
}
330
1B12
100
AcDbVisualStyle
  2
EdgeColorOff
 70
    22
 71
     2
 72
     2
 73
     0
 90
        0
 40
-0.6
 41
-30.0
 62
     5
 63
     7
 74
     1
 91
        4
 64
     7
 65
   257
 75
     1
175
     1
 42
1.0
 92
        8
 66
     7
 43
1.0
 76
     1
 77
     6
 78
     2
 67
     7
 79
     5
170
     0
171
     0
290
     0
174
     0
 93
        1
 44
0.0
173
     0
291
     1
 45
0.0
1001
ACAD
1000
AcDbSavedByObjectVersion
1070
     0
  0
VISUALSTYLE
  5
1B21
102
{ACAD_XDICTIONARY
360
1B77
102
}
102
{ACAD_REACTORS
330
1B12
102
}
330
1B12
100
AcDbVisualStyle
  2
Facepattern
 70
    15
 71
     2
 72
     2
 73
     0
 90
        0
 40
-0.6
 41
-30.0
 62
     5
 63
     7
 74
     1
 91
        4
 64
     7
 65
   257
 75
     1
175
     1
 42
1.0
 92
        8
 66
     7
 43
1.0
 76
     1
 77
     6
 78
     2
 67
     7
 79
     5
170
     0
171
     0
290
     0
174
     0
 93
        1
 44
0.0
173
     0
291
     1
 45
0.0
1001
ACAD
1000
AcDbSavedByObjectVersion
1070
     0
  0
VISUALSTYLE
  5
1B13
102
{ACAD_XDICTIONARY
360
1B5B
102
}
102
{ACAD_REACTORS
330
1B12
102
}
330
1B12
100
AcDbVisualStyle
  2
Flat
 70
     0
 71
     2
 72
     1
 73
     1
 90
        2
 40
-0.6
 41
30.0
 62
     5
 63
     7
 74
     0
 91
        4
 64
     7
 65
   257
 75
     1
175
     1
 42
1.0
 92
        8
 66
     7
 43
1.0
 76
     1
 77
     6
 78
     2
 67
     7
 79
     5
170
     0
171
     0
290
     0
174
     0
 93
       13
 44
0.0
173
     0
291
     1
 45
0.0
1001
ACAD
1000
AcDbSavedByObjectVersion
1070
     0
  0
VISUALSTYLE
  5
1B14
102
{ACAD_XDICTIONARY
360
1B5D
102
}
102
{ACAD_REACTORS
330
1B12
102
}
330
1B12
100
AcDbVisualStyle
  2
FlatWithEdges
 70
     1
 71
     2
 72
     1
 73
     1
 90
        2
 40
-0.6
 41
30.0
 62
     5
 63
     7
 74
     1
 91
        4
 64
     7
 65
   257
 75
     1
175
     1
 42
1.0
 92
        0
 66
   257
 43
1.0
 76
     1
 77
     6
 78
     2
 67
     7
 79
     5
170
     0
171
     0
290
     0
174
     0
 93
       13
 44
0.0
173
     0
291
     1
 45
0.0
1001
ACAD
1000
AcDbSavedByObjectVersion
1070
     0
  0
VISUALSTYLE
  5
1B15
102
{ACAD_XDICTIONARY
360
1B5F
102
}
102
{ACAD_REACTORS
330
1B12
102
}
330
1B12
100
AcDbVisualStyle
  2
Gouraud
 70
     2
 71
     2
 72
     2
 73
     1
 90
        2
 40
-0.6
 41
30.0
 62
     5
 63
     7
 74
     0
 91
        4
 64
     7
 65
   257
 75
     1
175
     1
 42
1.0
 92
        0
 66
     7
 43
1.0
 76
     1
 77
     6
 78
     2
 67
     7
 79
     5
170
     0
171
     0
290
     0
174
     0
 93
       13
 44
0.0
173
     0
291
     1
 45
0.0
1001
ACAD
1000
AcDbSavedByObjectVersion
1070
     0
  0
VISUALSTYLE
  5
1B16
102
{ACAD_XDICTIONARY
360
1B61
102
}
102
{ACAD_REACTORS
330
1B12
102
}
330
1B12
100
AcDbVisualStyle
  2
GouraudWithEdges
 70
     3
 71
     2
 72
     2
 73
     1
 90
        2
 40
-0.6
 41
30.0
 62
     5
 63
     7
 74
     1
 91
        4
 64
     7
 65
   257
 75
     1
175
     1
 42
1.0
 92
        0
 66
   257
 43
1.0
 76
     1
 77
     6
 78
     2
 67
     7
 79
     5
170
     0
171
     0
290
     0
174
     0
 93
       13
 44
0.0
173
     0
291
     1
 45
0.0
1001
ACAD
1000
AcDbSavedByObjectVersion
1070
     0
  0
VISUALSTYLE
  5
1B23
102
{ACAD_XDICTIONARY
360
1B7B
102
}
102
{ACAD_REACTORS
330
1B12
102
}
330
1B12
100
AcDbVisualStyle
  2
JitterOff
 70
    20
 71
     2
 72
     2
 73
     0
 90
        0
 40
-0.6
 41
-30.0
 62
     5
 63
     7
 74
     1
 91
        4
 64
     7
 65
   257
 75
     1
175
     1
 42
1.0
 92
       10
 66
     7
 43
1.0
 76
     1
 77
     6
 78
     2
 67
     7
 79
     5
170
     0
171
     0
290
     0
174
     0
 93
        1
 44
0.0
173
     0
291
     1
 45
0.0
1001
ACAD
1000
AcDbSavedByObjectVersion
1070
     0
  0
VISUALSTYLE
  5
1B20
102
{ACAD_XDICTIONARY
360
1B75
102
}
102
{ACAD_REACTORS
330
1B12
102
}
330
1B12
100
AcDbVisualStyle
  2
Linepattern
 70
    14
 71
     2
 72
     2
 73
     0
 90
        0
 40
-0.6
 41
-30.0
 62
     5
 63
     7
 74
     1
 91
        4
 64
     7
 65
   257
 75
     7
175
     7
 42
1.0
 92
        8
 66
     7
 43
1.0
 76
     1
 77
     6
 78
     2
 67
     7
 79
     5
170
     0
171
     0
290
     0
174
     0
 93
        1
 44
0.0
173
     0
291
     1
 45
0.0
1001
ACAD
1000
AcDbSavedByObjectVersion
1070
     0
  0
VISUALSTYLE
  5
1B24
102
{ACAD_XDICTIONARY
360
1B7D
102
}
102
{ACAD_REACTORS
330
1B12
102
}
330
1B12
100
AcDbVisualStyle
  2
OverhangOff
 70
    21
 71
     2
 72
     2
 73
     0
 90
        0
 40
-0.6
 41
-30.0
 62
     5
 63
     7
 74
     1
 91
        4
 64
     7
 65
   257
 75
     1
175
     1
 42
1.0
 92
        9
 66
     7
 43
1.0
 76
     1
 77
     6
 78
     2
 67
     7
 79
     5
170
     0
171
     0
290
     0
174
     0
 93
        1
 44
0.0
173
     0
291
     1
 45
0.0
1001
ACAD
1000
AcDbSavedByObjectVersion
1070
     0
  0
VISUALSTYLE
  5
1B1C
102
{ACAD_XDICTIONARY
360
1B6D
102
}
102
{ACAD_REACTORS
330
1B12
102
}
330
1B12
100
AcDbVisualStyle
  2
Realistic
 70
     8
 71
     2
 72
     2
 73
     0
 90
        0
 40
-0.6
 41
-30.0
 62
     5
 63
     7
 74
     1
 91
        0
 64
     7
 65
   257
 75
     1
175
     1
 42
1.0
 92
        8
 66
     8
 43
1.0
 76
     1
 77
     6
 78
     2
 67
     7
 79
     5
170
     0
171
     0
290
     0
174
     0
 93
       13
 44
0.0
173
     0
291
     0
 45
0.0
1001
ACAD
1000
AcDbSavedByObjectVersion
1070
     0
  0
VISUALSTYLE
  5
1B1F
102
{ACAD_XDICTIONARY
360
1B73
102
}
102
{ACAD_REACTORS
330
1B12
102
}
330
1B12
100
AcDbVisualStyle
  2
Thicken
 70
    13
 71
     2
 72
     2
 73
     0
 90
        0
 40
-0.6
 41
-30.0
 62
     5
 63
     7
 74
     1
 91
        4
 64
     7
 65
   257
 75
     1
175
     1
 42
1.0
 92
       12
 66
     7
 43
1.0
 76
     1
 77
     6
 78
     2
 67
     7
 79
     5
170
     0
171
     0
290
     0
174
     0
 93
        1
 44
0.0
173
     0
291
     1
 45
0.0
1001
ACAD
1000
AcDbSavedByObjectVersion
1070
     0
  0
DICTIONARYVAR
  5
1B86
102
{ACAD_REACTORS
330
1B83
102
}
330
1B83
100
DictionaryVariables
280
     0
  1
1:1
  0
DICTIONARYVAR
  5
1B85
102
{ACAD_REACTORS
330
1B83
102
}
330
1B83
100
DictionaryVariables
280
     0
  1
STANDARD
  0
DICTIONARYVAR
  5
1B84
102
{ACAD_REACTORS
330
1B83
102
}
330
1B83
100
DictionaryVariables
280
     0
  1
STANDARD
  0
DICTIONARYVAR
  5
1B89
102
{ACAD_REACTORS
330
1B83
102
}
330
1B83
100
DictionaryVariables
280
     0
  1
1
  0
DICTIONARYVAR
  5
1B88
102
{ACAD_REACTORS
330
1B83
102
}
330
1B83
100
DictionaryVariables
280
     0
  1
0
  0
DICTIONARYVAR
  5
1BD8
102
{ACAD_REACTORS
330
1B83
102
}
330
1B83
100
DictionaryVariables
280
     0
  1
1
  0
DICTIONARYVAR
  5
1BD9
102
{ACAD_REACTORS
330
1B83
102
}
330
1B83
100
DictionaryVariables
280
     0
  1
15
  0
DICTIONARYVAR
  5
1BD7
102
{ACAD_REACTORS
330
1B83
102
}
330
1B83
100
DictionaryVariables
280
     0
  1
0
  0
DICTIONARYVAR
  5
1BD6
102
{ACAD_REACTORS
330
1B83
102
}
330
1B83
100
DictionaryVariables
280
     0
  1
0
  0
DICTIONARYVAR
  5
1B87
102
{ACAD_REACTORS
330
1B83
102
}
330
1B83
100
DictionaryVariables
280
     0
  1
127
  0
DICTIONARYVAR
  5
1B8A
102
{ACAD_REACTORS
330
1B83
102
}
330
1B83
100
DictionaryVariables
280
     0
  1
0
  0
DICTIONARY
  5
1BEF
330
1AF5
100
AcDbDictionary
280
     1
281
     1
  3
ACAD_XREC_ROUNDTRIP
360
1BF0
  0
DICTIONARY
  5
1BED
330
1AF4
100
AcDbDictionary
280
     1
281
     1
  3
ACAD_XREC_ROUNDTRIP
360
1BEE
  0
DICTIONARY
  5
1B03
330
1B02
100
AcDbDictionary
280
     1
281
     1
  3
ACAD_XREC_ROUNDTRIP
360
1BF2
  3
BUMPTILE
360
1B05
  3
DIFFUSETILE
360
1B04
  3
OPACITYTILE
360
1B08
  3
REFLECTIONTILE
360
1B07
  3
REFRACTIONTILE
360
1B09
  3
SPECULARTILE
360
1B06
  0
DICTIONARY
  5
1AFB
330
1AFA
100
AcDbDictionary
280
     1
281
     1
  3
ACAD_XREC_ROUNDTRIP
360
1BF1
  3
BUMPTILE
360
1AFD
  3
DIFFUSETILE
360
1AFC
  3
OPACITYTILE
360
1B00
  3
REFLECTIONTILE
360
1AFF
  3
REFRACTIONTILE
360
1B01
  3
SPECULARTILE
360
1AFE
  0
DICTIONARY
  5
1B0B
330
1B0A
100
AcDbDictionary
280
     1
281
     1
  3
ACAD_XREC_ROUNDTRIP
360
1BF3
  3
BUMPTILE
360
1B0D
  3
DIFFUSETILE
360
1B0C
  3
OPACITYTILE
360
1B10
  3
REFLECTIONTILE
360
1B0F
  3
REFRACTIONTILE
360
1B11
  3
SPECULARTILE
360
1B0E
  0
DICTIONARY
  5
1B4F
330
1B28
100
AcDbDictionary
280
     1
281
     1
  3
ACAD_ROUNDTRIP_2008_TABLESTYLE_CELLSTYLEMAP
360
1BEB
  3
ACAD_XREC_ROUNDTRIP
360
1BF4
  0
DICTIONARY
  5
1B65
330
1B18
100
AcDbDictionary
280
     1
281
     1
  3
ACAD_XREC_ROUNDTRIP
360
1B66
  0
DICTIONARY
  5
1B69
330
1B1A
100
AcDbDictionary
280
     1
281
     1
  3
ACAD_XREC_ROUNDTRIP
360
1B6A
  0
DICTIONARY
  5
1B67
330
1B19
100
AcDbDictionary
280
     1
281
     1
  3
ACAD_XREC_ROUNDTRIP
360
1B68
  0
DICTIONARY
  5
1B63
330
1B17
100
AcDbDictionary
280
     1
281
     1
  3
ACAD_XREC_ROUNDTRIP
360
1B64
  0
DICTIONARY
  5
1B71
330
1B1E
100
AcDbDictionary
280
     1
281
     1
  3
ACAD_XREC_ROUNDTRIP
360
1B72
  0
DICTIONARY
  5
1B79
330
1B22
100
AcDbDictionary
280
     1
281
     1
  3
ACAD_XREC_ROUNDTRIP
360
1B7A
  0
DICTIONARY
  5
1B6B
330
1B1B
100
AcDbDictionary
280
     1
281
     1
  3
ACAD_XREC_ROUNDTRIP
360
1B6C
  0
DICTIONARY
  5
1B6F
330
1B1D
100
AcDbDictionary
280
     1
281
     1
  3
ACAD_XREC_ROUNDTRIP
360
1B70
  0
DICTIONARY
  5
1B7F
330
1B25
100
AcDbDictionary
280
     1
281
     1
  3
ACAD_XREC_ROUNDTRIP
360
1B80
  0
DICTIONARY
  5
1B77
330
1B21
100
AcDbDictionary
280
     1
281
     1
  3
ACAD_XREC_ROUNDTRIP
360
1B78
  0
DICTIONARY
  5
1B5B
330
1B13
100
AcDbDictionary
280
     1
281
     1
  3
ACAD_XREC_ROUNDTRIP
360
1B5C
  0
DICTIONARY
  5
1B5D
330
1B14
100
AcDbDictionary
280
     1
281
     1
  3
ACAD_XREC_ROUNDTRIP
360
1B5E
  0
DICTIONARY
  5
1B5F
330
1B15
100
AcDbDictionary
280
     1
281
     1
  3
ACAD_XREC_ROUNDTRIP
360
1B60
  0
DICTIONARY
  5
1B61
330
1B16
100
AcDbDictionary
280
     1
281
     1
  3
ACAD_XREC_ROUNDTRIP
360
1B62
  0
DICTIONARY
  5
1B7B
330
1B23
100
AcDbDictionary
280
     1
281
     1
  3
ACAD_XREC_ROUNDTRIP
360
1B7C
  0
DICTIONARY
  5
1B75
330
1B20
100
AcDbDictionary
280
     1
281
     1
  3
ACAD_XREC_ROUNDTRIP
360
1B76
  0
DICTIONARY
  5
1B7D
330
1B24
100
AcDbDictionary
280
     1
281
     1
  3
ACAD_XREC_ROUNDTRIP
360
1B7E
  0
DICTIONARY
  5
1B6D
330
1B1C
100
AcDbDictionary
280
     1
281
     1
  3
ACAD_XREC_ROUNDTRIP
360
1B6E
  0
DICTIONARY
  5
1B73
330
1B1F
100
AcDbDictionary
280
     1
281
     1
  3
ACAD_XREC_ROUNDTRIP
360
1B74
  0
XRECORD
  5
1BF0
102
{ACAD_REACTORS
330
1BEF
102
}
330
1BEF
100
AcDbXrecord
280
     1
102
SHADEPLOT
 70
     0
102
SHADEPLOTRESLEVEL
 70
     2
102
SHADEPLOTCUSTOMDPI
 70
   300
  0
XRECORD
  5
1BEE
102
{ACAD_REACTORS
330
1BED
102
}
330
1BED
100
AcDbXrecord
280
     1
102
SHADEPLOT
 70
     0
102
SHADEPLOTRESLEVEL
 70
     2
102
SHADEPLOTCUSTOMDPI
 70
   300
  0
XRECORD
  5
1BF2
102
{ACAD_REACTORS
330
1B03
102
}
330
1B03
100
AcDbXrecord
280
     1
102
MATERIAL
148
0.0
149
0.0
149
0.0
 93
        0
 94
      127
282
     0
 72
     0
 77
     0
171
     0
175
     0
179
     0
273
     0
  0
XRECORD
  5
1B05
102
{ACAD_REACTORS
330
1B03
102
}
330
1B03
100
AcDbXrecord
280
     1
270
     1
271
     1
  0
XRECORD
  5
1B04
102
{ACAD_REACTORS
330
1B03
102
}
330
1B03
100
AcDbXrecord
280
     1
270
     1
271
     1
  0
XRECORD
  5
1B08
102
{ACAD_REACTORS
330
1B03
102
}
330
1B03
100
AcDbXrecord
280
     1
270
     1
271
     1
  0
XRECORD
  5
1B07
102
{ACAD_REACTORS
330
1B03
102
}
330
1B03
100
AcDbXrecord
280
     1
270
     1
271
     1
  0
XRECORD
  5
1B09
102
{ACAD_REACTORS
330
1B03
102
}
330
1B03
100
AcDbXrecord
280
     1
270
     1
271
     1
  0
XRECORD
  5
1B06
102
{ACAD_REACTORS
330
1B03
102
}
330
1B03
100
AcDbXrecord
280
     1
270
     1
271
     1
  0
XRECORD
  5
1BF1
102
{ACAD_REACTORS
330
1AFB
102
}
330
1AFB
100
AcDbXrecord
280
     1
102
MATERIAL
148
0.0
149
0.0
149
0.0
 93
        0
 94
      127
282
     0
 72
     0
 77
     0
171
     0
175
     0
179
     0
273
     0
  0
XRECORD
  5
1AFD
102
{ACAD_REACTORS
330
1AFB
102
}
330
1AFB
100
AcDbXrecord
280
     1
270
     1
271
     1
  0
XRECORD
  5
1AFC
102
{ACAD_REACTORS
330
1AFB
102
}
330
1AFB
100
AcDbXrecord
280
     1
270
     1
271
     1
  0
XRECORD
  5
1B00
102
{ACAD_REACTORS
330
1AFB
102
}
330
1AFB
100
AcDbXrecord
280
     1
270
     1
271
     1
  0
XRECORD
  5
1AFF
102
{ACAD_REACTORS
330
1AFB
102
}
330
1AFB
100
AcDbXrecord
280
     1
270
     1
271
     1
  0
XRECORD
  5
1B01
102
{ACAD_REACTORS
330
1AFB
102
}
330
1AFB
100
AcDbXrecord
280
     1
270
     1
271
     1
  0
XRECORD
  5
1AFE
102
{ACAD_REACTORS
330
1AFB
102
}
330
1AFB
100
AcDbXrecord
280
     1
270
     1
271
     1
  0
XRECORD
  5
1BF3
102
{ACAD_REACTORS
330
1B0B
102
}
330
1B0B
100
AcDbXrecord
280
     1
102
MATERIAL
148
0.0
149
0.0
149
0.0
 93
        0
 94
      127
282
     0
 72
     0
 77
     0
171
     0
175
     0
179
     0
273
     0
  0
XRECORD
  5
1B0D
102
{ACAD_REACTORS
330
1B0B
102
}
330
1B0B
100
AcDbXrecord
280
     1
270
     1
271
     1
  0
XRECORD
  5
1B0C
102
{ACAD_REACTORS
330
1B0B
102
}
330
1B0B
100
AcDbXrecord
280
     1
270
     1
271
     1
  0
XRECORD
  5
1B10
102
{ACAD_REACTORS
330
1B0B
102
}
330
1B0B
100
AcDbXrecord
280
     1
270
     1
271
     1
  0
XRECORD
  5
1B0F
102
{ACAD_REACTORS
330
1B0B
102
}
330
1B0B
100
AcDbXrecord
280
     1
270
     1
271
     1
  0
XRECORD
  5
1B11
102
{ACAD_REACTORS
330
1B0B
102
}
330
1B0B
100
AcDbXrecord
280
     1
270
     1
271
     1
  0
XRECORD
  5
1B0E
102
{ACAD_REACTORS
330
1B0B
102
}
330
1B0B
100
AcDbXrecord
280
     1
270
     1
271
     1
  0
CELLSTYLEMAP
  5
1BEB
102
{ACAD_REACTORS
330
1B4F
102
}
330
1B4F
100
AcDbCellStyleMap
 90
        3
300
CELLSTYLE
  1
TABLEFORMAT_BEGIN
 90
        5
170
     1
 91
        0
 92
    32768
 62
   257
 93
        1
300
CONTENTFORMAT
  1
CONTENTFORMAT_BEGIN
 90
        0
 91
        0
 92
      512
 93
        0
300

 40
0.0
140
1.0
 94
        5
 62
     0
340
11
144
0.25
309
CONTENTFORMAT_END
171
     0
 94
        0
309
TABLEFORMAT_END
  1
CELLSTYLE_BEGIN
 90
        1
 91
        1
300
_TITLE
309
CELLSTYLE_END
300
CELLSTYLE
  1
TABLEFORMAT_BEGIN
 90
        5
170
     1
 91
        0
 92
        0
 62
   257
 93
        1
300
CONTENTFORMAT
  1
CONTENTFORMAT_BEGIN
 90
        0
 91
        0
 92
      512
 93
        0
300

 40
0.0
140
1.0
 94
        5
 62
     0
340
11
144
0.18
309
CONTENTFORMAT_END
171
     0
 94
        0
309
TABLEFORMAT_END
  1
CELLSTYLE_BEGIN
 90
        2
 91
        1
300
_HEADER
309
CELLSTYLE_END
300
CELLSTYLE
  1
TABLEFORMAT_BEGIN
 90
        5
170
     1
 91
        0
 92
        0
 62
   257
 93
        1
300
CONTENTFORMAT
  1
CONTENTFORMAT_BEGIN
 90
        0
 91
        0
 92
      512
 93
        0
300

 40
0.0
140
1.0
 94
        2
 62
     0
340
11
144
0.18
309
CONTENTFORMAT_END
171
     0
 94
        0
309
TABLEFORMAT_END
  1
CELLSTYLE_BEGIN
 90
        3
 91
        2
300
_DATA
309
CELLSTYLE_END
  0
XRECORD
  5
1BF4
102
{ACAD_REACTORS
330
1B4F
102
}
330
1B4F
100
AcDbXrecord
280
     1
102
ACAD_ROUNDTRIP_PRE2007_TABLESTYLE
 90
      512
 91
        0
  1

 92
      512
 93
        0
  2

 94
      512
 95
        0
  3

  0
XRECORD
  5
1B66
102
{ACAD_REACTORS
330
1B65
102
}
330
1B65
100
AcDbXrecord
280
     1
102
RTVSPropertyOp0
 70
     1
102
RTVSPropertyOp1
 70
     1
102
RTVSPropertyOp2
 70
     1
102
RTVSPropertyOp3
 70
     1
102
RTVSPropertyOp4
 70
     1
102
RTVSPropertyOp5
 70
     1
102
RTVSPropertyOp6
 70
     1
102
RTVSPropertyOp7
 70
     1
102
RTVSPropertyOp8
 70
     1
102
RTVSPropertyOp9
 70
     1
102
RTVSPropertyOp10
 70
     1
102
RTVSPropertyOp11
 70
     1
102
RTVSPropertyOp12
 70
     1
102
RTVSPropertyOp13
 70
     1
102
RTVSPropertyOp14
 70
     1
102
RTVSPropertyOp15
 70
     1
102
RTVSPropertyOp16
 70
     1
102
RTVSPropertyOp17
 70
     1
102
RTVSPropertyOp18
 70
     1
102
RTVSPropertyOp19
 70
     1
102
RTVSPropertyOp20
 70
     1
102
RTVSPropertyOp21
 70
     1
102
RTVSPropertyOp22
 70
     1
102
RTVSPropertyOp23
 70
     1
102
RTVSPropertyOp24
 70
     1
102
RTVSPropertyOp25
 70
     1
102
RTVSPropertyOp26
 70
     1
102
RTVSPropertyOp27
 70
     1
  0
XRECORD
  5
1B6A
102
{ACAD_REACTORS
330
1B69
102
}
330
1B69
100
AcDbXrecord
280
     1
102
RTVSPropertyOp0
 70
     1
102
RTVSPropertyOp1
 70
     1
102
RTVSPropertyOp2
 70
     1
102
RTVSPropertyOp3
 70
     1
102
RTVSPropertyOp4
 70
     1
102
RTVSPropertyOp5
 70
     1
102
RTVSPropertyOp6
 70
     1
102
RTVSPropertyOp7
 70
     1
102
RTVSPropertyOp8
 70
     1
102
RTVSPropertyOp9
 70
     1
102
RTVSPropertyOp10
 70
     1
102
RTVSPropertyOp11
 70
     1
102
RTVSPropertyOp12
 70
     1
102
RTVSPropertyOp13
 70
     1
102
RTVSPropertyOp14
 70
     1
102
RTVSPropertyOp15
 70
     1
102
RTVSPropertyOp16
 70
     1
102
RTVSPropertyOp17
 70
     1
102
RTVSPropertyOp18
 70
     1
102
RTVSPropertyOp19
 70
     1
102
RTVSPropertyOp20
 70
     1
102
RTVSPropertyOp21
 70
     1
102
RTVSPropertyOp22
 70
     1
102
RTVSPropertyOp23
 70
     1
102
RTVSPropertyOp24
 70
     1
102
RTVSPropertyOp25
 70
     1
102
RTVSPropertyOp26
 70
     1
102
RTVSPropertyOp27
 70
     1
  0
XRECORD
  5
1B68
102
{ACAD_REACTORS
330
1B67
102
}
330
1B67
100
AcDbXrecord
280
     1
102
RTVSPropertyOp0
 70
     1
102
RTVSPropertyOp1
 70
     1
102
RTVSPropertyOp2
 70
     1
102
RTVSPropertyOp3
 70
     1
102
RTVSPropertyOp4
 70
     1
102
RTVSPropertyOp5
 70
     1
102
RTVSPropertyOp6
 70
     1
102
RTVSPropertyOp7
 70
     1
102
RTVSPropertyOp8
 70
     1
102
RTVSPropertyOp9
 70
     1
102
RTVSPropertyOp10
 70
     1
102
RTVSPropertyOp11
 70
     1
102
RTVSPropertyOp12
 70
     1
102
RTVSPropertyOp13
 70
     1
102
RTVSPropertyOp14
 70
     1
102
RTVSPropertyOp15
 70
     1
102
RTVSPropertyOp16
 70
     1
102
RTVSPropertyOp17
 70
     1
102
RTVSPropertyOp18
 70
     1
102
RTVSPropertyOp19
 70
     1
102
RTVSPropertyOp20
 70
     1
102
RTVSPropertyOp21
 70
     1
102
RTVSPropertyOp22
 70
     1
102
RTVSPropertyOp23
 70
     1
102
RTVSPropertyOp24
 70
     1
102
RTVSPropertyOp25
 70
     1
102
RTVSPropertyOp26
 70
     1
102
RTVSPropertyOp27
 70
     1
  0
XRECORD
  5
1B64
102
{ACAD_REACTORS
330
1B63
102
}
330
1B63
100
AcDbXrecord
280
     1
102
RTVSPropertyOp0
 70
     1
102
RTVSPropertyOp1
 70
     1
102
RTVSPropertyOp2
 70
     1
102
RTVSPropertyOp3
 70
     1
102
RTVSPropertyOp4
 70
     1
102
RTVSPropertyOp5
 70
     1
102
RTVSPropertyOp6
 70
     1
102
RTVSPropertyOp7
 70
     1
102
RTVSPropertyOp8
 70
     1
102
RTVSPropertyOp9
 70
     1
102
RTVSPropertyOp10
 70
     1
102
RTVSPropertyOp11
 70
     1
102
RTVSPropertyOp12
 70
     1
102
RTVSPropertyOp13
 70
     1
102
RTVSPropertyOp14
 70
     1
102
RTVSPropertyOp15
 70
     1
102
RTVSPropertyOp16
 70
     1
102
RTVSPropertyOp17
 70
     1
102
RTVSPropertyOp18
 70
     1
102
RTVSPropertyOp19
 70
     1
102
RTVSPropertyOp20
 70
     1
102
RTVSPropertyOp21
 70
     1
102
RTVSPropertyOp22
 70
     1
102
RTVSPropertyOp23
 70
     1
102
RTVSPropertyOp24
 70
     1
102
RTVSPropertyOp25
 70
     1
102
RTVSPropertyOp26
 70
     1
102
RTVSPropertyOp27
 70
     1
  0
XRECORD
  5
1B72
102
{ACAD_REACTORS
330
1B71
102
}
330
1B71
100
AcDbXrecord
280
     1
102
RTVSPropertyOp0
 70
     1
102
RTVSPropertyOp1
 70
     1
102
RTVSPropertyOp2
 70
     1
102
RTVSPropertyOp3
 70
     1
102
RTVSPropertyOp4
 70
     1
102
RTVSPropertyOp5
 70
     1
102
RTVSPropertyOp6
 70
     1
102
RTVSPropertyOp7
 70
     1
102
RTVSPropertyOp8
 70
     1
102
RTVSPropertyOp9
 70
     1
102
RTVSPropertyOp10
 70
     1
102
RTVSPropertyOp11
 70
     1
102
RTVSPropertyOp12
 70
     1
102
RTVSPropertyOp13
 70
     1
102
RTVSPropertyOp14
 70
     1
102
RTVSPropertyOp15
 70
     1
102
RTVSPropertyOp16
 70
     1
102
RTVSPropertyOp17
 70
     1
102
RTVSPropertyOp18
 70
     1
102
RTVSPropertyOp19
 70
     1
102
RTVSPropertyOp20
 70
     1
102
RTVSPropertyOp21
 70
     1
102
RTVSPropertyOp22
 70
     1
102
RTVSPropertyOp23
 70
     1
102
RTVSPropertyOp24
 70
     1
102
RTVSPropertyOp25
 70
     1
102
RTVSPropertyOp26
 70
     1
102
RTVSPropertyOp27
 70
     1
  0
XRECORD
  5
1B7A
102
{ACAD_REACTORS
330
1B79
102
}
330
1B79
100
AcDbXrecord
280
     1
102
RTVSPropertyOp0
 70
     1
102
RTVSPropertyOp1
 70
     1
102
RTVSPropertyOp2
 70
     1
102
RTVSPropertyOp3
 70
     1
102
RTVSPropertyOp4
 70
     1
102
RTVSPropertyOp5
 70
     1
102
RTVSPropertyOp6
 70
     1
102
RTVSPropertyOp7
 70
     1
102
RTVSPropertyOp8
 70
     1
102
RTVSPropertyOp9
 70
     1
102
RTVSPropertyOp10
 70
     1
102
RTVSPropertyOp11
 70
     1
102
RTVSPropertyOp12
 70
     1
102
RTVSPropertyOp13
 70
     1
102
RTVSPropertyOp14
 70
     1
102
RTVSPropertyOp15
 70
     1
102
RTVSPropertyOp16
 70
     1
102
RTVSPropertyOp17
 70
     1
102
RTVSPropertyOp18
 70
     1
102
RTVSPropertyOp19
 70
     1
102
RTVSPropertyOp20
 70
     1
102
RTVSPropertyOp21
 70
     1
102
RTVSPropertyOp22
 70
     1
102
RTVSPropertyOp23
 70
     1
102
RTVSPropertyOp24
 70
     1
102
RTVSPropertyOp25
 70
     1
102
RTVSPropertyOp26
 70
     1
102
RTVSPropertyOp27
 70
     1
  0
XRECORD
  5
1B6C
102
{ACAD_REACTORS
330
1B6B
102
}
330
1B6B
100
AcDbXrecord
280
     1
102
RTVSPropertyOp0
 70
     1
102
RTVSPropertyOp1
 70
     1
102
RTVSPropertyOp2
 70
     1
102
RTVSPropertyOp3
 70
     1
102
RTVSPropertyOp4
 70
     1
102
RTVSPropertyOp5
 70
     1
102
RTVSPropertyOp6
 70
     1
102
RTVSPropertyOp7
 70
     1
102
RTVSPropertyOp8
 70
     1
102
RTVSPropertyOp9
 70
     1
102
RTVSPropertyOp10
 70
     1
102
RTVSPropertyOp11
 70
     1
102
RTVSPropertyOp12
 70
     1
102
RTVSPropertyOp13
 70
     1
102
RTVSPropertyOp14
 70
     1
102
RTVSPropertyOp15
 70
     1
102
RTVSPropertyOp16
 70
     1
102
RTVSPropertyOp17
 70
     1
102
RTVSPropertyOp18
 70
     1
102
RTVSPropertyOp19
 70
     1
102
RTVSPropertyOp20
 70
     1
102
RTVSPropertyOp21
 70
     1
102
RTVSPropertyOp22
 70
     1
102
RTVSPropertyOp23
 70
     1
102
RTVSPropertyOp24
 70
     1
102
RTVSPropertyOp25
 70
     1
102
RTVSPropertyOp26
 70
     1
102
RTVSPropertyOp27
 70
     1
  0
XRECORD
  5
1B70
102
{ACAD_REACTORS
330
1B6F
102
}
330
1B6F
100
AcDbXrecord
280
     1
102
RTVSPropertyOp0
 70
     1
102
RTVSPropertyOp1
 70
     1
102
RTVSPropertyOp2
 70
     1
102
RTVSPropertyOp3
 70
     1
102
RTVSPropertyOp4
 70
     1
102
RTVSPropertyOp5
 70
     1
102
RTVSPropertyOp6
 70
     1
102
RTVSPropertyOp7
 70
     1
102
RTVSPropertyOp8
 70
     1
102
RTVSPropertyOp9
 70
     1
102
RTVSPropertyOp10
 70
     1
102
RTVSPropertyOp11
 70
     1
102
RTVSPropertyOp12
 70
     1
102
RTVSPropertyOp13
 70
     1
102
RTVSPropertyOp14
 70
     1
102
RTVSPropertyOp15
 70
     1
102
RTVSPropertyOp16
 70
     1
102
RTVSPropertyOp17
 70
     1
102
RTVSPropertyOp18
 70
     1
102
RTVSPropertyOp19
 70
     1
102
RTVSPropertyOp20
 70
     1
102
RTVSPropertyOp21
 70
     1
102
RTVSPropertyOp22
 70
     1
102
RTVSPropertyOp23
 70
     1
102
RTVSPropertyOp24
 70
     1
102
RTVSPropertyOp25
 70
     1
102
RTVSPropertyOp26
 70
     1
102
RTVSPropertyOp27
 70
     1
  0
XRECORD
  5
1B80
102
{ACAD_REACTORS
330
1B7F
102
}
330
1B7F
100
AcDbXrecord
280
     1
102
RTVSPropertyOp0
 70
     0
102
RTVSPropertyOp1
 70
     0
102
RTVSPropertyOp2
 70
     0
102
RTVSPropertyOp3
 70
     0
102
RTVSPropertyOp4
 70
     0
102
RTVSPropertyOp5
 70
     0
102
RTVSPropertyOp6
 70
     0
102
RTVSPropertyOp7
 70
     0
102
RTVSPropertyOp8
 70
     0
102
RTVSPropertyOp9
 70
     0
102
RTVSPropertyOp10
 70
     0
102
RTVSPropertyOp11
 70
     0
102
RTVSPropertyOp12
 70
     0
102
RTVSPropertyOp13
 70
     0
102
RTVSPropertyOp14
 70
     2
102
RTVSPropertyOp15
 70
     0
102
RTVSPropertyOp16
 70
     0
102
RTVSPropertyOp17
 70
     0
102
RTVSPropertyOp18
 70
     0
102
RTVSPropertyOp19
 70
     0
102
RTVSPropertyOp20
 70
     0
102
RTVSPropertyOp21
 70
     0
102
RTVSPropertyOp22
 70
     0
102
RTVSPropertyOp23
 70
     0
102
RTVSPropertyOp24
 70
     0
102
RTVSPropertyOp25
 70
     0
102
RTVSPropertyOp26
 70
     0
102
RTVSPropertyOp27
 70
     0
  0
XRECORD
  5
1B78
102
{ACAD_REACTORS
330
1B77
102
}
330
1B77
100
AcDbXrecord
280
     1
102
RTVSPropertyOp0
 70
     1
102
RTVSPropertyOp1
 70
     1
102
RTVSPropertyOp2
 70
     1
102
RTVSPropertyOp3
 70
     1
102
RTVSPropertyOp4
 70
     1
102
RTVSPropertyOp5
 70
     1
102
RTVSPropertyOp6
 70
     1
102
RTVSPropertyOp7
 70
     1
102
RTVSPropertyOp8
 70
     1
102
RTVSPropertyOp9
 70
     1
102
RTVSPropertyOp10
 70
     1
102
RTVSPropertyOp11
 70
     1
102
RTVSPropertyOp12
 70
     1
102
RTVSPropertyOp13
 70
     1
102
RTVSPropertyOp14
 70
     1
102
RTVSPropertyOp15
 70
     1
102
RTVSPropertyOp16
 70
     1
102
RTVSPropertyOp17
 70
     1
102
RTVSPropertyOp18
 70
     1
102
RTVSPropertyOp19
 70
     1
102
RTVSPropertyOp20
 70
     1
102
RTVSPropertyOp21
 70
     1
102
RTVSPropertyOp22
 70
     1
102
RTVSPropertyOp23
 70
     1
102
RTVSPropertyOp24
 70
     1
102
RTVSPropertyOp25
 70
     1
102
RTVSPropertyOp26
 70
     1
102
RTVSPropertyOp27
 70
     1
  0
XRECORD
  5
1B5C
102
{ACAD_REACTORS
330
1B5B
102
}
330
1B5B
100
AcDbXrecord
280
     1
102
RTVSPropertyOp0
 70
     1
102
RTVSPropertyOp1
 70
     1
102
RTVSPropertyOp2
 70
     1
102
RTVSPropertyOp3
 70
     1
102
RTVSPropertyOp4
 70
     1
102
RTVSPropertyOp5
 70
     1
102
RTVSPropertyOp6
 70
     1
102
RTVSPropertyOp7
 70
     1
102
RTVSPropertyOp8
 70
     1
102
RTVSPropertyOp9
 70
     1
102
RTVSPropertyOp10
 70
     1
102
RTVSPropertyOp11
 70
     1
102
RTVSPropertyOp12
 70
     1
102
RTVSPropertyOp13
 70
     1
102
RTVSPropertyOp14
 70
     1
102
RTVSPropertyOp15
 70
     1
102
RTVSPropertyOp16
 70
     1
102
RTVSPropertyOp17
 70
     1
102
RTVSPropertyOp18
 70
     1
102
RTVSPropertyOp19
 70
     1
102
RTVSPropertyOp20
 70
     1
102
RTVSPropertyOp21
 70
     1
102
RTVSPropertyOp22
 70
     1
102
RTVSPropertyOp23
 70
     1
102
RTVSPropertyOp24
 70
     1
102
RTVSPropertyOp25
 70
     1
102
RTVSPropertyOp26
 70
     1
102
RTVSPropertyOp27
 70
     1
  0
XRECORD
  5
1B5E
102
{ACAD_REACTORS
330
1B5D
102
}
330
1B5D
100
AcDbXrecord
280
     1
102
RTVSPropertyOp0
 70
     1
102
RTVSPropertyOp1
 70
     1
102
RTVSPropertyOp2
 70
     1
102
RTVSPropertyOp3
 70
     1
102
RTVSPropertyOp4
 70
     1
102
RTVSPropertyOp5
 70
     1
102
RTVSPropertyOp6
 70
     1
102
RTVSPropertyOp7
 70
     1
102
RTVSPropertyOp8
 70
     1
102
RTVSPropertyOp9
 70
     1
102
RTVSPropertyOp10
 70
     1
102
RTVSPropertyOp11
 70
     1
102
RTVSPropertyOp12
 70
     1
102
RTVSPropertyOp13
 70
     1
102
RTVSPropertyOp14
 70
     1
102
RTVSPropertyOp15
 70
     1
102
RTVSPropertyOp16
 70
     1
102
RTVSPropertyOp17
 70
     1
102
RTVSPropertyOp18
 70
     1
102
RTVSPropertyOp19
 70
     1
102
RTVSPropertyOp20
 70
     1
102
RTVSPropertyOp21
 70
     1
102
RTVSPropertyOp22
 70
     1
102
RTVSPropertyOp23
 70
     1
102
RTVSPropertyOp24
 70
     1
102
RTVSPropertyOp25
 70
     1
102
RTVSPropertyOp26
 70
     1
102
RTVSPropertyOp27
 70
     1
  0
XRECORD
  5
1B60
102
{ACAD_REACTORS
330
1B5F
102
}
330
1B5F
100
AcDbXrecord
280
     1
102
RTVSPropertyOp0
 70
     1
102
RTVSPropertyOp1
 70
     1
102
RTVSPropertyOp2
 70
     1
102
RTVSPropertyOp3
 70
     1
102
RTVSPropertyOp4
 70
     1
102
RTVSPropertyOp5
 70
     1
102
RTVSPropertyOp6
 70
     1
102
RTVSPropertyOp7
 70
     1
102
RTVSPropertyOp8
 70
     1
102
RTVSPropertyOp9
 70
     1
102
RTVSPropertyOp10
 70
     1
102
RTVSPropertyOp11
 70
     1
102
RTVSPropertyOp12
 70
     1
102
RTVSPropertyOp13
 70
     1
102
RTVSPropertyOp14
 70
     1
102
RTVSPropertyOp15
 70
     1
102
RTVSPropertyOp16
 70
     1
102
RTVSPropertyOp17
 70
     1
102
RTVSPropertyOp18
 70
     1
102
RTVSPropertyOp19
 70
     1
102
RTVSPropertyOp20
 70
     1
102
RTVSPropertyOp21
 70
     1
102
RTVSPropertyOp22
 70
     1
102
RTVSPropertyOp23
 70
     1
102
RTVSPropertyOp24
 70
     1
102
RTVSPropertyOp25
 70
     1
102
RTVSPropertyOp26
 70
     1
102
RTVSPropertyOp27
 70
     1
  0
XRECORD
  5
1B62
102
{ACAD_REACTORS
330
1B61
102
}
330
1B61
100
AcDbXrecord
280
     1
102
RTVSPropertyOp0
 70
     1
102
RTVSPropertyOp1
 70
     1
102
RTVSPropertyOp2
 70
     1
102
RTVSPropertyOp3
 70
     1
102
RTVSPropertyOp4
 70
     1
102
RTVSPropertyOp5
 70
     1
102
RTVSPropertyOp6
 70
     1
102
RTVSPropertyOp7
 70
     1
102
RTVSPropertyOp8
 70
     1
102
RTVSPropertyOp9
 70
     1
102
RTVSPropertyOp10
 70
     1
102
RTVSPropertyOp11
 70
     1
102
RTVSPropertyOp12
 70
     1
102
RTVSPropertyOp13
 70
     1
102
RTVSPropertyOp14
 70
     1
102
RTVSPropertyOp15
 70
     1
102
RTVSPropertyOp16
 70
     1
102
RTVSPropertyOp17
 70
     1
102
RTVSPropertyOp18
 70
     1
102
RTVSPropertyOp19
 70
     1
102
RTVSPropertyOp20
 70
     1
102
RTVSPropertyOp21
 70
     1
102
RTVSPropertyOp22
 70
     1
102
RTVSPropertyOp23
 70
     1
102
RTVSPropertyOp24
 70
     1
102
RTVSPropertyOp25
 70
     1
102
RTVSPropertyOp26
 70
     1
102
RTVSPropertyOp27
 70
     1
  0
XRECORD
  5
1B7C
102
{ACAD_REACTORS
330
1B7B
102
}
330
1B7B
100
AcDbXrecord
280
     1
102
RTVSPropertyOp0
 70
     0
102
RTVSPropertyOp1
 70
     0
102
RTVSPropertyOp2
 70
     0
102
RTVSPropertyOp3
 70
     0
102
RTVSPropertyOp4
 70
     0
102
RTVSPropertyOp5
 70
     0
102
RTVSPropertyOp6
 70
     0
102
RTVSPropertyOp7
 70
     0
102
RTVSPropertyOp8
 70
     0
102
RTVSPropertyOp9
 70
     0
102
RTVSPropertyOp10
 70
     0
102
RTVSPropertyOp11
 70
     0
102
RTVSPropertyOp12
 70
     0
102
RTVSPropertyOp13
 70
     0
102
RTVSPropertyOp14
 70
     2
102
RTVSPropertyOp15
 70
     0
102
RTVSPropertyOp16
 70
     0
102
RTVSPropertyOp17
 70
     0
102
RTVSPropertyOp18
 70
     0
102
RTVSPropertyOp19
 70
     0
102
RTVSPropertyOp20
 70
     0
102
RTVSPropertyOp21
 70
     0
102
RTVSPropertyOp22
 70
     0
102
RTVSPropertyOp23
 70
     0
102
RTVSPropertyOp24
 70
     0
102
RTVSPropertyOp25
 70
     0
102
RTVSPropertyOp26
 70
     0
102
RTVSPropertyOp27
 70
     0
  0
XRECORD
  5
1B76
102
{ACAD_REACTORS
330
1B75
102
}
330
1B75
100
AcDbXrecord
280
     1
102
RTVSPropertyOp0
 70
     1
102
RTVSPropertyOp1
 70
     1
102
RTVSPropertyOp2
 70
     1
102
RTVSPropertyOp3
 70
     1
102
RTVSPropertyOp4
 70
     1
102
RTVSPropertyOp5
 70
     1
102
RTVSPropertyOp6
 70
     1
102
RTVSPropertyOp7
 70
     1
102
RTVSPropertyOp8
 70
     1
102
RTVSPropertyOp9
 70
     1
102
RTVSPropertyOp10
 70
     1
102
RTVSPropertyOp11
 70
     1
102
RTVSPropertyOp12
 70
     1
102
RTVSPropertyOp13
 70
     1
102
RTVSPropertyOp14
 70
     1
102
RTVSPropertyOp15
 70
     1
102
RTVSPropertyOp16
 70
     1
102
RTVSPropertyOp17
 70
     1
102
RTVSPropertyOp18
 70
     1
102
RTVSPropertyOp19
 70
     1
102
RTVSPropertyOp20
 70
     1
102
RTVSPropertyOp21
 70
     1
102
RTVSPropertyOp22
 70
     1
102
RTVSPropertyOp23
 70
     1
102
RTVSPropertyOp24
 70
     1
102
RTVSPropertyOp25
 70
     1
102
RTVSPropertyOp26
 70
     1
102
RTVSPropertyOp27
 70
     1
  0
XRECORD
  5
1B7E
102
{ACAD_REACTORS
330
1B7D
102
}
330
1B7D
100
AcDbXrecord
280
     1
102
RTVSPropertyOp0
 70
     0
102
RTVSPropertyOp1
 70
     0
102
RTVSPropertyOp2
 70
     0
102
RTVSPropertyOp3
 70
     0
102
RTVSPropertyOp4
 70
     0
102
RTVSPropertyOp5
 70
     0
102
RTVSPropertyOp6
 70
     0
102
RTVSPropertyOp7
 70
     0
102
RTVSPropertyOp8
 70
     0
102
RTVSPropertyOp9
 70
     0
102
RTVSPropertyOp10
 70
     0
102
RTVSPropertyOp11
 70
     0
102
RTVSPropertyOp12
 70
     0
102
RTVSPropertyOp13
 70
     0
102
RTVSPropertyOp14
 70
     2
102
RTVSPropertyOp15
 70
     0
102
RTVSPropertyOp16
 70
     0
102
RTVSPropertyOp17
 70
     0
102
RTVSPropertyOp18
 70
     0
102
RTVSPropertyOp19
 70
     0
102
RTVSPropertyOp20
 70
     0
102
RTVSPropertyOp21
 70
     0
102
RTVSPropertyOp22
 70
     0
102
RTVSPropertyOp23
 70
     0
102
RTVSPropertyOp24
 70
     0
102
RTVSPropertyOp25
 70
     0
102
RTVSPropertyOp26
 70
     0
102
RTVSPropertyOp27
 70
     0
  0
XRECORD
  5
1B6E
102
{ACAD_REACTORS
330
1B6D
102
}
330
1B6D
100
AcDbXrecord
280
     1
102
RTVSPropertyOp0
 70
     1
102
RTVSPropertyOp1
 70
     1
102
RTVSPropertyOp2
 70
     1
102
RTVSPropertyOp3
 70
     1
102
RTVSPropertyOp4
 70
     1
102
RTVSPropertyOp5
 70
     1
102
RTVSPropertyOp6
 70
     1
102
RTVSPropertyOp7
 70
     1
102
RTVSPropertyOp8
 70
     1
102
RTVSPropertyOp9
 70
     1
102
RTVSPropertyOp10
 70
     1
102
RTVSPropertyOp11
 70
     1
102
RTVSPropertyOp12
 70
     1
102
RTVSPropertyOp13
 70
     1
102
RTVSPropertyOp14
 70
     1
102
RTVSPropertyOp15
 70
     1
102
RTVSPropertyOp16
 70
     1
102
RTVSPropertyOp17
 70
     1
102
RTVSPropertyOp18
 70
     1
102
RTVSPropertyOp19
 70
     1
102
RTVSPropertyOp20
 70
     1
102
RTVSPropertyOp21
 70
     1
102
RTVSPropertyOp22
 70
     1
102
RTVSPropertyOp23
 70
     1
102
RTVSPropertyOp24
 70
     1
102
RTVSPropertyOp25
 70
     1
102
RTVSPropertyOp26
 70
     1
102
RTVSPropertyOp27
 70
     1
  0
XRECORD
  5
1B74
102
{ACAD_REACTORS
330
1B73
102
}
330
1B73
100
AcDbXrecord
280
     1
102
RTVSPropertyOp0
 70
     1
102
RTVSPropertyOp1
 70
     1
102
RTVSPropertyOp2
 70
     1
102
RTVSPropertyOp3
 70
     1
102
RTVSPropertyOp4
 70
     1
102
RTVSPropertyOp5
 70
     1
102
RTVSPropertyOp6
 70
     1
102
RTVSPropertyOp7
 70
     1
102
RTVSPropertyOp8
 70
     1
102
RTVSPropertyOp9
 70
     1
102
RTVSPropertyOp10
 70
     1
102
RTVSPropertyOp11
 70
     1
102
RTVSPropertyOp12
 70
     1
102
RTVSPropertyOp13
 70
     1
102
RTVSPropertyOp14
 70
     1
102
RTVSPropertyOp15
 70
     1
102
RTVSPropertyOp16
 70
     1
102
RTVSPropertyOp17
 70
     1
102
RTVSPropertyOp18
 70
     1
102
RTVSPropertyOp19
 70
     1
102
RTVSPropertyOp20
 70
     1
102
RTVSPropertyOp21
 70
     1
102
RTVSPropertyOp22
 70
     1
102
RTVSPropertyOp23
 70
     1
102
RTVSPropertyOp24
 70
     1
102
RTVSPropertyOp25
 70
     1
102
RTVSPropertyOp26
 70
     1
102
RTVSPropertyOp27
 70
     1
  0
ENDSEC
  0
EOF
