  0
SECTION
  2
HEADER
  9
$ACADVER
  1
AC1021
  9
$ACADMAINTVER
 70
    50
  9
$DWGCODEPAGE
  3
ANSI_1252
  9
$LASTSAVEDBY
  1
francoisbu
  9
$INSBASE
 10
0.0
 20
0.0
 30
0.0
  9
$EXTMIN
 10
20.06852258097541
 20
22.92203806028289
 30
-0.0015258207003583
  9
$EXTMAX
 10
84.16438832989792
 20
47.64697284829884
 30
0.0000000349246037
  9
$LIMMIN
 10
0.0
 20
0.0
  9
$LIMMAX
 10
181.3333333333
 20
117.3333333333
  9
$ORTHOMODE
 70
     0
  9
$REGENMODE
 70
     1
  9
$FILLMODE
 70
     1
  9
$QTEXTMODE
 70
     0
  9
$MIRRTEXT
 70
     0
  9
$LTSCALE
 40
9.973333333300001
  9
$ATTMODE
 70
     1
  9
$TEXTSIZE
 40
0.2
  9
$TRACEWID
 40
0.05
  9
$TEXTSTYLE
  7
STANDARD
  9
$CLAYER
  8
0
  9
$CELTYPE
  6
BYLAYER
  9
$CECOLOR
 62
   256
  9
$CELTSCALE
 40
1.0
  9
$DISPSILH
 70
     0
  9
$DIMSCALE
 40
1.0
  9
$DIMASZ
 40
2.0
  9
$DIMEXO
 40
0.0625
  9
$DIMDLI
 40
6.890666666699999
  9
$DIMRND
 40
0.0
  9
$DIMDLE
 40
0.0
  9
$DIMEXE
 40
0.125
  9
$DIMTP
 40
0.00001
  9
$DIMTM
 40
0.00001
  9
$DIMTXT
 40
1.333333333299999
  9
$DIMCEN
 40
1.631999999999999
  9
$DIMTSZ
 40
0.0
  9
$DIMTOL
 70
     1
  9
$DIMLIM
 70
     0
  9
$DIMTIH
 70
     1
  9
$DIMTOH
 70
     1
  9
$DIMSE1
 70
     0
  9
$DIMSE2
 70
     0
  9
$DIMTAD
 70
     0
  9
$DIMZIN
 70
     0
  9
$DIMBLK
  1
_FILLED
  9
$DIMASO
 70
     1
  9
$DIMSHO
 70
     1
  9
$DIMPOST
  1

  9
$DIMAPOST
  1

  9
$DIMALT
 70
     0
  9
$DIMALTD
 70
     2
  9
$DIMALTF
 40
25.4
  9
$DIMLFAC
 40
1.0
  9
$DIMTOFL
 70
     0
  9
$DIMTVP
 40
0.0
  9
$DIMTIX
 70
     0
  9
$DIMSOXD
 70
     0
  9
$DIMSAH
 70
     0
  9
$DIMBLK1
  1

  9
$DIMBLK2
  1

  9
$DIMSTYLE
  2
STANDARD
  9
$DIMCLRD
 70
     0
  9
$DIMCLRE
 70
     0
  9
$DIMCLRT
 70
     0
  9
$DIMTFAC
 40
1.0
  9
$DIMGAP
 40
0.09
  9
$DIMJUST
 70
     0
  9
$DIMSD1
 70
     0
  9
$DIMSD2
 70
     0
  9
$DIMTOLJ
 70
     1
  9
$DIMTZIN
 70
     0
  9
$DIMALTZ
 70
     0
  9
$DIMALTTZ
 70
     0
  9
$DIMUPT
 70
     0
  9
$DIMDEC
 70
     4
  9
$DIMTDEC
 70
     4
  9
$DIMALTU
 70
     2
  9
$DIMALTTD
 70
     2
  9
$DIMTXSTY
  7
STANDARD
  9
$DIMAUNIT
 70
     0
  9
$DIMADEC
 70
     0
  9
$DIMALTRND
 40
0.0
  9
$DIMAZIN
 70
     0
  9
$DIMDSEP
 70
    46
  9
$DIMATFIT
 70
     3
  9
$DIMFRAC
 70
     0
  9
$DIMLDRBLK
  1

  9
$DIMLUNIT
 70
     2
  9
$DIMLWD
 70
    -2
  9
$DIMLWE
 70
    -2
  9
$DIMTMOVE
 70
     0
  9
$DIMFXL
 40
1.0
  9
$DIMFXLON
 70
     0
  9
$DIMJOGANG
 40
0.7853981633974483
  9
$DIMTFILL
 70
     0
  9
$DIMTFILLCLR
 70
     0
  9
$DIMARCSYM
 70
     0
  9
$DIMLTYPE
  6

  9
$DIMLTEX1
  6

  9
$DIMLTEX2
  6

  9
$LUNITS
 70
     2
  9
$LUPREC
 70
     4
  9
$SKETCHINC
 40
0.1
  9
$FILLETRAD
 40
0.0
  9
$AUNITS
 70
     0
  9
$AUPREC
 70
     0
  9
$MENU
  1
.
  9
$ELEVATION
 40
0.0
  9
$PELEVATION
 40
0.0
  9
$THICKNESS
 40
0.0
  9
$LIMCHECK
 70
     0
  9
$CHAMFERA
 40
0.0
  9
$CHAMFERB
 40
0.0
  9
$CHAMFERC
 40
0.0
  9
$CHAMFERD
 40
0.0
  9
$SKPOLY
 70
     0
  9
$TDCREATE
 40
2456972.630894005
  9
$TDUCREATE
 40
2456972.839227338
  9
$TDUPDATE
 40
2456973.449655880
  9
$TDUUPDATE
 40
2456973.657989213
  9
$TDINDWG
 40
0.0011089005
  9
$TDUSRTIMER
 40
0.0011089005
  9
$USRTIMER
 70
     1
  9
$ANGBASE
 50
0.0
  9
$ANGDIR
 70
     0
  9
$PDMODE
 70
     3
  9
$PDSIZE
 40
0.03125
  9
$PLINEWID
 40
0.0
  9
$SPLFRAME
 70
     0
  9
$SPLINETYPE
 70
     6
  9
$SPLINESEGS
 70
     8
  9
$HANDSEED
  5
1B60
  9
$SURFTAB1
 70
     6
  9
$SURFTAB2
 70
     6
  9
$SURFTYPE
 70
     6
  9
$SURFU
 70
     6
  9
$SURFV
 70
     6
  9
$UCSBASE
  2

  9
$UCSNAME
  2

  9
$UCSORG
 10
0.0
 20
0.0
 30
0.0
  9
$UCSXDIR
 10
1.0
 20
0.0
 30
0.0
  9
$UCSYDIR
 10
0.0
 20
1.0
 30
0.0
  9
$UCSORTHOREF
  2

  9
$UCSORTHOVIEW
 70
     0
  9
$UCSORGTOP
 10
0.0
 20
0.0
 30
0.0
  9
$UCSORGBOTTOM
 10
0.0
 20
0.0
 30
0.0
  9
$UCSORGLEFT
 10
0.0
 20
0.0
 30
0.0
  9
$UCSORGRIGHT
 10
0.0
 20
0.0
 30
0.0
  9
$UCSORGFRONT
 10
0.0
 20
0.0
 30
0.0
  9
$UCSORGBACK
 10
0.0
 20
0.0
 30
0.0
  9
$PUCSBASE
  2

  9
$PUCSNAME
  2

  9
$PUCSORG
 10
0.0
 20
0.0
 30
0.0
  9
$PUCSXDIR
 10
1.0
 20
0.0
 30
0.0
  9
$PUCSYDIR
 10
0.0
 20
1.0
 30
0.0
  9
$PUCSORTHOREF
  2

  9
$PUCSORTHOVIEW
 70
     0
  9
$PUCSORGTOP
 10
0.0
 20
0.0
 30
0.0
  9
$PUCSORGBOTTOM
 10
0.0
 20
0.0
 30
0.0
  9
$PUCSORGLEFT
 10
0.0
 20
0.0
 30
0.0
  9
$PUCSORGRIGHT
 10
0.0
 20
0.0
 30
0.0
  9
$PUCSORGFRONT
 10
0.0
 20
0.0
 30
0.0
  9
$PUCSORGBACK
 10
0.0
 20
0.0
 30
0.0
  9
$USERI1
 70
     0
  9
$USERI2
 70
     0
  9
$USERI3
 70
     0
  9
$USERI4
 70
     0
  9
$USERI5
 70
     0
  9
$USERR1
 40
0.0
  9
$USERR2
 40
0.0
  9
$USERR3
 40
0.0
  9
$USERR4
 40
0.0
  9
$USERR5
 40
0.0
  9
$WORLDVIEW
 70
     1
  9
$SHADEDGE
 70
     3
  9
$SHADEDIF
 70
    70
  9
$TILEMODE
 70
     1
  9
$MAXACTVP
 70
    64
  9
$PINSBASE
 10
0.0
 20
0.0
 30
0.0
  9
$PLIMCHECK
 70
     0
  9
$PEXTMIN
 10
1.000000000000000E+20
 20
1.000000000000000E+20
 30
1.000000000000000E+20
  9
$PEXTMAX
 10
-1.000000000000000E+20
 20
-1.000000000000000E+20
 30
-1.000000000000000E+20
  9
$PLIMMIN
 10
0.0
 20
0.0
  9
$PLIMMAX
 10
12.0
 20
9.0
  9
$UNITMODE
 70
     0
  9
$VISRETAIN
 70
     1
  9
$PLINEGEN
 70
     0
  9
$PSLTSCALE
 70
     1
  9
$TREEDEPTH
 70
  3020
  9
$CMLSTYLE
  2
Standard
  9
$CMLJUST
 70
     0
  9
$CMLSCALE
 40
1.0
  9
$PROXYGRAPHICS
 70
     1
  9
$MEASUREMENT
 70
     0
  9
$CELWEIGHT
370
    -1
  9
$ENDCAPS
280
     0
  9
$JOINSTYLE
280
     0
  9
$LWDISPLAY
290
     0
  9
$INSUNITS
 70
     1
  9
$HYPERLINKBASE
  1

  9
$STYLESHEET
  1

  9
$XEDIT
290
     1
  9
$CEPSNTYPE
380
     0
  9
$PSTYLEMODE
290
     1
  9
$FINGERPRINTGUID
  2
{7340473E-5182-42C5-B38A-A893EE2C9BF5}
  9
$VERSIONGUID
  2
{04468F50-738F-4367-BAD5-D7206AB6D264}
  9
$EXTNAMES
290
     1
  9
$PSVPSCALE
 40
0.0
  9
$OLESTARTUP
290
     0
  9
$SORTENTS
280
   127
  9
$INDEXCTL
280
     0
  9
$HIDETEXT
280
     0
  9
$XCLIPFRAME
290
     0
  9
$HALOGAP
280
     0
  9
$OBSCOLOR
 70
   257
  9
$OBSLTYPE
280
     0
  9
$INTERSECTIONDISPLAY
280
     0
  9
$INTERSECTIONCOLOR
 70
   257
  9
$DIMASSOC
280
     1
  9
$PROJECTNAME
  1

  9
$CAMERADISPLAY
290
     0
  9
$LENSLENGTH
 40
50.0
  9
$CAMERAHEIGHT
 40
0.0
  9
$STEPSPERSEC
 40
2.0
  9
$STEPSIZE
 40
6.0
  9
$3DDWFPREC
 40
2.0
  9
$PSOLWIDTH
 40
0.25
  9
$PSOLHEIGHT
 40
4.0
  9
$LOFTANG1
 40
1.570796326794896
  9
$LOFTANG2
 40
1.570796326794896
  9
$LOFTMAG1
 40
0.0
  9
$LOFTMAG2
 40
0.0
  9
$LOFTPARAM
 70
     7
  9
$LOFTNORMALS
280
     1
  9
$LATITUDE
 40
37.795
  9
$LONGITUDE
 40
-122.394
  9
$NORTHDIRECTION
 40
0.0
  9
$TIMEZONE
 70
 -8000
  9
$LIGHTGLYPHDISPLAY
280
     1
  9
$TILEMODELIGHTSYNCH
280
     1
  9
$CMATERIAL
347
1A82
  9
$SOLIDHIST
280
     1
  9
$SHOWHIST
280
     1
  9
$DWFFRAME
280
     2
  9
$DGNFRAME
280
     0
  9
$REALWORLDSCALE
290
     1
  9
$INTERFERECOLOR
 62
     1
  9
$INTERFEREOBJVS
345
1AA4
  9
$INTERFEREVPVS
346
1AA1
  9
$CSHADOW
280
     0
  9
$SHADOWPLANELOCATION
 40
0.0
  0
ENDSEC
  0
SECTION
  2
CLASSES
  0
CLASS
  1
ACDBDICTIONARYWDFLT
  2
AcDbDictionaryWithDefault
  3
ObjectDBX Classes
 90
        0
 91
        1
280
     0
281
     0
  0
CLASS
  1
MATERIAL
  2
AcDbMaterial
  3
ObjectDBX Classes
 90
     1153
 91
        3
280
     0
281
     0
  0
CLASS
  1
VISUALSTYLE
  2
AcDbVisualStyle
  3
ObjectDBX Classes
 90
     4095
 91
       19
280
     0
281
     0
  0
CLASS
  1
TABLESTYLE
  2
AcDbTableStyle
  3
ObjectDBX Classes
 90
     4095
 91
        1
280
     0
281
     0
  0
CLASS
  1
SCALE
  2
AcDbScale
  3
ObjectDBX Classes
 90
     1153
 91
       33
280
     0
281
     0
  0
CLASS
  1
MLEADERSTYLE
  2
AcDbMLeaderStyle
  3
ACDB_MLEADERSTYLE_CLASS
 90
     4095
 91
        1
280
     0
281
     0
  0
CLASS
  1
CELLSTYLEMAP
  2
AcDbCellStyleMap
  3
ObjectDBX Classes
 90
     1152
 91
        3
280
     0
281
     0
  0
CLASS
  1
DICTIONARYVAR
  2
AcDbDictionaryVar
  3
ObjectDBX Classes
 90
        0
 91
       15
280
     0
281
     0
  0
ENDSEC
  0
SECTION
  2
TABLES
  0
TABLE
  2
VPORT
  5
8
102
{ACAD_XDICTIONARY
360
1AD8
102
}
330
0
100
AcDbSymbolTable
 70
     1
  0
VPORT
  5
1F4
330
8
100
AcDbSymbolTableRecord
100
AcDbViewportTableRecord
  2
*ACTIVE
 70
     0
 10
0.0
 20
0.0
 11
1.0
 21
1.0
 12
57.92159746737064
 22
34.59814039115166
 13
0.0
 23
0.0
 14
1.0
 24
1.0
 15
0.0
 25
0.0
 16
0.0
 26
0.0
 36
1.0
 17
0.0
 27
0.0
 37
0.0
 40
55.779502816301
 41
1.780711825487944
 42
50.0
 43
0.0
 44
0.0
 50
0.0
 51
0.0
 71
     0
 72
   100
 73
     1
 74
     1
 75
     0
 76
     0
 77
     0
 78
     0
281
     0
 65
     1
110
0.0
120
0.0
130
0.0
111
1.0
121
0.0
131
0.0
112
0.0
122
1.0
132
0.0
 79
     0
146
0.0
348
1AA0
 60
     3
 61
     5
292
     1
282
     1
141
0.0
142
0.0
 63
   250
421
  3355443
  0
ENDTAB
  0
TABLE
  2
LTYPE
  5
5
330
0
100
AcDbSymbolTable
 70
     6
  0
LTYPE
  5
14
330
5
100
AcDbSymbolTableRecord
100
AcDbLinetypeTableRecord
  2
BYBLOCK
 70
     0
  3

 72
    65
 73
     0
 40
0.0
  0
LTYPE
  5
15
330
5
100
AcDbSymbolTableRecord
100
AcDbLinetypeTableRecord
  2
BYLAYER
 70
     0
  3

 72
    65
 73
     0
 40
0.0
  0
LTYPE
  5
16
330
5
100
AcDbSymbolTableRecord
100
AcDbLinetypeTableRecord
  2
CONTINUOUS
 70
     0
  3
Solid line
 72
    65
 73
     0
 40
0.0
  0
LTYPE
  5
1F5
330
5
100
AcDbSymbolTableRecord
100
AcDbLinetypeTableRecord
  2
CENTER
 70
     0
  3
____ _ ____ _ ____ _ ____ _ ____ _ ____ _ ____
 72
    65
 73
     4
 40
0.6
 49
0.375
 74
     0
 49
-0.075
 74
     0
 49
0.075
 74
     0
 49
-0.075
 74
     0
  0
LTYPE
  5
1F6
330
5
100
AcDbSymbolTableRecord
100
AcDbLinetypeTableRecord
  2
HIDDEN
 70
     0
  3
- - - - - - - - - - - - - - - - - - - -
 72
    65
 73
     2
 40
0.2
 49
0.1
 74
     0
 49
-0.1
 74
     0
  0
LTYPE
  5
1F7
330
5
100
AcDbSymbolTableRecord
100
AcDbLinetypeTableRecord
  2
PHANTOM
 70
     0
  3
_____ _ _ _____ _ _ _____ _ _ _____
 72
    65
 73
     6
 40
0.8
 49
0.45
 74
     0
 49
-0.05
 74
     0
 49
0.1
 74
     0
 49
-0.05
 74
     0
 49
0.1
 74
     0
 49
-0.05
 74
     0
  0
LTYPE
  5
1F8
330
5
100
AcDbSymbolTableRecord
100
AcDbLinetypeTableRecord
  2
DOT
 70
     0
  3
. . . . . . . . . . . . . . . . . . . .
 72
    65
 73
     2
 40
0.2
 49
0.1
 74
     0
 49
-0.1
 74
     0
  0
LTYPE
  5
1F9
330
5
100
AcDbSymbolTableRecord
100
AcDbLinetypeTableRecord
  2
DASHED
 70
     0
  3
- - - - - - - - - - - - - - - - - - - -
 72
    65
 73
     2
 40
0.2
 49
0.1
 74
     0
 49
-0.1
 74
     0
  0
ENDTAB
  0
TABLE
  2
LAYER
  5
2
330
0
100
AcDbSymbolTable
 70
    31
  0
LAYER
  5
10
102
{ACAD_XDICTIONARY
360
1B18
102
}
330
2
100
AcDbSymbolTableRecord
100
AcDbLayerTableRecord
  2
0
 70
     0
 62
     7
  6
CONTINUOUS
370
    -3
390
F
347
1A92
  0
LAYER
  5
1FA
102
{ACAD_XDICTIONARY
360
1B1A
102
}
330
2
100
AcDbSymbolTableRecord
100
AcDbLayerTableRecord
  2
DEFAULT_1
 70
     0
 62
     7
  6
CENTER
370
    -3
390
F
347
1A92
  0
LAYER
  5
1FB
102
{ACAD_XDICTIONARY
360
1B1C
102
}
330
2
100
AcDbSymbolTableRecord
100
AcDbLayerTableRecord
  2
DEFAULT_2
 70
     0
 62
     7
  6
HIDDEN
370
    -3
390
F
347
1A92
  0
LAYER
  5
1FC
102
{ACAD_XDICTIONARY
360
1B1E
102
}
330
2
100
AcDbSymbolTableRecord
100
AcDbLayerTableRecord
  2
DEFAULT_3
 70
     0
 62
     7
  6
PHANTOM
370
    -3
390
F
347
1A92
  0
LAYER
  5
1FD
102
{ACAD_XDICTIONARY
360
1B20
102
}
330
2
100
AcDbSymbolTableRecord
100
AcDbLayerTableRecord
  2
1_CURVES
 70
     0
 62
     7
  6
CONTINUOUS
370
    -3
390
F
347
1A92
  0
LAYER
  5
1FE
102
{ACAD_XDICTIONARY
360
1B22
102
}
330
2
100
AcDbSymbolTableRecord
100
AcDbLayerTableRecord
  2
1_CURVES_CONDUIT
 70
     0
 62
     7
  6
CONTINUOUS
370
    -3
390
F
347
1A92
  0
LAYER
  5
1FF
102
{ACAD_XDICTIONARY
360
1B24
102
}
330
2
100
AcDbSymbolTableRecord
100
AcDbLayerTableRecord
  2
1_CURVES_DOT
 70
     0
 62
     7
  6
CONTINUOUS
370
    -3
390
F
347
1A92
  0
LAYER
  5
200
102
{ACAD_XDICTIONARY
360
1B26
102
}
330
2
100
AcDbSymbolTableRecord
100
AcDbLayerTableRecord
  2
1_CURVES_JETS
 70
     0
 62
     7
  6
CONTINUOUS
370
    -3
390
F
347
1A92
  0
LAYER
  5
201
102
{ACAD_XDICTIONARY
360
1B28
102
}
330
2
100
AcDbSymbolTableRecord
100
AcDbLayerTableRecord
  2
1_CURVES_PATINS
 70
     0
 62
     7
  6
CONTINUOUS
370
    -3
390
F
347
1A92
  0
LAYER
  5
202
102
{ACAD_XDICTIONARY
360
1B2A
102
}
330
2
100
AcDbSymbolTableRecord
100
AcDbLayerTableRecord
  2
1_CURVES_SPEC_FRONT
 70
     0
 62
     7
  6
CONTINUOUS
370
    -3
390
F
347
1A92
  0
LAYER
  5
203
102
{ACAD_XDICTIONARY
360
1B2C
102
}
330
2
100
AcDbSymbolTableRecord
100
AcDbLayerTableRecord
  2
1_CURVES_SPEC_RIGHT
 70
     0
 62
     7
  6
CONTINUOUS
370
    -3
390
F
347
1A92
  0
LAYER
  5
204
102
{ACAD_XDICTIONARY
360
1B2E
102
}
330
2
100
AcDbSymbolTableRecord
100
AcDbLayerTableRecord
  2
2_PLANES
 70
     0
 62
     7
  6
CONTINUOUS
370
    -3
390
F
347
1A92
  0
LAYER
  5
205
102
{ACAD_XDICTIONARY
360
1B30
102
}
330
2
100
AcDbSymbolTableRecord
100
AcDbLayerTableRecord
  2
2_PLANES_JETS
 70
     0
 62
     7
  6
CONTINUOUS
370
    -3
390
F
347
1A92
  0
LAYER
  5
206
102
{ACAD_XDICTIONARY
360
1B32
102
}
330
2
100
AcDbSymbolTableRecord
100
AcDbLayerTableRecord
  2
3_POINTS
 70
     0
 62
     7
  6
CONTINUOUS
370
    -3
390
F
347
1A92
  0
LAYER
  5
207
102
{ACAD_XDICTIONARY
360
1B34
102
}
330
2
100
AcDbSymbolTableRecord
100
AcDbLayerTableRecord
  2
3_POINTS_JETS
 70
     0
 62
     7
  6
CONTINUOUS
370
    -3
390
F
347
1A92
  0
LAYER
  5
208
102
{ACAD_XDICTIONARY
360
1B36
102
}
330
2
100
AcDbSymbolTableRecord
100
AcDbLayerTableRecord
  2
4_CSYS
 70
     0
 62
     7
  6
CONTINUOUS
370
    -3
390
F
347
1A92
  0
LAYER
  5
209
102
{ACAD_XDICTIONARY
360
1B38
102
}
330
2
100
AcDbSymbolTableRecord
100
AcDbLayerTableRecord
  2
5_AXIS
 70
     0
 62
     7
  6
CONTINUOUS
370
    -3
390
F
347
1A92
  0
LAYER
  5
20A
102
{ACAD_XDICTIONARY
360
1B3A
102
}
330
2
100
AcDbSymbolTableRecord
100
AcDbLayerTableRecord
  2
5_AXIS_JETS
 70
     0
 62
     7
  6
CONTINUOUS
370
    -3
390
F
347
1A92
  0
LAYER
  5
20B
102
{ACAD_XDICTIONARY
360
1B3C
102
}
330
2
100
AcDbSymbolTableRecord
100
AcDbLayerTableRecord
  2
6_AIRE_CONDUIT
 70
     0
 62
     7
  6
CONTINUOUS
370
    -3
390
F
347
1A92
  0
LAYER
  5
20C
102
{ACAD_XDICTIONARY
360
1B3E
102
}
330
2
100
AcDbSymbolTableRecord
100
AcDbLayerTableRecord
  2
6_SURFACES
 70
     0
 62
     7
  6
CONTINUOUS
370
    -3
390
F
347
1A92
  0
LAYER
  5
20D
102
{ACAD_XDICTIONARY
360
1B40
102
}
330
2
100
AcDbSymbolTableRecord
100
AcDbLayerTableRecord
  2
6_SURFACES_AIRE
 70
     0
 62
     7
  6
CONTINUOUS
370
    -3
390
F
347
1A92
  0
LAYER
  5
20E
102
{ACAD_XDICTIONARY
360
1B42
102
}
330
2
100
AcDbSymbolTableRecord
100
AcDbLayerTableRecord
  2
6_SURFACES_OFFSET_FIBRE_ACRYLIQ
 70
     0
 62
     7
  6
CONTINUOUS
370
    -3
390
F
347
1A92
  0
LAYER
  5
20F
102
{ACAD_XDICTIONARY
360
1B44
102
}
330
2
100
AcDbSymbolTableRecord
100
AcDbLayerTableRecord
  2
6_SURFACES_POUR_CONDUIT
 70
     0
 62
     7
  6
CONTINUOUS
370
    -3
390
F
347
1A92
  0
LAYER
  5
210
102
{ACAD_XDICTIONARY
360
1B46
102
}
330
2
100
AcDbSymbolTableRecord
100
AcDbLayerTableRecord
  2
6_SURFACES_POUR_HFL
 70
     0
 62
     7
  6
CONTINUOUS
370
    -3
390
F
347
1A92
  0
LAYER
  5
211
102
{ACAD_XDICTIONARY
360
1B48
102
}
330
2
100
AcDbSymbolTableRecord
100
AcDbLayerTableRecord
  2
6_SURFACES_POUR_TROP_PLEIN
 70
     0
 62
     7
  6
CONTINUOUS
370
    -3
390
F
347
1A92
  0
LAYER
  5
212
102
{ACAD_XDICTIONARY
360
1B4A
102
}
330
2
100
AcDbSymbolTableRecord
100
AcDbLayerTableRecord
  2
6_SURFACES_TOOLING
 70
     0
 62
     7
  6
CONTINUOUS
370
    -3
390
F
347
1A92
  0
LAYER
  5
213
102
{ACAD_XDICTIONARY
360
1B4C
102
}
330
2
100
AcDbSymbolTableRecord
100
AcDbLayerTableRecord
  2
7_NOTES
 70
     0
 62
     7
  6
CONTINUOUS
370
    -3
390
F
347
1A92
  0
LAYER
  5
214
102
{ACAD_XDICTIONARY
360
1B4E
102
}
330
2
100
AcDbSymbolTableRecord
100
AcDbLayerTableRecord
  2
8_TOL_GEOM
 70
     0
 62
     7
  6
CONTINUOUS
370
    -3
390
F
347
1A92
  0
LAYER
  5
215
102
{ACAD_XDICTIONARY
360
1B50
102
}
330
2
100
AcDbSymbolTableRecord
100
AcDbLayerTableRecord
  2
DEGAGEMENT_SERIGRAPHIE
 70
     0
 62
     7
  6
CONTINUOUS
370
    -3
390
F
347
1A92
  0
LAYER
  5
216
102
{ACAD_XDICTIONARY
360
1B52
102
}
330
2
100
AcDbSymbolTableRecord
100
AcDbLayerTableRecord
  2
NONE
 70
     0
 62
     7
  6
CONTINUOUS
370
    -3
390
F
347
1A92
  0
LAYER
  5
217
102
{ACAD_XDICTIONARY
360
1B54
102
}
330
2
100
AcDbSymbolTableRecord
100
AcDbLayerTableRecord
  2
XSEC_DATUMS
 70
     0
 62
     7
  6
CONTINUOUS
370
    -3
390
F
347
1A92
  0
ENDTAB
  0
TABLE
  2
STYLE
  5
3
330
0
100
AcDbSymbolTable
 70
     8
  0
STYLE
  5
11
330
3
100
AcDbSymbolTableRecord
100
AcDbTextStyleTableRecord
  2
STANDARD
 70
     0
 40
0.0
 41
0.8
 50
0.0
 71
     0
 42
0.2
  3
txt
  4

  0
STYLE
  5
218
330
3
100
AcDbSymbolTableRecord
100
AcDbTextStyleTableRecord
  2
TEXTSTYLE_1
 70
     0
 40
0.0
 41
0.8
 50
0.0
 71
     0
 42
0.2
  3
gdt
  4

  0
STYLE
  5
219
330
3
100
AcDbSymbolTableRecord
100
AcDbTextStyleTableRecord
  2
TEXTSTYLE_2
 70
     0
 40
0.0
 41
1.0
 50
0.0
 71
     0
 42
0.2
  3
trium.ttf
  4

  0
STYLE
  5
21A
330
3
100
AcDbSymbolTableRecord
100
AcDbTextStyleTableRecord
  2
TEXTSTYLE_3
 70
     0
 40
0.0
 41
1.0
 50
0.0
 71
     0
 42
0.2
  3
trium.ttf
  4

  0
STYLE
  5
21B
330
3
100
AcDbSymbolTableRecord
100
AcDbTextStyleTableRecord
  2
TEXTSTYLE_4
 70
     0
 40
0.0
 41
1.0
 50
0.0
 71
     0
 42
0.2
  3
txt
  4

1001
ACAD
1000
txt
1071
        2
  0
STYLE
  5
21C
330
3
100
AcDbSymbolTableRecord
100
AcDbTextStyleTableRecord
  2
TEXTSTYLE_5
 70
     0
 40
0.0
 41
1.0
 50
0.0
 71
     0
 42
0.2
  3
txt
  4

  0
STYLE
  5
21D
330
3
100
AcDbSymbolTableRecord
100
AcDbTextStyleTableRecord
  2
TEXTSTYLE_6
 70
     0
 40
0.0
 41
1.0
 50
0.0
 71
     0
 42
0.2
  3
trium.ttf
  4

  0
STYLE
  5
21E
330
3
100
AcDbSymbolTableRecord
100
AcDbTextStyleTableRecord
  2
TEXTSTYLE_7
 70
     0
 40
0.0
 41
0.8
 50
0.0
 71
     0
 42
0.2
  3
txt
  4

  0
ENDTAB
  0
TABLE
  2
VIEW
  5
6
330
0
100
AcDbSymbolTable
 70
     0
  0
ENDTAB
  0
TABLE
  2
UCS
  5
7
330
0
100
AcDbSymbolTable
 70
     0
  0
ENDTAB
  0
TABLE
  2
APPID
  5
9
330
0
100
AcDbSymbolTable
 70
     2
  0
APPID
  5
21F
330
9
100
AcDbSymbolTableRecord
100
AcDbRegAppTableRecord
  2
ACAD
 70
     0
  0
APPID
  5
1B08
330
9
100
AcDbSymbolTableRecord
100
AcDbRegAppTableRecord
  2
ACAD_MLEADERVER
 70
     0
  0
ENDTAB
  0
TABLE
  2
DIMSTYLE
  5
A
330
0
100
AcDbSymbolTable
 70
     5
100
AcDbDimStyleTable
 71
     0
  0
DIMSTYLE
105
22B
330
A
100
AcDbSymbolTableRecord
100
AcDbDimStyleTableRecord
  2
STANDARD
 70
     0
 41
2.0
 44
0.125
 47
0.00001
 48
0.00001
 71
     1
 78
     4
140
1.333333333299999
271
     5
272
     5
284
     4
340
11
341
222
342
222
343
222
344
222
  0
DIMSTYLE
105
22C
330
A
100
AcDbSymbolTableRecord
100
AcDbDimStyleTableRecord
  2
DIMSTYLE_1
 70
     0
 41
2.0
 44
0.125
 47
0.00001
 48
0.00001
 78
     4
140
1.333333333299999
147
0.0625
271
     2
272
     2
284
     4
340
11
341
222
342
222
343
222
344
222
  0
DIMSTYLE
105
22D
330
A
100
AcDbSymbolTableRecord
100
AcDbDimStyleTableRecord
  2
DIMSTYLE_2
 70
     0
 41
2.0
 44
0.125
 47
0.00001
 48
0.00001
 78
     4
140
1.333333333299999
147
0.0625
271
     1
272
     1
284
     4
340
11
341
222
342
222
343
222
344
222
  0
DIMSTYLE
105
22E
330
A
100
AcDbSymbolTableRecord
100
AcDbDimStyleTableRecord
  2
DIMSTYLE_3
 70
     0
 41
2.0
 44
0.125
 47
0.00001
 48
0.00001
 78
     4
140
1.333333333299999
147
0.0625
271
     3
272
     3
284
     4
340
11
341
222
342
222
343
222
344
222
  0
DIMSTYLE
105
22F
330
A
100
AcDbSymbolTableRecord
100
AcDbDimStyleTableRecord
  2
DIMSTYLE_4
 70
     0
 41
2.0
 44
0.125
 47
0.00001
 48
0.00001
 78
     4
140
1.333333333299999
147
0.0625
271
     6
272
     6
284
     4
340
11
341
222
342
222
343
222
344
222
  0
ENDTAB
  0
TABLE
  2
BLOCK_RECORD
  5
1
330
0
100
AcDbSymbolTable
 70
     9
  0
BLOCK_RECORD
  5
220
330
1
100
AcDbSymbolTableRecord
100
AcDbBlockTableRecord
  2
*Model_Space
340
1A7D
 70
     0
280
     1
281
     0
  0
BLOCK_RECORD
  5
221
330
1
100
AcDbSymbolTableRecord
100
AcDbBlockTableRecord
  2
*Paper_Space
340
1A7E
 70
     0
280
     1
281
     0
  0
BLOCK_RECORD
  5
222
330
1
100
AcDbSymbolTableRecord
100
AcDbBlockTableRecord
  2
_FILLED
340
0
102
{BLKREFS
331
304
331
305
331
30D
331
30E
331
316
331
317
331
31F
331
320
331
328
331
329
331
331
331
332
102
}
 70
     0
280
     1
281
     0
  0
BLOCK_RECORD
  5
223
330
1
100
AcDbSymbolTableRecord
100
AcDbBlockTableRecord
  2
*D1
340
0
 70
     0
280
     1
281
     0
  0
BLOCK_RECORD
  5
224
330
1
100
AcDbSymbolTableRecord
100
AcDbBlockTableRecord
  2
*D2
340
0
 70
     0
280
     1
281
     0
  0
BLOCK_RECORD
  5
225
330
1
100
AcDbSymbolTableRecord
100
AcDbBlockTableRecord
  2
*D3
340
0
 70
     0
280
     1
281
     0
  0
BLOCK_RECORD
  5
226
330
1
100
AcDbSymbolTableRecord
100
AcDbBlockTableRecord
  2
*D4
340
0
 70
     0
280
     1
281
     0
  0
BLOCK_RECORD
  5
227
330
1
100
AcDbSymbolTableRecord
100
AcDbBlockTableRecord
  2
*D5
340
0
 70
     0
280
     1
281
     0
  0
BLOCK_RECORD
  5
228
330
1
100
AcDbSymbolTableRecord
100
AcDbBlockTableRecord
  2
*D6
340
0
 70
     0
280
     1
281
     0
  0
BLOCK_RECORD
  5
229
330
1
100
AcDbSymbolTableRecord
100
AcDbBlockTableRecord
  2
SYMBOL_2_BL1
340
0
 70
     0
280
     1
281
     0
  0
BLOCK_RECORD
  5
22A
330
1
100
AcDbSymbolTableRecord
100
AcDbBlockTableRecord
  2
SYMBOL_0_BL0
340
0
 70
     0
280
     1
281
     0
  0
ENDTAB
  0
ENDSEC
  0
SECTION
  2
BLOCKS
  0
BLOCK
  5
20
330
220
100
AcDbEntity
  8
0
100
AcDbBlockBegin
  2
*Model_Space
 70
     0
 10
0.0
 20
0.0
 30
0.0
  3
*Model_Space
  1

  0
ENDBLK
  5
21
330
220
100
AcDbEntity
  8
0
100
AcDbBlockEnd
  0
BLOCK
  5
1C
330
221
100
AcDbEntity
 67
     1
  8
0
100
AcDbBlockBegin
  2
*Paper_Space
 70
     0
 10
0.0
 20
0.0
 30
0.0
  3
*Paper_Space
  1

  0
ENDBLK
  5
1D
330
221
100
AcDbEntity
 67
     1
  8
0
100
AcDbBlockEnd
  0
BLOCK
  5
2FB
330
222
100
AcDbEntity
  8
0
100
AcDbBlockBegin
  2
_FILLED
 70
     0
 10
0.0
 20
0.0
 30
0.0
  3
_FILLED
  1

  0
SOLID
  5
2FC
330
222
100
AcDbEntity
  8
0
  6
ByBlock
 62
     0
100
AcDbTrace
 10
0.0
 20
0.0
 30
0.0
 11
-1.0
 21
0.1666666667
 31
0.0
 12
-1.0
 22
-0.1666666667
 32
0.0
 13
-1.0
 23
-0.1666666667
 33
0.0
  0
ENDBLK
  5
2FD
330
222
100
AcDbEntity
  8
0
  6
ByBlock
 62
     0
100
AcDbBlockEnd
  0
BLOCK
  5
2FE
330
223
100
AcDbEntity
  8
0
  6
Continuous
 62
     7
100
AcDbBlockBegin
  2
*D1
 70
     1
 10
0.0
 20
0.0
 30
0.0
  3
*D1
  1

  0
MTEXT
  5
2FF
330
223
100
AcDbEntity
  8
0
  6
Continuous
 62
     7
100
AcDbMText
 10
50.5154891888
 20
107.4015026832
 30
0.0
 40
1.333333333299999
 41
5.333333333299999
 46
0.0
 71
     2
 72
     1
  1
64\P[163]
 73
     1
 44
0.9
  0
LINE
  5
300
330
223
100
AcDbEntity
  8
0
  6
Continuous
 62
     7
100
AcDbLine
 10
84.1542907094
 20
84.4125719942
 30
0.0
 11
84.1542907094
 21
108.0681693499
 31
0.0
  0
LINE
  5
301
330
223
100
AcDbEntity
  8
0
  6
Continuous
 62
     7
100
AcDbLine
 10
20.0766876683
 20
84.4125719942
 30
0.0
 11
20.0766876683
 21
108.0681693499
 31
0.0
  0
LINE
  5
302
330
223
100
AcDbEntity
  8
0
  6
Continuous
 62
     7
100
AcDbLine
 10
84.1542907094
 20
106.7348360165
 30
0.0
 11
55.4488225222
 21
106.7348360165
 31
0.0
  0
LINE
  5
303
330
223
100
AcDbEntity
  8
0
  6
Continuous
 62
     7
100
AcDbLine
 10
20.0766876683
 20
106.7348360165
 30
0.0
 11
48.7821558555
 21
106.7348360165
 31
0.0
  0
INSERT
  5
304
330
223
100
AcDbEntity
  8
0
  6
Continuous
 62
     7
100
AcDbBlockReference
  2
_FILLED
 10
84.1542907094
 20
106.7348360165
 30
0.0
 41
2.0
 42
2.0
 43
2.0
  0
INSERT
  5
305
330
223
100
AcDbEntity
  8
0
  6
Continuous
 62
     7
100
AcDbBlockReference
  2
_FILLED
 10
20.0766876683
 20
106.7348360165
 30
0.0
 41
2.0
 42
2.0
 43
2.0
 50
180.0
  0
ENDBLK
  5
306
330
223
100
AcDbEntity
  8
0
  6
ByBlock
 62
     0
100
AcDbBlockEnd
  0
BLOCK
  5
307
330
224
100
AcDbEntity
  8
0
  6
Continuous
 62
     7
100
AcDbBlockBegin
  2
*D2
 70
     1
 10
0.0
 20
0.0
 30
0.0
  3
*D2
  1

  0
MTEXT
  5
308
330
224
100
AcDbEntity
  8
0
  6
Continuous
 62
     7
100
AcDbMText
 10
89.503602489
 20
85.9357997702
 30
0.0
 40
1.333333333299999
 41
4.266666666699999
 46
0.0
 71
     2
 72
     1
  1
34\P[86]
 73
     1
 44
0.9
  0
LINE
  5
309
330
224
100
AcDbEntity
  8
0
  6
Continuous
 62
     7
100
AcDbLine
 10
52.7821659662
 20
66.8138085361
 30
0.0
 11
91.90360248899999
 21
66.8138085361
 31
0.0
  0
LINE
  5
30A
330
224
100
AcDbEntity
  8
0
  6
Continuous
 62
     7
100
AcDbLine
 10
52.7821655013
 20
100.678002119
 30
0.0
 11
91.90360248899999
 21
100.678002119
 31
0.0
  0
LINE
  5
30B
330
224
100
AcDbEntity
  8
0
  6
Continuous
 62
     7
100
AcDbLine
 10
90.57026915559999
 20
66.8138085361
 30
0.0
 11
90.57026915559999
 21
81.9357997702
 31
0.0
  0
LINE
  5
30C
330
224
100
AcDbEntity
  8
0
  6
Continuous
 62
     7
100
AcDbLine
 10
90.57026915559999
 20
100.678002119
 30
0.0
 11
90.57026915559999
 21
86.6024664368
 31
0.0
  0
INSERT
  5
30D
330
224
100
AcDbEntity
  8
0
  6
Continuous
 62
     7
100
AcDbBlockReference
  2
_FILLED
 10
90.57026915559999
 20
66.8138085361
 30
0.0
 41
2.0
 42
2.0
 43
2.0
 50
270.0
  0
INSERT
  5
30E
330
224
100
AcDbEntity
  8
0
  6
Continuous
 62
     7
100
AcDbBlockReference
  2
_FILLED
 10
90.57026915559999
 20
100.678002119
 30
0.0
 41
2.0
 42
2.0
 43
2.0
 50
90.0
  0
ENDBLK
  5
30F
330
224
100
AcDbEntity
  8
0
  6
ByBlock
 62
     0
100
AcDbBlockEnd
  0
BLOCK
  5
310
330
225
100
AcDbEntity
  8
0
  6
Continuous
 62
     7
100
AcDbBlockBegin
  2
*D3
 70
     1
 10
0.0
 20
0.0
 30
0.0
  3
*D3
  1

  0
MTEXT
  5
311
330
225
100
AcDbEntity
  8
0
  6
Continuous
 62
     7
100
AcDbMText
 10
52.1154891888
 20
19.9506050947
 30
0.0
 40
1.333333333299999
 41
6.4
 46
0.0
 71
     2
 72
     1
  1
55-5/8\P[141]
 73
     1
 44
0.9
  0
LINE
  5
312
330
225
100
AcDbEntity
  8
0
  6
Continuous
 62
     7
100
AcDbLine
 10
79.9540722452
 20
32.26002375650001
 30
0.0
 11
79.9540722452
 21
17.9506050947
 31
0.0
  0
LINE
  5
313
330
225
100
AcDbEntity
  8
0
  6
Continuous
 62
     7
100
AcDbLine
 10
24.2769061325
 20
32.26002375650001
 30
0.0
 11
24.2769061325
 21
17.9506050947
 31
0.0
  0
LINE
  5
314
330
225
100
AcDbEntity
  8
0
  6
Continuous
 62
     7
100
AcDbLine
 10
79.9540722452
 20
19.283938428
 30
0.0
 11
55.98215585550001
 21
19.283938428
 31
0.0
  0
LINE
  5
315
330
225
100
AcDbEntity
  8
0
  6
Continuous
 62
     7
100
AcDbLine
 10
24.2769061325
 20
19.283938428
 30
0.0
 11
48.2488225222
 21
19.283938428
 31
0.0
  0
INSERT
  5
316
330
225
100
AcDbEntity
  8
0
  6
Continuous
 62
     7
100
AcDbBlockReference
  2
_FILLED
 10
79.9540722452
 20
19.283938428
 30
0.0
 41
2.0
 42
2.0
 43
2.0
  0
INSERT
  5
317
330
225
100
AcDbEntity
  8
0
  6
Continuous
 62
     7
100
AcDbBlockReference
  2
_FILLED
 10
24.2769061325
 20
19.283938428
 30
0.0
 41
2.0
 42
2.0
 43
2.0
 50
180.0
  0
ENDBLK
  5
318
330
225
100
AcDbEntity
  8
0
  6
ByBlock
 62
     0
100
AcDbBlockEnd
  0
BLOCK
  5
319
330
226
100
AcDbEntity
  8
0
  6
Continuous
 62
     7
100
AcDbBlockBegin
  2
*D4
 70
     1
 10
0.0
 20
0.0
 30
0.0
  3
*D4
  1

  0
MTEXT
  5
31A
330
226
100
AcDbEntity
  8
0
  6
Continuous
 62
     7
100
AcDbMText
 10
17.2761740619
 20
28.5933570898
 30
0.0
 40
1.333333333299999
 41
6.4
 46
0.0
 71
     2
 72
     1
  1
10\P[25,4]
 73
     1
 44
0.9
  0
LINE
  5
31B
330
226
100
AcDbEntity
  8
0
  6
Continuous
 62
     7
100
AcDbLine
 10
23.42675927050001
 20
32.9266904231
 30
0.0
 11
18.0761740619
 21
32.9266904231
 31
0.0
  0
LINE
  5
31C
330
226
100
AcDbEntity
  8
0
  6
Continuous
 62
     7
100
AcDbLine
 10
42.13242593719999
 20
22.9266904231
 30
0.0
 11
18.0761740619
 21
22.9266904231
 31
0.0
  0
LINE
  5
31D
330
226
100
AcDbEntity
  8
0
  6
Continuous
 62
     7
100
AcDbLine
 10
19.4095073953
 20
32.9266904231
 30
0.0
 11
19.4095073953
 21
38.26002375650001
 31
0.0
  0
LINE
  5
31E
330
226
100
AcDbEntity
  8
0
  6
Continuous
 62
     7
100
AcDbLine
 10
19.4095073953
 20
22.9266904231
 30
0.0
 11
19.4095073953
 21
17.5933570898
 31
0.0
  0
INSERT
  5
31F
330
226
100
AcDbEntity
  8
0
  6
Continuous
 62
     7
100
AcDbBlockReference
  2
_FILLED
 10
19.4095073953
 20
32.9266904231
 30
0.0
 41
2.0
 42
2.0
 43
2.0
 50
270.0
  0
INSERT
  5
320
330
226
100
AcDbEntity
  8
0
  6
Continuous
 62
     7
100
AcDbBlockReference
  2
_FILLED
 10
19.4095073953
 20
22.9266904231
 30
0.0
 41
2.0
 42
2.0
 43
2.0
 50
90.0
  0
ENDBLK
  5
321
330
226
100
AcDbEntity
  8
0
  6
ByBlock
 62
     0
100
AcDbBlockEnd
  0
BLOCK
  5
322
330
227
100
AcDbEntity
  8
0
  6
Continuous
 62
     7
100
AcDbBlockBegin
  2
*D5
 70
     1
 10
0.0
 20
0.0
 30
0.0
  3
*D5
  1

  0
MTEXT
  5
323
330
227
100
AcDbEntity
  8
0
  6
Continuous
 62
     7
100
AcDbMText
 10
116.9851061915
 20
17.958040238
 30
0.0
 40
1.333333333299999
 41
6.4
 46
0.0
 71
     2
 72
     1
  1
28-1/8\P[72]
 73
     1
 44
0.9
  0
LINE
  5
324
330
227
100
AcDbEntity
  8
0
  6
Continuous
 62
     7
100
AcDbLine
 10
131.0694015544
 20
32.26002375650001
 30
0.0
 11
131.0694015544
 21
15.958040238
 31
0.0
  0
LINE
  5
325
330
227
100
AcDbEntity
  8
0
  6
Continuous
 62
     7
100
AcDbLine
 10
102.9008108286
 20
32.26002375650001
 30
0.0
 11
102.9008108286
 21
15.958040238
 31
0.0
  0
LINE
  5
326
330
227
100
AcDbEntity
  8
0
  6
Continuous
 62
     7
100
AcDbLine
 10
131.0694015544
 20
17.2913735714
 30
0.0
 11
120.8517728582
 21
17.2913735714
 31
0.0
  0
LINE
  5
327
330
227
100
AcDbEntity
  8
0
  6
Continuous
 62
     7
100
AcDbLine
 10
102.9008108286
 20
17.2913735714
 30
0.0
 11
113.1184395248
 21
17.2913735714
 31
0.0
  0
INSERT
  5
328
330
227
100
AcDbEntity
  8
0
  6
Continuous
 62
     7
100
AcDbBlockReference
  2
_FILLED
 10
131.0694015544
 20
17.2913735714
 30
0.0
 41
2.0
 42
2.0
 43
2.0
  0
INSERT
  5
329
330
227
100
AcDbEntity
  8
0
  6
Continuous
 62
     7
100
AcDbBlockReference
  2
_FILLED
 10
102.9008108286
 20
17.2913735714
 30
0.0
 41
2.0
 42
2.0
 43
2.0
 50
180.0
  0
ENDBLK
  5
32A
330
227
100
AcDbEntity
  8
0
  6
ByBlock
 62
     0
100
AcDbBlockEnd
  0
BLOCK
  5
32B
330
228
100
AcDbEntity
  8
0
  6
Continuous
 62
     7
100
AcDbBlockBegin
  2
*D6
 70
     1
 10
0.0
 20
0.0
 30
0.0
  3
*D6
  1

  0
MTEXT
  5
32C
330
228
100
AcDbEntity
  8
0
  6
Continuous
 62
     7
100
AcDbMText
 10
11.3271719606
 20
35.9529502605
 30
0.0
 40
1.333333333299999
 41
6.4
 46
0.0
 71
     2
 72
     1
  1
24-3/4\P[63]
 73
     1
 44
0.9
  0
LINE
  5
32D
330
228
100
AcDbEntity
  8
0
  6
Continuous
 62
     7
100
AcDbLine
 10
19.4725210017
 20
47.64587676449999
 30
0.0
 11
9.9938386273
 21
47.64587676449999
 31
0.0
  0
LINE
  5
32E
330
228
100
AcDbEntity
  8
0
  6
Continuous
 62
     7
100
AcDbLine
 10
19.4725210017
 20
22.9266904231
 30
0.0
 11
9.9938386273
 21
22.9266904231
 31
0.0
  0
LINE
  5
32F
330
228
100
AcDbEntity
  8
0
  6
Continuous
 62
     7
100
AcDbLine
 10
11.3271719606
 20
47.64587676449999
 30
0.0
 11
11.3271719606
 21
36.6196169272
 31
0.0
  0
LINE
  5
330
330
228
100
AcDbEntity
  8
0
  6
Continuous
 62
     7
100
AcDbLine
 10
11.3271719606
 20
22.9266904231
 30
0.0
 11
11.3271719606
 21
31.95295026050001
 31
0.0
  0
INSERT
  5
331
330
228
100
AcDbEntity
  8
0
  6
Continuous
 62
     7
100
AcDbBlockReference
  2
_FILLED
 10
11.3271719606
 20
47.64587676449999
 30
0.0
 41
2.0
 42
2.0
 43
2.0
 50
90.0
  0
INSERT
  5
332
330
228
100
AcDbEntity
  8
0
  6
Continuous
 62
     7
100
AcDbBlockReference
  2
_FILLED
 10
11.3271719606
 20
22.9266904231
 30
0.0
 41
2.0
 42
2.0
 43
2.0
 50
270.0
  0
ENDBLK
  5
333
330
228
100
AcDbEntity
  8
0
  6
ByBlock
 62
     0
100
AcDbBlockEnd
  0
BLOCK
  5
230
330
229
100
AcDbEntity
  8
0
  6
Continuous
 62
     7
100
AcDbBlockBegin
  2
SYMBOL_2_BL1
 70
     0
 10
123.3243939041
 20
55.316974045
 30
0.0
  3
SYMBOL_2_BL1
  1

  0
TEXT
  5
231
330
229
100
AcDbEntity
  8
0
  6
Continuous
 62
     7
100
AcDbText
 10
117.0103336023
 20
57.5620080308
 30
0.0
 40
1.1626666667
  1
INTERNAL USE 
 50
10.0
  7
TEXTSTYLE_3
100
AcDbText
  0
TEXT
  5
232
330
229
100
AcDbEntity
  8
0
  6
Continuous
 62
     7
100
AcDbText
 10
116.2666493984
 20
55.5604868532
 30
0.0
 40
1.1626666667
  1
DOCUMENT ONLY
 50
10.0
  7
TEXTSTYLE_3
100
AcDbText
  0
TEXT
  5
233
330
229
100
AcDbEntity
  8
0
  6
Continuous
 62
     7
100
AcDbText
 10
122.0513769616
 20
55.31205880259999
 30
0.0
 40
1.1626666667
  1
 
 50
10.0
  7
TEXTSTYLE_5
100
AcDbText
  0
TEXT
  5
234
330
229
100
AcDbEntity
  8
0
  6
Continuous
 62
     7
100
AcDbText
 10
113.6067290786
 20
51.1349643963
 30
0.0
 40
1.1626666667
  1
DOCUMENT POUR USAGE
 50
10.0
  7
TEXTSTYLE_3
100
AcDbText
  0
TEXT
  5
235
330
229
100
AcDbEntity
  8
0
  6
Continuous
 62
     7
100
AcDbText
 10
114.0358285246
 20
49.1182159359
 30
0.0
 40
1.1626666667
  1
A L'INTERNE SEULEMENT
 50
10.0
  7
TEXTSTYLE_3
100
AcDbText
  0
LINE
  5
236
330
229
100
AcDbEntity
  8
0
  6
Continuous
 62
     7
100
AcDbLine
 10
137.1809456274
 20
50.9734404271
 30
0.0
 11
137.1877045601
 21
50.9801993597
 31
0.0
  0
LINE
  5
237
330
229
100
AcDbEntity
  8
0
  6
Continuous
 62
     7
100
AcDbLine
 10
136.448376061
 20
50.8442686473
 30
0.0
 11
137.0972575061
 21
51.4931500924
 31
0.0
  0
LINE
  5
238
330
229
100
AcDbEntity
  8
0
  6
Continuous
 62
     7
100
AcDbLine
 10
135.7158064946
 20
50.7150968674
 30
0.0
 11
137.0068104522
 21
52.00610082499999
 31
0.0
  0
LINE
  5
239
330
229
100
AcDbEntity
  8
0
  6
Continuous
 62
     7
100
AcDbLine
 10
134.9832369282
 20
50.5859250876
 30
0.0
 11
136.9163633983
 21
52.5190515577
 31
0.0
  0
LINE
  5
23A
330
229
100
AcDbEntity
  8
0
  6
Continuous
 62
     7
100
AcDbLine
 10
134.2506673618
 20
50.45675330779999
 30
0.0
 11
136.8259163443
 21
53.0320022904
 31
0.0
  0
LINE
  5
23B
330
229
100
AcDbEntity
  8
0
  6
Continuous
 62
     7
100
AcDbLine
 10
133.5180977954
 20
50.327581528
 30
0.0
 11
135.0591016101
 21
51.86858534279999
 31
0.0
  0
LINE
  5
23C
330
229
100
AcDbEntity
  8
0
  6
Continuous
 62
     7
100
AcDbLine
 10
135.6564468029
 20
52.4659305355
 30
0.0
 11
136.7354692904
 21
53.54495302300001
 31
0.0
  0
LINE
  5
23D
330
229
100
AcDbEntity
  8
0
  6
Continuous
 62
     7
100
AcDbLine
 10
132.7855282289
 20
50.1984097482
 30
0.0
 11
134.3265320437
 21
51.739413563
 31
0.0
  0
LINE
  5
23E
330
229
100
AcDbEntity
  8
0
  6
Continuous
 62
     7
100
AcDbLine
 10
135.5659997489
 20
52.9788812682
 30
0.0
 11
136.6450222364
 21
54.05790375569999
 31
0.0
  0
LINE
  5
23F
330
229
100
AcDbEntity
  8
0
  6
Continuous
 62
     7
100
AcDbLine
 10
132.0529586625
 20
50.0692379684
 30
0.0
 11
133.5939624772999
 21
51.61024178319999
 31
0.0
  0
LINE
  5
240
330
229
100
AcDbEntity
  8
0
  6
Continuous
 62
     7
100
AcDbLine
 10
135.475552695
 20
53.4918320009
 30
0.0
 11
136.5545751825
 21
54.5708544884
 31
0.0
  0
LINE
  5
241
330
229
100
AcDbEntity
  8
0
  6
Continuous
 62
     7
100
AcDbLine
 10
131.3203890961
 20
49.9400661886
 30
0.0
 11
132.8613929109
 21
51.4810700034
 31
0.0
  0
LINE
  5
242
330
229
100
AcDbEntity
  8
0
  6
Continuous
 62
     7
100
AcDbLine
 10
135.385105641
 20
54.0047827335
 30
0.0
 11
136.4641281285
 21
55.08380522109999
 31
0.0
  0
LINE
  5
243
330
229
100
AcDbEntity
  8
0
  6
Continuous
 62
     7
100
AcDbLine
 10
130.5878195297
 20
49.8108944088
 30
0.0
 11
132.1288233445
 21
51.3518982236
 31
0.0
  0
LINE
  5
244
330
229
100
AcDbEntity
  8
0
  6
Continuous
 62
     7
100
AcDbLine
 10
135.2946585871
 20
54.5177334662
 30
0.0
 11
136.3736810746
 21
55.59675595369999
 31
0.0
  0
LINE
  5
245
330
229
100
AcDbEntity
  8
0
  6
Continuous
 62
     7
100
AcDbLine
 10
129.8552499633
 20
49.681722629
 30
0.0
 11
131.396253778
 21
51.2227264438
 31
0.0
  0
LINE
  5
246
330
229
100
AcDbEntity
  8
0
  6
Continuous
 62
     7
100
AcDbLine
 10
135.2042115331
 20
55.0306841989
 30
0.0
 11
136.2832340207
 21
56.1097066864
 31
0.0
  0
LINE
  5
247
330
229
100
AcDbEntity
  8
0
  6
Continuous
 62
     7
100
AcDbLine
 10
129.1226803968
 20
49.5525508492
 30
0.0
 11
130.6636842116
 21
51.093554664
 31
0.0
  0
LINE
  5
248
330
229
100
AcDbEntity
  8
0
  6
Continuous
 62
     7
100
AcDbLine
 10
135.1137644792
 20
55.54363493149999
 30
0.0
 11
136.1927869667
 21
56.6226574191
 31
0.0
  0
LINE
  5
249
330
229
100
AcDbEntity
  8
0
  6
Continuous
 62
     7
100
AcDbLine
 10
128.3901108304
 20
49.4233790694
 30
0.0
 11
129.9311146452
 21
50.96438288419999
 31
0.0
  0
LINE
  5
24A
330
229
100
AcDbEntity
  8
0
  6
Continuous
 62
     7
100
AcDbLine
 10
135.0233174252
 20
56.0565856642
 30
0.0
 11
136.1023399128
 21
57.1356081517
 31
0.0
  0
LINE
  5
24B
330
229
100
AcDbEntity
  8
0
  6
Continuous
 62
     7
100
AcDbLine
 10
127.657541264
 20
49.2942072896
 30
0.0
 11
129.1985450787999
 21
50.83521110439999
 31
0.0
  0
LINE
  5
24C
330
229
100
AcDbEntity
  8
0
  6
Continuous
 62
     7
100
AcDbLine
 10
134.9328703713
 20
56.5695363969
 30
0.0
 11
136.0118928588
 21
57.64855888439999
 31
0.0
  0
LINE
  5
24D
330
229
100
AcDbEntity
  8
0
  6
Continuous
 62
     7
100
AcDbLine
 10
126.9249716976
 20
49.16503550979999
 30
0.0
 11
128.4659755124
 21
50.7060393246
 31
0.0
  0
LINE
  5
24E
330
229
100
AcDbEntity
  8
0
  6
Continuous
 62
     7
100
AcDbLine
 10
134.6299907715
 20
56.87005458369999
 30
0.0
 11
135.9214458049
 21
58.1615096171
 31
0.0
  0
LINE
  5
24F
330
229
100
AcDbEntity
  8
0
  6
Continuous
 62
     7
100
AcDbLine
 10
126.1924021312
 20
49.03586373
 30
0.0
 11
127.733405946
 21
50.57686754479999
 31
0.0
  0
LINE
  5
250
330
229
100
AcDbEntity
  8
0
  6
Continuous
 62
     7
100
AcDbLine
 10
133.8974212051
 20
56.7408828039
 30
0.0
 11
135.8309987509
 21
58.67446034970001
 31
0.0
  0
LINE
  5
251
330
229
100
AcDbEntity
  8
0
  6
Continuous
 62
     7
100
AcDbLine
 10
125.4598325648
 20
48.9066919502
 30
0.0
 11
127.0008363795
 21
50.4476957649
 31
0.0
  0
LINE
  5
252
330
229
100
AcDbEntity
  8
0
  6
Continuous
 62
     7
100
AcDbLine
 10
133.1648516386
 20
56.61171102409999
 30
0.0
 11
134.1921939369
 21
57.63905332229999
 31
0.0
  0
LINE
  5
253
330
229
100
AcDbEntity
  8
0
  6
Continuous
 62
     7
100
AcDbLine
 10
134.6615292095
 20
58.1083885949
 30
0.0
 11
135.740551697
 21
59.18741108239999
 31
0.0
  0
LINE
  5
254
330
229
100
AcDbEntity
  8
0
  6
Continuous
 62
     7
100
AcDbLine
 10
124.7272629983
 20
48.7775201704
 30
0.0
 11
126.2682668131
 21
50.3185239851
 31
0.0
  0
LINE
  5
255
330
229
100
AcDbEntity
  8
0
  6
Continuous
 62
     7
100
AcDbLine
 10
132.4322820722
 20
56.4825392442
 30
0.0
 11
133.4596241609
 21
57.5098813329
 31
0.0
  0
LINE
  5
256
330
229
100
AcDbEntity
  8
0
  6
Continuous
 62
     7
100
AcDbLine
 10
134.5710821555
 20
58.6213393276
 30
0.0
 11
135.650104643
 21
59.7003618151
 31
0.0
  0
LINE
  5
257
330
229
100
AcDbEntity
  8
0
  6
Continuous
 62
     7
100
AcDbLine
 10
123.9946934319
 20
48.64834839060001
 30
0.0
 11
125.5356972467
 21
50.1893522053
 31
0.0
  0
LINE
  5
258
330
229
100
AcDbEntity
  8
0
  6
Continuous
 62
     7
100
AcDbLine
 10
131.6997125058
 20
56.3533674644
 30
0.0
 11
132.7270543848
 21
57.3807093435
 31
0.0
  0
LINE
  5
259
330
229
100
AcDbEntity
  8
0
  6
Continuous
 62
     7
100
AcDbLine
 10
134.4806351016
 20
59.1342900602
 30
0.0
 11
135.5596575891
 21
60.2133125477
 31
0.0
  0
LINE
  5
25A
330
229
100
AcDbEntity
  8
0
  6
Continuous
 62
     7
100
AcDbLine
 10
123.2621238655
 20
48.5191766108
 30
0.0
 11
124.8031276803
 21
50.0601804255
 31
0.0
  0
LINE
  5
25B
330
229
100
AcDbEntity
  8
0
  6
Continuous
 62
     7
100
AcDbLine
 10
130.9671429394
 20
56.22419568459999
 30
0.0
 11
131.9944846088
 21
57.2515373541
 31
0.0
  0
LINE
  5
25C
330
229
100
AcDbEntity
  8
0
  6
Continuous
 62
     7
100
AcDbLine
 10
134.3901880476
 20
59.6472407929
 30
0.0
 11
135.4692105352
 21
60.7262632804
 31
0.0
  0
LINE
  5
25D
330
229
100
AcDbEntity
  8
0
  6
Continuous
 62
     7
100
AcDbLine
 10
122.5295542991
 20
48.3900048309
 30
0.0
 11
124.0705581139
 21
49.93100864569999
 31
0.0
  0
LINE
  5
25E
330
229
100
AcDbEntity
  8
0
  6
Continuous
 62
     7
100
AcDbLine
 10
130.234573373
 20
56.09502390479999
 30
0.0
 11
131.2619148328
 21
57.1223653647
 31
0.0
  0
LINE
  5
25F
330
229
100
AcDbEntity
  8
0
  6
Continuous
 62
     7
100
AcDbLine
 10
134.2997409937
 20
60.16019152560001
 30
0.0
 11
135.3787634812
 21
61.2392140131
 31
0.0
  0
LINE
  5
260
330
229
100
AcDbEntity
  8
0
  6
Continuous
 62
     7
100
AcDbLine
 10
121.7969847327
 20
48.2608330511
 30
0.0
 11
123.3379885474
 21
49.8018368659
 31
0.0
  0
LINE
  5
261
330
229
100
AcDbEntity
  8
0
  6
Continuous
 62
     7
100
AcDbLine
 10
129.5020038066
 20
55.96585212499999
 30
0.0
 11
130.5293450568
 21
56.99319337520001
 31
0.0
  0
LINE
  5
262
330
229
100
AcDbEntity
  8
0
  6
Continuous
 62
     7
100
AcDbLine
 10
134.2092939398
 20
60.67314225819999
 30
0.0
 11
135.2883164273
 21
61.7521647457
 31
0.0
  0
LINE
  5
263
330
229
100
AcDbEntity
  8
0
  6
Continuous
 62
     7
100
AcDbLine
 10
121.0644151662
 20
48.1316612713
 30
0.0
 11
122.605418981
 21
49.67266508609999
 31
0.0
  0
LINE
  5
264
330
229
100
AcDbEntity
  8
0
  6
Continuous
 62
     7
100
AcDbLine
 10
128.7694342401
 20
55.8366803452
 30
0.0
 11
129.7967752807
 21
56.8640213858
 31
0.0
  0
LINE
  5
265
330
229
100
AcDbEntity
  8
0
  6
Continuous
 62
     7
100
AcDbLine
 10
134.1188468858
 20
61.1860929909
 30
0.0
 11
135.1978693733
 21
62.2651154784
 31
0.0
  0
LINE
  5
266
330
229
100
AcDbEntity
  8
0
  6
Continuous
 62
     7
100
AcDbLine
 10
120.3318455998
 20
48.00248949149999
 30
0.0
 11
121.8728494146
 21
49.5434933063
 31
0.0
  0
LINE
  5
267
330
229
100
AcDbEntity
  8
0
  6
Continuous
 62
     7
100
AcDbLine
 10
128.0368646737
 20
55.7075085654
 30
0.0
 11
129.0642055047
 21
56.7348493964
 31
0.0
  0
LINE
  5
268
330
229
100
AcDbEntity
  8
0
  6
Continuous
 62
     7
100
AcDbLine
 10
134.0283998319
 20
61.6990437236
 30
0.0
 11
135.1074223194
 21
62.77806621109999
 31
0.0
  0
LINE
  5
269
330
229
100
AcDbEntity
  8
0
  6
Continuous
 62
     7
100
AcDbLine
 10
119.5992760334
 20
47.8733177117
 30
0.0
 11
121.1402798482
 21
49.4143215265
 31
0.0
  0
LINE
  5
26A
330
229
100
AcDbEntity
  8
0
  6
Continuous
 62
     7
100
AcDbLine
 10
127.3042951073
 20
55.5783367856
 30
0.0
 11
128.3316357287
 21
56.60567740699999
 31
0.0
  0
LINE
  5
26B
330
229
100
AcDbEntity
  8
0
  6
Continuous
 62
     7
100
AcDbLine
 10
133.9379527779
 20
62.21199445619999
 30
0.0
 11
135.0169752654
 21
63.2910169438
 31
0.0
  0
LINE
  5
26C
330
229
100
AcDbEntity
  8
0
  6
Continuous
 62
     7
100
AcDbLine
 10
118.866706467
 20
47.74414593189999
 30
0.0
 11
120.4077102818
 21
49.2851497467
 31
0.0
  0
LINE
  5
26D
330
229
100
AcDbEntity
  8
0
  6
Continuous
 62
     7
100
AcDbLine
 10
126.5717255409
 20
55.4491650058
 30
0.0
 11
127.5990659526
 21
56.4765054176
 31
0.0
  0
LINE
  5
26E
330
229
100
AcDbEntity
  8
0
  6
Continuous
 62
     7
100
AcDbLine
 10
133.7630766765
 20
62.64051614140001
 30
0.0
 11
134.9265282115
 21
63.8039676764
 31
0.0
  0
LINE
  5
26F
330
229
100
AcDbEntity
  8
0
  6
Continuous
 62
     7
100
AcDbLine
 10
118.1341369006
 20
47.6149741521
 30
0.0
 11
119.6751407154
 21
49.1559779669
 31
0.0
  0
LINE
  5
270
330
229
100
AcDbEntity
  8
0
  6
Continuous
 62
     7
100
AcDbLine
 10
125.8391559745
 20
55.319993226
 30
0.0
 11
126.8664961766
 21
56.34733342819999
 31
0.0
  0
LINE
  5
271
330
229
100
AcDbEntity
  8
0
  6
Continuous
 62
     7
100
AcDbLine
 10
133.0305071101
 20
62.5113443616
 30
0.0
 11
134.5715109249
 21
64.0523481764
 31
0.0
  0
LINE
  5
272
330
229
100
AcDbEntity
  8
0
  6
Continuous
 62
     7
100
AcDbLine
 10
117.4015673342
 20
47.48580237229999
 30
0.0
 11
118.9425711489
 21
49.0268061871
 31
0.0
  0
LINE
  5
273
330
229
100
AcDbEntity
  8
0
  6
Continuous
 62
     7
100
AcDbLine
 10
125.106586408
 20
55.1908214462
 30
0.0
 11
126.1339264006
 21
56.2181614387
 31
0.0
  0
LINE
  5
274
330
229
100
AcDbEntity
  8
0
  6
Continuous
 62
     7
100
AcDbLine
 10
132.2979375437
 20
62.3821725818
 30
0.0
 11
133.8389413584
 21
63.92317639659999
 31
0.0
  0
LINE
  5
275
330
229
100
AcDbEntity
  8
0
  6
Continuous
 62
     7
100
AcDbLine
 10
116.6689977677
 20
47.3566305925
 30
0.0
 11
118.2100015825
 21
48.8976344073
 31
0.0
  0
LINE
  5
276
330
229
100
AcDbEntity
  8
0
  6
Continuous
 62
     7
100
AcDbLine
 10
124.3740168416
 20
55.0616496664
 30
0.0
 11
125.4013566246
 21
56.0889894493
 31
0.0
  0
LINE
  5
277
330
229
100
AcDbEntity
  8
0
  6
Continuous
 62
     7
100
AcDbLine
 10
131.5653679773
 20
62.253000802
 30
0.0
 11
133.106371792
 21
63.7940046168
 31
0.0
  0
LINE
  5
278
330
229
100
AcDbEntity
  8
0
  6
Continuous
 62
     7
100
AcDbLine
 10
115.9364282013
 20
47.2274588127
 30
0.0
 11
117.4774320161
 21
48.76846262749999
 31
0.0
  0
LINE
  5
279
330
229
100
AcDbEntity
  8
0
  6
Continuous
 62
     7
100
AcDbLine
 10
123.6414472752
 20
54.93247788659999
 30
0.0
 11
124.6687868485
 21
55.95981745989999
 31
0.0
  0
LINE
  5
27A
330
229
100
AcDbEntity
  8
0
  6
Continuous
 62
     7
100
AcDbLine
 10
130.8327984108
 20
62.1238290222
 30
0.0
 11
132.3738022256
 21
63.664832837
 31
0.0
  0
LINE
  5
27B
330
229
100
AcDbEntity
  8
0
  6
Continuous
 62
     7
100
AcDbLine
 10
115.2038586349
 20
47.09828703289999
 30
0.0
 11
116.7448624497
 21
48.6392908477
 31
0.0
  0
LINE
  5
27C
330
229
100
AcDbEntity
  8
0
  6
Continuous
 62
     7
100
AcDbLine
 10
122.9088777088
 20
54.8033061068
 30
0.0
 11
123.9362170725
 21
55.8306454705
 31
0.0
  0
LINE
  5
27D
330
229
100
AcDbEntity
  8
0
  6
Continuous
 62
     7
100
AcDbLine
 10
130.1002288444
 20
61.99465724239999
 30
0.0
 11
131.6412326592
 21
63.5356610572
 31
0.0
  0
LINE
  5
27E
330
229
100
AcDbEntity
  8
0
  6
Continuous
 62
     7
100
AcDbLine
 10
114.4712890685
 20
46.9691152531
 30
0.0
 11
116.0122928833
 21
48.5101190679
 31
0.0
  0
LINE
  5
27F
330
229
100
AcDbEntity
  8
0
  6
Continuous
 62
     7
100
AcDbLine
 10
122.1763081424
 20
54.67413432699999
 30
0.0
 11
123.2036472965
 21
55.70147348109999
 31
0.0
  0
LINE
  5
280
330
229
100
AcDbEntity
  8
0
  6
Continuous
 62
     7
100
AcDbLine
 10
129.367659278
 20
61.8654854626
 30
0.0
 11
130.9086630928
 21
63.4064892774
 31
0.0
  0
LINE
  5
281
330
229
100
AcDbEntity
  8
0
  6
Continuous
 62
     7
100
AcDbLine
 10
113.7387195021
 20
46.83994347329999
 30
0.0
 11
115.2797233168
 21
48.3809472881
 31
0.0
  0
LINE
  5
282
330
229
100
AcDbEntity
  8
0
  6
Continuous
 62
     7
100
AcDbLine
 10
121.443738576
 20
54.5449625472
 30
0.0
 11
122.4710775204
 21
55.5723014917
 31
0.0
  0
LINE
  5
283
330
229
100
AcDbEntity
  8
0
  6
Continuous
 62
     7
100
AcDbLine
 10
128.6350897116
 20
61.73631368279999
 30
0.0
 11
130.1760935264
 21
63.2773174976
 31
0.0
  0
LINE
  5
284
330
229
100
AcDbEntity
  8
0
  6
Continuous
 62
     7
100
AcDbLine
 10
113.0061499357
 20
46.71077169350001
 30
0.0
 11
114.5471537504
 21
48.2517755083
 31
0.0
  0
LINE
  5
285
330
229
100
AcDbEntity
  8
0
  6
Continuous
 62
     7
100
AcDbLine
 10
120.7111690095
 20
54.4157907674
 30
0.0
 11
121.7385077444
 21
55.4431295022
 31
0.0
  0
LINE
  5
286
330
229
100
AcDbEntity
  8
0
  6
Continuous
 62
     7
100
AcDbLine
 10
127.9025201452
 20
61.607141903
 30
0.0
 11
129.4435239599
 21
63.1481457178
 31
0.0
  0
LINE
  5
287
330
229
100
AcDbEntity
  8
0
  6
Continuous
 62
     7
100
AcDbLine
 10
112.2735803692
 20
46.58159991369999
 30
0.0
 11
113.814584184
 21
48.1226037285
 31
0.0
  0
LINE
  5
288
330
229
100
AcDbEntity
  8
0
  6
Continuous
 62
     7
100
AcDbLine
 10
119.9785994431
 20
54.2866189876
 30
0.0
 11
121.0059379684
 21
55.31395751279999
 31
0.0
  0
LINE
  5
289
330
229
100
AcDbEntity
  8
0
  6
Continuous
 62
     7
100
AcDbLine
 10
127.1699505787
 20
61.47797012319999
 30
0.0
 11
128.7109543935
 21
63.018973938
 31
0.0
  0
LINE
  5
28A
330
229
100
AcDbEntity
  8
0
  6
Continuous
 62
     7
100
AcDbLine
 10
111.7222595967
 20
46.63367692779999
 30
0.0
 11
113.0820146176
 21
47.99343194859999
 31
0.0
  0
LINE
  5
28B
330
229
100
AcDbEntity
  8
0
  6
Continuous
 62
     7
100
AcDbLine
 10
119.2460298767
 20
54.1574472078
 30
0.0
 11
120.2733681924
 21
55.1847855234
 31
0.0
  0
LINE
  5
28C
330
229
100
AcDbEntity
  8
0
  6
Continuous
 62
     7
100
AcDbLine
 10
126.4373810123
 20
61.3487983434
 30
0.0
 11
127.9783848271
 21
62.8898021582
 31
0.0
  0
LINE
  5
28D
330
229
100
AcDbEntity
  8
0
  6
Continuous
 62
     7
100
AcDbLine
 10
111.6318125428
 20
47.1466276604
 30
0.0
 11
112.7108350303
 21
48.225650148
 31
0.0
  0
LINE
  5
28E
330
229
100
AcDbEntity
  8
0
  6
Continuous
 62
     7
100
AcDbLine
 10
118.5134603103
 20
54.02827542789999
 30
0.0
 11
119.5407984163
 21
55.055613534
 31
0.0
  0
LINE
  5
28F
330
229
100
AcDbEntity
  8
0
  6
Continuous
 62
     7
100
AcDbLine
 10
125.7048114459
 20
61.2196265636
 30
0.0
 11
127.2458152607
 21
62.7606303784
 31
0.0
  0
LINE
  5
290
330
229
100
AcDbEntity
  8
0
  6
Continuous
 62
     7
100
AcDbLine
 10
111.5413654888
 20
47.6595783931
 30
0.0
 11
112.6203879763
 21
48.7386008806
 31
0.0
  0
LINE
  5
291
330
229
100
AcDbEntity
  8
0
  6
Continuous
 62
     7
100
AcDbLine
 10
117.7808907439
 20
53.8991036481
 30
0.0
 11
118.8082286403
 21
54.9264415446
 31
0.0
  0
LINE
  5
292
330
229
100
AcDbEntity
  8
0
  6
Continuous
 62
     7
100
AcDbLine
 10
124.9722418795
 20
61.0904547838
 30
0.0
 11
126.5132456943
 21
62.6314585985
 31
0.0
  0
LINE
  5
293
330
229
100
AcDbEntity
  8
0
  6
Continuous
 62
     7
100
AcDbLine
 10
111.4509184349
 20
48.17252912579999
 30
0.0
 11
112.5299409224
 21
49.2515516133
 31
0.0
  0
LINE
  5
294
330
229
100
AcDbEntity
  8
0
  6
Continuous
 62
     7
100
AcDbLine
 10
117.0483211774
 20
53.7699318683
 30
0.0
 11
118.0756588643
 21
54.7972695552
 31
0.0
  0
LINE
  5
295
330
229
100
AcDbEntity
  8
0
  6
Continuous
 62
     7
100
AcDbLine
 10
124.2396723131
 20
60.961283004
 30
0.0
 11
125.7806761279
 21
62.5022868187
 31
0.0
  0
LINE
  5
296
330
229
100
AcDbEntity
  8
0
  6
Continuous
 62
     7
100
AcDbLine
 10
111.3604713809
 20
48.6854798584
 30
0.0
 11
112.4394938685
 21
49.764502346
 31
0.0
  0
LINE
  5
297
330
229
100
AcDbEntity
  8
0
  6
Continuous
 62
     7
100
AcDbLine
 10
116.315751611
 20
53.6407600885
 30
0.0
 11
117.3430890882
 21
54.6680975657
 31
0.0
  0
LINE
  5
298
330
229
100
AcDbEntity
  8
0
  6
Continuous
 62
     7
100
AcDbLine
 10
123.5071027467
 20
60.83211122419999
 30
0.0
 11
125.0481065614
 21
62.3731150389
 31
0.0
  0
LINE
  5
299
330
229
100
AcDbEntity
  8
0
  6
Continuous
 62
     7
100
AcDbLine
 10
111.270024327
 20
49.1984305911
 30
0.0
 11
112.3490468145
 21
50.2774530786
 31
0.0
  0
LINE
  5
29A
330
229
100
AcDbEntity
  8
0
  6
Continuous
 62
     7
100
AcDbLine
 10
115.5831820446
 20
53.5115883087
 30
0.0
 11
116.6105193122
 21
54.5389255763
 31
0.0
  0
LINE
  5
29B
330
229
100
AcDbEntity
  8
0
  6
Continuous
 62
     7
100
AcDbLine
 10
122.7745331802
 20
60.70293944439999
 30
0.0
 11
124.315536995
 21
62.2439432591
 31
0.0
  0
LINE
  5
29C
330
229
100
AcDbEntity
  8
0
  6
Continuous
 62
     7
100
AcDbLine
 10
111.1795772731
 20
49.7113813238
 30
0.0
 11
112.2585997606
 21
50.7904038113
 31
0.0
  0
LINE
  5
29D
330
229
100
AcDbEntity
  8
0
  6
Continuous
 62
     7
100
AcDbLine
 10
114.8506124782
 20
53.3824165289
 30
0.0
 11
115.8779495362
 21
54.4097535869
 31
0.0
  0
LINE
  5
29E
330
229
100
AcDbEntity
  8
0
  6
Continuous
 62
     7
100
AcDbLine
 10
122.0419636138
 20
60.5737676645
 30
0.0
 11
123.5829674286
 21
62.11477147930001
 31
0.0
  0
LINE
  5
29F
330
229
100
AcDbEntity
  8
0
  6
Continuous
 62
     7
100
AcDbLine
 10
111.0891302191
 20
50.2243320564
 30
0.0
 11
112.1681527066
 21
51.30335454399999
 31
0.0
  0
LINE
  5
2A0
330
229
100
AcDbEntity
  8
0
  6
Continuous
 62
     7
100
AcDbLine
 10
114.1180429118
 20
53.2532447491
 30
0.0
 11
115.1453797602
 21
54.2805815975
 31
0.0
  0
LINE
  5
2A1
330
229
100
AcDbEntity
  8
0
  6
Continuous
 62
     7
100
AcDbLine
 10
121.3093940474
 20
60.4445958847
 30
0.0
 11
122.8503978622
 21
61.9855996995
 31
0.0
  0
LINE
  5
2A2
330
229
100
AcDbEntity
  8
0
  6
Continuous
 62
     7
100
AcDbLine
 10
110.9986831652
 20
50.7372827891
 30
0.0
 11
112.0777056527
 21
51.8163052766
 31
0.0
  0
LINE
  5
2A3
330
229
100
AcDbEntity
  8
0
  6
Continuous
 62
     7
100
AcDbLine
 10
113.3854733454
 20
53.1240729693
 30
0.0
 11
114.4128099841
 21
54.1514096081
 31
0.0
  0
LINE
  5
2A4
330
229
100
AcDbEntity
  8
0
  6
Continuous
 62
     7
100
AcDbLine
 10
120.576824481
 20
60.3154241049
 30
0.0
 11
122.1178282958
 21
61.8564279197
 31
0.0
  0
LINE
  5
2A5
330
229
100
AcDbEntity
  8
0
  6
Continuous
 62
     7
100
AcDbLine
 10
110.9082361112
 20
51.25023352180001
 30
0.0
 11
111.9872585987
 21
52.3292560093
 31
0.0
  0
LINE
  5
2A6
330
229
100
AcDbEntity
  8
0
  6
Continuous
 62
     7
100
AcDbLine
 10
112.6529037789
 20
52.9949011895
 30
0.0
 11
113.6802402081
 21
54.0222376187
 31
0.0
  0
LINE
  5
2A7
330
229
100
AcDbEntity
  8
0
  6
Continuous
 62
     7
100
AcDbLine
 10
119.8442549146
 20
60.1862523251
 30
0.0
 11
121.3852587293
 21
61.72725613989999
 31
0.0
  0
LINE
  5
2A8
330
229
100
AcDbEntity
  8
0
  6
Continuous
 62
     7
100
AcDbLine
 10
110.8177890573
 20
51.76318425449999
 30
0.0
 11
111.8968115448
 21
52.842206742
 31
0.0
  0
LINE
  5
2A9
330
229
100
AcDbEntity
  8
0
  6
Continuous
 62
     7
100
AcDbLine
 10
111.9203342125
 20
52.8657294097
 30
0.0
 11
112.9476704321
 21
53.8930656293
 31
0.0
  0
LINE
  5
2AA
330
229
100
AcDbEntity
  8
0
  6
Continuous
 62
     7
100
AcDbLine
 10
119.1116853481
 20
60.0570805453
 30
0.0
 11
120.6526891629
 21
61.5980843601
 31
0.0
  0
LINE
  5
2AB
330
229
100
AcDbEntity
  8
0
  6
Continuous
 62
     7
100
AcDbLine
 10
110.7273420033
 20
52.2761349871
 30
0.0
 11
112.215100656
 21
53.76389363979999
 31
0.0
  0
LINE
  5
2AC
330
229
100
AcDbEntity
  8
0
  6
Continuous
 62
     7
100
AcDbLine
 10
118.3791157817
 20
59.92790876549999
 30
0.0
 11
119.9201195965
 21
61.4689125803
 31
0.0
  0
LINE
  5
2AD
330
229
100
AcDbEntity
  8
0
  6
Continuous
 62
     7
100
AcDbLine
 10
110.6368949494
 20
52.78908571979999
 30
0.0
 11
111.7159174369
 21
53.8681082073
 31
0.0
  0
LINE
  5
2AE
330
229
100
AcDbEntity
  8
0
  6
Continuous
 62
     7
100
AcDbLine
 10
117.6465462153
 20
59.79873698569999
 30
0.0
 11
119.1875500301
 21
61.3397408005
 31
0.0
  0
LINE
  5
2AF
330
229
100
AcDbEntity
  8
0
  6
Continuous
 62
     7
100
AcDbLine
 10
110.5464478954
 20
53.3020364525
 30
0.0
 11
111.625470383
 21
54.38105894
 31
0.0
  0
LINE
  5
2B0
330
229
100
AcDbEntity
  8
0
  6
Continuous
 62
     7
100
AcDbLine
 10
116.9139766489
 20
59.6695652059
 30
0.0
 11
118.4549804637
 21
61.2105690207
 31
0.0
  0
LINE
  5
2B1
330
229
100
AcDbEntity
  8
0
  6
Continuous
 62
     7
100
AcDbLine
 10
110.4560008415
 20
53.8149871851
 30
0.0
 11
111.535023329
 21
54.89400967259999
 31
0.0
  0
LINE
  5
2B2
330
229
100
AcDbEntity
  8
0
  6
Continuous
 62
     7
100
AcDbLine
 10
116.1814070825
 20
59.54039342609999
 30
0.0
 11
117.7224108973
 21
61.0813972409
 31
0.0
  0
LINE
  5
2B3
330
229
100
AcDbEntity
  8
0
  6
Continuous
 62
     7
100
AcDbLine
 10
110.3655537876
 20
54.32793791779999
 30
0.0
 11
111.4445762751
 21
55.4069604053
 31
0.0
  0
LINE
  5
2B4
330
229
100
AcDbEntity
  8
0
  6
Continuous
 62
     7
100
AcDbLine
 10
115.4488375161
 20
59.4112216463
 30
0.0
 11
116.9898413308
 21
60.9522254611
 31
0.0
  0
LINE
  5
2B5
330
229
100
AcDbEntity
  8
0
  6
Continuous
 62
     7
100
AcDbLine
 10
110.2751067336
 20
54.8408886505
 30
0.0
 11
111.3541292211
 21
55.919911138
 31
0.0
  0
LINE
  5
2B6
330
229
100
AcDbEntity
  8
0
  6
Continuous
 62
     7
100
AcDbLine
 10
114.7162679496
 20
59.28204986649999
 30
0.0
 11
116.2572717644
 21
60.8230536813
 31
0.0
  0
LINE
  5
2B7
330
229
100
AcDbEntity
  8
0
  6
Continuous
 62
     7
100
AcDbLine
 10
110.1846596797
 20
55.3538393831
 30
0.0
 11
111.2636821672
 21
56.4328618707
 31
0.0
  0
LINE
  5
2B8
330
229
100
AcDbEntity
  8
0
  6
Continuous
 62
     7
100
AcDbLine
 10
113.9836983832
 20
59.1528780867
 30
0.0
 11
115.524702198
 21
60.6938819015
 31
0.0
  0
LINE
  5
2B9
330
229
100
AcDbEntity
  8
0
  6
Continuous
 62
     7
100
AcDbLine
 10
110.0942126257
 20
55.8667901158
 30
0.0
 11
111.1732351132
 21
56.9458126033
 31
0.0
  0
LINE
  5
2BA
330
229
100
AcDbEntity
  8
0
  6
Continuous
 62
     7
100
AcDbLine
 10
113.2511288168
 20
59.0237063069
 30
0.0
 11
114.7921326316
 21
60.5647101217
 31
0.0
  0
LINE
  5
2BB
330
229
100
AcDbEntity
  8
0
  6
Continuous
 62
     7
100
AcDbLine
 10
110.0037655718
 20
56.3797408485
 30
0.0
 11
111.0827880593
 21
57.458763336
 31
0.0
  0
LINE
  5
2BC
330
229
100
AcDbEntity
  8
0
  6
Continuous
 62
     7
100
AcDbLine
 10
112.5185592504
 20
58.8945345271
 30
0.0
 11
114.0595630652
 21
60.43553834189999
 31
0.0
  0
LINE
  5
2BD
330
229
100
AcDbEntity
  8
0
  6
Continuous
 62
     7
100
AcDbLine
 10
109.9133185178
 20
56.8926915811
 30
0.0
 11
110.9923410054
 21
57.97171406869999
 31
0.0
  0
LINE
  5
2BE
330
229
100
AcDbEntity
  8
0
  6
Continuous
 62
     7
100
AcDbLine
 10
111.785989684
 20
58.7653627473
 30
0.0
 11
113.3269934987
 21
60.306366562
 31
0.0
  0
LINE
  5
2BF
330
229
100
AcDbEntity
  8
0
  6
Continuous
 62
     7
100
AcDbLine
 10
109.8228714639
 20
57.4056423138
 30
0.0
 11
110.9018939514
 21
58.48466480129999
 31
0.0
  0
LINE
  5
2C0
330
229
100
AcDbEntity
  8
0
  6
Continuous
 62
     7
100
AcDbLine
 10
111.0534201176
 20
58.63619096749999
 30
0.0
 11
112.5944239323
 21
60.1771947822
 31
0.0
  0
LINE
  5
2C1
330
229
100
AcDbEntity
  8
0
  6
Continuous
 62
     7
100
AcDbLine
 10
109.73242441
 20
57.91859304649999
 30
0.0
 11
111.8618543659
 21
60.0480230024
 31
0.0
  0
LINE
  5
2C2
330
229
100
AcDbEntity
  8
0
  6
Continuous
 62
     7
100
AcDbLine
 10
109.641977356
 20
58.4315437791
 30
0.0
 11
111.1292847995
 21
59.91885122260001
 31
0.0
  0
LINE
  5
2C3
330
229
100
AcDbEntity
  8
0
  6
Continuous
 62
     7
100
AcDbLine
 10
109.5515303021
 20
58.9444945118
 30
0.0
 11
110.3967152331
 21
59.7896794428
 31
0.0
  0
LINE
  5
2C4
330
229
100
AcDbEntity
  8
0
  6
Continuous
 62
     7
100
AcDbLine
 10
109.4610832481
 20
59.4574452445
 30
0.0
 11
109.6641456667
 21
59.660507663
 31
0.0
  0
ENDBLK
  5
2C5
330
229
100
AcDbEntity
  8
0
  6
ByBlock
 62
     0
100
AcDbBlockEnd
  0
BLOCK
  5
2C6
330
22A
100
AcDbEntity
  8
0
  6
Continuous
 62
     7
100
AcDbBlockBegin
  2
SYMBOL_0_BL0
 70
     0
 10
160.6693061924
 20
55.3361393753
 30
0.0
  3
SYMBOL_0_BL0
  1

  0
TEXT
  5
2C7
330
22A
100
AcDbEntity
  8
0
  6
Continuous
 62
     7
100
AcDbText
 10
144.4215211163
 20
63.1095727664
 30
0.0
 40
0.5
  1
Infomations Techniques/Technical Infomations
  7
TEXTSTYLE_2
100
AcDbText
  0
TEXT
  5
2C8
330
22A
100
AcDbEntity
  8
0
  6
Continuous
 62
     7
100
AcDbText
 10
144.6693061924
 20
61.66947270859999
 30
0.0
 40
0.6666666667
  1
NOMBRE DE JETS:     
  7
TEXTSTYLE_2
100
AcDbText
  0
TEXT
  5
2C9
330
22A
100
AcDbEntity
  8
0
  6
Continuous
 62
     7
100
AcDbText
 10
154.5137506369
 20
61.66947270859999
 30
0.0
 40
0.6666666667
  1
38
  7
TEXTSTYLE_2
100
AcDbText
  0
TEXT
  5
2CA
330
22A
100
AcDbEntity
  8
0
  6
Continuous
 62
     7
100
AcDbText
 10
144.6693061924
 20
60.6694727086
 30
0.0
 40
0.6666666667
  1
 
  7
TEXTSTYLE_2
100
AcDbText
  0
TEXT
  5
2CB
330
22A
100
AcDbEntity
  8
0
  6
Continuous
 62
     7
100
AcDbText
 10
144.6693061924
 20
59.6694727086
 30
0.0
 40
0.6666666667
  1
NIVEAU D'EAU              GALLONS(US)        LITRES        GALLONS(UK)
  7
TEXTSTYLE_2
100
AcDbText
  0
TEXT
  5
2CC
330
22A
100
AcDbEntity
  8
0
  6
Continuous
 62
     7
100
AcDbText
 10
144.6693061924
 20
58.66947270859999
 30
0.0
 40
0.6666666667
  1
PLEIN
  7
TEXTSTYLE_2
100
AcDbText
  0
TEXT
  5
2CD
330
22A
100
AcDbEntity
  8
0
  6
Continuous
 62
     7
100
AcDbText
 10
144.6693061924
 20
57.6694727086
 30
0.0
 40
0.6666666667
  1
HAUT T.PLEIN
  7
TEXTSTYLE_2
100
AcDbText
  0
TEXT
  5
2CE
330
22A
100
AcDbEntity
  8
0
  6
Continuous
 62
     7
100
AcDbText
 10
144.6693061924
 20
56.66947270859999
 30
0.0
 40
0.6666666667
  1
MILIEU T.PLEIN
  7
TEXTSTYLE_2
100
AcDbText
  0
TEXT
  5
2CF
330
22A
100
AcDbEntity
  8
0
  6
Continuous
 62
     7
100
AcDbText
 10
144.6693061924
 20
55.6694727086
 30
0.0
 40
0.6666666667
  1
BAS T.PLEIN
  7
TEXTSTYLE_2
100
AcDbText
  0
TEXT
  5
2D0
330
22A
100
AcDbEntity
  8
0
  6
Continuous
 62
     7
100
AcDbText
 10
144.6693061924
 20
54.6694727086
 30
0.0
 40
0.6666666667
  1
3" EN BAS T.PLEIN
  7
TEXTSTYLE_2
100
AcDbText
  0
TEXT
  5
2D1
330
22A
100
AcDbEntity
  8
0
  6
Continuous
 62
     7
100
AcDbText
 10
144.6693061924
 20
53.66947270859999
 30
0.0
 40
0.6666666667
  1
 
  7
TEXTSTYLE_2
100
AcDbText
  0
TEXT
  5
2D2
330
22A
100
AcDbEntity
  8
0
  6
Continuous
 62
     7
100
AcDbText
 10
144.4691446868
 20
53.1226857838
 30
0.0
 40
0.5
  1
Legende/Legend
  7
TEXTSTYLE_2
100
AcDbText
  0
TEXT
  5
2D3
330
22A
100
AcDbEntity
  8
0
  6
Continuous
 62
     7
100
AcDbText
 10
150.9979796309
 20
51.6114208061
 30
0.0
 40
0.6666666667
  1
ZONE DE ROBINETTERIE
  7
TEXTSTYLE_2
100
AcDbText
  0
TEXT
  5
2D4
330
22A
100
AcDbEntity
  8
0
  6
Continuous
 62
     7
100
AcDbText
 10
145.9182550639
 20
50.1161762917
 30
0.0
 40
0.6666666667
  1
L   :  SYSTEME LED       DC   :  DOUBLE DOSSIER CHAUFFANT
  7
TEXTSTYLE_2
100
AcDbText
  0
TEXT
  5
2D5
330
22A
100
AcDbEntity
  8
0
  6
Continuous
 62
     7
100
AcDbText
 10
145.9182550639
 20
48.7828429583
 30
0.0
 40
0.6666666667
  1
C   :  CONTROLE
  7
TEXTSTYLE_2
100
AcDbText
  0
TEXT
  5
2D6
330
22A
100
AcDbEntity
  8
0
  6
Continuous
 62
     7
100
AcDbText
 10
145.9182550639
 20
47.44950962499999
 30
0.0
 40
0.6666666667
  1
T   :  MOTEUR
  7
TEXTSTYLE_2
100
AcDbText
  0
TEXT
  5
2D7
330
22A
100
AcDbEntity
  8
0
  6
Continuous
 62
     7
100
AcDbText
 10
157.5020028917
 20
58.66947270859999
 30
0.0
 40
0.6666666667
  1
98
  7
TEXTSTYLE_2
100
AcDbText
  0
TEXT
  5
2D8
330
22A
100
AcDbEntity
  8
0
  6
Continuous
 62
     7
100
AcDbText
 10
157.5020028917
 20
57.6694727086
 30
0.0
 40
0.6666666667
  1
75
  7
TEXTSTYLE_2
100
AcDbText
  0
TEXT
  5
2D9
330
22A
100
AcDbEntity
  8
0
  6
Continuous
 62
     7
100
AcDbText
 10
157.5020028917
 20
56.66947270859999
 30
0.0
 40
0.6666666667
  1
73
  7
TEXTSTYLE_2
100
AcDbText
  0
TEXT
  5
2DA
330
22A
100
AcDbEntity
  8
0
  6
Continuous
 62
     7
100
AcDbText
 10
157.5020028917
 20
55.6694727086
 30
0.0
 40
0.6666666667
  1
72
  7
TEXTSTYLE_2
100
AcDbText
  0
TEXT
  5
2DB
330
22A
100
AcDbEntity
  8
0
  6
Continuous
 62
     7
100
AcDbText
 10
157.5020028917
 20
54.6694727086
 30
0.0
 40
0.6666666667
  1
55
  7
TEXTSTYLE_2
100
AcDbText
  0
TEXT
  5
2DC
330
22A
100
AcDbEntity
  8
0
  6
Continuous
 62
     7
100
AcDbText
 10
164.4222088354
 20
58.6865521107
 30
0.0
 40
0.6666666667
  1
371
  7
TEXTSTYLE_2
100
AcDbText
  0
TEXT
  5
2DD
330
22A
100
AcDbEntity
  8
0
  6
Continuous
 62
     7
100
AcDbText
 10
164.4222088354
 20
57.6865521107
 30
0.0
 40
0.6666666667
  1
282
  7
TEXTSTYLE_2
100
AcDbText
  0
TEXT
  5
2DE
330
22A
100
AcDbEntity
  8
0
  6
Continuous
 62
     7
100
AcDbText
 10
164.4222088354
 20
56.68655211069999
 30
0.0
 40
0.6666666667
  1
278
  7
TEXTSTYLE_2
100
AcDbText
  0
TEXT
  5
2DF
330
22A
100
AcDbEntity
  8
0
  6
Continuous
 62
     7
100
AcDbText
 10
164.4222088354
 20
55.6865521107
 30
0.0
 40
0.6666666667
  1
273
  7
TEXTSTYLE_2
100
AcDbText
  0
TEXT
  5
2E0
330
22A
100
AcDbEntity
  8
0
  6
Continuous
 62
     7
100
AcDbText
 10
164.4222088354
 20
54.6865521107
 30
0.0
 40
0.6666666667
  1
208
  7
TEXTSTYLE_2
100
AcDbText
  0
TEXT
  5
2E1
330
22A
100
AcDbEntity
  8
0
  6
Continuous
 62
     7
100
AcDbText
 10
171.3668477729
 20
58.66947270859999
 30
0.0
 40
0.6666666667
  1
82
  7
TEXTSTYLE_2
100
AcDbText
  0
TEXT
  5
2E2
330
22A
100
AcDbEntity
  8
0
  6
Continuous
 62
     7
100
AcDbText
 10
171.3668477729
 20
57.6694727086
 30
0.0
 40
0.6666666667
  1
62
  7
TEXTSTYLE_2
100
AcDbText
  0
TEXT
  5
2E3
330
22A
100
AcDbEntity
  8
0
  6
Continuous
 62
     7
100
AcDbText
 10
171.3668477729
 20
56.66947270859999
 30
0.0
 40
0.6666666667
  1
61
  7
TEXTSTYLE_2
100
AcDbText
  0
TEXT
  5
2E4
330
22A
100
AcDbEntity
  8
0
  6
Continuous
 62
     7
100
AcDbText
 10
171.3668477729
 20
55.6694727086
 30
0.0
 40
0.6666666667
  1
60
  7
TEXTSTYLE_2
100
AcDbText
  0
TEXT
  5
2E5
330
22A
100
AcDbEntity
  8
0
  6
Continuous
 62
     7
100
AcDbText
 10
171.3668477729
 20
54.6694727086
 30
0.0
 40
0.6666666667
  1
46
  7
TEXTSTYLE_2
100
AcDbText
  0
LINE
  5
2E6
330
22A
100
AcDbEntity
  8
0
  6
Continuous
 62
     7
100
AcDbLine
 10
144.0026395257
 20
64.0028060419
 30
0.0
 11
144.0026395257
 21
46.66947270859999
 31
0.0
  0
LINE
  5
2E7
330
22A
100
AcDbEntity
  8
0
  6
Continuous
 62
     7
100
AcDbLine
 10
144.0026395257
 20
64.0028060419
 30
0.0
 11
177.3359728591
 21
64.0028060419
 31
0.0
  0
LINE
  5
2E8
330
22A
100
AcDbEntity
  8
0
  6
Continuous
 62
     7
100
AcDbLine
 10
177.3359728591
 20
64.0028060419
 30
0.0
 11
177.3359728591
 21
46.66947270859999
 31
0.0
  0
LINE
  5
2E9
330
22A
100
AcDbEntity
  8
0
  6
Continuous
 62
     7
100
AcDbLine
 10
144.0026395257
 20
46.66947270859999
 30
0.0
 11
177.3359728591
 21
46.66947270859999
 31
0.0
  0
LINE
  5
2EA
330
22A
100
AcDbEntity
  8
0
  6
Continuous
 62
     7
100
AcDbLine
 10
145.3359728591
 20
54.00280604189999
 30
0.0
 11
176.0026395257
 21
54.00280604189999
 31
0.0
  0
LINE
  5
2EB
330
22A
100
AcDbEntity
  8
0
  6
Continuous
 62
     7
100
AcDbLine
 10
145.3359728591
 20
61.00280604189999
 30
0.0
 11
176.0026395257
 21
61.00280604189999
 31
0.0
  0
LINE
  5
2EC
330
22A
100
AcDbEntity
  8
0
  6
Continuous
 62
     7
100
AcDbLine
 10
144.811546085
 20
52.38097054629999
 30
0.0
 11
144.4425253427
 21
52.011949804
 31
0.0
  0
LINE
  5
2ED
330
22A
100
AcDbEntity
  8
0
  6
Continuous
 62
     7
100
AcDbLine
 10
145.4782127517
 20
52.38097054629999
 30
0.0
 11
144.6801969612
 21
51.58295475590001
 31
0.0
  0
LINE
  5
2EE
330
22A
100
AcDbEntity
  8
0
  6
Continuous
 62
     7
100
AcDbLine
 10
146.1448794183
 20
52.38097054629999
 30
0.0
 11
145.3468636279
 21
51.58295475590001
 31
0.0
  0
LINE
  5
2EF
330
22A
100
AcDbEntity
  8
0
  6
Continuous
 62
     7
100
AcDbLine
 10
146.811546085
 20
52.38097054629999
 30
0.0
 11
146.0135302946
 21
51.58295475590001
 31
0.0
  0
LINE
  5
2F0
330
22A
100
AcDbEntity
  8
0
  6
Continuous
 62
     7
100
AcDbLine
 10
147.4782127517
 20
52.38097054629999
 30
0.0
 11
146.6801969612
 21
51.58295475590001
 31
0.0
  0
LINE
  5
2F1
330
22A
100
AcDbEntity
  8
0
  6
Continuous
 62
     7
100
AcDbLine
 10
148.1448794183
 20
52.38097054629999
 30
0.0
 11
147.3468636279
 21
51.58295475590001
 31
0.0
  0
LINE
  5
2F2
330
22A
100
AcDbEntity
  8
0
  6
Continuous
 62
     7
100
AcDbLine
 10
148.811546085
 20
52.38097054629999
 30
0.0
 11
148.0135302946
 21
51.58295475590001
 31
0.0
  0
LINE
  5
2F3
330
22A
100
AcDbEntity
  8
0
  6
Continuous
 62
     7
100
AcDbLine
 10
149.4782127517
 20
52.38097054629999
 30
0.0
 11
148.6801969612
 21
51.58295475590001
 31
0.0
  0
LINE
  5
2F4
330
22A
100
AcDbEntity
  8
0
  6
Continuous
 62
     7
100
AcDbLine
 10
150.1448794183
 20
52.38097054629999
 30
0.0
 11
149.3468636279
 21
51.58295475590001
 31
0.0
  0
LINE
  5
2F5
330
22A
100
AcDbEntity
  8
0
  6
Continuous
 62
     7
100
AcDbLine
 10
150.5883668525
 20
52.1577913138
 30
0.0
 11
150.0135302946
 21
51.58295475590001
 31
0.0
  0
ELLIPSE
  5
2F6
330
22A
100
AcDbEntity
  8
0
  6
Continuous
 62
     7
100
AcDbEllipse
 10
146.1480420079
 20
50.4337537489
 30
0.0
 11
1.0473539356
 21
0.0
 31
0.0
210
0.0
220
0.0
230
1.0
 40
0.4938647983
 41
0.0
 42
6.283185307179586
  0
ELLIPSE
  5
2F7
330
22A
100
AcDbEntity
  8
0
  6
Continuous
 62
     7
100
AcDbEllipse
 10
146.1480420079
 20
49.1004204155
 30
0.0
 11
1.0473539356
 21
0.0
 31
0.0
210
0.0
220
0.0
230
1.0
 40
0.4938647983
 41
0.0
 42
6.283185307179586
  0
ELLIPSE
  5
2F8
330
22A
100
AcDbEntity
  8
0
  6
Continuous
 62
     7
100
AcDbEllipse
 10
146.1480420079
 20
47.7670870822
 30
0.0
 11
1.0473539356
 21
0.0
 31
0.0
210
0.0
220
0.0
230
1.0
 40
0.4938647983
 41
0.0
 42
6.283185307179586
  0
ELLIPSE
  5
2F9
330
22A
100
AcDbEntity
  8
0
  6
Continuous
 62
     7
100
AcDbEllipse
 10
157.1666775889999
 20
50.4532751059
 30
0.0
 11
1.0473539356
 21
0.0
 31
0.0
210
0.0
220
0.0
230
1.0
 40
0.4938647983
 41
0.0
 42
6.283185307179586
  0
ENDBLK
  5
2FA
330
22A
100
AcDbEntity
  8
0
  6
ByBlock
 62
     0
100
AcDbBlockEnd
  0
ENDSEC
  0
SECTION
  2
ENTITIES
  0
LINE
  5
140D
330
220
100
AcDbEntity
  8
0
  6
Continuous
 62
     7
100
AcDbLine
 10
24.2769061325
 20
32.9266904231
 30
0.0
 11
20.0791088123
 21
47.56614942979999
 31
0.0
  0
LWPOLYLINE
  5
140F
330
220
100
AcDbEntity
  8
0
  6
Continuous
 62
     7
100
AcDbPolyline
 90
        3
 70
     0
 43
0.0
 10
31.35374692760001
 20
30.9553745324
 10
31.3537188102
 20
30.9548638991
 10
31.3547300738
 20
30.9512387589
  0
LWPOLYLINE
  5
1410
330
220
100
AcDbEntity
  8
0
  6
Continuous
 62
     7
100
AcDbPolyline
 90
       23
 70
     0
 43
0.0
 10
29.9711607115
 20
32.0849913236
 10
29.9740728344
 20
32.1107296385
 10
30.0046032164
 20
32.1327252343
 10
30.051824867
 20
32.1516817248
 10
30.10853094090001
 20
32.16810232010001
 10
30.1700047425
 20
32.1824034997
 10
30.2331441434
 20
32.1949220664
 10
30.2958244465
 20
32.2059138252
 10
30.356746505
 20
32.2156017538
 10
30.4150608021
 20
32.2241641091
 10
30.47024411
 20
32.2317484463
 10
30.5220683716
 20
32.2384864693
 10
30.5704291165
 20
32.2444842202
 10
30.615276042
 20
32.2498252045
 10
30.656757052
 20
32.2545951788
 10
30.6949735186
 20
32.2588577966
 10
30.7301057369
 20
32.262673464
 10
30.7623312077
 20
32.2660927543
 10
30.791824047
 20
32.2691583696
 10
30.8187892132
 20
32.2719105154
 10
30.8434039629
 20
32.2743824868
 10
30.8658261605
 20
32.276602586
 10
30.8862346553
 20
32.2785983404
  0
LINE
  5
1412
330
220
100
AcDbEntity
  8
2_PLANES_JETS
  6
Continuous
 62
     7
100
AcDbLine
 10
32.217606305
 20
29.7429566455
 30
0.0
 11
32.297942629
 21
29.6314306303
 31
0.0
  0
LWPOLYLINE
  5
1413
330
220
100
AcDbEntity
  8
0
  6
Continuous
 62
     7
100
AcDbPolyline
 90
       13
 70
     0
 43
0.0
 10
30.5362482054
 20
31.0964353236
 10
30.5484307843
 20
31.0780795664
 10
30.5617001876
 20
31.0626940486
 10
30.5739600769
 20
31.0512346594
 10
30.5849967632
 20
31.0425734581
 10
30.5948776509
 20
31.0358763639
 10
30.6037711855
 20
31.0305608454
 10
30.611861769
 20
31.0262285716
 10
30.6193141407
 20
31.0226086946
 10
30.6262661122
 20
31.0195148012
 10
30.6328297051
 20
31.0168165355
 10
30.6390951558
 20
31.0144210669
 10
30.6451352032
 20
31.0122610486
  0
LINE
  5
1414
330
220
100
AcDbEntity
  8
2_PLANES_JETS
  6
Continuous
 62
     7
100
AcDbLine
 10
32.1524056421
 20
29.848221667
 30
0.0
 11
32.2176063157
 21
29.7429566249
 31
0.0
  0
LWPOLYLINE
  5
1415
330
220
100
AcDbEntity
  8
0
  6
Continuous
 62
     7
100
AcDbPolyline
 90
        3
 70
     0
 43
0.0
 10
31.493869488
 20
30.9963485813
 10
31.6412962409
 20
30.7388663974
 10
32.15240581230001
 20
29.8482214858
  0
LWPOLYLINE
  5
1416
330
220
100
AcDbEntity
  8
0
  6
Continuous
 62
     7
100
AcDbPolyline
 90
        3
 70
     0
 43
0.0
 10
30.5362477511
 20
31.0964361168
 10
30.3487662658
 20
31.4242105556
 10
30.1604062937
 20
31.7537305005
  0
LINE
  5
1417
330
220
100
AcDbEntity
  8
0
  6
Continuous
 62
     7
100
AcDbLine
 10
29.9711392161
 20
32.0850289743
 30
0.0
 11
30.1604062937
 21
31.7537305005
 31
0.0
  0
LINE
  5
1418
330
220
100
AcDbEntity
  8
0
  6
Continuous
 62
     7
100
AcDbLine
 10
30.3912055838
 20
32.9266904231
 30
0.0
 11
30.3942176201
 21
32.9214100872
 31
0.0
  0
LWPOLYLINE
  5
1419
330
220
100
AcDbEntity
  8
0
  6
Continuous
 62
     7
100
AcDbPolyline
 90
        8
 70
     0
 43
0.0
 10
32.404310033
 20
32.4577255902
 10
32.4028971001
 20
32.4410119561
 10
32.4017947643
 20
32.423130685
 10
32.4010206798
 20
32.4043648837
 10
32.4005870991
 20
32.3850116415
 10
32.4005008835
 20
32.3653773482
 10
32.400763394
 20
32.3457728404
 10
32.4013704632
 20
32.3265084827
  0
LINE
  5
141A
330
220
100
AcDbEntity
  8
0
  6
Continuous
 62
     7
100
AcDbLine
 10
31.3555025045
 20
30.9592422211
 30
0.0
 11
31.3547300738
 21
30.9512387589
 31
0.0
  0
LWPOLYLINE
  5
141B
330
220
100
AcDbEntity
  8
0
  6
Continuous
 62
     7
100
AcDbPolyline
 90
        8
 70
     0
 43
0.0
 10
31.029222931
 20
32.4411311211
 10
31.0211207311
 20
32.4206727577
 10
31.0159133574
 20
32.3992283682
 10
31.0137054282
 20
32.3772281835
 10
31.0145412334
 20
32.3551135769
 10
31.0184039998
 20
32.33332821699999
 10
31.0252162268
 20
32.3123091681
 10
31.034841244
 20
32.2924781119
  0
LWPOLYLINE
  5
141C
330
220
100
AcDbEntity
  8
0
  6
Continuous
 62
     7
100
AcDbPolyline
 90
        5
 70
     0
 43
0.0
 10
29.9665864823
 20
32.2530657001
 10
29.9549571081
 20
32.2238966248
 10
29.9475095247
 20
32.1743795608
 10
29.9543768821
 20
32.1246536698
 10
29.9711392161
 20
32.0850289743
  0
LWPOLYLINE
  5
141D
330
220
100
AcDbEntity
  8
0
  6
Continuous
 62
     7
100
AcDbPolyline
 90
        4
 70
     0
 43
0.0
 10
35.6926862235
 20
27.1567694846
 10
35.7072371173
 20
27.1466605173
 10
35.7194638585
 20
27.1381886065
 10
35.7416358243
 20
27.1228887599
  0
LINE
  5
141E
330
220
100
AcDbEntity
  8
0
  6
Continuous
 62
     7
100
AcDbLine
 10
35.7287595236
 20
27.1347363752
 30
0.0
 11
35.6878406044
 21
27.1632003134
 31
0.0
  0
LWPOLYLINE
  5
141F
330
220
100
AcDbEntity
  8
0
  6
Continuous
 62
     7
100
AcDbPolyline
 90
        3
 70
     0
 43
0.0
 10
35.6878406044
 20
27.1632003134
 10
35.6489095037
 20
27.1904010742
 10
35.6263370498
 20
27.206212724
  0
LWPOLYLINE
  5
1420
330
220
100
AcDbEntity
  8
0
  6
Continuous
 62
     7
100
AcDbPolyline
 90
        5
 70
     0
 43
0.0
 10
35.6170708534
 20
27.209588392
 10
35.6379309968
 20
27.1949796984
 10
35.6577128637
 20
27.18115049610001
 10
35.6760766495
 20
27.1683361243
 10
35.6926862235
 20
27.1567694846
  0
LINE
  5
1421
330
220
100
AcDbEntity
  8
0
  6
Continuous
 62
     7
100
AcDbLine
 10
35.4064857516
 20
27.3575607779
 30
0.0
 11
35.4284134433
 21
27.3421870527
 31
0.0
  0
LINE
  5
1422
330
220
100
AcDbEntity
  8
0
  6
Continuous
 62
     7
100
AcDbLine
 10
35.4151442237
 20
27.3546366403
 30
0.0
 11
35.38990693050001
 21
27.3723309575
 31
0.0
  0
LINE
  5
1423
330
220
100
AcDbEntity
  8
0
  6
Continuous
 62
     7
100
AcDbLine
 10
35.5735508155
 20
27.2401307326
 30
0.0
 11
35.6170708534
 21
27.209588392
 31
0.0
  0
LINE
  5
1424
330
220
100
AcDbEntity
  8
0
  6
Continuous
 62
     7
100
AcDbLine
 10
35.6263370498
 20
27.206212724
 30
0.0
 11
35.5780171442
 21
27.2401336831
 31
0.0
  0
LWPOLYLINE
  5
1425
330
220
100
AcDbEntity
  8
0
  6
Continuous
 62
     7
100
AcDbPolyline
 90
        5
 70
     0
 43
0.0
 10
35.5780171442
 20
27.2401336831
 10
35.5062031085
 20
27.2906036599
 10
35.48412519780001
 20
27.3061284996
 10
35.4636460738
 20
27.3205321908
 10
35.4151442237
 20
27.3546366403
  0
LWPOLYLINE
  5
1426
330
220
100
AcDbEntity
  8
0
  6
Continuous
 62
     7
100
AcDbPolyline
 90
        4
 70
     0
 43
0.0
 10
35.4284134433
 20
27.3421870527
 10
35.471346554
 20
27.3119958143
 10
35.4895781991
 20
27.2991693509
 10
35.5735508155
 20
27.2401307326
  0
LWPOLYLINE
  5
1427
330
220
100
AcDbEntity
  8
2_PLANES_JETS
  6
Continuous
 62
     7
100
AcDbPolyline
 90
        8
 70
     0
 43
0.0
 10
32.5847384495
 20
29.3361894322
 10
32.6938866474
 20
29.2526511109
 10
32.8088613112
 20
29.177333039
 10
32.9290446001
 20
29.1106399589
 10
33.0537906544
 20
29.0529302762
 10
33.1824290843
 20
29.0045141163
 10
33.3142685809
 20
28.9656516522
 10
33.4486006328
 20
28.9365517061
  0
LINE
  5
1428
330
220
100
AcDbEntity
  8
0
  6
Continuous
 62
     7
100
AcDbLine
 10
34.7827935496
 20
28.7318168408
 30
0.0
 11
34.8110707133
 21
28.7023819628
 31
0.0
  0
LWPOLYLINE
  5
1429
330
220
100
AcDbEntity
  8
0
  6
Continuous
 62
     7
100
AcDbPolyline
 90
       13
 70
     0
 43
0.0
 10
31.3547300738
 20
30.9512387589
 10
31.357820492
 20
30.9476533045
 10
31.3629603498
 20
30.944084076
 10
31.3701599262
 20
30.9405132072
 10
31.3794737653
 20
30.9369228188
 10
31.3911239322
 20
30.9332636674
 10
31.4056557414
 20
30.9294340108
 10
31.4238780629
 20
30.9253291375
 10
31.446810201
 20
30.920866921
 10
31.4747822198
 20
30.9161208074
 10
31.5075090201
 20
30.9112271776
 10
31.5442498821
 20
30.9063265418
 10
31.5454996753
 20
30.906175983
  0
LWPOLYLINE
  5
142A
330
220
100
AcDbEntity
  8
0
  6
Continuous
 62
     7
100
AcDbPolyline
 90
       11
 70
     0
 43
0.0
 10
33.0260471741
 20
31.1406733238
 10
33.0235622288
 20
31.1436322433
 10
33.0211509312
 20
31.1488354244
 10
33.0188487426
 20
31.1562063311
 10
33.0166895276
 20
31.165636539
 10
33.01470504800001
 20
31.1769873312
 10
33.012924495
 20
31.1900917399
 10
33.0113740602
 20
31.2047570017
 10
33.0100765501
 20
31.2207673939
 10
33.009051051
 20
31.2378874044
 10
33.0083126448
 20
31.2558652008
  0
LWPOLYLINE
  5
142B
330
220
100
AcDbEntity
  8
2_PLANES_JETS
  6
Continuous
 62
     7
100
AcDbPolyline
 90
        4
 70
     0
 43
0.0
 10
32.2979426562
 20
29.6314305915
 10
32.386233136
 20
29.5260893685
 10
32.4820033102
 20
29.4274990251
 10
32.5847385412
 20
29.3361893542
  0
LINE
  5
142C
330
220
100
AcDbEntity
  8
0
  6
Continuous
 62
     7
100
AcDbLine
 10
34.8110707133
 20
28.7023819628
 30
0.0
 11
34.8356546508
 21
28.6698015829
 31
0.0
  0
LINE
  5
142D
330
220
100
AcDbEntity
  8
0
  6
Continuous
 62
     7
100
AcDbLine
 10
34.8356546508
 20
28.6698015829
 30
0.0
 11
34.8561983937
 21
28.6345355286
 31
0.0
  0
LINE
  5
142E
330
220
100
AcDbEntity
  8
0
  6
Continuous
 62
     7
100
AcDbLine
 10
34.8561983937
 20
28.6345355286
 30
0.0
 11
34.8724119954
 21
28.5970815315
 31
0.0
  0
LWPOLYLINE
  5
142F
330
220
100
AcDbEntity
  8
0
  6
Continuous
 62
     7
100
AcDbPolyline
 90
        5
 70
     0
 43
0.0
 10
35.2051619625
 20
27.6828584093
 10
35.2401483073
 20
27.5991893061
 10
35.2829682699
 20
27.5188620583
 10
35.3330044014
 20
27.4430586968
 10
35.38990693050001
 20
27.3723309575
  0
LINE
  5
1430
330
220
100
AcDbEntity
  8
0
  6
Continuous
 62
     7
100
AcDbLine
 10
34.8724119625
 20
28.5970815204
 30
0.0
 11
35.2051619625
 21
27.6828584093
 31
0.0
  0
LINE
  5
1431
330
220
100
AcDbEntity
  8
0
  6
Continuous
 62
     7
100
AcDbLine
 10
34.5622480602
 20
28.8703983533
 30
0.0
 11
34.5623660179
 21
28.8697149554
 31
0.0
  0
LINE
  5
1432
330
220
100
AcDbEntity
  8
0
  6
Continuous
 62
     7
100
AcDbLine
 10
34.5608092212
 20
28.822890613
 30
0.0
 11
34.5606921024
 21
28.8235726173
 31
0.0
  0
LINE
  5
1433
330
220
100
AcDbEntity
  8
0
  6
Continuous
 62
     7
100
AcDbLine
 10
36.1154891888
 20
26.0766909789
 30
0.0
 11
36.1154891888
 21
27.0454404823
 31
0.0
  0
LINE
  5
1434
330
220
100
AcDbEntity
  8
0
  6
Continuous
 62
     7
100
AcDbLine
 10
36.1271960547
 20
28.8597621984
 30
0.0
 11
36.1262204826
 21
28.8285511483
 31
0.0
  0
LINE
  5
1435
330
220
100
AcDbEntity
  8
0
  6
Continuous
 62
     7
100
AcDbLine
 10
34.5622484255
 20
28.8703983411
 30
0.0
 11
34.5606920499
 21
28.823572619
 31
0.0
  0
LINE
  5
1436
330
220
100
AcDbEntity
  8
0
  6
Continuous
 62
     7
100
AcDbLine
 10
34.5618744021
 20
28.85492852010001
 30
0.0
 11
34.5623660177
 21
28.8697149504
 31
0.0
  0
LINE
  5
1437
330
220
100
AcDbEntity
  8
0
  6
Continuous
 62
     7
100
AcDbLine
 10
30.2734786843
 20
32.8631853464
 30
0.0
 11
29.9665632618
 21
32.2530163306
 31
0.0
  0
LWPOLYLINE
  5
1438
330
220
100
AcDbEntity
  8
0
  6
Continuous
 62
     7
100
AcDbPolyline
 90
       24
 70
     0
 43
0.0
 10
29.9665843081
 20
32.2530580803
 10
29.9700919216
 20
32.2584682359
 10
30.0004847247
 20
32.2805330952
 10
30.0475619493
 20
32.2995623287
 10
30.104124402
 20
32.3160555416
 10
30.16546164260001
 20
32.3304260855
 10
30.228474122
 20
32.3430093431
 10
30.2910386129
 20
32.3540604471
 10
30.3518560841
 20
32.3638022658
 10
30.4100764401
 20
32.3724132623
 10
30.4651757846
 20
32.380041304
 10
30.5169251915
 20
32.3868184837
 10
30.5652193059
 20
32.3928512815
 10
30.6100070786
 20
32.3982235447
 10
30.651435513
 20
32.4030214662
 10
30.6896051923
 20
32.407309059
 10
30.72469577
 20
32.4111470366
 10
30.756884295
 20
32.4145862149
 10
30.7863442787
 20
32.4176696081
 10
30.8132801012
 20
32.4204376292
 10
30.8378686162
 20
32.4229236954
 10
30.8602672728
 20
32.4251564873
 10
30.8806546656
 20
32.42716382360001
 10
30.8992213517
 20
32.4289713931
  0
LINE
  5
1439
330
220
100
AcDbEntity
  8
0
  6
Continuous
 62
     7
100
AcDbLine
 10
66.27772261529999
 20
26.0896668024
 30
0.0
 11
66.302583991
 21
26.0962255212
 31
0.0
  0
LINE
  5
143A
330
220
100
AcDbEntity
  8
0
  6
Continuous
 62
     7
100
AcDbLine
 10
66.29562042579999
 20
26.0848786933
 30
0.0
 11
66.29568798210001
 21
26.0848964324
 31
0.0
  0
LWPOLYLINE
  5
143B
330
220
100
AcDbEntity
  8
0
  6
Continuous
 62
     7
100
AcDbPolyline
 90
       16
 70
     0
 43
0.0
 10
62.4656590338
 20
23.5625593975
 10
62.4306198689
 20
23.5563824231
 10
62.3959038352
 20
23.5519915381
 10
62.36183108409999
 20
23.5494272352
 10
62.32871583439999
 20
23.5487131623
 10
62.29686347520001
 20
23.5498559047
 10
62.2665677488
 20
23.552844924
 10
62.2381080425
 20
23.5576526554
 10
62.2117468117
 20
23.564234762
 10
62.1877271598
 20
23.5725305437
 10
62.1662705961
 20
23.5824634967
 10
62.1475749929
 20
23.5939420194
 10
62.13181276109999
 20
23.6068602567
 10
62.11912926020001
 20
23.6210990767
 10
62.10964145729999
 20
23.6365271689
 10
62.1034368489
 20
23.6530022555
  0
LWPOLYLINE
  5
143C
330
220
100
AcDbEntity
  8
0
  6
Continuous
 62
     7
100
AcDbPolyline
 90
       16
 70
     0
 43
0.0
 10
41.76531934389999
 20
23.5625593975
 10
41.8003585088
 20
23.5563824231
 10
41.8350745425
 20
23.5519915381
 10
41.8691472936
 20
23.5494272352
 10
41.9022625432
 20
23.5487131623
 10
41.93411490249999
 20
23.5498559047
 10
41.96441062889999
 20
23.552844924
 10
41.9928703352
 20
23.5576526554
 10
42.019231566
 20
23.564234762
 10
42.0432512179
 20
23.5725305437
 10
42.06470778159999
 20
23.5824634967
 10
42.0834033848
 20
23.5939420194
 10
42.0991656166
 20
23.6068602567
 10
42.1118491175
 20
23.6210990767
 10
42.1213369204
 20
23.6365271689
 10
42.1275415288
 20
23.6530022555
  0
LINE
  5
143D
330
220
100
AcDbEntity
  8
0
  6
Continuous
 62
     7
100
AcDbLine
 10
35.7605023235
 20
27.1128372667
 30
0.0
 11
35.8163481052
 21
27.0927836921
 31
0.0
  0
LWPOLYLINE
  5
143E
330
220
100
AcDbEntity
  8
0
  6
Continuous
 62
     7
100
AcDbPolyline
 90
        6
 70
     0
 43
0.0
 10
30.656874129
 20
31.0185159839
 10
30.6835214672
 20
31.0036124768
 10
30.7347638492
 20
30.9909879009
 10
30.7997047477
 20
30.9801948346
 10
30.8713174472
 20
30.9709156165
 10
30.945239563
 20
30.9628834373
  0
LINE
  5
143F
330
220
100
AcDbEntity
  8
0
  6
Continuous
 62
     7
100
AcDbLine
 10
34.5623660177
 20
28.8697149504
 30
0.0
 11
34.5692624456
 21
28.8653396695
 31
0.0
  0
LINE
  5
1440
330
220
100
AcDbEntity
  8
0
  6
Continuous
 62
     7
100
AcDbLine
 10
35.7605023235
 20
27.1128372667
 30
0.0
 11
35.7384057855
 21
27.1280599064
 31
0.0
  0
LINE
  5
1441
330
220
100
AcDbEntity
  8
0
  6
Continuous
 62
     7
100
AcDbLine
 10
35.7384057855
 20
27.1280599064
 30
0.0
 11
35.7287595236
 21
27.1347363752
 31
0.0
  0
LINE
  5
1442
330
220
100
AcDbEntity
  8
0
  6
Continuous
 62
     7
100
AcDbLine
 10
39.5097083746
 20
25.2641904231
 30
0.0
 11
39.34224012940001
 21
25.7016904231
 31
0.0
  0
LWPOLYLINE
  5
1443
330
220
100
AcDbEntity
  8
0
  6
Continuous
 62
     7
100
AcDbPolyline
 90
       16
 70
     0
 43
0.0
 10
39.6034368489
 20
23.6530022555
 10
39.6096414573
 20
23.6365271689
 10
39.6191292602
 20
23.6210990767
 10
39.6318127611
 20
23.6068602567
 10
39.6475749929
 20
23.5939420194
 10
39.6662705961
 20
23.5824634967
 10
39.6877271598
 20
23.5725305437
 10
39.7117468117
 20
23.564234762
 10
39.7381080425
 20
23.5576526554
 10
39.7665677488
 20
23.552844924
 10
39.7968634752
 20
23.5498559047
 10
39.8287158344
 20
23.5487131623
 10
39.8618310841
 20
23.5494272352
 10
39.8959038352
 20
23.5519915381
 10
39.9306198689
 20
23.5563824231
 10
39.9656590338
 20
23.5625593975
  0
LWPOLYLINE
  5
1444
330
220
100
AcDbEntity
  8
0
  6
Continuous
 62
     7
100
AcDbPolyline
 90
       16
 70
     0
 43
0.0
 10
39.1474861898
 20
25.3546332812
 10
39.1536907993
 20
25.3381581923
 10
39.1631786041
 20
25.3227300984
 10
39.1758621073
 20
25.3084912775
 10
39.1916243414
 20
25.2955730398
 10
39.210319947
 20
25.2840945173
 10
39.2317765127
 20
25.2741615648
 10
39.2557961661
 20
25.265865784
 10
39.2821573976
 20
25.25928367840001
 10
39.310617104
 20
25.25447594800001
 10
39.3409128296
 20
25.2514869297
 10
39.3727651874
 20
25.25034418820001
 10
39.4058804348
 20
25.2510582615
 10
39.4399531831
 20
25.2536225647
 10
39.4746692134
 20
25.2580134494
 10
39.5097083746
 20
25.2641904231
  0
LINE
  5
1445
330
220
100
AcDbEntity
  8
0
  6
Continuous
 62
     7
100
AcDbLine
 10
39.5161897697
 20
23.49564987489999
 30
0.0
 11
38.7080437156
 21
26.5116920086
 31
0.0
  0
LINE
  5
1446
330
220
100
AcDbEntity
  8
0
  6
Continuous
 62
     7
100
AcDbLine
 10
39.63693049800001
 20
23.5280022555
 30
0.0
 11
38.8374532382
 21
26.5116920086
 31
0.0
  0
LINE
  5
1447
330
220
100
AcDbEntity
  8
0
  6
Continuous
 62
     7
100
AcDbLine
 10
39.9656590338
 20
23.5625593975
 30
0.0
 11
39.9991526828
 21
23.2500593975
 31
0.0
  0
LWPOLYLINE
  5
1448
330
220
100
AcDbEntity
  8
0
  6
Continuous
 62
     7
100
AcDbPolyline
 90
       11
 70
     0
 43
0.0
 10
36.1262204826
 20
28.8285511483
 10
36.1256280757
 20
28.8245873166
 10
36.124893952
 20
28.8158800942
 10
36.1240283727
 20
28.8025511868
 10
36.1230434364
 20
28.7847868999
 10
36.1219529103
 20
28.7628355349
 10
36.1207720372
 20
28.7370039181
 10
36.1195173228
 20
28.7076531122
 10
36.1182063049
 20
28.6751933699
 10
36.1168573084
 20
28.6400783987
 10
36.1154891888
 20
28.6027990203
  0
LWPOLYLINE
  5
1449
330
220
100
AcDbEntity
  8
0
  6
Continuous
 62
     7
100
AcDbPolyline
 90
        9
 70
     0
 43
0.0
 10
30.2734786562
 20
32.8631852905
 10
30.2809237773
 20
32.8729438517
 10
30.2927155152
 20
32.8822226437
 10
30.3087292798
 20
32.8913017165
 10
30.3288748863
 20
32.9002560864
 10
30.35287933
 20
32.9090495284
 10
30.3803124474
 20
32.9176159759
 10
30.4108523996
 20
32.9259489884
 10
30.4139057043
 20
32.9266904231
  0
LINE
  5
144A
330
220
100
AcDbEntity
  8
0
  6
Continuous
 62
     7
100
AcDbLine
 10
68.4020227825
 20
27.0887850699
 30
0.0
 11
68.3319434111
 21
27.069944072
 31
0.0
  0
LWPOLYLINE
  5
144B
330
220
100
AcDbEntity
  8
0
  6
Continuous
 62
     7
100
AcDbPolyline
 90
        4
 70
     0
 43
0.0
 10
66.2956204095
 20
26.084878689
 10
66.3045064395
 20
26.0871612428
 10
66.3168289356
 20
26.0902504299
 10
66.3344270313
 20
26.094506703
  0
LWPOLYLINE
  5
144C
330
220
100
AcDbEntity
  8
0
  6
Continuous
 62
     7
100
AcDbPolyline
 90
        4
 70
     0
 43
0.0
 10
66.2973120181
 20
26.085316193
 10
66.30452847229999
 20
26.0871668189
 10
66.3168675303
 20
26.090259925
 10
66.3344877177
 20
26.0945210433
  0
LWPOLYLINE
  5
144D
330
220
100
AcDbEntity
  8
0
  6
Continuous
 62
     7
100
AcDbPolyline
 90
        4
 70
     0
 43
0.0
 10
66.2973218619
 20
26.0853187247
 10
66.3045447196
 20
26.0871709457
 10
66.3168957016
 20
26.0902668787
 10
66.33452810289999
 20
26.0945305969
  0
LWPOLYLINE
  5
144E
330
220
100
AcDbEntity
  8
0
  6
Continuous
 62
     7
100
AcDbPolyline
 90
       17
 70
     0
 43
0.0
 10
66.302583991
 20
26.0962255212
 10
66.33228449659999
 20
26.1035791604
 10
66.36643648839999
 20
26.1113884489
 10
66.40456917999999
 20
26.1192931872
 10
66.4461314783
 20
26.1269328106
 10
66.49057468969999
 20
26.1339791964
 10
66.5374176774
 20
26.1401538684
 10
66.5861712318
 20
26.145219457
 10
66.6362609169
 20
26.1489816792
 10
66.68720634340001
 20
26.1513116291
 10
66.7386336346
 20
26.1521347407
 10
66.7901423656
 20
26.1514200898
 10
66.84134529979999
 20
26.1491825196
 10
66.89174205329999
 20
26.1454916284
 10
66.9407583927
 20
26.1404825997
 10
66.987903535
 20
26.1343411886
 10
67.02563409310001
 20
26.1284106654
  0
LINE
  5
144F
330
220
100
AcDbEntity
  8
0
  6
Continuous
 62
     7
100
AcDbLine
 10
66.3344270313
 20
26.094506703
 30
0.0
 11
66.35733154499999
 21
26.0997729494
 31
0.0
  0
LINE
  5
1450
330
220
100
AcDbEntity
  8
0
  6
Continuous
 62
     7
100
AcDbLine
 10
68.28329126779999
 20
27.0601032897
 30
0.0
 11
68.36608084229999
 21
27.0784170721
 31
0.0
  0
LINE
  5
1451
330
220
100
AcDbEntity
  8
2_PLANES_JETS
  6
Continuous
 62
     7
100
AcDbLine
 10
70.7812674618
 20
28.9363538305
 30
0.0
 11
70.9156169909
 21
28.9653729727
 31
0.0
  0
LWPOLYLINE
  5
1452
330
220
100
AcDbEntity
  8
0
  6
Continuous
 62
     7
100
AcDbPolyline
 90
        4
 70
     0
 43
0.0
 10
66.35719835329999
 20
26.0997432312
 10
66.38499257060001
 20
26.1057211855
 10
66.4170071325
 20
26.1120443211
 10
66.45273259560001
 20
26.1183908738
  0
LINE
  5
1453
330
220
100
AcDbEntity
  8
0
  6
Continuous
 62
     7
100
AcDbLine
 10
66.3848301185
 20
26.1056875637
 30
0.0
 11
66.41694646890001
 21
26.11203290760001
 31
0.0
  0
LINE
  5
1454
330
220
100
AcDbEntity
  8
0
  6
Continuous
 62
     7
100
AcDbLine
 10
68.3319434111
 20
27.069944072
 30
0.0
 11
68.2603639517
 21
27.0563552539
 31
0.0
  0
LINE
  5
1455
330
220
100
AcDbEntity
  8
0
  6
Continuous
 62
     7
100
AcDbLine
 10
66.41682928199999
 20
26.1120108505
 30
0.0
 11
66.45266966529999
 21
26.1183803506
 31
0.0
  0
LWPOLYLINE
  5
1456
330
220
100
AcDbEntity
  8
0
  6
Continuous
 62
     7
100
AcDbPolyline
 90
       21
 70
     0
 43
0.0
 10
57.7766665842
 20
25.9266904231
 10
57.7033379287
 20
25.9151482424
 10
57.631814868
 20
25.8808059072
 10
57.56385853739999
 20
25.8245090396
 10
57.50114224709999
 20
25.7476438554
 10
57.4452102805
 20
25.6521030305
 10
57.397439868
 20
25.5402390972
 10
57.35900727589999
 20
25.4148065166
 10
57.3308588421
 20
25.2788938554
 10
57.3136876745
 20
25.1358477341
 10
57.3079165842
 20
24.9891904231
 10
57.3136876745
 20
24.8425331122
 10
57.3308588421
 20
24.69948699090001
 10
57.35900727589999
 20
24.5635743296
 10
57.397439868
 20
24.4381417491
 10
57.4452102805
 20
24.3262778158
 10
57.50114224709999
 20
24.23073699090001
 10
57.56385853739999
 20
24.1538718067
 10
57.631814868
 20
24.0975749391
 10
57.7033379287
 20
24.0632326038
 10
57.7766665842
 20
24.0516904231
  0
LWPOLYLINE
  5
1457
330
220
100
AcDbEntity
  8
0
  6
Continuous
 62
     7
100
AcDbPolyline
 90
        3
 70
     0
 43
0.0
 10
66.4525442744
 20
26.118359375
 10
66.49162072999999
 20
26.1244505024
 10
66.5331919648
 20
26.1299521148
  0
LINE
  5
1458
330
220
100
AcDbEntity
  8
0
  6
Continuous
 62
     7
100
AcDbLine
 10
66.49140883770001
 20
26.12441988
 30
0.0
 11
66.5329677436
 21
26.1299251487
 31
0.0
  0
LINE
  5
1459
330
220
100
AcDbEntity
  8
0
  6
Continuous
 62
     7
100
AcDbLine
 10
66.49142396010001
 20
26.1244220663
 30
0.0
 11
66.53298724729999
 21
26.1299274959
 31
0.0
  0
LINE
  5
145A
330
220
100
AcDbEntity
  8
0
  6
Continuous
 62
     7
100
AcDbLine
 10
66.49155638569999
 20
26.1244412058
 30
0.0
 11
66.5331268947
 21
26.129944291
 31
0.0
  0
LINE
  5
145B
330
220
100
AcDbEntity
  8
0
  6
Continuous
 62
     7
100
AcDbLine
 10
68.19963069439999
 20
27.0491143809
 30
0.0
 11
68.28329126779999
 21
27.0601032897
 31
0.0
  0
LWPOLYLINE
  5
145C
330
220
100
AcDbEntity
  8
0
  6
Continuous
 62
     7
100
AcDbPolyline
 90
        3
 70
     0
 43
0.0
 10
66.5329677436
 20
26.1299251487
 10
66.57697716310001
 20
26.134658605
 10
66.62249853600001
 20
26.1383706366
  0
LINE
  5
145D
330
220
100
AcDbEntity
  8
0
  6
Continuous
 62
     7
100
AcDbLine
 10
66.5767395406
 20
26.1346360811
 30
0.0
 11
66.6224341213
 21
26.1383662343
 31
0.0
  0
LWPOLYLINE
  5
145E
330
220
100
AcDbEntity
  8
0
  6
Continuous
 62
     7
100
AcDbPolyline
 90
       39
 70
     0
 43
0.0
 10
64.8560112193
 20
24.0226998355
 10
64.9276688525
 20
24.0260487109
 10
65.491708592
 20
24.0633099097
 10
66.0336271629
 20
24.1105109565
 10
66.554769573
 20
24.167718688
 10
67.0564709317
 20
24.2349671098
 10
67.5398107046
 20
24.312244468
 10
68.0059102674
 20
24.3995445853
 10
68.4559538356
 20
24.4968990622
 10
68.89032672909999
 20
24.6041809873
 10
69.3084478901
 20
24.720943651
 10
69.7098356272
 20
24.8466120875
 10
70.0946446289
 20
24.9806888326
 10
70.4634363709
 20
25.1227728692
 10
70.8168896932
 20
25.2725120684
 10
71.15606164119999
 20
25.4297603835
 10
71.48222078479999
 20
25.5945791692
 10
71.79662382229999
 20
25.7671722643
 10
72.10023889289999
 20
25.9477332876
 10
72.3937425979
 20
26.1363970209
 10
72.67777612319999
 20
26.3333690945
 10
72.9529337914
 20
26.5389226891
 10
73.2197330641
 20
26.7533756685
 10
73.47863360720001
 20
26.9771035779
 10
73.7300297723
 20
27.2105330144
 10
73.97427053449999
 20
27.454157547
 10
74.2116931013
 20
27.7085804793
 10
74.44255024510001
 20
27.9744496713
 10
74.667003025
 20
28.25243904860001
 10
74.88523387489999
 20
28.5433915618
 10
75.09739990199999
 20
28.8482968682
 10
75.30352612680001
 20
29.1681497861
 10
75.50348994710001
 20
29.5038928504
 10
75.6968943669
 20
29.8561261324
 10
75.8832016763
 20
30.2252049234
 10
76.06185889439998
 20
30.6113996224
 10
76.2323360931
 20
31.0149530778
 10
76.39415403609999
 20
31.4361499182
 10
76.545442267
 20
31.8709833397
  0
LINE
  5
145F
330
220
100
AcDbEntity
  8
0
  6
Continuous
 62
     7
100
AcDbLine
 10
54.8654978362
 20
22.9266904231
 30
0.0
 11
57.1154805415
 21
22.9266904231
 31
0.0
  0
LINE
  5
1460
330
220
100
AcDbEntity
  8
0
  6
Continuous
 62
     7
100
AcDbLine
 10
64.23182569489999
 20
23.1250593975
 30
0.0
 11
62.49915268279999
 21
23.1250593975
 31
0.0
  0
LINE
  5
1461
330
220
100
AcDbEntity
  8
0
  6
Continuous
 62
     7
100
AcDbLine
 10
41.73182569489999
 20
23.1250593975
 30
0.0
 11
39.9991526828
 21
23.1250593975
 31
0.0
  0
LINE
  5
1462
330
220
100
AcDbEntity
  8
0
  6
Continuous
 62
     7
100
AcDbLine
 10
41.73182569489999
 20
23.2500593975
 30
0.0
 11
39.9991526828
 21
23.2500593975
 31
0.0
  0
LINE
  5
1463
330
220
100
AcDbEntity
  8
0
  6
Continuous
 62
     7
100
AcDbLine
 10
62.49915268279999
 20
23.2500593975
 30
0.0
 11
64.23182569489999
 21
23.2500593975
 31
0.0
  0
LINE
  5
1464
330
220
100
AcDbEntity
  8
0
  6
Continuous
 62
     7
100
AcDbLine
 10
42.13142928039999
 20
23.3245315785
 30
0.0
 11
41.95612021339999
 21
23.3245315955
 31
0.0
  0
LINE
  5
1465
330
220
100
AcDbEntity
  8
0
  6
Continuous
 62
     7
100
AcDbLine
 10
62.0995490973
 20
23.3245315785
 30
0.0
 11
62.2748581643
 21
23.3245315955
 31
0.0
  0
LINE
  5
1466
330
220
100
AcDbEntity
  8
0
  6
Continuous
 62
     7
100
AcDbLine
 10
39.774858167
 20
23.3245315891
 30
0.0
 11
39.599549101
 21
23.3245315656
 31
0.0
  0
LINE
  5
1467
330
220
100
AcDbEntity
  8
0
  6
Continuous
 62
     7
100
AcDbLine
 10
64.45612021069999
 20
23.3245315891
 30
0.0
 11
64.6314292767
 21
23.3245315656
 31
0.0
  0
LINE
  5
1468
330
220
100
AcDbEntity
  8
0
  6
Continuous
 62
     7
100
AcDbLine
 10
62.0063460245
 20
23.5323872439
 30
0.0
 11
62.1357555458
 21
23.532387265
 31
0.0
  0
LINE
  5
1469
330
220
100
AcDbEntity
  8
0
  6
Continuous
 62
     7
100
AcDbLine
 10
42.2246323531
 20
23.5323872439
 30
0.0
 11
42.0952228319
 21
23.532387265
 31
0.0
  0
LINE
  5
146A
330
220
100
AcDbEntity
  8
0
  6
Continuous
 62
     7
100
AcDbLine
 10
39.6357555495
 20
23.5323872233
 30
0.0
 11
39.50634603320001
 21
23.53238719510001
 31
0.0
  0
LINE
  5
146B
330
220
100
AcDbEntity
  8
0
  6
Continuous
 62
     7
100
AcDbLine
 10
64.5952228282
 20
23.5323872233
 30
0.0
 11
64.7246323445
 21
23.53238719510001
 31
0.0
  0
LINE
  5
146C
330
220
100
AcDbEntity
  8
0
  6
Continuous
 62
     7
100
AcDbLine
 10
41.76531934389999
 20
23.5625593975
 30
0.0
 11
39.9656590338
 21
23.5625593975
 31
0.0
  0
LINE
  5
146D
330
220
100
AcDbEntity
  8
0
  6
Continuous
 62
     7
100
AcDbLine
 10
62.4656590338
 20
23.5625593975
 30
0.0
 11
64.2653193439
 21
23.5625593975
 31
0.0
  0
LINE
  5
146E
330
220
100
AcDbEntity
  8
0
  6
Continuous
 62
     7
100
AcDbLine
 10
50.9904891888
 20
23.7091904231
 30
0.0
 11
53.24048918879999
 21
23.7091904231
 31
0.0
  0
LINE
  5
146F
330
220
100
AcDbEntity
  8
0
  6
Continuous
 62
     7
100
AcDbLine
 10
54.8654891888
 20
23.7391904231
 30
0.0
 11
57.1154891888
 21
23.7391904231
 31
0.0
  0
LINE
  5
1470
330
220
100
AcDbEntity
  8
0
  6
Continuous
 62
     7
100
AcDbLine
 10
57.7766665842
 20
23.8641904231
 30
0.0
 11
57.0730209436
 21
23.8641904231
 31
0.0
  0
LINE
  5
1471
330
220
100
AcDbEntity
  8
0
  6
Continuous
 62
     7
100
AcDbLine
 10
55.0529891888
 20
23.9266904231
 30
0.0
 11
56.89021972289999
 21
23.9266904231
 31
0.0
  0
LINE
  5
1472
330
220
100
AcDbEntity
  8
0
  6
Continuous
 62
     7
100
AcDbLine
 10
50.9904891888
 20
24.4891904231
 30
0.0
 11
53.24048918879999
 21
24.4891904231
 31
0.0
  0
LINE
  5
1473
330
220
100
AcDbEntity
  8
0
  6
Continuous
 62
     7
100
AcDbLine
 10
53.1004891888
 20
24.6291904231
 30
0.0
 11
51.1304891888
 21
24.6291904231
 31
0.0
  0
LWPOLYLINE
  5
1474
330
220
100
AcDbEntity
  8
0
  6
Continuous
 62
     7
100
AcDbPolyline
 90
        8
 70
     0
 43
0.0
 10
57.7766665576
 20
24.0516904231
 10
58.36514188149999
 20
24.0482101225
 10
58.99920188399999
 20
24.0384044127
 10
59.6654455606
 20
24.0240185266
 10
60.3527535153
 20
24.0074667249
 10
61.0495570703
 20
23.9914902378
 10
61.744440528
 20
23.9787908602
 10
61.88712952220001
 20
23.9773092756
  0
LWPOLYLINE
  5
1475
330
220
100
AcDbEntity
  8
0
  6
Continuous
 62
     7
100
AcDbPolyline
 90
        6
 70
     0
 43
0.0
 10
62.0169000925
 20
23.9759618271
 10
62.4278942613
 20
23.9716943457
 10
63.09105740079999
 20
23.971965245
 10
63.7284155384
 20
23.9807099809
 10
64.3402819755
 20
23.9985975459
 10
64.72496062340001
 20
24.0165752663
  0
LWPOLYLINE
  5
1476
330
220
100
AcDbEntity
  8
0
  6
Continuous
 62
     7
100
AcDbPolyline
 90
        3
 70
     0
 43
0.0
 10
57.7766665576
 20
24.0516904231
 10
57.7535353224
 20
24.0528325701
 10
57.7216395869
 20
24.0581725026
  0
LINE
  5
1477
330
220
100
AcDbEntity
  8
0
  6
Continuous
 62
     7
100
AcDbLine
 10
37.6540230205
 20
26.1346565385
 30
0.0
 11
37.6980105801
 21
26.1299251552
 31
0.0
  0
LINE
  5
1478
330
220
100
AcDbEntity
  8
0
  6
Continuous
 62
     7
100
AcDbLine
 10
37.6978072613
 20
26.1299496081
 30
0.0
 11
37.7395694759
 21
26.12441988920001
 31
0.0
  0
LINE
  5
1479
330
220
100
AcDbEntity
  8
0
  6
Continuous
 62
     7
100
AcDbLine
 10
37.6979618627
 20
26.1299310179
 30
0.0
 11
37.7395263547
 21
26.1244261233
 31
0.0
  0
LWPOLYLINE
  5
147A
330
220
100
AcDbEntity
  8
0
  6
Continuous
 62
     7
100
AcDbPolyline
 90
        7
 70
     0
 43
0.0
 10
37.7393773108
 20
26.1244476617
 10
37.7784448216
 20
26.1183575817
 10
37.8141555208
 20
26.112009641
 10
37.8461481743
 20
26.1056875813
 10
37.8737799421
 20
26.0997432496
 10
37.89654900489999
 20
26.0945072573
 10
37.9141465154
 20
26.0902511478
  0
LWPOLYLINE
  5
147B
330
220
100
AcDbEntity
  8
0
  6
Continuous
 62
     7
100
AcDbPolyline
 90
       16
 70
     0
 43
0.0
 10
42.2212700031
 20
25.2641904231
 10
42.2563091641
 20
25.2580134495
 10
42.2910251942
 20
25.2536225647
 10
42.3250979424
 20
25.2510582616
 10
42.35821318969999
 20
25.25034418820001
 10
42.3900655474
 20
25.2514869297
 10
42.420361273
 20
25.25447594800001
 10
42.44882097939999
 20
25.25928367820001
 10
42.47518221099999
 20
25.2658657838
 10
42.49920186439999
 20
25.2741615646
 10
42.5206584302
 20
25.284094517
 10
42.5393540359
 20
25.2955730395
 10
42.5551162701
 20
25.3084912772
 10
42.56779977349999
 20
25.3227300982
 10
42.5772875784
 20
25.3381581922
 10
42.5834921879
 20
25.3546332812
  0
LWPOLYLINE
  5
147C
330
220
100
AcDbEntity
  8
0
  6
Continuous
 62
     7
100
AcDbPolyline
 90
        6
 70
     0
 43
0.0
 10
37.7784074257
 20
26.118363838
 10
37.8141238939
 20
26.1120155938
 10
37.84612247270001
 20
26.1056929013
 10
37.8737602125
 20
26.0997476538
 10
37.89653504469999
 20
26.0945105606
 10
37.9141381788
 20
26.0902532118
  0
LWPOLYLINE
  5
147D
330
220
100
AcDbEntity
  8
0
  6
Continuous
 62
     7
100
AcDbPolyline
 90
        7
 70
     0
 43
0.0
 10
37.7783054608
 20
26.1183808944
 10
37.8140286373
 20
26.1120335231
 10
37.8460393105
 20
26.1057101137
 10
37.8736939702
 20
26.0997624293
 10
37.8964882095
 20
26.0945216231
 10
37.9141091014
 20
26.0902603562
 10
37.926448944
 20
26.0871670633
  0
LWPOLYLINE
  5
147E
330
220
100
AcDbEntity
  8
0
  6
Continuous
 62
     7
100
AcDbPolyline
 90
        7
 70
     0
 43
0.0
 10
37.7782641548
 20
26.1183878019
 10
37.8139882904
 20
26.1120411145
 10
37.8460013005
 20
26.1057179797
 10
37.8736602011
 20
26.0997699659
 10
37.8964608383
 20
26.0945280975
 10
37.914089917
 20
26.0902650904
 10
37.92643753210001
 20
26.0871699606
  0
LINE
  5
147F
330
220
100
AcDbEntity
  8
0
  6
Continuous
 62
     7
100
AcDbLine
 10
35.8990349666
 20
27.069944072
 30
0.0
 11
35.970614426
 21
27.0563552539
 31
0.0
  0
LINE
  5
1480
330
220
100
AcDbEntity
  8
0
  6
Continuous
 62
     7
100
AcDbLine
 10
35.8648975373
 20
27.0784170712
 30
0.0
 11
35.9476871087
 21
27.0601032895
 31
0.0
  0
LINE
  5
1481
330
220
100
AcDbEntity
  8
0
  6
Continuous
 62
     7
100
AcDbLine
 10
37.9215598179
 20
26.08839268280001
 30
0.0
 11
37.9353579682
 21
26.084878689
 31
0.0
  0
LINE
  5
1482
330
220
100
AcDbEntity
  8
0
  6
Continuous
 62
     7
100
AcDbLine
 10
37.9353101469
 20
26.0848912439
 30
0.0
 11
37.9352883981
 21
26.0848969571
 31
0.0
  0
LINE
  5
1483
330
220
100
AcDbEntity
  8
0
  6
Continuous
 62
     7
100
AcDbLine
 10
37.9353579519
 20
26.0848786933
 30
0.0
 11
37.9352903955
 21
26.0848964324
 31
0.0
  0
LWPOLYLINE
  5
1484
330
220
100
AcDbEntity
  8
0
  6
Continuous
 62
     7
100
AcDbPolyline
 90
        4
 70
     0
 43
0.0
 10
37.9271719678
 20
26.0965385229
 10
37.95227579840001
 20
26.0899322972
 10
37.9722044987
 20
26.0844205693
 10
37.98681450780001
 20
26.0802292691
  0
LINE
  5
1485
330
220
100
AcDbEntity
  8
0
  6
Continuous
 62
     7
100
AcDbLine
 10
34.5692624456
 20
28.8653396695
 30
0.0
 11
34.5814012571
 21
28.8621086419
 31
0.0
  0
LINE
  5
1486
330
220
100
AcDbEntity
  8
0
  6
Continuous
 62
     7
100
AcDbLine
 10
35.8289555952
 20
27.0887850699
 30
0.0
 11
35.8990349666
 21
27.069944072
 31
0.0
  0
LINE
  5
1487
330
220
100
AcDbEntity
  8
0
  6
Continuous
 62
     7
100
AcDbLine
 10
35.8163481052
 20
27.0927836921
 30
0.0
 11
35.8648975373
 21
27.0784170712
 31
0.0
  0
LINE
  5
1488
330
220
100
AcDbEntity
  8
0
  6
Continuous
 62
     7
100
AcDbLine
 10
37.98681450780001
 20
26.0802292691
 30
0.0
 11
37.99881728760001
 21
26.0766904231
 31
0.0
  0
LINE
  5
1489
330
220
100
AcDbEntity
  8
0
  6
Continuous
 62
     7
100
AcDbLine
 10
35.8163481525
 20
27.0927836767
 30
0.0
 11
35.8289555952
 21
27.0887850699
 31
0.0
  0
LWPOLYLINE
  5
148A
330
220
100
AcDbEntity
  8
0
  6
Continuous
 62
     7
100
AcDbPolyline
 90
       33
 70
     0
 43
0.0
 10
30.6451352032
 20
31.0122610486
 10
30.6510088436
 20
31.0102867271
 10
30.6567644301
 20
31.0084606883
 10
30.6624421259
 20
31.0067543117
 10
30.6680758159
 20
31.0051453411
 10
30.6736945498
 20
31.0036162043
 10
30.6793206168
 20
31.0021535986
 10
30.6849689266
 20
31.0007478392
 10
30.6906516099
 20
30.9993911278
 10
30.6963787407
 20
30.998077081
 10
30.7021586781
 20
30.996800435
 10
30.70799834320001
 20
30.9955568199
 10
30.71390344800001
 20
30.9943425843
 10
30.7198786824
 20
30.993154659
 10
30.7259278701
 20
30.99199044880001
 10
30.7320540988
 20
30.9908477478
 10
30.7382598294
 20
30.9897246706
 10
30.7445469796
 20
30.9886195991
 10
30.7509170031
 20
30.9875311377
 10
30.7573709545
 20
30.9864580771
 10
30.7639095431
 20
30.9853993651
 10
30.7705331793
 20
30.9843540826
 10
30.7772420143
 20
30.9833214233
 10
30.7840359796
 20
30.9823006768
 10
30.7909148169
 20
30.9812912149
 10
30.7978780841
 20
30.9802924827
 10
30.8049251895
 20
30.9793039868
 10
30.8120554108
 20
30.9783252868
 10
30.8192679117
 20
30.9773559884
 10
30.8265617561
 20
30.9763957378
 10
30.83393592050001
 20
30.9754442163
 10
30.8413893031
 20
30.9745011364
 10
30.8565289915
 20
30.9726392826
  0
LWPOLYLINE
  5
148B
330
220
100
AcDbEntity
  8
0
  6
Continuous
 62
     7
100
AcDbPolyline
 90
        5
 70
     0
 43
0.0
 10
34.6413935818
 20
28.8105766856
 10
34.6800198069
 20
28.7973505783
 10
34.7168024094
 20
28.7796386179
 10
34.75122225320001
 20
28.7576907842
 10
34.7827935496
 20
28.7318168408
  0
LINE
  5
148C
330
220
100
AcDbEntity
  8
0
  6
Continuous
 62
     7
100
AcDbLine
 10
39.5097083746
 20
25.2641904231
 30
0.0
 11
39.9656590338
 21
23.5625593975
 31
0.0
  0
LINE
  5
148D
330
220
100
AcDbEntity
  8
0
  6
Continuous
 62
     7
100
AcDbLine
 10
51.6527226153
 20
26.0896668024
 30
0.0
 11
51.67758399100001
 21
26.0962255212
 31
0.0
  0
LWPOLYLINE
  5
148E
330
220
100
AcDbEntity
  8
0
  6
Continuous
 62
     7
100
AcDbPolyline
 90
        4
 70
     0
 43
0.0
 10
51.67062042579999
 20
26.0848786933
 10
51.6723116351
 20
26.085316094
 10
51.6795273001
 20
26.0871665208
 10
51.6918654512
 20
26.0902594115
  0
LWPOLYLINE
  5
148F
330
220
100
AcDbEntity
  8
0
  6
Continuous
 62
     7
100
AcDbPolyline
 90
       21
 70
     0
 43
0.0
 10
51.67758399100001
 20
26.0962255212
 10
51.7072844966
 20
26.1035791604
 10
51.7414364884
 20
26.1113884489
 10
51.77956918
 20
26.1192931872
 10
51.82113147829999
 20
26.1269328106
 10
51.86557468970001
 20
26.1339791964
 10
51.9124176773
 20
26.1401538684
 10
51.9611712318
 20
26.145219457
 10
52.01126091689999
 20
26.1489816792
 10
52.0622063434
 20
26.1513116291
 10
52.1136336347
 20
26.1521347407
 10
52.16514236560001
 20
26.1514200898
 10
52.2163452999
 20
26.1491825196
 10
52.2667420533
 20
26.1454916284
 10
52.3157583928
 20
26.1404825997
 10
52.362903535
 20
26.1343411886
 10
52.4076849495
 20
26.1273024054
 10
52.4495347533
 20
26.1196596299
 10
52.48788855279999
 20
26.1117489884
 10
52.522251028
 20
26.1039230663
 10
52.5521719678
 20
26.0965385229
  0
LINE
  5
1490
330
220
100
AcDbEntity
  8
0
  6
Continuous
 62
     7
100
AcDbLine
 10
51.6918349586
 20
26.0902519125
 30
0.0
 11
51.7094848936
 21
26.094520375
 31
0.0
  0
LWPOLYLINE
  5
1491
330
220
100
AcDbEntity
  8
0
  6
Continuous
 62
     7
100
AcDbPolyline
 90
        3
 70
     0
 43
0.0
 10
51.7094848936
 20
26.094520375
 10
51.732278212
 20
26.0997610465
 10
51.7599325512
 20
26.1057087653
  0
LWPOLYLINE
  5
1492
330
220
100
AcDbEntity
  8
0
  6
Continuous
 62
     7
100
AcDbPolyline
 90
        3
 70
     0
 43
0.0
 10
51.7094337339
 20
26.0945082893
 10
51.73220370460001
 20
26.0997444258
 10
51.7598359594
 20
26.1056887728
  0
LWPOLYLINE
  5
1493
330
220
100
AcDbEntity
  8
0
  6
Continuous
 62
     7
100
AcDbPolyline
 90
       25
 70
     0
 43
0.0
 10
73.51669227800001
 20
31.06085853570001
 10
73.5165290164
 20
31.0608214162
 10
73.5167471228
 20
31.0608670843
 10
73.51786343970001
 20
31.0610904576
 10
73.51979255839999
 20
31.0614548652
 10
73.5224886192
 20
31.06193884670001
 10
73.52591196430001
 20
31.0625264077
 10
73.5300396525
 20
31.0632070902
 10
73.5348684389
 20
31.0639751896
 10
73.54040938379999
 20
31.0648285691
 10
73.54666166459999
 20
31.0657639136
 10
73.553628277
 20
31.06677875
 10
73.56132837930001
 20
31.0678731595
 10
73.5697806543
 20
31.0690478105
 10
73.578995582
 20
31.0703021986
 10
73.58898821359999
 20
31.0716361566
 10
73.5997879115
 20
31.0730517856
 10
73.61141093489999
 20
31.0745497699
 10
73.62387229069999
 20
31.0761301411
 10
73.6372003151
 20
31.0777945468
 10
73.6514157642
 20
31.0795443177
 10
73.66653223250001
 20
31.0813793388
 10
73.6825756675
 20
31.0833007201
 10
73.69956739979999
 20
31.085309918
 10
73.7175212931
 20
31.0874067393
  0
LINE
  5
1494
330
220
100
AcDbEntity
  8
0
  6
Continuous
 62
     7
100
AcDbLine
 10
51.7598359594
 20
26.1056887728
 30
0.0
 11
51.791943385
 21
26.1120323273
 31
0.0
  0
LWPOLYLINE
  5
1495
330
220
100
AcDbEntity
  8
0
  6
Continuous
 62
     7
100
AcDbPolyline
 90
        3
 70
     0
 43
0.0
 10
51.7918287519
 20
26.1120107506
 10
51.8276669331
 20
26.1183798937
 10
51.86655405319999
 20
26.1244408687
  0
LINE
  5
1496
330
220
100
AcDbEntity
  8
0
  6
Continuous
 62
     7
100
AcDbLine
 10
73.49056670199999
 20
31.0542296064
 30
0.0
 11
73.5115086456
 21
31.057704291
 31
0.0
  0
LWPOLYLINE
  5
1497
330
220
100
AcDbEntity
  8
0
  6
Continuous
 62
     7
100
AcDbPolyline
 90
        8
 70
     0
 43
0.0
 10
73.5740998893
 20
31.0185159816
 10
73.5951141618
 20
31.0219978098
 10
73.6154592835
 20
31.0283053978
 10
73.6347571185
 20
31.0373215124
 10
73.65264899600001
 20
31.0488785795
 10
73.66880237630001
 20
31.0627617985
 10
73.6829170316
 20
31.0787131351
 10
73.6862658292
 20
31.0837370656
  0
LWPOLYLINE
  5
1498
330
220
100
AcDbEntity
  8
0
  6
Continuous
 62
     7
100
AcDbPolyline
 90
        3
 70
     0
 43
0.0
 10
51.82753943939999
 20
26.118358566
 10
51.86641472739999
 20
26.1244207315
 10
51.90812501439999
 20
26.1299440649
  0
LINE
  5
1499
330
220
100
AcDbEntity
  8
2_PLANES_JETS
  6
Continuous
 62
     7
100
AcDbLine
 10
70.645153096
 20
28.9172546084
 30
0.0
 11
70.7812674618
 21
28.9363538305
 31
0.0
  0
LINE
  5
149A
330
220
100
AcDbEntity
  8
0
  6
Continuous
 62
     7
100
AcDbLine
 10
69.6179602994
 20
28.8089859404
 30
0.0
 11
69.5799268066
 21
28.8039056994
 31
0.0
  0
LINE
  5
149B
330
220
100
AcDbEntity
  8
0
  6
Continuous
 62
     7
100
AcDbLine
 10
68.2603639517
 20
27.0563552539
 30
0.0
 11
68.187972374
 21
27.0481672152
 31
0.0
  0
LINE
  5
149C
330
220
100
AcDbEntity
  8
0
  6
Continuous
 62
     7
100
AcDbLine
 10
69.5799268066
 20
28.8039056994
 30
0.0
 11
69.5719045985
 21
28.8030276907
 31
0.0
  0
LINE
  5
149D
330
220
100
AcDbEntity
  8
0
  6
Continuous
 62
     7
100
AcDbLine
 10
51.9079735033
 20
26.1299258419
 30
0.0
 11
51.95191068949999
 21
26.1346523055
 31
0.0
  0
LWPOLYLINE
  5
149E
330
220
100
AcDbEntity
  8
0
  6
Continuous
 62
     7
100
AcDbPolyline
 90
       11
 70
     0
 43
0.0
 10
69.6701691567
 20
28.8228906083
 10
69.6295094884
 20
28.8191302664
 10
69.589584797
 20
28.8105766807
 10
69.55095857239999
 20
28.7973505736
 10
69.5141759705
 20
28.77963861340001
 10
69.4797561272
 20
28.7576907799
 10
69.44818483119999
 20
28.7318168368
 10
69.4199076681
 20
28.7023819592
 10
69.395323731
 20
28.66980157989999
 10
69.37477998850001
 20
28.6345355261
 10
69.3585663872
 20
28.5970815299
  0
LINE
  5
149F
330
220
100
AcDbEntity
  8
0
  6
Continuous
 62
     7
100
AcDbLine
 10
51.951745063
 20
26.1346366052
 30
0.0
 11
51.99743339520001
 21
26.1383661846
 31
0.0
  0
LINE
  5
14A0
330
220
100
AcDbEntity
  8
0
  6
Continuous
 62
     7
100
AcDbLine
 10
37.32675466
 20
26.1346375158
 30
0.0
 11
37.3724877095
 21
26.1383698968
 31
0.0
  0
LINE
  5
14A1
330
220
100
AcDbEntity
  8
0
  6
Continuous
 62
     7
100
AcDbLine
 10
37.3268938138
 20
26.1346507056
 30
0.0
 11
37.372415376
 21
26.1383649525
 31
0.0
  0
LWPOLYLINE
  5
14A2
330
220
100
AcDbEntity
  8
0
  6
Continuous
 62
     7
100
AcDbPolyline
 90
       13
 70
     0
 43
0.0
 10
56.7551214234
 20
25.9160360357
 10
56.6739861338
 20
25.9104775984
 10
56.44017562590001
 20
25.8618077958
 10
56.2130593384
 20
25.7809946538
 10
55.9957170481
 20
25.6683858957
 10
55.7933583506
 20
25.5260042981
 10
55.6083763506
 20
25.3547679968
 10
55.44524390100001
 20
25.1578515681
 10
55.3075813285
 20
24.9392122314
 10
55.1975566922
 20
24.7019217656
 10
55.11758619600001
 20
24.4507760243
 10
55.0691885185
 20
24.1909075986
 10
55.0529891888
 20
23.9266904231
  0
LINE
  5
14A3
330
220
100
AcDbEntity
  8
0
  6
Continuous
 62
     7
100
AcDbLine
 10
51.99725213989999
 20
26.1383537915
 30
0.0
 11
52.04419388479999
 21
26.14092963800001
 31
0.0
  0
LWPOLYLINE
  5
14A4
330
220
100
AcDbEntity
  8
0
  6
Continuous
 62
     7
100
AcDbPolyline
 90
        4
 70
     0
 43
0.0
 10
66.6222470005
 20
26.1383534396
 10
66.6692567966
 20
26.140932233
 10
66.71675580590001
 20
26.1422377474
 10
66.76450153899999
 20
26.1422338959
  0
LINE
  5
14A5
330
220
100
AcDbEntity
  8
0
  6
Continuous
 62
     7
100
AcDbLine
 10
37.3722619979
 20
26.1383544665
 30
0.0
 11
37.4192465804
 21
26.1409318117
 31
0.0
  0
LINE
  5
14A6
330
220
100
AcDbEntity
  8
0
  6
Continuous
 62
     7
100
AcDbLine
 10
68.1942675225
 20
27.0488792444
 30
0.0
 11
68.19963069439999
 21
27.0491143809
 31
0.0
  0
LINE
  5
14A7
330
220
100
AcDbEntity
  8
0
  6
Continuous
 62
     7
100
AcDbLine
 10
68.11582661989999
 20
27.0454404823
 30
0.0
 11
68.19963069439999
 21
27.0491143809
 31
0.0
  0
LINE
  5
14A8
330
220
100
AcDbEntity
  8
0
  6
Continuous
 62
     7
100
AcDbLine
 10
68.187972374
 20
27.0481672152
 30
0.0
 11
68.11548918879999
 21
27.0454404231
 31
0.0
  0
LINE
  5
14A9
330
220
100
AcDbEntity
  8
0
  6
Continuous
 62
     7
100
AcDbLine
 10
66.66899340010001
 20
26.140921359
 30
0.0
 11
66.7166953582
 21
26.142236916
 31
0.0
  0
LINE
  5
14AA
330
220
100
AcDbEntity
  8
0
  6
Continuous
 62
     7
100
AcDbLine
 10
52.0439980334
 20
26.14092155070001
 30
0.0
 11
52.0916960685
 21
26.1422369258
 31
0.0
  0
LINE
  5
14AB
330
220
100
AcDbEntity
  8
0
  6
Continuous
 62
     7
100
AcDbLine
 10
37.419008013
 20
26.1409219637
 30
0.0
 11
37.4667463608
 21
26.1422376176
 31
0.0
  0
LINE
  5
14AC
330
220
100
AcDbEntity
  8
0
  6
Continuous
 62
     7
100
AcDbLine
 10
37.4191749127
 20
26.1409288549
 30
0.0
 11
37.466676319
 21
26.1422366537
 31
0.0
  0
LINE
  5
14AD
330
220
100
AcDbEntity
  8
0
  6
Continuous
 62
     7
100
AcDbLine
 10
65.3786643978
 20
26.4562307784
 30
0.0
 11
65.50877730270001
 21
26.4588558718
 31
0.0
  0
LINE
  5
14AE
330
220
100
AcDbEntity
  8
0
  6
Continuous
 62
     7
100
AcDbLine
 10
65.3034018409
 20
26.1753472803
 30
0.0
 11
65.4334979864
 21
26.1779097919
 31
0.0
  0
LINE
  5
14AF
330
220
100
AcDbEntity
  8
0
  6
Continuous
 62
     7
100
AcDbLine
 10
61.24220591949999
 20
26.3841968965
 30
0.0
 11
61.3711090824
 21
26.3860866246
 31
0.0
  0
LINE
  5
14B0
330
220
100
AcDbEntity
  8
0
  6
Continuous
 62
     7
100
AcDbLine
 10
61.3164118735
 20
26.1072565355
 30
0.0
 11
61.4453212855
 21
26.1091229723
 31
0.0
  0
LWPOLYLINE
  5
14B1
330
220
100
AcDbEntity
  8
0
  6
Continuous
 62
     7
100
AcDbPolyline
 90
        3
 70
     0
 43
0.0
 10
36.281622607
 20
26.5116920086
 10
36.1981589735
 20
26.5115924388
 10
36.1154891888
 20
26.5112933749
  0
LINE
  5
14B2
330
220
100
AcDbEntity
  8
0
  6
Continuous
 62
     7
100
AcDbLine
 10
42.2212700031
 20
25.2641904231
 30
0.0
 11
39.5097083746
 21
25.2641904231
 31
0.0
  0
LINE
  5
14B3
330
220
100
AcDbEntity
  8
0
  6
Continuous
 62
     7
100
AcDbLine
 10
42.3887382483
 20
25.7016904231
 30
0.0
 11
39.34224012940001
 21
25.7016904231
 31
0.0
  0
LINE
  5
14B4
330
220
100
AcDbEntity
  8
0
  6
Continuous
 62
     7
100
AcDbLine
 10
36.1154891888
 20
26.0766904231
 30
0.0
 11
36.9821610901
 21
26.0766904231
 31
0.0
  0
LINE
  5
14B5
330
220
100
AcDbEntity
  8
0
  6
Continuous
 62
     7
100
AcDbLine
 10
37.99881728760001
 20
26.0766904231
 30
0.0
 11
38.8246020392
 21
26.0766904231
 31
0.0
  0
LINE
  5
14B6
330
220
100
AcDbEntity
  8
0
  6
Continuous
 62
     7
100
AcDbLine
 10
38.9540115617
 20
26.0766904231
 30
0.0
 11
42.776966816
 21
26.0766904231
 31
0.0
  0
LINE
  5
14B7
330
220
100
AcDbEntity
  8
0
  6
Continuous
 62
     7
100
AcDbLine
 10
42.90637633849999
 20
26.0766904231
 30
0.0
 11
51.60716109009999
 21
26.0766904231
 31
0.0
  0
LINE
  5
14B8
330
220
100
AcDbEntity
  8
0
  6
Continuous
 62
     7
100
AcDbLine
 10
52.62381728760001
 20
26.0766904231
 30
0.0
 11
61.3246020392
 21
26.0766904231
 31
0.0
  0
LINE
  5
14B9
330
220
100
AcDbEntity
  8
0
  6
Continuous
 62
     7
100
AcDbLine
 10
61.4540115617
 20
26.0766904231
 30
0.0
 11
65.276966816
 21
26.0766904231
 31
0.0
  0
LINE
  5
14BA
330
220
100
AcDbEntity
  8
0
  6
Continuous
 62
     7
100
AcDbLine
 10
65.40637633850001
 20
26.0766904231
 30
0.0
 11
66.23216109010001
 21
26.0766904231
 31
0.0
  0
LINE
  5
14BB
330
220
100
AcDbEntity
  8
0
  6
Continuous
 62
     7
100
AcDbLine
 10
36.1154891888
 20
26.5035963943
 30
0.0
 11
38.7102129289
 21
26.5035963943
 31
0.0
  0
LINE
  5
14BC
330
220
100
AcDbEntity
  8
0
  6
Continuous
 62
     7
100
AcDbLine
 10
38.8396224515
 20
26.5035963943
 30
0.0
 11
42.8913559262
 21
26.5035963943
 31
0.0
  0
LINE
  5
14BD
330
220
100
AcDbEntity
  8
0
  6
Continuous
 62
     7
100
AcDbLine
 10
43.0207654488
 20
26.5035963943
 30
0.0
 11
61.2102129289
 21
26.5035963943
 31
0.0
  0
LINE
  5
14BE
330
220
100
AcDbEntity
  8
0
  6
Continuous
 62
     7
100
AcDbLine
 10
61.3396224515
 20
26.5035963943
 30
0.0
 11
65.39135592619999
 21
26.5035963943
 31
0.0
  0
LINE
  5
14BF
330
220
100
AcDbEntity
  8
0
  6
Continuous
 62
     7
100
AcDbLine
 10
65.52076544880001
 20
26.5035963943
 30
0.0
 11
68.1154891889
 21
26.5035963943
 31
0.0
  0
LINE
  5
14C0
330
220
100
AcDbEntity
  8
0
  6
Continuous
 62
     7
100
AcDbLine
 10
67.94935577069999
 20
26.5116920086
 30
0.0
 11
36.281622607
 21
26.5116920086
 31
0.0
  0
LINE
  5
14C1
330
220
100
AcDbEntity
  8
0
  6
Continuous
 62
     7
100
AcDbLine
 10
68.1154891889
 20
26.6390511565
 30
0.0
 11
36.1154891888
 21
26.6390511565
 31
0.0
  0
LINE
  5
14C2
330
220
100
AcDbEntity
  8
0
  6
Continuous
 62
     7
100
AcDbLine
 10
68.1154891889
 20
26.7287906374
 30
0.0
 11
36.1154891888
 21
26.7287906374
 31
0.0
  0
LINE
  5
14C3
330
220
100
AcDbEntity
  8
0
  6
Continuous
 62
     7
100
AcDbLine
 10
68.1154891889
 20
26.7387656772
 30
0.0
 11
36.1154891888
 21
26.7387656772
 31
0.0
  0
LINE
  5
14C4
330
220
100
AcDbEntity
  8
0
  6
Continuous
 62
     7
100
AcDbLine
 10
68.1154891889
 20
26.93750570340001
 30
0.0
 11
36.1154891888
 21
26.93750570340001
 31
0.0
  0
LINE
  5
14C5
330
220
100
AcDbEntity
  8
0
  6
Continuous
 62
     7
100
AcDbLine
 10
36.1154891888
 20
27.0454404231
 30
0.0
 11
68.11548918879999
 21
27.0454404231
 31
0.0
  0
LINE
  5
14C6
330
220
100
AcDbEntity
  8
0
  6
Continuous
 62
     7
100
AcDbLine
 10
37.4664994436
 20
26.1422342099
 30
0.0
 11
37.5144929665
 21
26.142234015
 31
0.0
  0
LWPOLYLINE
  5
14C7
330
220
100
AcDbEntity
  8
0
  6
Continuous
 62
     7
100
AcDbPolyline
 90
        3
 70
     0
 43
0.0
 10
52.0914894572
 20
26.1422340712
 10
52.1394459817
 20
26.1422346668
 10
52.18694210199999
 20
26.1409231324
  0
LINE
  5
14C8
330
220
100
AcDbEntity
  8
0
  6
Continuous
 62
     7
100
AcDbLine
 10
66.71648541679999
 20
26.1422340151
 30
0.0
 11
66.76444452430001
 21
26.142234687
 31
0.0
  0
LWPOLYLINE
  5
14C9
330
220
100
AcDbEntity
  8
0
  6
Continuous
 62
     7
100
AcDbPolyline
 90
        3
 70
     0
 43
0.0
 10
68.1154891889
 20
26.5112933749
 10
68.0328194331
 20
26.5115924387
 10
67.94935577069999
 20
26.5116920086
  0
LINE
  5
14CA
330
220
100
AcDbEntity
  8
0
  6
Continuous
 62
     7
100
AcDbLine
 10
42.9145665042
 20
26.1072565355
 30
0.0
 11
42.78565709219999
 21
26.1091229723
 31
0.0
  0
LINE
  5
14CB
330
220
100
AcDbEntity
  8
0
  6
Continuous
 62
     7
100
AcDbLine
 10
42.98877245819999
 20
26.3841968965
 30
0.0
 11
42.85986929529999
 21
26.3860866246
 31
0.0
  0
LWPOLYLINE
  5
14CC
330
220
100
AcDbEntity
  8
0
  6
Continuous
 62
     7
100
AcDbPolyline
 90
        7
 70
     0
 43
0.0
 10
61.3826036339
 20
25.8602255246
 10
61.37056830159999
 20
25.86041177
 10
60.6593801447
 20
25.8756996087
 10
59.91896572859999
 20
25.8935221296
 10
59.1748092381
 20
25.9103052604
 10
58.45176960109999
 20
25.9223270796
 10
57.7766666227
 20
25.9266904231
  0
LINE
  5
14CD
330
220
100
AcDbEntity
  8
0
  6
Continuous
 62
     7
100
AcDbLine
 10
38.9275765368
 20
26.1753472803
 30
0.0
 11
38.7974803913
 21
26.1779097919
 31
0.0
  0
LINE
  5
14CE
330
220
100
AcDbEntity
  8
0
  6
Continuous
 62
     7
100
AcDbLine
 10
38.8523139799
 20
26.4562307784
 30
0.0
 11
38.722201075
 21
26.4588558718
 31
0.0
  0
LINE
  5
14CF
330
220
100
AcDbEntity
  8
0
  6
Continuous
 62
     7
100
AcDbLine
 10
52.1392354383
 20
26.1422375706
 30
0.0
 11
52.1867345758
 21
26.1409316971
 31
0.0
  0
LINE
  5
14D0
330
220
100
AcDbEntity
  8
0
  6
Continuous
 62
     7
100
AcDbLine
 10
37.5142453407
 20
26.1422374344
 30
0.0
 11
37.561984966
 21
26.1409213595
 31
0.0
  0
LWPOLYLINE
  5
14D1
330
220
100
AcDbEntity
  8
0
  6
Continuous
 62
     7
100
AcDbPolyline
 90
        4
 70
     0
 43
0.0
 10
66.76423204009999
 20
26.1422376173
 10
66.8119926073
 20
26.1409210432
 10
66.8587380238
 20
26.1383529844
 10
66.9042444864
 20
26.134635545
  0
LINE
  5
14D2
330
220
100
AcDbEntity
  8
0
  6
Continuous
 62
     7
100
AcDbLine
 10
36.0430060037
 20
27.0481672152
 30
0.0
 11
36.1154891888
 21
27.0454404231
 31
0.0
  0
LINE
  5
14D3
330
220
100
AcDbEntity
  8
0
  6
Continuous
 62
     7
100
AcDbLine
 10
36.0313476826
 20
27.0491143807
 30
0.0
 11
36.1151517578
 21
27.0454404823
 31
0.0
  0
LINE
  5
14D4
330
220
100
AcDbEntity
  8
0
  6
Continuous
 62
     7
100
AcDbLine
 10
37.5617443074
 20
26.1409312957
 30
0.0
 11
37.6087313495
 21
26.1383534415
 31
0.0
  0
LINE
  5
14D5
330
220
100
AcDbEntity
  8
0
  6
Continuous
 62
     7
100
AcDbLine
 10
52.1867345758
 20
26.1409316971
 30
0.0
 11
52.2336931301
 21
26.1383560578
 31
0.0
  0
LWPOLYLINE
  5
14D6
330
220
100
AcDbEntity
  8
0
  6
Continuous
 62
     7
100
AcDbPolyline
 90
        3
 70
     0
 43
0.0
 10
66.81173183760001
 20
26.14093181
 10
66.8586903002
 20
26.1383562516
 10
66.9042020614
 20
26.1346395705
  0
LWPOLYLINE
  5
14D7
330
220
100
AcDbEntity
  8
0
  6
Continuous
 62
     7
100
AcDbPolyline
 90
        8
 70
     0
 43
0.0
 10
52.1154891888
 20
25.2355966107
 10
51.9998380428
 20
25.2442108548
 10
51.88347659579999
 20
25.2707545047
 10
51.7717482021
 20
25.3146341014
 10
51.6702845742
 20
25.3726239624
 10
51.5785672806
 20
25.4435667362
 10
51.494587795
 20
25.5294422488
 10
51.4206825577
 20
25.6301598676
  0
LINE
  5
14D8
330
220
100
AcDbEntity
  8
0
  6
Continuous
 62
     7
100
AcDbLine
 10
37.6085022655
 20
26.1383691042
 30
0.0
 11
37.654238795
 21
26.1346360851
 31
0.0
  0
LINE
  5
14D9
330
220
100
AcDbEntity
  8
0
  6
Continuous
 62
     7
100
AcDbLine
 10
37.608672194
 20
26.13835749090001
 30
0.0
 11
37.6541846853
 21
26.1346412189
 31
0.0
  0
LINE
  5
14DA
330
220
100
AcDbEntity
  8
0
  6
Continuous
 62
     7
100
AcDbLine
 10
37.6085414987
 20
26.1383664228
 30
0.0
 11
37.6540633564
 21
26.1346527161
 31
0.0
  0
LWPOLYLINE
  5
14DB
330
220
100
AcDbEntity
  8
0
  6
Continuous
 62
     7
100
AcDbPolyline
 90
        3
 70
     0
 43
0.0
 10
52.23349280749999
 20
26.1383697506
 10
52.2792054438
 20
26.1346392496
 10
52.3229820764
 20
26.12992858550001
  0
LINE
  5
14DC
330
220
100
AcDbEntity
  8
0
  6
Continuous
 62
     7
100
AcDbLine
 10
66.85849072399999
 20
26.138369893
 30
0.0
 11
66.90405965890001
 21
26.1346530666
 31
0.0
  0
LWPOLYLINE
  5
14DD
330
220
100
AcDbEntity
  8
0
  6
Continuous
 62
     7
100
AcDbPolyline
 90
        3
 70
     0
 43
0.0
 10
34.5608092212
 20
28.822890613
 10
34.60146889
 20
28.8191302712
 10
34.6413935818
 20
28.8105766856
  0
LINE
  5
14DE
330
220
100
AcDbEntity
  8
0
  6
Continuous
 62
     7
100
AcDbLine
 10
52.2790139563
 20
26.1346573975
 30
0.0
 11
52.3227987165
 21
26.1299506355
 31
0.0
  0
LINE
  5
14DF
330
220
100
AcDbEntity
  8
0
  6
Continuous
 62
     7
100
AcDbLine
 10
34.6590736015
 20
28.80302772
 30
0.0
 11
34.6510504526
 21
28.8039058355
 31
0.0
  0
LINE
  5
14E0
330
220
100
AcDbEntity
  8
0
  6
Continuous
 62
     7
100
AcDbLine
 10
35.970614426
 20
27.0563552539
 30
0.0
 11
36.0430060037
 21
27.0481672152
 31
0.0
  0
LINE
  5
14E1
330
220
100
AcDbEntity
  8
0
  6
Continuous
 62
     7
100
AcDbLine
 10
35.9476871087
 20
27.0601032895
 30
0.0
 11
36.0313476826
 21
27.0491143807
 31
0.0
  0
LINE
  5
14E2
330
220
100
AcDbEntity
  8
0
  6
Continuous
 62
     7
100
AcDbLine
 10
52.3227987165
 20
26.1299506355
 30
0.0
 11
52.3645457709
 21
26.1244233164
 31
0.0
  0
LWPOLYLINE
  5
14E3
330
220
100
AcDbEntity
  8
0
  6
Continuous
 62
     7
100
AcDbPolyline
 90
        5
 70
     0
 43
0.0
 10
34.6510504526
 20
28.8039058355
 10
34.613017199
 20
28.80898607280001
 10
34.5851493116
 20
28.8138684526
 10
34.5676942529
 20
28.8185169399
 10
34.5608092211
 20
28.8228906082
  0
LWPOLYLINE
  5
14E4
330
220
100
AcDbEntity
  8
2_PLANES_JETS
  6
Continuous
 62
     7
100
AcDbPolyline
 90
        3
 70
     0
 43
0.0
 10
33.4486006328
 20
28.9365517061
 10
33.5847033316
 20
28.9173706279
 10
33.7093324573
 20
28.9086290958
  0
LWPOLYLINE
  5
14E5
330
220
100
AcDbEntity
  8
0
  6
Continuous
 62
     7
100
AcDbPolyline
 90
        7
 70
     0
 43
0.0
 10
52.36436936729999
 20
26.1244488093
 10
52.403425917
 20
26.1183607446
 10
52.43914139520001
 20
26.1120122998
 10
52.47113868899999
 20
26.1056895447
 10
52.4987744289
 20
26.0997444802
 10
52.5215464192
 20
26.094507869
 10
52.53914604600001
 20
26.0902512687
  0
LWPOLYLINE
  5
14E6
330
220
100
AcDbEntity
  8
0
  6
Continuous
 62
     7
100
AcDbPolyline
 90
        6
 70
     0
 43
0.0
 10
52.40325684670001
 20
26.11838902380001
 10
52.4389816237
 20
26.1120423687
 10
52.4709953452
 20
26.105719212
 10
52.4986551437
 20
26.0997710946
 10
52.5214568958
 20
26.0945290303
 10
52.53908724449999
 20
26.09026575050001
  0
LINE
  5
14E7
330
220
100
AcDbEntity
  8
0
  6
Continuous
 62
     7
100
AcDbLine
 10
34.6453740286
 20
28.8066990629
 30
0.0
 11
34.6443291732
 21
28.8068900935
 31
0.0
  0
LWPOLYLINE
  5
14E8
330
220
100
AcDbEntity
  8
0
  6
Continuous
 62
     7
100
AcDbPolyline
 90
        3
 70
     0
 43
0.0
 10
34.6065334852
 20
28.8655037513
 10
34.60090998510001
 20
28.8665348627
 10
34.5623660177
 20
28.8697149504
  0
LWPOLYLINE
  5
14E9
330
220
100
AcDbEntity
  8
0
  6
Continuous
 62
     7
100
AcDbPolyline
 90
       17
 70
     0
 43
0.0
 10
34.6443291732
 20
28.8068900935
 10
34.6468083137
 20
28.8063371664
 10
34.6514514336
 20
28.8051823062
 10
34.65864642760001
 20
28.8031641806
 10
34.66856011239999
 20
28.7999972545
 10
34.6811330293
 20
28.7953855156
 10
34.6960393147
 20
28.7890732486
 10
34.7128064013
 20
28.7808531938
 10
34.7311171974
 20
28.7704404907
 10
34.7506532661
 20
28.7575175299
 10
34.7709995997
 20
28.7417935298
 10
34.7915573839
 20
28.7231211699
 10
34.811688768
 20
28.701454944
 10
34.8307441633
 20
28.67686942320001
 10
34.8481578056
 20
28.649458731
 10
34.8634014648
 20
28.6193654853
 10
34.8724116717
 20
28.5970824059
  0
LINE
  5
14EA
330
220
100
AcDbEntity
  8
0
  6
Continuous
 62
     7
100
AcDbLine
 10
52.53908724449999
 20
26.09026575050001
 30
0.0
 11
52.5514701157
 21
26.0871617062
 31
0.0
  0
LINE
  5
14EB
330
220
100
AcDbEntity
  8
0
  6
Continuous
 62
     7
100
AcDbLine
 10
52.5514361149
 20
26.087170321
 30
0.0
 11
52.5603101667
 21
26.0848912387
 31
0.0
  0
LINE
  5
14EC
330
220
100
AcDbEntity
  8
0
  6
Continuous
 62
     7
100
AcDbLine
 10
52.56031014689999
 20
26.0848912439
 30
0.0
 11
52.5602883981
 21
26.0848969572
 31
0.0
  0
LWPOLYLINE
  5
14ED
330
220
100
AcDbEntity
  8
0
  6
Continuous
 62
     7
100
AcDbPolyline
 90
        4
 70
     0
 43
0.0
 10
52.5521719678
 20
26.0965385229
 10
52.5772757984
 20
26.0899322972
 10
52.5972044987
 20
26.0844205693
 10
52.6118145078
 20
26.0802292691
  0
LINE
  5
14EE
330
220
100
AcDbEntity
  8
0
  6
Continuous
 62
     7
100
AcDbLine
 10
52.6118145078
 20
26.0802292691
 30
0.0
 11
52.62381728760001
 21
26.0766904231
 31
0.0
  0
LWPOLYLINE
  5
14EF
330
220
100
AcDbEntity
  8
0
  6
Continuous
 62
     7
100
AcDbPolyline
 90
        3
 70
     0
 43
0.0
 10
57.7216395869
 20
24.0581725026
 10
57.69000041259999
 20
24.06785327050001
 10
57.6587653161
 20
24.0818297375
  0
LWPOLYLINE
  5
14F0
330
220
100
AcDbEntity
  8
0
  6
Continuous
 62
     7
100
AcDbPolyline
 90
        5
 70
     0
 43
0.0
 10
31.3749234115
 20
30.9708788717
 10
31.40796743780001
 20
30.960708739
 10
31.4518512258
 20
30.9516045847
 10
31.5027679905
 20
30.943439348
 10
31.5259279665
 20
30.940358153
  0
LINE
  5
14F1
330
220
100
AcDbEntity
  8
0
  6
Continuous
 62
     7
100
AcDbLine
 10
41.76531934389999
 20
23.5625593975
 30
0.0
 11
41.73182569489999
 21
23.2500593975
 31
0.0
  0
LWPOLYLINE
  5
14F2
330
220
100
AcDbEntity
  8
0
  6
Continuous
 62
     7
100
AcDbPolyline
 90
        4
 70
     0
 43
0.0
 10
37.0456204095
 20
26.084878689
 10
37.0545417265
 20
26.0871701846
 10
37.0668902298
 20
26.0902655273
 10
37.0845203459
 20
26.0945287616
  0
LWPOLYLINE
  5
14F3
330
220
100
AcDbEntity
  8
0
  6
Continuous
 62
     7
100
AcDbPolyline
 90
        4
 70
     0
 43
0.0
 10
37.047311007
 20
26.0853159317
 10
37.0545252456
 20
26.08716599840001
 10
37.0668614915
 20
26.0902584335
 10
37.084478902
 20
26.0945189573
  0
LWPOLYLINE
  5
14F4
330
220
100
AcDbEntity
  8
0
  6
Continuous
 62
     7
100
AcDbPolyline
 90
        4
 70
     0
 43
0.0
 10
37.0473041271
 20
26.08531417
 10
37.0545123694
 20
26.087162746
 10
37.0668381581
 20
26.0902527028
 10
37.0844384083
 20
26.0945093954
  0
LWPOLYLINE
  5
14F5
330
220
100
AcDbEntity
  8
0
  6
Continuous
 62
     7
100
AcDbPolyline
 90
       21
 70
     0
 43
0.0
 10
37.052583991
 20
26.0962255212
 10
37.0822844966
 20
26.1035791604
 10
37.1164364884
 20
26.1113884489
 10
37.15456918
 20
26.1192931872
 10
37.1961314783
 20
26.1269328106
 10
37.2405746897
 20
26.1339791964
 10
37.2874176774
 20
26.1401538684
 10
37.3361712318
 20
26.145219457
 10
37.3862609169
 20
26.1489816792
 10
37.4372063434
 20
26.1513116291
 10
37.4886336347
 20
26.1521347407
 10
37.5401423656
 20
26.1514200898
 10
37.5913452998
 20
26.1491825196
 10
37.6417420533
 20
26.1454916284
 10
37.6907583927
 20
26.1404825997
 10
37.737903535
 20
26.1343411886
 10
37.7826849495
 20
26.1273024054
 10
37.8245347533
 20
26.1196596299
 10
37.8628885528
 20
26.1117489884
 10
37.897251028
 20
26.1039230663
 10
37.9271719678
 20
26.0965385229
  0
LINE
  5
14F6
330
220
100
AcDbEntity
  8
0
  6
Continuous
 62
     7
100
AcDbLine
 10
37.0844384083
 20
26.0945093954
 30
0.0
 11
37.107322081
 21
26.0997708373
 31
0.0
  0
LINE
  5
14F7
330
220
100
AcDbEntity
  8
0
  6
Continuous
 62
     7
100
AcDbLine
 10
37.1072091849
 20
26.0997456491
 30
0.0
 11
37.1349820884
 21
26.1057190166
 31
0.0
  0
LINE
  5
14F8
330
220
100
AcDbEntity
  8
0
  6
Continuous
 62
     7
100
AcDbLine
 10
37.1348450945
 20
26.1056906637
 30
0.0
 11
37.1669961952
 21
26.1120422636
 31
0.0
  0
LWPOLYLINE
  5
14F9
330
220
100
AcDbEntity
  8
0
  6
Continuous
 62
     7
100
AcDbPolyline
 90
        3
 70
     0
 43
0.0
 10
37.13492291860001
 20
26.1057067718
 10
37.1669322285
 20
26.1120302281
 10
37.2026543134
 20
26.1183777833
  0
LINE
  5
14FA
330
220
100
AcDbEntity
  8
0
  6
Continuous
 62
     7
100
AcDbLine
 10
37.1668362945
 20
26.1120121703
 30
0.0
 11
37.2027214396
 21
26.1183890085
 31
0.0
  0
LWPOLYLINE
  5
14FB
330
220
100
AcDbEntity
  8
0
  6
Continuous
 62
     7
100
AcDbPolyline
 90
        9
 70
     0
 43
0.0
 10
72.8337946173
 20
31.116871013
 10
72.8516990582
 20
31.1197267916
 10
72.8691529794
 20
31.1247185256
 10
72.88591226130001
 20
31.1317763817
 10
72.90174241889999
 20
31.1408016105
 10
72.9164219668
 20
31.1516679365
 10
72.9297455123
 20
31.1642233185
 10
72.9415266723
 20
31.1782921262
 10
72.95160055709999
 20
31.1936774004
  0
LWPOLYLINE
  5
14FC
330
220
100
AcDbEntity
  8
0
  6
Continuous
 62
     7
100
AcDbPolyline
 90
        7
 70
     0
 43
0.0
 10
73.51478837710001
 20
31.0610942994
 10
73.5336842494
 20
31.0640837244
 10
73.5577395984
 20
31.0675566571
 10
73.5867589538
 20
31.0714780189
 10
73.6204190774
 20
31.0758003829
 10
73.6582884858
 20
31.0804669352
 10
73.69990683800001
 20
31.0854209649
  0
LWPOLYLINE
  5
14FD
330
220
100
AcDbEntity
  8
0
  6
Continuous
 62
     7
100
AcDbPolyline
 90
        3
 70
     0
 43
0.0
 10
37.2025475571
 20
26.1183599241
 10
37.24160942320001
 20
26.1244488689
 10
37.2831806103
 20
26.1299507496
  0
LWPOLYLINE
  5
14FE
330
220
100
AcDbEntity
  8
0
  6
Continuous
 62
     7
100
AcDbPolyline
 90
        5
 70
     0
 43
0.0
 10
72.70505041310001
 20
30.9403581562
 10
72.72821207239999
 20
30.9434395919
 10
72.7791284268
 20
30.9516048138
 10
72.8230117345
 20
30.9607089339
 10
72.8560536134
 20
30.970878488
  0
LINE
  5
14FF
330
220
100
AcDbEntity
  8
0
  6
Continuous
 62
     7
100
AcDbLine
 10
37.2415399537
 20
26.1244388313
 30
0.0
 11
37.28310947030001
 21
26.1299421954
 31
0.0
  0
LINE
  5
1500
330
220
100
AcDbEntity
  8
0
  6
Continuous
 62
     7
100
AcDbLine
 10
37.24143670210001
 20
26.1244239084
 30
0.0
 11
37.2829997641
 21
26.1299290022
 31
0.0
  0
LINE
  5
1501
330
220
100
AcDbEntity
  8
0
  6
Continuous
 62
     7
100
AcDbLine
 10
37.2414234026
 20
26.1244219858
 30
0.0
 11
37.2829826895
 21
26.1299269475
 31
0.0
  0
LWPOLYLINE
  5
1502
330
220
100
AcDbEntity
  8
0
  6
Continuous
 62
     7
100
AcDbPolyline
 90
       12
 70
     0
 43
0.0
 10
72.685492375
 20
30.9061998623
 10
72.7183242413
 20
30.9105076461
 10
72.75214930389999
 20
30.9154821792
 10
72.78115393680001
 20
30.9203236984
 10
72.80498438010001
 20
30.9248892314
 10
72.82388543439999
 20
30.9290863276
 10
72.83889752819999
 20
30.9329906444
 10
72.85089122310001
 20
30.9367114915
 10
72.8604546521
 20
30.9403561755
 10
72.8678367809
 20
30.9439797074
 10
72.87309744719999
 20
30.9476010215
 10
72.8762483039
 20
30.9512387589
  0
LWPOLYLINE
  5
1503
330
220
100
AcDbEntity
  8
0
  6
Continuous
 62
     7
100
AcDbPolyline
 90
       33
 70
     0
 43
0.0
 10
73.3613644935
 20
30.9710836456
 10
73.36977484249999
 20
30.9720780868
 10
73.3780978284
 20
30.9730816568
 10
73.38632985770001
 20
30.9740943886
 10
73.39446930380001
 20
30.9751165648
 10
73.4025146988
 20
30.9761485099
 10
73.41046465810001
 20
30.9771905838
 10
73.41831790100001
 20
30.9782431881
 10
73.4260732652
 20
30.9793067725
 10
73.43372972479999
 20
30.9803818422
 10
73.441286412
 20
30.9814689668
 10
73.4487426419
 20
30.9825687907
 10
73.4560979455
 20
30.9836820468
 10
73.4633521129
 20
30.9848095735
 10
73.47050520589999
 20
30.9859523292
 10
73.4775576169
 20
30.9871114158
 10
73.4845101259
 20
30.9882881066
 10
73.49136396600001
 20
30.9894838799
 10
73.4981209005
 20
30.99070046
 10
73.5047833167
 20
30.9919398693
 10
73.5113543411
 20
30.9932044933
 10
73.5178379658
 20
30.9944971607
 10
73.52423921279999
 20
30.9958212458
 10
73.5305643338
 20
30.9971808011
 10
73.53682105299999
 20
30.998580726
 10
73.5430188651
 20
31.0000269876
 10
73.5491694038
 20
31.0015269097
 10
73.5552869001
 20
31.0030895556
 10
73.56138875560001
 20
31.0047262418
 10
73.5674981324
 20
31.006451775
 10
73.5736501101
 20
31.0082871739
 10
73.5798875852
 20
31.0102600002
 10
73.58626187989999
 20
31.0124063808
  0
LINE
  5
1504
330
220
100
AcDbEntity
  8
0
  6
Continuous
 62
     7
100
AcDbLine
 10
73.7175212931
 20
31.0874067393
 30
0.0
 11
73.7477387216
 21
31.0908808758
 31
0.0
  0
LINE
  5
1505
330
220
100
AcDbEntity
  8
0
  6
Continuous
 62
     7
100
AcDbLine
 10
73.69990683800001
 20
31.0854209649
 30
0.0
 11
73.7477318143
 21
31.0909413773
 31
0.0
  0
LWPOLYLINE
  5
1506
330
220
100
AcDbEntity
  8
0
  6
Continuous
 62
     7
100
AcDbPolyline
 90
        3
 70
     0
 43
0.0
 10
73.7477318143
 20
31.0909413773
 10
74.142000747
 20
31.1359536521
 10
74.2440121571
 20
31.1476465026
  0
LWPOLYLINE
  5
1507
330
220
100
AcDbEntity
  8
0
  6
Continuous
 62
     7
100
AcDbPolyline
 90
        3
 70
     0
 43
0.0
 10
73.7477384612
 20
31.0908809692
 10
74.1397547052
 20
31.1356322047
 10
74.24397999149999
 20
31.1475777783
  0
LINE
  5
1508
330
220
100
AcDbEntity
  8
0
  6
Continuous
 62
     7
100
AcDbLine
 10
73.34430473399999
 20
30.9691229974
 30
0.0
 11
73.3613644935
 21
30.9710836456
 31
0.0
  0
LINE
  5
1509
330
220
100
AcDbEntity
  8
0
  6
Continuous
 62
     7
100
AcDbLine
 10
73.3269679988
 20
30.9672016193
 30
0.0
 11
73.34430473399999
 21
30.9691229974
 31
0.0
  0
LWPOLYLINE
  5
150A
330
220
100
AcDbEntity
  8
0
  6
Continuous
 62
     7
100
AcDbPolyline
 90
        6
 70
     0
 43
0.0
 10
73.28580410239999
 20
30.9628900335
 10
73.3597518582
 20
30.9709263015
 10
73.4313648905
 20
30.9802080101
 10
73.4962812896
 20
30.9910009679
 10
73.547483967
 20
31.003621461
 10
73.5741042487
 20
31.0185159839
  0
LINE
  5
150B
330
220
100
AcDbEntity
  8
0
  6
Continuous
 62
     7
100
AcDbLine
 10
37.2829826895
 20
26.1299269475
 30
0.0
 11
37.3269659454
 21
26.134657542
 31
0.0
  0
LINE
  5
150C
330
220
100
AcDbEntity
  8
0
  6
Continuous
 62
     7
100
AcDbLine
 10
73.30940838720001
 20
30.9653216471
 30
0.0
 11
73.3269679988
 21
30.9672016193
 31
0.0
  0
LINE
  5
150D
330
220
100
AcDbEntity
  8
0
  6
Continuous
 62
     7
100
AcDbLine
 10
73.2916842731
 20
30.9634853936
 30
0.0
 11
73.30940838720001
 21
30.9653216471
 31
0.0
  0
LINE
  5
150E
330
220
100
AcDbEntity
  8
0
  6
Continuous
 62
     7
100
AcDbLine
 10
73.2738580524
 20
30.9616953188
 30
0.0
 11
73.2916842731
 21
30.9634853936
 31
0.0
  0
LINE
  5
150F
330
220
100
AcDbEntity
  8
0
  6
Continuous
 62
     7
100
AcDbLine
 10
72.68448785850001
 20
30.904445465
 30
0.0
 11
73.26255386469999
 21
30.9605874794
 31
0.0
  0
LINE
  5
1510
330
220
100
AcDbEntity
  8
0
  6
Continuous
 62
     7
100
AcDbLine
 10
73.2625532385
 20
30.9605874186
 30
0.0
 11
73.2738580524
 21
30.9616953188
 31
0.0
  0
LINE
  5
1511
330
220
100
AcDbEntity
  8
0
  6
Continuous
 62
     7
100
AcDbLine
 10
73.74481318349999
 20
31.090608036
 30
0.0
 11
73.7477384637
 21
31.0908808464
 31
0.0
  0
LINE
  5
1512
330
220
100
AcDbEntity
  8
2_PLANES_JETS
  6
Continuous
 62
     7
100
AcDbLine
 10
70.5216459204
 20
28.9086290958
 30
0.0
 11
70.645153096
 21
28.9172546084
 31
0.0
  0
LWPOLYLINE
  5
1513
330
220
100
AcDbEntity
  8
0
  6
Continuous
 62
     7
100
AcDbPolyline
 90
        6
 70
     0
 43
0.0
 10
74.26170701
 20
31.185452961
 10
74.0930192671
 20
31.1749660862
 10
73.9432257391
 20
31.1657589593
 10
73.77533186249999
 20
31.15555968300001
 10
73.5873678935
 20
31.1442998371
 10
73.37673991539999
 20
31.131889631
  0
LWPOLYLINE
  5
1514
330
220
100
AcDbEntity
  8
0
  6
Continuous
 62
     7
100
AcDbPolyline
 90
        3
 70
     0
 43
0.0
 10
72.7478904654
 20
30.9541643338
 10
72.7774529486
 20
30.9559160904
 10
72.8091488998
 20
30.9578329221
  0
LINE
  5
1515
330
220
100
AcDbEntity
  8
0
  6
Continuous
 62
     7
100
AcDbLine
 10
72.7117563236
 20
30.9520700908
 30
0.0
 11
72.7478904654
 21
30.9541643338
 31
0.0
  0
LINE
  5
1516
330
220
100
AcDbEntity
  8
2_PLANES_JETS
  6
Continuous
 62
     7
100
AcDbLine
 10
70.52164592939999
 20
28.9086291008
 30
0.0
 11
69.5257948329
 21
28.8720615181
 31
0.0
  0
LWPOLYLINE
  5
1517
330
220
100
AcDbEntity
  8
0
  6
Continuous
 62
     7
100
AcDbPolyline
 90
       16
 70
     0
 43
0.0
 10
68.11548802869999
 20
28.6027989837
 10
66.66581519430001
 20
28.5572225109
 10
65.3193848137
 20
28.5156715616
 10
64.05011893609999
 20
28.4773183321
 10
62.8464339052
 20
28.4418189258
 10
61.69752011859999
 20
28.4088829205
 10
60.59204462229999
 20
28.3782451661
 10
59.52126128739999
 20
28.349764013
 10
58.47839236439999
 20
28.3234105131
 10
57.45872529199999
 20
28.2992796732
 10
56.4617235582
 20
28.2776445613
 10
55.4912708905
 20
28.2589427644
 10
54.5561381733
 20
28.2437343634
 10
53.6721508224
 20
28.2326235487
 10
52.8556985689
 20
28.2259907331
 10
52.1154891888
 20
28.2238351046
  0
LWPOLYLINE
  5
1518
330
220
100
AcDbEntity
  8
0
  6
Continuous
 62
     7
100
AcDbPolyline
 90
       25
 70
     0
 43
0.0
 10
68.103782323
 20
28.8597621984
 10
68.1820963706
 20
28.8621717585
 10
68.25948367009999
 20
28.8644064179
 10
68.33641608169999
 20
28.8664832595
 10
68.4133535083
 20
28.8684143519
 10
68.4907172849
 20
28.8702060691
 10
68.5688980109
 20
28.8718590116
 10
68.6482121991
 20
28.87336813260001
 10
68.72907618380001
 20
28.874720257
 10
68.8120445957
 20
28.8759055106
 10
68.8976460665
 20
28.876892439
 10
68.98610517729999
 20
28.8776405943
 10
69.07576999879999
 20
28.8780839469
 10
69.1638395959
 20
28.8781568902
 10
69.2478920789
 20
28.877827996
 10
69.3258599376
 20
28.8770924673
 10
69.3966013918
 20
28.8759578793
 10
69.4598987303
 20
28.8744436414
 10
69.5154507786
 20
28.8725526608
 10
69.56276394699999
 20
28.8703061993
 10
69.60164351899999
 20
28.8677111973
 10
69.63194823939999
 20
28.8647772509
 10
69.6534496809
 20
28.8615222855
 10
69.66592112100001
 20
28.8579606695
 10
69.6692490614
 20
28.8547903392
  0
LWPOLYLINE
  5
1519
330
220
100
AcDbEntity
  8
0
  6
Continuous
 62
     7
100
AcDbPolyline
 90
       21
 70
     0
 43
0.0
 10
68.1047578951
 20
28.8285511483
 10
68.229663633
 20
28.8323234373
 10
68.3539371897
 20
28.835699563
 10
68.4762017634
 20
28.8386480015
 10
68.5953848619
 20
28.8411515596
 10
68.7109705405
 20
28.8432060791
 10
68.82269012640001
 20
28.8448168994
 10
68.93009569659999
 20
28.845979483
 10
69.03224284229999
 20
28.8466933659
 10
69.1284517757
 20
28.84696125300001
 10
69.2181534164
 20
28.8467867993
 10
69.30111453569999
 20
28.8461742533
 10
69.37683102040001
 20
28.8451310746
 10
69.44498020569999
 20
28.8436646442
 10
69.5048015326
 20
28.8417911317
 10
69.5558705802
 20
28.8395231887
 10
69.59780335499999
 20
28.8368746719
 10
69.63042946279999
 20
28.83385967
 10
69.65346446489999
 20
28.8305065366
 10
69.6667492839
 20
28.8268402573
 10
69.6702862754
 20
28.8235726254
  0
LWPOLYLINE
  5
151A
330
220
100
AcDbEntity
  8
2_PLANES_JETS
  6
Continuous
 62
     7
100
AcDbPolyline
 90
       20
 70
     0
 43
0.0
 10
69.6231842511
 20
29.0773032071
 10
68.3237380028
 20
29.0437655684
 10
67.09793870600001
 20
29.0126367252
 10
65.93365133749999
 20
28.9835887956
 10
64.82362069859999
 20
28.9564342878
 10
63.76254467869999
 20
28.9310454786
 10
62.7453124918
 20
28.907309475
 10
61.7678397931
 20
28.8851481502
 10
60.8264548724
 20
28.8645032801
 10
59.9179203445
 20
28.8453374938
 10
59.0393230618
 20
28.8276325778
 10
58.1880214236
 20
28.8113895222
 10
57.3615718505
 20
28.7966293027
 10
56.5577070566
 20
28.7833951782
 10
55.7744125993
 20
28.7717571645
 10
55.00975885949999
 20
28.7618138556
 10
54.26245028109999
 20
28.7537039948
 10
53.53101138119999
 20
28.7476023077
 10
52.8149798962
 20
28.7437363512
 10
52.1154891888
 20
28.7423819257
  0
LWPOLYLINE
  5
151B
330
220
100
AcDbEntity
  8
0
  6
Continuous
 62
     7
100
AcDbPolyline
 90
       24
 70
     0
 43
0.0
 10
52.1154891888
 20
28.4805818206
 10
52.5884778562
 20
28.4814924857
 10
53.09320354729999
 20
28.4842734221
 10
53.631301191
 20
28.4889917705
 10
54.19850199229999
 20
28.4956289694
 10
54.7901862093
 20
28.5040939529
 10
55.4018477259
 20
28.5142451597
 10
56.02906638050001
 20
28.525907604
 10
56.6686595078
 20
28.5389106582
 10
57.3190789605
 20
28.5531148293
 10
57.9792696292
 20
28.5683991772
 10
58.64889419989999
 20
28.5846701027
 10
59.3286299963
 20
28.6018715767
 10
60.01974090930001
 20
28.6199762635
 10
60.7240119395
 20
28.6389834888
 10
61.4435617498
 20
28.6589134027
 10
62.1806085928
 20
28.6797991401
 10
62.9379302167
 20
28.7016985883
 10
63.7191664389
 20
28.7247032343
 10
64.52744768089999
 20
28.7488973567
 10
65.36485453649999
 20
28.7743389664
 10
66.23498602739999
 20
28.8011363659
 10
67.1453686776
 20
28.8295260406
 10
68.1037823229
 20
28.8597621987
  0
LWPOLYLINE
  5
151C
330
220
100
AcDbEntity
  8
0
  6
Continuous
 62
     7
100
AcDbPolyline
 90
       31
 70
     0
 43
0.0
 10
52.1154891888
 20
28.4493888089
 10
52.5157073943
 20
28.4500455293
 10
52.9187449076
 20
28.451924233
 10
53.3210982362
 20
28.4548716406
 10
53.7193050421
 20
28.4587195958
 10
54.11798382479999
 20
28.463394162
 10
54.53243002479999
 20
28.4690284541
 10
54.968359155
 20
28.4757116544
 10
55.41423587029999
 20
28.4832590981
 10
55.8705120539
 20
28.4916436413
 10
56.3562732309
 20
28.5012215201
 10
56.8922598275
 20
28.5124782444
 10
57.4985956094
 20
28.5259756796
 10
58.1852287231
 20
28.5421094192
 10
58.9561295935
 20
28.5611453012
 10
59.8075860126
 20
28.5831344683
 10
60.6998195629
 20
28.607096106
 10
61.5843688461
 20
28.6316399044
 10
62.4265849551
 20
28.6556350252
 10
63.2007033725
 20
28.6781591963
 10
63.88870923069999
 20
28.69851226550001
 10
64.49555153999999
 20
28.716700048
 10
65.0303408321
 20
28.7328961754
 10
65.50232032310001
 20
28.7473114584
 10
65.92218924109999
 20
28.7602249293
 10
66.3054115985
 20
28.7720811318
 10
66.6684377717
 20
28.7833709983
 10
67.02686805409999
 20
28.7945713454
 10
67.3863322503
 20
28.805854974
 10
67.745948939
 20
28.8171923695
 10
68.1047578951
 20
28.8285511483
  0
LWPOLYLINE
  5
151D
330
220
100
AcDbEntity
  8
0
  6
Continuous
 62
     7
100
AcDbPolyline
 90
       16
 70
     0
 43
0.0
 10
52.1154891888
 20
28.2238351046
 10
51.3753064307
 20
28.2259905835
 10
50.5588589515
 20
28.232623222
 10
49.6748749085
 20
28.2437338584
 10
48.73974645149999
 20
28.2589420696
 10
47.76929046479999
 20
28.2776438273
 10
46.77228595139999
 20
28.2992789263
 10
45.75262045659999
 20
28.3234096681
 10
44.7097534966
 20
28.3497630678
 10
43.6389719761
 20
28.3782441268
 10
42.5334996234
 20
28.4088817536
 10
41.38459100449999
 20
28.4418175718
 10
40.1808988555
 20
28.4773171549
 10
38.9116566235
 20
28.5156696352
 10
37.5652456073
 20
28.55721994300001
 10
36.1154903453
 20
28.6027989838
  0
LWPOLYLINE
  5
151E
330
220
100
AcDbEntity
  8
2_PLANES_JETS
  6
Continuous
 62
     7
100
AcDbPolyline
 90
       20
 70
     0
 43
0.0
 10
34.6077941266
 20
29.0773032071
 10
35.907239962
 20
29.043765579
 10
37.1330393192
 20
29.0126367341
 10
38.2973267244
 20
28.9835888034
 10
39.4073573965
 20
28.9564342946
 10
40.4684334465
 20
28.9310454845
 10
41.4856656609
 20
28.9073094802
 10
42.46313838469999
 20
28.8851481547
 10
43.40452332859999
 20
28.8645032839
 10
44.3130578781
 20
28.845337497
 10
45.1916551808
 20
28.8276325804
 10
46.0429568376
 20
28.8113895243
 10
46.86940642819999
 20
28.7966293045
 10
47.6732712384
 20
28.7833951795
 10
48.4565657113
 20
28.7717571654
 10
49.22121946569999
 20
28.7618138562
 10
49.9685280581
 20
28.7537039951
 10
50.6999669713
 20
28.7476023079
 10
51.4159984692
 20
28.7437363512
 10
52.1154891888
 20
28.7423819257
  0
LWPOLYLINE
  5
151F
330
220
100
AcDbEntity
  8
0
  6
Continuous
 62
     7
100
AcDbPolyline
 90
       24
 70
     0
 43
0.0
 10
36.12719605480001
 20
28.8597621987
 10
37.0856776494
 20
28.8295239092
 10
37.99607733150001
 20
28.801133732
 10
38.8661890743
 20
28.7743369707
 10
39.7035729952
 20
28.7488960808
 10
40.51185295889999
 20
28.7247020161
 10
41.29309457019999
 20
28.7016972336
 10
42.0504140349
 20
28.6797978729
 10
42.78745664
 20
28.6589122812
 10
43.5070047884
 20
28.6389824396
 10
44.2112747943
 20
28.61997527030001
 10
44.90238443019999
 20
28.6018706477
 10
45.5821190317
 20
28.5846692375
 10
46.2517420133
 20
28.5683983872
 10
46.9119325022
 20
28.5531140844
 10
47.56235370079999
 20
28.5389099232
 10
48.2019496022
 20
28.5259068716
 10
48.8291691022
 20
28.5142444828
 10
49.44082684979999
 20
28.5040934172
 10
50.0325103699
 20
28.4956285277
 10
50.5997084509
 20
28.4889914511
 10
51.1378046902
 20
28.4842732093
 10
51.6425208607
 20
28.4814924102
 10
52.1154891888
 20
28.4805818203
  0
LWPOLYLINE
  5
1520
330
220
100
AcDbEntity
  8
0
  6
Continuous
 62
     7
100
AcDbPolyline
 90
       31
 70
     0
 43
0.0
 10
36.1262204826
 20
28.8285511483
 10
36.4846793823
 20
28.8172034288
 10
36.8439473724
 20
28.8058769562
 10
37.2030648203
 20
28.794604091
 10
37.5611467215
 20
28.7834144536
 10
37.92375905300001
 20
28.772137212
 10
38.3064406429
 20
28.7602973883
 10
38.725592978
 20
28.7474054277
 10
39.196656132
 20
28.7330173125
 10
39.730330679
 20
28.716853664
 10
40.33584262149999
 20
28.6987037568
 10
41.0222784934
 20
28.6783940184
 10
41.7947266492
 20
28.6559136502
 10
42.63543170000001
 20
28.63195457
 10
43.5186981568
 20
28.6074366983
 10
44.41023144229999
 20
28.583481456
 10
45.26188843079999
 20
28.56147283
 10
46.0335894246
 20
28.5424025069
 10
46.72099026189999
 20
28.5262363635
 10
47.32774573949999
 20
28.5127156222
 10
47.86360842069999
 20
28.5014475432
 10
48.3492570091
 20
28.4918573851
 10
48.80613237729999
 20
28.4834467912
 10
49.25407514919999
 20
28.475849787
 10
49.6935448727
 20
28.4691009292
 10
50.1115988263
 20
28.4634118649
 10
50.5127671035
 20
28.4587078579
 10
50.9116648617
 20
28.4548563939
 10
51.3132612289
 20
28.4519180181
 10
51.71529547479999
 20
28.4500454528
 10
52.1154891888
 20
28.4493888086
  0
LINE
  5
1521
330
220
100
AcDbEntity
  8
2_PLANES_JETS
  6
Continuous
 62
     7
100
AcDbLine
 10
33.709332444
 20
28.908629101
 30
0.0
 11
34.7051841734
 21
28.872061495
 31
0.0
  0
LWPOLYLINE
  5
1522
330
220
100
AcDbEntity
  8
0
  6
Continuous
 62
     7
100
AcDbPolyline
 90
       20
 70
     0
 43
0.0
 10
36.1154903726
 20
28.6027989719
 10
36.047344711
 20
28.6054149362
 10
35.9800179431
 20
28.6078202428
 10
35.9130470471
 20
28.6100387247
 10
35.8460067612
 20
28.6120854471
 10
35.7785070072
 20
28.6139670517
 10
35.7102201396
 20
28.6156809843
 10
35.6408267611
 20
28.6172145622
 10
35.5697077993
 20
28.6185498916
 10
35.49609718940001
 20
28.6196595473
 10
35.419772024
 20
28.6204972676
 10
35.3421619653
 20
28.6209838862
 10
35.2661332753
 20
28.6210408747
 10
35.1941760812
 20
28.6206189818
 10
35.12812021070001
 20
28.6197154485
 10
35.0688660989
 20
28.6183535066
 10
35.0167372108
 20
28.6165465303
 10
34.9722665021
 20
28.6143074781
 10
34.9357334774
 20
28.6116423672
 10
34.9072147755
 20
28.6085669202
  0
LWPOLYLINE
  5
1523
330
220
100
AcDbEntity
  8
0
  6
Continuous
 62
     7
100
AcDbPolyline
 90
        4
 70
     0
 43
0.0
 10
31.4218231024
 20
30.9578342354
 10
31.451428188
 20
30.9560416567
 10
31.4809001618
 20
30.9542928269
 10
31.5192218958
 20
30.9520703673
  0
LINE
  5
1524
330
220
100
AcDbEntity
  8
0
  6
Continuous
 62
     7
100
AcDbLine
 10
30.9684245101
 20
30.9605874797
 30
0.0
 11
31.5464897122
 21
30.9044468744
 31
0.0
  0
LINE
  5
1525
330
220
100
AcDbEntity
  8
0
  6
Continuous
 62
     7
100
AcDbLine
 10
30.9523536224
 20
30.9621686843
 30
0.0
 11
30.9605620364
 21
30.9613558575
 31
0.0
  0
LINE
  5
1526
330
220
100
AcDbEntity
  8
0
  6
Continuous
 62
     7
100
AcDbLine
 10
30.9523536224
 20
30.9621686843
 30
0.0
 11
30.9684251362
 21
30.9605874189
 31
0.0
  0
LINE
  5
1527
330
220
100
AcDbEntity
  8
0
  6
Continuous
 62
     7
100
AcDbLine
 10
30.9359842571
 20
30.9638238765
 30
0.0
 11
30.9523536224
 21
30.9621686843
 31
0.0
  0
LINE
  5
1528
330
220
100
AcDbEntity
  8
0
  6
Continuous
 62
     7
100
AcDbLine
 10
30.9197172658
 20
30.9655170515
 30
0.0
 11
30.9359842571
 21
30.9638238765
 31
0.0
  0
LWPOLYLINE
  5
1529
330
220
100
AcDbEntity
  8
0
  6
Continuous
 62
     7
100
AcDbPolyline
 90
        3
 70
     0
 43
0.0
 10
66.90401250149999
 20
26.1346575354
 10
66.94801529189999
 20
26.1299245881
 10
66.9895732263
 20
26.124419347
  0
LINE
  5
152A
330
220
100
AcDbEntity
  8
0
  6
Continuous
 62
     7
100
AcDbLine
 10
30.9035974383
 20
30.9672466051
 30
0.0
 11
30.9197172658
 21
30.9655170515
 31
0.0
  0
LINE
  5
152B
330
220
100
AcDbEntity
  8
0
  6
Continuous
 62
     7
100
AcDbLine
 10
30.887666972
 20
30.9690110434
 30
0.0
 11
30.9035974383
 21
30.9672466051
 31
0.0
  0
LINE
  5
152C
330
220
100
AcDbEntity
  8
0
  6
Continuous
 62
     7
100
AcDbLine
 10
30.8719653163
 20
30.9708090038
 30
0.0
 11
30.887666972
 21
30.9690110434
 31
0.0
  0
LINE
  5
152D
330
220
100
AcDbEntity
  8
0
  6
Continuous
 62
     7
100
AcDbLine
 10
30.8565289915
 20
30.9726392826
 30
0.0
 11
30.8719653163
 21
30.9708090038
 31
0.0
  0
LWPOLYLINE
  5
152E
330
220
100
AcDbEntity
  8
0
  6
Continuous
 62
     7
100
AcDbPolyline
 90
        3
 70
     0
 43
0.0
 10
66.94779784720001
 20
26.12995074
 10
66.9895416284
 20
26.12442391530001
 10
66.9959745405
 20
26.1234208489
  0
LINE
  5
152F
330
220
100
AcDbEntity
  8
0
  6
Continuous
 62
     7
100
AcDbLine
 10
66.9893690427
 20
26.1244488562
 30
0.0
 11
66.9959704715
 21
26.1234201644
 31
0.0
  0
LINE
  5
1530
330
220
100
AcDbEntity
  8
0
  6
Continuous
 62
     7
100
AcDbLine
 10
66.9894174911
 20
26.1244418562
 30
0.0
 11
66.9959715959
 21
26.1234203535
 31
0.0
  0
LWPOLYLINE
  5
1531
330
220
100
AcDbEntity
  8
0
  6
Continuous
 62
     7
100
AcDbPolyline
 90
        9
 70
     0
 43
0.0
 10
31.7511641304
 20
31.1367393142
 10
31.7334969168
 20
31.1395837622
 10
31.7162738198
 20
31.1445536518
 10
31.6997345537
 20
31.1515798032
 10
31.6841093545
 20
31.1605644081
 10
31.6696157341
 20
31.1713823952
 10
31.6564554519
 20
31.1838831716
 10
31.6448117052
 20
31.1978927204
 10
31.6348466147
 20
31.2132159632
  0
LWPOLYLINE
  5
1532
330
220
100
AcDbEntity
  8
0
  6
Continuous
 62
     7
100
AcDbPolyline
 90
        8
 70
     0
 43
0.0
 10
30.6568784884
 20
31.0185159815
 10
30.6358642159
 20
31.0219978098
 10
30.6155190942
 20
31.0283053978
 10
30.5962212592
 20
31.0373215124
 10
30.5783293817
 20
31.0488785794
 10
30.5621760014
 20
31.0627617985
 10
30.54806134610001
 20
31.0787131351
 10
30.5362477517
 20
31.0964361166
  0
LINE
  5
1533
330
220
100
AcDbEntity
  8
0
  6
Continuous
 62
     7
100
AcDbLine
 10
57.6587653161
 20
24.0818297375
 30
0.0
 11
57.6280799296
 21
24.1000367388
 31
0.0
  0
LINE
  5
1534
330
220
100
AcDbEntity
  8
0
  6
Continuous
 62
     7
100
AcDbLine
 10
53.24048918879999
 20
24.4891904231
 30
0.0
 11
53.1004891888
 21
24.6291904231
 31
0.0
  0
LINE
  5
1535
330
220
100
AcDbEntity
  8
0
  6
Continuous
 62
     7
100
AcDbLine
 10
42.2212700031
 20
25.2641904231
 30
0.0
 11
41.76531934389999
 21
23.5625593975
 31
0.0
  0
LINE
  5
1536
330
220
100
AcDbEntity
  8
0
  6
Continuous
 62
     7
100
AcDbLine
 10
42.0940478797
 20
23.5280022555
 30
0.0
 11
42.89352513949999
 21
26.5116920086
 31
0.0
  0
LINE
  5
1537
330
220
100
AcDbEntity
  8
0
  6
Continuous
 62
     7
100
AcDbLine
 10
42.214788608
 20
23.49564987489999
 30
0.0
 11
43.0229346621
 21
26.5116920086
 31
0.0
  0
LWPOLYLINE
  5
1538
330
220
100
AcDbEntity
  8
0
  6
Continuous
 62
     7
100
AcDbPolyline
 90
       25
 70
     0
 43
0.0
 10
34.5617293161
 20
28.854790331
 10
34.5650584921
 20
28.8579612501
 10
34.5775323332
 20
28.861523015
 10
34.5990357483
 20
28.8647779193
 10
34.6293420076
 20
28.8677117719
 10
34.6682247155
 20
28.8703067726
 10
34.7155407591
 20
28.8725531941
 10
34.7710963548
 20
28.8744441171
 10
34.8343967149
 20
28.87595827030001
 10
34.905143572
 20
28.8770927874
 10
34.9831241417
 20
28.8778282388
 10
35.0671861273
 20
28.8781569571
 10
35.1552359529
 20
28.8780838672
 10
35.2448606727
 20
28.8776406848
 10
35.33330519800001
 20
28.8768927026
 10
35.41891229300001
 20
28.8759057948
 10
35.501878238
 20
28.8747206273
 10
35.5827421436
 20
28.8733685637
 10
35.66205758880001
 20
28.8718594694
 10
35.7402415817
 20
28.8702065016
 10
35.8176097947
 20
28.8684147158
 10
35.894552157
 20
28.8664835236
 10
35.9714892452
 20
28.8644065704
 10
36.0488801811
 20
28.8621718129
 10
36.1271960547
 20
28.8597621984
  0
LWPOLYLINE
  5
1539
330
220
100
AcDbEntity
  8
0
  6
Continuous
 62
     7
100
AcDbPolyline
 90
       21
 70
     0
 43
0.0
 10
34.5606921024
 20
28.8235726173
 10
34.5642291065
 20
28.8268402628
 10
34.5775141035
 20
28.8305065737
 10
34.60054980010001
 20
28.8338597716
 10
34.6331773337
 20
28.8368748476
 10
34.6751125416
 20
28.8395234391
 10
34.7261843403
 20
28.8417914118
 10
34.7860083749
 20
28.8436649095
 10
34.854159349
 20
28.845131286
 10
34.9298768257
 20
28.8461743902
 10
35.01284020489999
 20
28.8467868606
 10
35.1025483009
 20
28.8469612417
 10
35.1987643404
 20
28.8466932369
 10
35.3009123315
 20
28.8459792098
 10
35.4083118514
 20
28.8448166047
 10
35.5200177405
 20
28.843205916
 10
35.6355925637
 20
28.8411515788
 10
35.7547731911
 20
28.8386480789
 10
35.8770385891
 20
28.8356996296
 10
36.0013132886
 20
28.8323234791
 10
36.1262204826
 20
28.8285511483
  0
LINE
  5
153A
330
220
100
AcDbEntity
  8
0
  6
Continuous
 62
     7
100
AcDbLine
 10
37.0277226153
 20
26.0896668024
 30
0.0
 11
37.052583991
 21
26.0962255212
 31
0.0
  0
LINE
  5
153B
330
220
100
AcDbEntity
  8
0
  6
Continuous
 62
     7
100
AcDbLine
 10
37.0456204258
 20
26.0848786933
 30
0.0
 11
37.0456879821
 21
26.0848964324
 31
0.0
  0
LWPOLYLINE
  5
153C
330
220
100
AcDbEntity
  8
0
  6
Continuous
 62
     7
100
AcDbPolyline
 90
        4
 70
     0
 43
0.0
 10
34.9072147755
 20
28.6085669202
 10
34.8869748021
 20
28.6051029623
 10
34.8752937553
 20
28.6012700275
 10
34.8724119625
 20
28.5970815204
  0
LWPOLYLINE
  5
153D
330
220
100
AcDbEntity
  8
0
  6
Continuous
 62
     7
100
AcDbPolyline
 90
        5
 70
     0
 43
0.0
 10
73.9371065241
 20
32.4181881701
 10
73.9591876547
 20
32.4196380171
 10
73.97982369240001
 20
32.4213226861
 10
73.9985482145
 20
32.4232041005
 10
74.0149380002
 20
32.4252397364
  0
LWPOLYLINE
  5
153E
330
220
100
AcDbEntity
  8
0
  6
Continuous
 62
     7
100
AcDbPolyline
 90
       20
 70
     0
 43
0.0
 10
31.5177138615
 20
31.1241683906
 10
31.4926916386
 20
31.1227000258
 10
31.4651519953
 20
31.12105687570001
 10
31.4348690729
 20
31.1192156654
 10
31.4016440903
 20
31.11715175
 10
31.3652468032
 20
31.1148346393
 10
31.3254829024
 20
31.1122309639
 10
31.2821677229
 20
31.1093012497
 10
31.2351324607
 20
31.1059979468
 10
31.1843333792
 20
31.1022700771
 10
31.1297440752
 20
31.0980513543
 10
31.071567438
 20
31.0932699138
 10
31.0101576945
 20
31.0878337644
 10
30.946256153
 20
31.0816371281
 10
30.8810731807
 20
31.0745490369
 10
30.816527346
 20
31.0664070848
 10
30.755707262
 20
31.057021034
 10
30.7032555067
 20
31.0461324235
 10
30.666524485
 20
31.0334383464
 10
30.656874129
 20
31.0185159839
  0
LWPOLYLINE
  5
153F
330
220
100
AcDbEntity
  8
0
  6
Continuous
 62
     7
100
AcDbPolyline
 90
       18
 70
     0
 43
0.0
 10
31.4003609045
 20
31.2008488942
 10
31.3752450277
 20
31.1994056831
 10
31.347602093
 20
31.1977907756
 10
31.31720537570001
 20
31.1959813059
 10
31.2838552833
 20
31.1939530506
 10
31.2473206244
 20
31.1916760253
 10
31.2074062529
 20
31.1891173872
 10
31.1639266934
 20
31.1862382469
 10
31.1167123853
 20
31.1829917047
 10
31.0657192534
 20
31.1793273586
 10
31.0109206553
 20
31.1751795781
 10
30.9525201074
 20
31.1704769646
 10
30.8908730236
 20
31.165127821
 10
30.8267234603
 20
31.1590262384
 10
30.7612867471
 20
31.1520404005
 10
30.696489291
 20
31.1440056819
 10
30.635432562
 20
31.1347275316
 10
30.58277874010001
 20
31.12393968780001
  0
LINE
  5
1540
330
220
100
AcDbEntity
  8
0
  6
Continuous
 62
     7
100
AcDbLine
 10
31.5609797964
 20
31.1266550642
 30
0.0
 11
31.5177138615
 21
31.1241683906
 31
0.0
  0
LWPOLYLINE
  5
1541
330
220
100
AcDbEntity
  8
0
  6
Continuous
 62
     7
100
AcDbPolyline
 90
       30
 70
     0
 43
0.0
 10
32.281704397
 20
31.0608461396
 10
32.2542193467
 20
31.0592936896
 10
32.2239416078
 20
31.0575542877
 10
32.1904357198
 20
31.0555918849
 10
32.1531631198
 20
31.0533597336
 10
32.1120569861
 20
31.0508337785
 10
32.0675124808
 20
31.0480143036
 10
32.0205669562
 20
31.0449416773
 10
31.9727151547
 20
31.0416916224
 10
31.9247662159
 20
31.0383014196
 10
31.8769408363
 20
31.0347698101
 10
31.8294350578
 20
31.0310927154
 10
31.7825423643
 20
31.027272684
 10
31.7365195839
 20
31.0233087856
 10
31.6917154649
 20
31.0192077686
 10
31.6485124111
 20
31.0149807637
 10
31.6072103388
 20
31.0106326163
 10
31.567966338
 20
31.0061525238
 10
31.5309073624
 20
31.0015205824
 10
31.4962100356
 20
30.9967134945
 10
31.4644812909
 20
30.9917666875
 10
31.4367488184
 20
30.9868166391
 10
31.4136458822
 20
30.9820053523
 10
31.3953368863
 20
30.977474765
 10
31.3814422588
 20
30.9733070654
 10
31.3710216428
 20
30.969425509
 10
31.3633638465
 20
30.9657190803
 10
31.35802276050001
 20
30.9620843053
 10
31.3548199388
 20
30.958472494
 10
31.35374692760001
 20
30.9553745324
  0
LINE
  5
1542
330
220
100
AcDbEntity
  8
0
  6
Continuous
 62
     7
100
AcDbLine
 10
31.4437884576
 20
31.2032931941
 30
0.0
 11
31.4003609045
 21
31.2008488942
 31
0.0
  0
LINE
  5
1543
330
220
100
AcDbEntity
  8
0
  6
Continuous
 62
     7
100
AcDbLine
 10
31.611669306
 20
31.1294894456
 30
0.0
 11
31.5609797964
 21
31.1266550642
 31
0.0
  0
LINE
  5
1544
330
220
100
AcDbEntity
  8
0
  6
Continuous
 62
     7
100
AcDbLine
 10
32.329249274
 20
31.0634753131
 30
0.0
 11
32.281704397
 21
31.0608461396
 31
0.0
  0
LINE
  5
1545
330
220
100
AcDbEntity
  8
0
  6
Continuous
 62
     7
100
AcDbLine
 10
31.4946667547
 20
31.2060797067
 30
0.0
 11
31.4437884576
 21
31.2032931941
 31
0.0
  0
LWPOLYLINE
  5
1546
330
220
100
AcDbEntity
  8
0
  6
Continuous
 62
     7
100
AcDbPolyline
 90
       14
 70
     0
 43
0.0
 10
74.03559118459999
 20
32.2273561409
 10
74.0088169073
 20
32.225911251
 10
73.98537855899999
 20
32.2277384567
 10
73.96516630970001
 20
32.2324700468
 10
73.9480114368
 20
32.2397020199
 10
73.93364712340001
 20
32.2490390155
 10
73.92174054279999
 20
32.2601602832
 10
73.9119301387
 20
32.2728983699
 10
73.90387448439999
 20
32.2873197951
 10
73.89733951540001
 20
32.303713863
 10
73.89226703910001
 20
32.3224315015
 10
73.88872916779999
 20
32.343842844
 10
73.8868942682
 20
32.3682787902
 10
73.88698408270001
 20
32.3958075985
  0
LINE
  5
1547
330
220
100
AcDbEntity
  8
0
  6
Continuous
 62
     7
100
AcDbLine
 10
32.3854505946
 20
31.0664970873
 30
0.0
 11
32.329249274
 21
31.0634753131
 31
0.0
  0
LINE
  5
1548
330
220
100
AcDbEntity
  8
0
  6
Continuous
 62
     7
100
AcDbLine
 10
32.4279045964
 20
31.0687220628
 30
0.0
 11
32.3854505946
 21
31.0664970873
 31
0.0
  0
LWPOLYLINE
  5
1549
330
220
100
AcDbEntity
  8
0
  6
Continuous
 62
     7
100
AcDbPolyline
 90
        3
 70
     0
 43
0.0
 10
31.7260984523
 20
31.1356067362
 10
31.7163191573
 20
31.1350974794
 10
31.611669306
 20
31.1294894456
  0
LINE
  5
154A
330
220
100
AcDbEntity
  8
0
  6
Continuous
 62
     7
100
AcDbLine
 10
31.580721735
 20
31.2106202031
 30
0.0
 11
31.4946667547
 21
31.2060797067
 31
0.0
  0
LINE
  5
154B
330
220
100
AcDbEntity
  8
0
  6
Continuous
 62
     7
100
AcDbLine
 10
31.6121035358
 20
31.2122280103
 30
0.0
 11
31.580721735
 21
31.2106202031
 31
0.0
  0
LWPOLYLINE
  5
154C
330
220
100
AcDbEntity
  8
0
  6
Continuous
 62
     7
100
AcDbPolyline
 90
        3
 70
     0
 43
0.0
 10
31.7422899628
 20
31.1364471279
 10
31.7354892336
 20
31.1360916698
 10
31.7260984523
 20
31.1356067362
  0
LWPOLYLINE
  5
154D
330
220
100
AcDbEntity
  8
0
  6
Continuous
 62
     7
100
AcDbPolyline
 90
        3
 70
     0
 43
0.0
 10
31.6257791108
 20
31.2129227326
 10
31.6189543363
 20
31.2125733003
 10
31.6121035358
 20
31.2122280103
  0
LWPOLYLINE
  5
154E
330
220
100
AcDbEntity
  8
0
  6
Continuous
 62
     7
100
AcDbPolyline
 90
        3
 70
     0
 43
0.0
 10
31.7449947729
 20
31.1365608371
 10
31.7436389597
 20
31.1365100651
 10
31.7422899628
 20
31.1364471279
  0
LWPOLYLINE
  5
154F
330
220
100
AcDbEntity
  8
0
  6
Continuous
 62
     7
100
AcDbPolyline
 90
       15
 70
     0
 43
0.0
 10
33.00831266719999
 20
31.2558652275
 10
32.8628209587
 20
31.2504857903
 10
32.7222949357
 20
31.2448730839
 10
32.5876069167
 20
31.2393801799
 10
32.4595620334
 20
31.2342505846
 10
32.3388162504
 20
31.229647916
 10
32.2260239584
 20
31.2256607655
 10
32.1215563748
 20
31.2223249959
 10
32.0260989884
 20
31.2196390349
 10
31.9427464949
 20
31.2176270534
 10
31.87289031300001
 20
31.2162055868
 10
31.8160455613
 20
31.2152449494
 10
31.77096633590001
 20
31.2146152446
 10
31.7346996003
 20
31.2141903779
 10
31.7051015088
 20
31.2138923795
  0
LWPOLYLINE
  5
1550
330
220
100
AcDbEntity
  8
0
  6
Continuous
 62
     7
100
AcDbPolyline
 90
        3
 70
     0
 43
0.0
 10
31.6286319789
 20
31.2130405153
 10
31.6272011354
 20
31.2129879555
 10
31.6257791108
 20
31.2129227326
  0
LWPOLYLINE
  5
1551
330
220
100
AcDbEntity
  8
0
  6
Continuous
 62
     7
100
AcDbPolyline
 90
        4
 70
     0
 43
0.0
 10
73.88698408270001
 20
32.3958075985
 10
73.8811630348
 20
32.3956383782
 10
73.8759090834
 20
32.3953813062
 10
73.8714321633
 20
32.3950466549
  0
LINE
  5
1552
330
220
100
AcDbEntity
  8
0
  6
Continuous
 62
     7
100
AcDbLine
 10
31.7511627288
 20
31.13673893650001
 30
0.0
 11
31.7449947729
 21
31.1365608371
 31
0.0
  0
LINE
  5
1553
330
220
100
AcDbEntity
  8
0
  6
Continuous
 62
     7
100
AcDbLine
 10
31.6348466363
 20
31.2132161243
 30
0.0
 11
31.6286319789
 21
31.2130405153
 31
0.0
  0
LWPOLYLINE
  5
1554
330
220
100
AcDbEntity
  8
0
  6
Continuous
 62
     7
100
AcDbPolyline
 90
        5
 70
     0
 43
0.0
 10
72.9477171674
 20
31.1161764394
 10
73.0266324625
 20
31.1182234144
 10
73.1245152956
 20
31.1215443397
 10
73.2411953135
 20
31.126103213
 10
73.37673991539999
 20
31.131889631
  0
LWPOLYLINE
  5
1555
330
220
100
AcDbEntity
  8
0
  6
Continuous
 62
     7
100
AcDbPolyline
 90
       47
 70
     0
 43
0.0
 10
52.1154891888
 20
31.204219188
 10
51.52638264930001
 20
31.1918324858
 10
50.927896956
 20
31.179773981
 10
50.3314844147
 20
31.168290284
 10
49.74845676100001
 20
31.1575840313
 10
49.181640872
 20
31.1476716089
 10
48.6216113483
 20
31.138362659
 10
48.05800393590001
 20
31.129486509
 10
47.48135208029999
 20
31.1209198109
 10
46.8938463301
 20
31.1127318977
 10
46.3081262597
 20
31.1051159836
 10
45.73605205989999
 20
31.0982085061
 10
45.1792452814
 20
31.0919937423
 10
44.6342897583
 20
31.08639982090001
 10
44.0982476015
 20
31.0813725255
 10
43.57122002879999
 20
31.0768915059
 10
43.05465235329999
 20
31.0729468988
 10
42.54917913409999
 20
31.0695178077
 10
42.054450222
 20
31.0665765673
 10
41.5702477729
 20
31.0640969675
 10
41.09660168229999
 20
31.06205531860001
 10
40.6337576363
 20
31.0604282161
 10
40.1819879894
 20
31.0591919673
 10
39.7416904446
 20
31.0583228458
 10
39.31287064780001
 20
31.0577958026
 10
38.8953137942
 20
31.057586359
 10
38.4890634852
 20
31.0576710507
 10
38.0942256928
 20
31.0580265714
 10
37.7106660545
 20
31.0586303929
 10
37.3385013706
 20
31.05946025070001
 10
36.9780414488
 20
31.0604935263
 10
36.6293245613
 20
31.061708432
 10
36.2925917879
 20
31.0630828239
 10
35.9680847477
 20
31.0645946672
 10
35.6551102399
 20
31.0662272012
 10
35.3532313944
 20
31.0679643096
 10
35.0637724151
 20
31.0697799173
 10
34.7899032599
 20
31.0716330367
 10
34.53527745570001
 20
31.0734740546
 10
34.3039198837
 20
31.0752455866
 10
34.0983677485
 20
31.0768984485
 10
33.9163244372
 20
31.0784243115
 10
33.7549974126
 20
31.0798252625
 10
33.6117962604
 20
31.0811071761
 10
33.4846030545
 20
31.0822760644
 10
33.370995499
 20
31.0833439655
 10
33.2670898664
 20
31.0843409836
  0
LWPOLYLINE
  5
1556
330
220
100
AcDbEntity
  8
0
  6
Continuous
 62
     7
100
AcDbPolyline
 90
       25
 70
     0
 43
0.0
 10
52.11548790520001
 20
31.2592378917
 10
49.5990582217
 20
31.2101281722
 10
47.47192796979999
 20
31.1761571204
 10
45.66568902229999
 20
31.1528988658
 10
44.12272246439999
 20
31.1371860125
 10
42.7953520508
 20
31.1267839515
 10
41.648855421
 20
31.1201476926
 10
40.6533490688
 20
31.1161672394
 10
39.7861764417
 20
31.1140583401
 10
39.0280739061
 20
31.1132560245
 10
38.3633538555
 20
31.1133550216
 10
37.7792510611
 20
31.1140628522
 10
37.2645746883
 20
31.1151690706
 10
36.81049905670001
 20
31.1165211228
 10
36.4089368884
 20
31.1180110344
 10
36.0535193555
 20
31.1195604268
 10
35.7383705148
 20
31.1211156735
 10
35.458694098
 20
31.1226387881
 10
35.2102219802
 20
31.1241047914
 10
34.9892413812
 20
31.1254978388
 10
34.7926258629
 20
31.1268079617
 10
34.61748430570001
 20
31.128031062
 10
34.4614637392
 20
31.129165139
 10
34.3223280431
 20
31.1302118707
 10
34.1982544503
 20
31.1311734357
  0
LWPOLYLINE
  5
1557
330
220
100
AcDbEntity
  8
0
  6
Continuous
 62
     7
100
AcDbPolyline
 90
       26
 70
     0
 43
0.0
 10
52.1154891921
 20
31.3778277889
 10
49.5971886091
 20
31.3284267343
 10
47.4683735494
 20
31.2939518984
 10
45.6606502849
 20
31.2701512138
 10
44.1163764371
 20
31.2539359511
 10
42.7878515808
 20
31.2431011705
 10
41.6403360517
 20
31.2361088843
 10
40.6439281082
 20
31.2318438505
 10
39.7759573742
 20
31.229513092
 10
39.0171473079
 20
31.2285414874
 10
38.35179928570001
 20
31.2285141451
 10
37.76713868050001
 20
31.229130064
 10
37.2519661596
 20
31.2301715332
 10
36.7974490818
 20
31.2314800004
 10
36.3954936181
 20
31.2329425752
 10
36.0397256345
 20
31.2344769722
 10
35.7242642552
 20
31.2360264383
 10
35.4443090347
 20
31.2375505409
 10
35.19558810199999
 20
31.2390223869
 10
34.9743853774
 20
31.2404246489
 10
34.7775715785
 20
31.241746218
 10
34.6022529524
 20
31.242982136
 10
34.4460743112
 20
31.2441297433
 10
34.3067974609
 20
31.2451902415
 10
34.1825979494
 20
31.246165451
 10
34.0717608648
 20
31.2470592523
  0
LWPOLYLINE
  5
1558
330
220
100
AcDbEntity
  8
0
  6
Continuous
 62
     7
100
AcDbPolyline
 90
        8
 70
     0
 43
0.0
 10
74.28445769779999
 20
31.2340616119
 10
74.2002564746
 20
31.232640502
 10
74.0608269618
 20
31.2301991096
 10
73.90464203739999
 20
31.2273963529
 10
73.7298422121
 20
31.2242176248
 10
73.5341703271
 20
31.2206518559
 10
73.3243112577
 20
31.2168630121
 10
73.12882521680001
 20
31.2134000178
  0
LINE
  5
1559
330
220
100
AcDbEntity
  8
0
  6
Continuous
 62
     7
100
AcDbLine
 10
31.6471967806
 20
31.2133565956
 30
0.0
 11
31.6348466035
 21
31.213216098
 31
0.0
  0
LWPOLYLINE
  5
155A
330
220
100
AcDbEntity
  8
0
  6
Continuous
 62
     7
100
AcDbPolyline
 90
       47
 70
     0
 43
0.0
 10
70.9638882472
 20
31.0843409785
 10
70.859982246
 20
31.0833439595
 10
70.7463739747
 20
31.0822760514
 10
70.6191797896
 20
31.0811071675
 10
70.4759771566
 20
31.0798252269
 10
70.3146487435
 20
31.0784242653
 10
70.1326035606
 20
31.0768983915
 10
69.92704922139999
 20
31.0752455127
 10
69.6956894699
 20
31.0734739689
 10
69.44106205439999
 20
31.0716329455
 10
69.1671919491
 20
31.0697798258
 10
68.877732596
 20
31.067964223
 10
68.57585370539999
 20
31.066227122
 10
68.2628791028
 20
31.0645945954
 10
67.9383718965
 20
31.0630827596
 10
67.6016389817
 20
31.0617083759
 10
67.25292208519999
 20
31.0604934791
 10
66.89246223159999
 20
31.059460213
 10
66.52029765189999
 20
31.0586303649
 10
66.1367382814
 20
31.0580265535
 10
65.741900903
 20
31.0576710429
 10
65.33565112560001
 20
31.0575863609
 10
64.9180948842
 20
31.0577958136
 10
64.489275625
 20
31.0583228655
 10
64.0489783365
 20
31.0591919956
 10
63.59720865619999
 20
31.0604282538
 10
63.1343642937
 20
31.0620553671
 10
62.66071776029999
 20
31.06409702800001
 10
62.17651541489999
 20
31.0665766378
 10
61.6817877001
 20
31.0695178811
 10
61.17631660499999
 20
31.0729469667
 10
60.659751647
 20
31.07689156
 10
60.1327270794
 20
31.0813725585
 10
59.5966875258
 20
31.0863998317
 10
59.05173352689999
 20
31.0919937376
 10
58.4949278124
 20
31.0982084887
 10
57.92285521149999
 20
31.1051159449
 10
57.33713848439999
 20
31.112731811
 10
56.7496364729
 20
31.1209196643
 10
56.1729865514
 20
31.1294863235
 10
55.6093775988
 20
31.1383624879
 10
55.0493444984
 20
31.14767149
 10
54.4825247324
 20
31.1575839756
 10
53.89949474439999
 20
31.1682902692
 10
53.3030819137
 20
31.1797739712
 10
52.7045964892
 20
31.1918324701
 10
52.1154891888
 20
31.204219188
  0
LWPOLYLINE
  5
155B
330
220
100
AcDbEntity
  8
0
  6
Continuous
 62
     7
100
AcDbPolyline
 90
        3
 70
     0
 43
0.0
 10
70.9780631871
 20
31.2543511776
 10
70.99673170089999
 20
31.2545317858
 10
71.00562288659999
 20
31.2546175123
  0
LWPOLYLINE
  5
155C
330
220
100
AcDbEntity
  8
0
  6
Continuous
 62
     7
100
AcDbPolyline
 90
        4
 70
     0
 43
0.0
 10
70.93961536960001
 20
31.2539811115
 10
70.95403069159999
 20
31.2541194466
 10
70.9668421779
 20
31.2542428239
 10
70.9780631871
 20
31.2543511776
  0
LWPOLYLINE
  5
155D
330
220
100
AcDbEntity
  8
0
  6
Continuous
 62
     7
100
AcDbPolyline
 90
        6
 70
     0
 43
0.0
 10
70.9375077431
 20
31.1389881648
 10
70.9503103179
 20
31.1391092408
 10
70.96152271200001
 20
31.1392155907
 10
70.9712385184
 20
31.1393077845
 10
70.9801773029
 20
31.1393924856
 10
70.98905148909999
 20
31.1394763261
  0
LWPOLYLINE
  5
155E
330
220
100
AcDbEntity
  8
0
  6
Continuous
 62
     7
100
AcDbPolyline
 90
        4
 70
     0
 43
0.0
 10
70.8625818146
 20
31.25324902
 10
70.8850366841
 20
31.2534613491
 10
70.9052764029
 20
31.2536534723
 10
70.93961536960001
 20
31.2539811115
  0
LWPOLYLINE
  5
155F
330
220
100
AcDbEntity
  8
0
  6
Continuous
 62
     7
100
AcDbPolyline
 90
        5
 70
     0
 43
0.0
 10
70.8461286166
 20
31.1381349765
 10
70.8685647092
 20
31.1383431595
 10
70.88878782630001
 20
31.1385314696
 10
70.90692078859999
 20
31.13870084030001
 10
70.9375077431
 20
31.1389881648
  0
LWPOLYLINE
  5
1560
330
220
100
AcDbEntity
  8
0
  6
Continuous
 62
     7
100
AcDbPolyline
 90
        3
 70
     0
 43
0.0
 10
70.7785503701
 20
31.2524623877
 10
70.80968772449999
 20
31.2527523844
 10
70.8625818146
 20
31.25324902
  0
LWPOLYLINE
  5
1561
330
220
100
AcDbEntity
  8
0
  6
Continuous
 62
     7
100
AcDbPolyline
 90
        3
 70
     0
 43
0.0
 10
70.7621700852
 20
31.1373635434
 10
70.7932804972
 20
31.1376479721
 10
70.8461286166
 20
31.1381349765
  0
LWPOLYLINE
  5
1562
330
220
100
AcDbEntity
  8
0
  6
Continuous
 62
     7
100
AcDbPolyline
 90
        3
 70
     0
 43
0.0
 10
70.66339191119999
 20
31.2514051889
 10
70.7058825821
 20
31.2517924631
 10
70.7785503701
 20
31.2524623877
  0
LWPOLYLINE
  5
1563
330
220
100
AcDbEntity
  8
0
  6
Continuous
 62
     7
100
AcDbPolyline
 90
        3
 70
     0
 43
0.0
 10
70.6471183912
 20
31.13632621280001
 10
70.68956864749999
 20
31.1367062864
 10
70.7621700852
 20
31.1373635434
  0
LINE
  5
1564
330
220
100
AcDbEntity
  8
0
  6
Continuous
 62
     7
100
AcDbLine
 10
31.7051015088
 20
31.2138923795
 30
0.0
 11
31.6471967806
 21
31.2133565956
 31
0.0
  0
LINE
  5
1565
330
220
100
AcDbEntity
  8
0
  6
Continuous
 62
     7
100
AcDbLine
 10
70.5466760522
 20
31.1354393121
 30
0.0
 11
70.6471183912
 21
31.13632621280001
 31
0.0
  0
LINE
  5
1566
330
220
100
AcDbEntity
  8
0
  6
Continuous
 62
     7
100
AcDbLine
 10
70.50356423709999
 20
31.2499777164
 30
0.0
 11
70.66339191119999
 21
31.2514051889
 31
0.0
  0
LINE
  5
1567
330
220
100
AcDbEntity
  8
0
  6
Continuous
 62
     7
100
AcDbLine
 10
70.3634928335
 20
31.2487646923
 30
0.0
 11
70.50356423709999
 21
31.2499777164
 31
0.0
  0
LWPOLYLINE
  5
1568
330
220
100
AcDbEntity
  8
0
  6
Continuous
 62
     7
100
AcDbPolyline
 90
        3
 70
     0
 43
0.0
 10
70.2650707081
 20
31.13304550900001
 10
70.347510152
 20
31.1337321257
 10
70.5466760522
 20
31.1354393121
  0
LINE
  5
1569
330
220
100
AcDbEntity
  8
0
  6
Continuous
 62
     7
100
AcDbLine
 10
71.00562288659999
 20
31.2546175123
 30
0.0
 11
71.06147681039999
 21
31.2551384491
 31
0.0
  0
LINE
  5
156A
330
220
100
AcDbEntity
  8
0
  6
Continuous
 62
     7
100
AcDbLine
 10
70.98905148909999
 20
31.1394763261
 30
0.0
 11
71.0444711487
 21
31.1399822524
 31
0.0
  0
LINE
  5
156B
330
220
100
AcDbEntity
  8
0
  6
Continuous
 62
     7
100
AcDbLine
 10
71.06147681039999
 20
31.2551384491
 30
0.0
 11
71.08414017310001
 21
31.2552778629
 31
0.0
  0
LINE
  5
156C
330
220
100
AcDbEntity
  8
0
  6
Continuous
 62
     7
100
AcDbLine
 10
71.0444711487
 20
31.1399822524
 30
0.0
 11
71.06688470119999
 21
31.1401147217
 31
0.0
  0
LINE
  5
156D
330
220
100
AcDbEntity
  8
0
  6
Continuous
 62
     7
100
AcDbLine
 10
71.08414017310001
 20
31.2552778629
 30
0.0
 11
71.1307963685
 21
31.2555080329
 31
0.0
  0
LINE
  5
156E
330
220
100
AcDbEntity
  8
0
  6
Continuous
 62
     7
100
AcDbLine
 10
71.06688470119999
 20
31.1401147217
 30
0.0
 11
71.11330786979999
 21
31.1403338456
 31
0.0
  0
LWPOLYLINE
  5
156F
330
220
100
AcDbEntity
  8
0
  6
Continuous
 62
     7
100
AcDbPolyline
 90
        3
 70
     0
 43
0.0
 10
71.1307963685
 20
31.2555080329
 10
71.19574009459999
 20
31.2557669091
 10
71.2226657399
 20
31.2558652573
  0
LWPOLYLINE
  5
1570
330
220
100
AcDbEntity
  8
0
  6
Continuous
 62
     7
100
AcDbPolyline
 90
       33
 70
     0
 43
0.0
 10
71.826667056
 20
32.4577256188
 10
71.85687052979999
 20
32.4578361933
 10
71.88939726520001
 20
32.4582278914
 10
71.9234999979
 20
32.45859808760001
 10
71.9579618944
 20
32.45892230699999
 10
71.9924478299
 20
32.4592130111
 10
72.0265543853
 20
32.4594568451
 10
72.0610366776
 20
32.4596538732
 10
72.0981285884
 20
32.4598058302
 10
72.13979086270001
 20
32.4599077629
 10
72.1867550776
 20
32.4599463593
 10
72.2392655246
 20
32.4598995861
 10
72.2978818854
 20
32.4597589509
 10
72.3638946294
 20
32.4595406916
 10
72.43799606899999
 20
32.4591988196
 10
72.5203447265
 20
32.4586630063
 10
72.61329248
 20
32.4578548529
 10
72.70953925020001
 20
32.4567555428
 10
72.7967313337
 20
32.455472608
 10
72.8704593447
 20
32.4541320072
 10
72.9292496835
 20
32.4528488598
 10
72.9771540031
 20
32.4516278566
 10
73.01634479180001
 20
32.4504830856
 10
73.04805081960001
 20
32.4494366977
 10
73.0740733706
 20
32.44847892260001
 10
73.09576728359999
 20
32.4475960014
 10
73.11387074539999
 20
32.4467878338
 10
73.12893891279999
 20
32.4460553367
 10
73.1415212229
 20
32.4453929083
 10
73.1521636068
 20
32.4447903907
 10
73.1613525718
 20
32.4442338166
 10
73.16946108359999
 20
32.4437070244
 10
73.1766279129
 20
32.4432058432
  0
LWPOLYLINE
  5
1571
330
220
100
AcDbEntity
  8
0
  6
Continuous
 62
     7
100
AcDbPolyline
 90
        3
 70
     0
 43
0.0
 10
71.11330786979999
 20
31.1403338456
 10
71.1780549992
 20
31.1405797793
 10
71.2049443152
 20
31.1406731419
  0
LINE
  5
1572
330
220
100
AcDbEntity
  8
0
  6
Continuous
 62
     7
100
AcDbLine
 10
32.4823059228
 20
32.3267074663
 30
0.0
 11
32.5637355315
 21
32.32697180610001
 31
0.0
  0
LINE
  5
1573
330
220
100
AcDbEntity
  8
0
  6
Continuous
 62
     7
100
AcDbLine
 10
32.5637355315
 20
32.32697180610001
 30
0.0
 11
32.8438259753
 21
32.3278033524
 31
0.0
  0
LINE
  5
1574
330
220
100
AcDbEntity
  8
0
  6
Continuous
 62
     7
100
AcDbLine
 10
32.8438259753
 20
32.3278033524
 30
0.0
 11
33.21159441440001
 21
32.3288911172
 31
0.0
  0
LINE
  5
1575
330
220
100
AcDbEntity
  8
0
  6
Continuous
 62
     7
100
AcDbLine
 10
33.21159441440001
 20
32.3288911172
 30
0.0
 11
34.3852918086
 21
32.3322027904
 31
0.0
  0
LWPOLYLINE
  5
1576
330
220
100
AcDbEntity
  8
0
  6
Continuous
 62
     7
100
AcDbPolyline
 90
       17
 70
     0
 43
0.0
 10
34.3852918086
 20
32.3322027904
 10
35.5875284674
 20
32.3353494862
 10
35.9822881294
 20
32.3363297991
 10
36.425166192
 20
32.3373988698
 10
36.9225188666
 20
32.3385599037
 10
37.48193125130001
 20
32.3398154283
 10
38.1126501391
 20
32.3411691529
 10
38.82478372579999
 20
32.34262002280001
 10
39.6310656974
 20
32.3441618601
 10
40.54649738280001
 20
32.3457847423
 10
41.58830396599999
 20
32.3474699614
 10
42.77882520739999
 20
32.349185841
 10
44.1434115907
 20
32.3508839733
 10
45.71439075909999
 20
32.352489148
 10
47.53234800609999
 20
32.3538917588
 10
49.64466999939999
 20
32.3549234522
 10
52.1154891901
 20
32.3553394483
  0
LWPOLYLINE
  5
1577
330
220
100
AcDbEntity
  8
0
  6
Continuous
 62
     7
100
AcDbPolyline
 90
        3
 70
     0
 43
0.0
 10
32.4013704197
 20
32.3265084307
 10
32.4416982131
 20
32.3265920962
 10
32.4823059228
 20
32.3267074663
  0
LWPOLYLINE
  5
1578
330
220
100
AcDbEntity
  8
0
  6
Continuous
 62
     7
100
AcDbPolyline
 90
       18
 70
     0
 43
0.0
 10
71.2049443152
 20
31.1406731419
 10
71.3412681219
 20
31.1407244275
 10
71.47317720789999
 20
31.1401982864
 10
71.59976197399998
 20
31.1394197135
 10
71.72018346049999
 20
31.138617179
 10
71.8336572967
 20
31.1379250821
 10
71.93953015609999
 20
31.1374112747
 10
72.0372466931
 20
31.137129752
 10
72.1266928504
 20
31.1370485299
 10
72.2072387859
 20
31.1371081743
 10
72.2754579633
 20
31.1372542184
 10
72.3293943386
 20
31.1374037361
 10
72.37150114569999
 20
31.137495997
 10
72.4046466321
 20
31.1375087516
 10
72.43071144069999
 20
31.1374336908
 10
72.4511692163
 20
31.1372745234
 10
72.4671939573
 20
31.1370404388
 10
72.47982556779999
 20
31.1367383093
  0
LWPOLYLINE
  5
1579
330
220
100
AcDbEntity
  8
0
  6
Continuous
 62
     7
100
AcDbPolyline
 90
       18
 70
     0
 43
0.0
 10
52.1154891896
 20
32.3553394483
 10
54.5863050177
 20
32.354923455
 10
56.6986246075
 20
32.3538917624
 10
58.5165801591
 20
32.3524891547
 10
60.08755816789999
 20
32.3508839831
 10
61.4521437921
 20
32.3491858536
 10
62.642664576
 20
32.3474699765
 10
63.6844709318
 20
32.3457847595
 10
64.5999025629
 20
32.3441618788
 10
65.4061846107
 20
32.3426200427
 10
66.1183183717
 20
32.3411691736
 10
66.74903750590001
 20
32.3398154495
 10
67.3084501906
 20
32.3385599251
 10
67.8058032025
 20
32.3373988911
 10
68.24868162939999
 20
32.3363298202
 10
68.64344166959999
 20
32.3353495069
 10
68.99602348950001
 20
32.3344521415
 10
69.31111970749999
 20
32.33363258460001
  0
LWPOLYLINE
  5
157A
330
220
100
AcDbEntity
  8
0
  6
Continuous
 62
     7
100
AcDbPolyline
 90
       12
 70
     0
 43
0.0
 10
33.0260489531
 20
31.1406732975
 10
32.89123785010001
 20
31.1407282717
 10
32.7607069109
 20
31.1402147996
 10
32.635388624
 20
31.1394472363
 10
32.5161058651
 20
31.1386544733
 10
32.4035639059
 20
31.1379628268
 10
32.2984506405
 20
31.1374406656
 10
32.201155098
 20
31.1371440954
 10
32.112326812
 20
31.1370494088
 10
32.0348609659
 20
31.1370927414
 10
31.9700607889
 20
31.137216594
 10
31.8758227997
 20
31.1374662921
  0
LWPOLYLINE
  5
157B
330
220
100
AcDbEntity
  8
0
  6
Continuous
 62
     7
100
AcDbPolyline
 90
       15
 70
     0
 43
0.0
 10
33.2670898664
 20
31.0843409836
 10
33.1718963535
 20
31.0844218994
 10
33.0786227116
 20
31.0831966154
 10
32.9894585679
 20
31.0812084601
 10
32.904962083
 20
31.0788876286
 10
32.82618290070001
 20
31.0765799215
 10
32.7532606241
 20
31.0744876034
 10
32.68632059130001
 20
31.0727598556
 10
32.6255713259
 20
31.0714707181
 10
32.572320917
 20
31.0706040587
 10
32.5275578287
 20
31.0701041223
 10
32.4911913577
 20
31.0698213641
 10
32.46305380739999
 20
31.069579484
 10
32.44219197830001
 20
31.0692340947
 10
32.4279045964
 20
31.0687220628
  0
LWPOLYLINE
  5
157C
330
220
100
AcDbEntity
  8
0
  6
Continuous
 62
     7
100
AcDbPolyline
 90
        7
 70
     0
 43
0.0
 10
31.8758227997
 20
31.1374662921
 10
31.8424212396
 20
31.1375128759
 10
31.8152356092
 20
31.1374896599
 10
31.7934884564
 20
31.1373935461
 10
31.776180456
 20
31.1372325474
 10
31.762362452
 20
31.1370127403
 10
31.7511627288
 20
31.13673893650001
  0
LWPOLYLINE
  5
157D
330
220
100
AcDbEntity
  8
0
  6
Continuous
 62
     7
100
AcDbPolyline
 90
        4
 70
     0
 43
0.0
 10
69.31111970749999
 20
32.33363258460001
 10
69.84567987910001
 20
32.3322028086
 10
70.0720422177
 20
32.331582227
 10
70.2751426906
 20
32.3310180867
  0
LWPOLYLINE
  5
157E
330
220
100
AcDbEntity
  8
0
  6
Continuous
 62
     7
100
AcDbPolyline
 90
        8
 70
     0
 43
0.0
 10
70.2751426906
 20
32.3310180867
 10
70.6211200938
 20
32.3300410927
 10
70.76823562529999
 20
32.3296192639
 10
70.9004499208
 20
32.32923695010001
 10
71.0193796488
 20
32.3288911298
 10
71.12629983339999
 20
32.3285790508
 10
71.2223981936
 20
32.3282964602
 10
71.3089518848
 20
32.3280389108
  0
LWPOLYLINE
  5
157F
330
220
100
AcDbEntity
  8
0
  6
Continuous
 62
     7
100
AcDbPolyline
 90
        3
 70
     0
 43
0.0
 10
71.5206226351
 20
32.3274021313
 10
71.57590375089999
 20
32.3272392801
 10
71.62406233209999
 20
32.3270995289
  0
LINE
  5
1580
330
220
100
AcDbEntity
  8
0
  6
Continuous
 62
     7
100
AcDbLine
 10
71.3089518848
 20
32.3280389108
 30
0.0
 11
71.5206226351
 21
32.3274021313
 31
0.0
  0
LWPOLYLINE
  5
1581
330
220
100
AcDbEntity
  8
0
  6
Continuous
 62
     7
100
AcDbPolyline
 90
        5
 70
     0
 43
0.0
 10
71.62406233209999
 20
32.3270995289
 10
71.7081748465
 20
32.3268435424
 10
71.7486715032
 20
32.3267074695
 10
71.78928003770001
 20
32.32659209659999
 10
71.82960795799999
 20
32.3265084307
  0
LINE
  5
1582
330
220
100
AcDbEntity
  8
0
  6
Continuous
 62
     7
100
AcDbLine
 10
33.1224344378
 20
31.2554041658
 30
0.0
 11
33.00831263780001
 21
31.2558652573
 31
0.0
  0
LINE
  5
1583
330
220
100
AcDbEntity
  8
0
  6
Continuous
 62
     7
100
AcDbLine
 10
33.15292556
 20
31.140171614
 30
0.0
 11
33.0260489531
 21
31.1406732975
 31
0.0
  0
LINE
  5
1584
330
220
100
AcDbEntity
  8
0
  6
Continuous
 62
     7
100
AcDbLine
 10
33.1734635574
 20
31.2551094643
 30
0.0
 11
33.1224344378
 21
31.2554041658
 31
0.0
  0
LINE
  5
1585
330
220
100
AcDbEntity
  8
0
  6
Continuous
 62
     7
100
AcDbLine
 10
33.1966422328
 20
31.1399061902
 30
0.0
 11
33.15292556
 21
31.140171614
 31
0.0
  0
LINE
  5
1586
330
220
100
AcDbEntity
  8
0
  6
Continuous
 62
     7
100
AcDbLine
 10
34.1982544503
 20
31.1311734357
 30
0.0
 11
33.9887047633
 21
31.1328577088
 31
0.0
  0
LINE
  5
1587
330
220
100
AcDbEntity
  8
0
  6
Continuous
 62
     7
100
AcDbLine
 10
33.9887047633
 20
31.1328577088
 30
0.0
 11
33.8216902609
 21
31.1342543443
 31
0.0
  0
LINE
  5
1588
330
220
100
AcDbEntity
  8
0
  6
Continuous
 62
     7
100
AcDbLine
 10
34.0717608648
 20
31.2470592523
 30
0.0
 11
33.8056525583
 21
31.2492957912
 31
0.0
  0
LINE
  5
1589
330
220
100
AcDbEntity
  8
0
  6
Continuous
 62
     7
100
AcDbLine
 10
33.8216902609
 20
31.1342543443
 30
0.0
 11
33.6884532871
 21
31.1354030312
 31
0.0
  0
LINE
  5
158A
330
220
100
AcDbEntity
  8
0
  6
Continuous
 62
     7
100
AcDbLine
 10
33.8056525583
 20
31.2492957912
 30
0.0
 11
33.6722824534
 21
31.2504648976
 31
0.0
  0
LINE
  5
158B
330
220
100
AcDbEntity
  8
0
  6
Continuous
 62
     7
100
AcDbLine
 10
33.6884532871
 20
31.1354030312
 30
0.0
 11
33.5376293315
 21
31.1367402972
 31
0.0
  0
LINE
  5
158C
330
220
100
AcDbEntity
  8
0
  6
Continuous
 62
     7
100
AcDbLine
 10
33.6722824534
 20
31.2504648976
 30
0.0
 11
33.480904326
 21
31.25219871840001
 31
0.0
  0
LINE
  5
158D
330
220
100
AcDbEntity
  8
0
  6
Continuous
 62
     7
100
AcDbLine
 10
33.5376293315
 20
31.1367402972
 30
0.0
 11
33.3497744667
 21
31.1384607811
 31
0.0
  0
LWPOLYLINE
  5
158E
330
220
100
AcDbEntity
  8
0
  6
Continuous
 62
     7
100
AcDbPolyline
 90
        3
 70
     0
 43
0.0
 10
33.3497744667
 20
31.1384607811
 10
33.2721720803
 20
31.1391898122
 10
33.2617713922
 20
31.1392885127
  0
LINE
  5
158F
330
220
100
AcDbEntity
  8
0
  6
Continuous
 62
     7
100
AcDbLine
 10
33.480904326
 20
31.25219871840001
 30
0.0
 11
33.3332819981
 21
31.2535814387
 31
0.0
  0
LWPOLYLINE
  5
1590
330
220
100
AcDbEntity
  8
0
  6
Continuous
 62
     7
100
AcDbPolyline
 90
        4
 70
     0
 43
0.0
 10
33.3332819981
 20
31.2535814387
 10
33.255620206
 20
31.2543250339
 10
33.2452135222
 20
31.2544256856
 10
33.2360044053
 20
31.2545147968
  0
LINE
  5
1591
330
220
100
AcDbEntity
  8
0
  6
Continuous
 62
     7
100
AcDbLine
 10
33.2617713922
 20
31.1392885127
 30
0.0
 11
33.1966422328
 21
31.1399061902
 31
0.0
  0
LINE
  5
1592
330
220
100
AcDbEntity
  8
0
  6
Continuous
 62
     7
100
AcDbLine
 10
33.2360044053
 20
31.2545147968
 30
0.0
 11
33.1734635574
 21
31.2551094643
 31
0.0
  0
LINE
  5
1593
330
220
100
AcDbEntity
  8
0
  6
Continuous
 62
     7
100
AcDbLine
 10
72.5718188026
 20
31.2134748374
 30
0.0
 11
72.5961317742
 21
31.213216098
 31
0.0
  0
LWPOLYLINE
  5
1594
330
220
100
AcDbEntity
  8
0
  6
Continuous
 62
     7
100
AcDbPolyline
 90
       27
 70
     0
 43
0.0
 10
52.11548790630001
 20
31.2592379448
 10
54.5808266535
 20
31.2110301531
 10
56.6708195533
 20
31.1774258578
 10
58.45155391329999
 20
31.154209577
 10
59.977302088
 20
31.1383691365
 10
61.2934860007
 20
31.127758852
 10
62.4335679851
 20
31.120884051
 10
63.4257373396
 20
31.1166670136
 10
64.292510573
 20
31.1143368439
 10
65.0518057718
 20
31.1133382191
 10
65.71931336979999
 20
31.1132678175
 10
66.30713669630001
 20
31.1138334576
 10
66.8262410735
 20
31.1148229676
 10
67.2853525856
 20
31.1160818854
 10
67.6921263311
 20
31.1174987678
 10
68.0531366535
 20
31.1189938095
 10
68.3737948382
 20
31.1205093021
 10
68.65911400539999
 20
31.1220062683
 10
68.91310215379999
 20
31.1234565853
 10
69.13949725070001
 20
31.1248428792
 10
69.34142316479999
 20
31.1261537663
 10
69.52163388249999
 20
31.1273829678
 10
69.6826207289
 20
31.1285283522
 10
69.826440223
 20
31.1295893631
 10
69.95505106
 20
31.1305683682
 10
70.0700585547
 20
31.13146797260001
 10
70.2650707081
 20
31.13304550900001
  0
LWPOLYLINE
  5
1595
330
220
100
AcDbEntity
  8
0
  6
Continuous
 62
     7
100
AcDbPolyline
 90
       28
 70
     0
 43
0.0
 10
52.1154891913
 20
31.3778277887
 10
54.5826706713
 20
31.32933816
 10
56.6743190791
 20
31.2952447125
 10
58.45651682729999
 20
31.27149778570001
 10
59.98355697850001
 20
31.2551619596
 10
61.30088445
 20
31.2441215817
 10
62.44197837659999
 20
31.2368897592
 10
63.43504479649999
 20
31.23238509530001
 10
64.3026143155
 20
31.2298284643
 10
65.06261671069999
 20
31.2286553622
 10
65.7307534695
 20
31.2284532091
 10
66.3191366903
 20
31.2289216913
 10
66.8387400054
 20
31.2298415449
 10
67.2982963548
 20
31.2310524372
 10
67.70546702859999
 20
31.2324380609
 10
68.0668317888
 20
31.2339147021
 10
68.3878064868
 20
31.235421517
 10
68.6734085413
 20
31.2369170398
 10
68.9276495108
 20
31.2383711956
 10
69.15427065899999
 20
31.239765079
 10
69.35639865600001
 20
31.2410861215
 10
69.5367900359
 20
31.2423271333
 10
69.69793846729999
 20
31.243485294
 10
69.84190243739999
 20
31.2445595188
 10
69.9706423809
 20
31.2455517962
 10
70.08576504069999
 20
31.246464445
 10
70.188773251
 20
31.2473013397
 10
70.3634928335
 20
31.2487646923
  0
LWPOLYLINE
  5
1596
330
220
100
AcDbEntity
  8
0
  6
Continuous
 62
     7
100
AcDbPolyline
 90
        4
 70
     0
 43
0.0
 10
72.5961317414
 20
31.2132161243
 10
72.6020965255
 20
31.213048553
 10
72.603578232
 20
31.2129960476
 10
72.60505425159999
 20
31.2129298719
  0
LWPOLYLINE
  5
1597
330
220
100
AcDbEntity
  8
0
  6
Continuous
 62
     7
100
AcDbPolyline
 90
        4
 70
     0
 43
0.0
 10
72.47982556779999
 20
31.1367383093
 10
72.4857457259
 20
31.1365683995
 10
72.48715337510001
 20
31.1365178143
 10
72.48854822600001
 20
31.136454073
  0
LWPOLYLINE
  5
1598
330
220
100
AcDbEntity
  8
0
  6
Continuous
 62
     7
100
AcDbPolyline
 90
       15
 70
     0
 43
0.0
 10
71.8030738554
 20
31.068722062
 10
71.7886099067
 20
31.0692383865
 10
71.7674836455
 20
31.0695844516
 10
71.73902415170001
 20
31.069826838
 10
71.7023346246
 20
31.0701138832
 10
71.65733361939999
 20
31.0706222969
 10
71.60400478699999
 20
31.071497293
 10
71.54331146
 20
31.0727918324
 10
71.47646370609999
 20
31.0745216664
 10
71.40365323260001
 20
31.07661229610001
 10
71.32502667060001
 20
31.0789167002
 10
71.24074401119999
 20
31.0812282881
 10
71.15183242319999
 20
31.0832063076
 10
71.0588257781
 20
31.0844237369
 10
70.9638882472
 20
31.0843409785
  0
LWPOLYLINE
  5
1599
330
220
100
AcDbEntity
  8
0
  6
Continuous
 62
     7
100
AcDbPolyline
 90
        7
 70
     0
 43
0.0
 10
73.37673993660001
 20
31.1318896317
 10
73.31111274920001
 20
31.1342910197
 10
73.2568645809
 20
31.1425235778
 10
73.212677227
 20
31.15537836130001
 10
73.1773126124
 20
31.1719114545
 10
73.1497204833
 20
31.1913756417
 10
73.1288252235
 20
31.213400016
  0
LWPOLYLINE
  5
159A
330
220
100
AcDbEntity
  8
0
  6
Continuous
 62
     7
100
AcDbPolyline
 90
       18
 70
     0
 43
0.0
 10
71.22266571049999
 20
31.2558652275
 10
71.34213513049999
 20
31.25149024840001
 10
71.45835274399999
 20
31.2469104099
 10
71.57087131629999
 20
31.24233740260001
 10
71.67924980569999
 20
31.2379256649
 10
71.7830667301
 20
31.2337946419
 10
71.8819347111
 20
31.230026181
 10
71.97551291989999
 20
31.2266658056
 10
72.06355269869999
 20
31.2237435656
 10
72.14568963560001
 20
31.2212595748
 10
72.2222252286
 20
31.2191935974
 10
72.29239875520001
 20
31.2175351522
 10
72.35428603310001
 20
31.2162763418
 10
72.40621963489999
 20
31.2153803115
 10
72.4485404034
 20
31.2147644917
 10
72.48342557009999
 20
31.2143328975
 10
72.51225399209999
 20
31.2140249306
 10
72.5718188026
 20
31.2134748374
  0
LWPOLYLINE
  5
159B
330
220
100
AcDbEntity
  8
0
  6
Continuous
 62
     7
100
AcDbPolyline
 90
        4
 70
     0
 43
0.0
 10
72.8337946498
 20
31.1168710146
 10
72.8608649734
 20
31.1158277205
 10
72.8988002767
 20
31.115558125
 10
72.9477171674
 20
31.1161764394
  0
LINE
  5
159C
330
220
100
AcDbEntity
  8
0
  6
Continuous
 62
     7
100
AcDbLine
 10
72.6342791566
 20
31.2114414048
 30
0.0
 11
72.64618599079999
 21
31.2108300105
 31
0.0
  0
LINE
  5
159D
330
220
100
AcDbEntity
  8
0
  6
Continuous
 62
     7
100
AcDbLine
 10
72.64618599079999
 20
31.2108300105
 30
0.0
 11
72.6789643881
 21
31.2091283903
 31
0.0
  0
LINE
  5
159E
330
220
100
AcDbEntity
  8
0
  6
Continuous
 62
     7
100
AcDbLine
 10
71.8459277999
 20
31.0664758927
 30
0.0
 11
71.8030738554
 21
31.068722062
 31
0.0
  0
LINE
  5
159F
330
220
100
AcDbEntity
  8
0
  6
Continuous
 62
     7
100
AcDbLine
 10
72.60505425159999
 20
31.2129298719
 30
0.0
 11
72.6342791566
 21
31.2114414048
 31
0.0
  0
LINE
  5
15A0
330
220
100
AcDbEntity
  8
0
  6
Continuous
 62
     7
100
AcDbLine
 10
72.6789643881
 20
31.2091283903
 30
0.0
 11
72.71406749029999
 21
31.2072733905
 31
0.0
  0
LINE
  5
15A1
330
220
100
AcDbEntity
  8
0
  6
Continuous
 62
     7
100
AcDbLine
 10
72.5295160567
 20
31.1343199603
 30
0.0
 11
72.56217383860001
 21
31.1325898384
 31
0.0
  0
LINE
  5
15A2
330
220
100
AcDbEntity
  8
0
  6
Continuous
 62
     7
100
AcDbLine
 10
71.88193082239999
 20
31.0645500925
 30
0.0
 11
71.8459277999
 21
31.0664758927
 31
0.0
  0
LINE
  5
15A3
330
220
100
AcDbEntity
  8
0
  6
Continuous
 62
     7
100
AcDbLine
 10
72.48854822600001
 20
31.136454073
 30
0.0
 11
72.5295160567
 21
31.1343199603
 31
0.0
  0
LINE
  5
15A4
330
220
100
AcDbEntity
  8
0
  6
Continuous
 62
     7
100
AcDbLine
 10
72.71406749029999
 20
31.2072733905
 30
0.0
 11
72.7444780419
 21
31.2056377985
 31
0.0
  0
LINE
  5
15A5
330
220
100
AcDbEntity
  8
0
  6
Continuous
 62
     7
100
AcDbLine
 10
72.56217383860001
 20
31.1325898384
 30
0.0
 11
72.597147263
 21
31.1307034642
 31
0.0
  0
LINE
  5
15A6
330
220
100
AcDbEntity
  8
0
  6
Continuous
 62
     7
100
AcDbLine
 10
72.597147263
 20
31.1307034642
 30
0.0
 11
72.627445252
 21
31.1290399826
 31
0.0
  0
LWPOLYLINE
  5
15A7
330
220
100
AcDbEntity
  8
0
  6
Continuous
 62
     7
100
AcDbPolyline
 90
        8
 70
     0
 43
0.0
 10
72.7444780419
 20
31.2056377985
 10
72.7818741976
 20
31.203588117
 10
72.8036391856
 20
31.2023747565
 10
72.8277213759
 20
31.2010138841
 10
72.85432370959999
 20
31.1994872805
 10
72.8836849808
 20
31.1977725797
 10
72.9160282592
 20
31.1958455948
 10
72.95160051669999
 20
31.1936773398
  0
LINE
  5
15A8
330
220
100
AcDbEntity
  8
0
  6
Continuous
 62
     7
100
AcDbLine
 10
72.627445252
 20
31.1290399826
 30
0.0
 11
72.6647026342
 21
31.1269550775
 31
0.0
  0
LWPOLYLINE
  5
15A9
330
220
100
AcDbEntity
  8
0
  6
Continuous
 62
     7
100
AcDbPolyline
 90
        6
 70
     0
 43
0.0
 10
72.6647026342
 20
31.1269550775
 10
72.71037921930001
 20
31.1243362499
 10
72.73688233930001
 20
31.1227830479
 10
72.7661338783
 20
31.12103836280001
 10
72.79835604350001
 20
31.1190775744
 10
72.8337946498
 20
31.1168710146
  0
LWPOLYLINE
  5
15AA
330
220
100
AcDbEntity
  8
0
  6
Continuous
 62
     7
100
AcDbPolyline
 90
       20
 70
     0
 43
0.0
 10
69.3237683846
 20
28.6085662793
 10
69.2952512706
 20
28.6116418052
 10
69.25872113300001
 20
28.6143069171
 10
69.21425301140001
 20
28.6165460347
 10
69.162127132
 20
28.6183530841
 10
69.10287669199999
 20
28.6197151126
 10
69.0368302496
 20
28.6206187139
 10
68.964881792
 20
28.6210407862
 10
68.8888377117
 20
28.6209839644
 10
68.8111951641
 20
28.6204971696
 10
68.73486089020001
 20
28.6196592809
 10
68.661252555
 20
28.6185495855
 10
68.5901326011
 20
28.6172141718
 10
68.52073938470001
 20
28.6156805385
 10
68.45245452100001
 20
28.61396660489999
 10
68.38495824399998
 20
28.6120850564
 10
68.3179221698
 20
28.6100384331
 10
68.2509554442
 20
28.6078200711
 10
68.18363200260001
 20
28.6054148745
 10
68.11548800130001
 20
28.6027989718
  0
LWPOLYLINE
  5
15AB
330
220
100
AcDbEntity
  8
0
  6
Continuous
 62
     7
100
AcDbPolyline
 90
        4
 70
     0
 43
0.0
 10
57.9139143559
 20
26.0766904231
 10
57.9504886435
 20
26.059129004
 10
58.0320362403
 20
25.9915727629
 10
58.08660990819999
 20
25.9246871894
  0
LWPOLYLINE
  5
15AC
330
220
100
AcDbEntity
  8
0
  6
Continuous
 62
     7
100
AcDbPolyline
 90
        3
 70
     0
 43
0.0
 10
57.6280799296
 20
24.1000367388
 10
57.59808732279999
 20
24.122389385
 10
57.56892733489999
 20
24.1487834579
  0
LINE
  5
15AD
330
220
100
AcDbEntity
  8
0
  6
Continuous
 62
     7
100
AcDbLine
 10
57.1154891888
 20
23.7391904231
 30
0.0
 11
56.9688909289
 21
23.8857886831
 31
0.0
  0
LINE
  5
15AE
330
220
100
AcDbEntity
  8
0
  6
Continuous
 62
     7
100
AcDbLine
 10
42.2212700031
 20
25.2641904231
 30
0.0
 11
42.3887382483
 21
25.7016904231
 31
0.0
  0
LWPOLYLINE
  5
15AF
330
220
100
AcDbEntity
  8
2_PLANES_JETS
  6
Continuous
 62
     7
100
AcDbPolyline
 90
       21
 70
     0
 43
0.0
 10
33.7093336675
 20
28.9086290607
 10
33.7131542412
 20
28.9096972874
 10
33.7181459237
 20
28.91106589239999
 10
33.7254156009
 20
28.9130247742
 10
33.735168556
 20
28.9155996283
 10
33.7476315116
 20
28.9188190835
 10
33.7630670988
 20
28.9227134912
 10
33.7817741216
 20
28.9273156093
 10
33.8040967452
 20
28.9326613693
 10
33.8304340896
 20
28.9387908412
 10
33.86125267020001
 20
28.9457494664
 10
33.8971031378
 20
28.9535896481
 10
33.9386409849
 20
28.9623725031
 10
33.9866518218
 20
28.9721695718
 10
34.0420797812
 20
28.9830651406
 10
34.1060732814
 20
28.9951601559
 10
34.1800513099
 20
29.0085767665
 10
34.2657882114
 20
29.02346488860001
 10
34.3654514812
 20
29.0399901719
 10
34.4801575591
 20
29.0581090993
 10
34.6077941266
 20
29.0773032071
  0
LWPOLYLINE
  5
15B0
330
220
100
AcDbEntity
  8
0
  6
Continuous
 62
     7
100
AcDbPolyline
 90
        3
 70
     0
 43
0.0
 10
34.5770170752
 20
28.8767677819
 10
34.565775432
 20
28.8736617266
 10
34.5622480602
 20
28.8703983533
  0
LINE
  5
15B1
330
220
100
AcDbEntity
  8
0
  6
Continuous
 62
     7
100
AcDbLine
 10
30.8862346553
 20
32.2785983404
 30
0.0
 11
30.92179964
 21
32.282019424
 31
0.0
  0
LINE
  5
15B2
330
220
100
AcDbEntity
  8
0
  6
Continuous
 62
     7
100
AcDbLine
 10
30.8992213517
 20
32.4289713931
 30
0.0
 11
30.9316320203
 21
32.4320758337
 31
0.0
  0
LWPOLYLINE
  5
15B3
330
220
100
AcDbEntity
  8
0
  6
Continuous
 62
     7
100
AcDbPolyline
 90
        3
 70
     0
 43
0.0
 10
31.0064265537
 20
32.4390307402
 10
31.0231503744
 20
32.4406273035
 10
31.0318624613
 20
32.4413567411
  0
LINE
  5
15B4
330
220
100
AcDbEntity
  8
0
  6
Continuous
 62
     7
100
AcDbLine
 10
30.92179964
 20
32.282019424
 30
0.0
 11
30.9511754821
 21
32.2847923448
 31
0.0
  0
LINE
  5
15B5
330
220
100
AcDbEntity
  8
0
  6
Continuous
 62
     7
100
AcDbLine
 10
30.9316320203
 20
32.4320758337
 30
0.0
 11
30.9686690215
 21
32.4355734828
 31
0.0
  0
LWPOLYLINE
  5
15B6
330
220
100
AcDbEntity
  8
0
  6
Continuous
 62
     7
100
AcDbPolyline
 90
        3
 70
     0
 43
0.0
 10
31.0318624613
 20
32.4413567411
 10
31.0383313885
 20
32.4419645476
 10
31.0418827732
 20
32.442269909
  0
LWPOLYLINE
  5
15B7
330
220
100
AcDbEntity
  8
0
  6
Continuous
 62
     7
100
AcDbPolyline
 90
        3
 70
     0
 43
0.0
 10
31.0121438202
 20
32.2904031398
 10
31.0288536122
 20
32.2919772164
 10
31.0348412406
 20
32.2924781186
  0
LINE
  5
15B8
330
220
100
AcDbEntity
  8
0
  6
Continuous
 62
     7
100
AcDbLine
 10
30.9511754821
 20
32.2847923448
 30
0.0
 11
30.9841256098
 21
32.2878638561
 31
0.0
  0
LWPOLYLINE
  5
15B9
330
220
100
AcDbEntity
  8
0
  6
Continuous
 62
     7
100
AcDbPolyline
 90
        3
 70
     0
 43
0.0
 10
30.9686690215
 20
32.4355734828
 10
30.98777977300001
 20
32.43733955110001
 10
31.0064265537
 20
32.4390307402
  0
LINE
  5
15BA
330
220
100
AcDbEntity
  8
0
  6
Continuous
 62
     7
100
AcDbLine
 10
30.9841256098
 20
32.2878638561
 30
0.0
 11
31.0121438202
 21
32.2904031398
 31
0.0
  0
LINE
  5
15BB
330
220
100
AcDbEntity
  8
0
  6
Continuous
 62
     7
100
AcDbLine
 10
31.0418827732
 20
32.442269909
 30
0.0
 11
31.0493528267
 21
32.4428397212
 31
0.0
  0
LINE
  5
15BC
330
220
100
AcDbEntity
  8
0
  6
Continuous
 62
     7
100
AcDbLine
 10
31.0443222188
 20
32.2932045732
 30
0.0
 11
31.0515279765
 21
32.2937509599
 31
0.0
  0
LWPOLYLINE
  5
15BD
330
220
100
AcDbEntity
  8
0
  6
Continuous
 62
     7
100
AcDbPolyline
 90
       34
 70
     0
 43
0.0
 10
31.0493528267
 20
32.4428397212
 10
31.05928254030001
 20
32.44355460179999
 10
31.0659642359
 20
32.4440006693
 10
31.0738967389
 20
32.4444971716
 10
31.0832540407
 20
32.4450467901
 10
31.0943301715
 20
32.4456554961
 10
31.1074680966
 20
32.4463262567
 10
31.1230750598
 20
32.4470621865
 10
31.1416543227
 20
32.44786728280001
 10
31.1637858841
 20
32.448742004
 10
31.1903458934
 20
32.4496925027
 10
31.2227569534
 20
32.4507327007
 10
31.2626329721
 20
32.45186599570001
 10
31.311064075
 20
32.4530672168
 10
31.370536673
 20
32.4543301754
 10
31.44456823880001
 20
32.455640327
 10
31.5314427063
 20
32.4568842042
 10
31.6262389942
 20
32.4579388333
 10
31.7171361366
 20
32.4587113239
 10
31.7979819867
 20
32.4592260083
 10
31.8709165354
 20
32.459555154
 10
31.9359859509
 20
32.4597672553
 10
31.9938578077
 20
32.459903164
 10
32.0457409794
 20
32.4599463506
 10
32.0921889757
 20
32.459906079
 10
32.1334540011
 20
32.4598038421
 10
32.1702615488
 20
32.4596522884
 10
32.2044867635
 20
32.459456439
 10
32.2383678411
 20
32.4592142847
 10
32.2726241564
 20
32.4589258313
 10
32.306872881
 20
32.45860399250001
 10
32.34088065130001
 20
32.4582366998
 10
32.373579084
 20
32.45784112280001
 10
32.4043113216
 20
32.4577256188
  0
LINE
  5
15BE
330
220
100
AcDbEntity
  8
0
  6
Continuous
 62
     7
100
AcDbLine
 10
31.0515279765
 20
32.2937509599
 30
0.0
 11
31.0598749647
 21
32.294346831
 31
0.0
  0
LWPOLYLINE
  5
15BF
330
220
100
AcDbEntity
  8
0
  6
Continuous
 62
     7
100
AcDbPolyline
 90
        3
 70
     0
 43
0.0
 10
31.0348412983
 20
32.2924781683
 10
31.037701446
 20
32.29266569070001
 10
31.0443222188
 20
32.2932045732
  0
LWPOLYLINE
  5
15C0
330
220
100
AcDbEntity
  8
0
  6
Continuous
 62
     7
100
AcDbPolyline
 90
       21
 70
     0
 43
0.0
 10
31.0598749647
 20
32.294346831
 10
31.0720051797
 20
32.2951511965
 10
31.0798950735
 20
32.29563686440001
 10
31.0891835841
 20
32.2961785146
 10
31.1001525359
 20
32.296783382
 10
31.1131308588
 20
32.2974567907
 10
31.1285151663
 20
32.298204461
 10
31.1467916659
 20
32.2990338116
 10
31.1685205155
 20
32.2999500222
 10
31.1945567821
 20
32.30096623170001
 10
31.2262853854
 20
32.3021068349
 10
31.2652868806
 20
32.3033905352
 10
31.3126363467
 20
32.3048099134
 10
31.370792761
 20
32.3063911236
 10
31.4432564143
 20
32.3081682736
 10
31.5284502605
 20
32.3100512641
 10
31.6216521501
 20
32.3119185104
 10
31.7112731104
 20
32.3135689445
 10
31.7912074644
 20
32.3149452786
 10
31.8635132897
 20
32.31613122320001
 10
31.9281380499
 20
32.3171478458
  0
LWPOLYLINE
  5
15C1
330
220
100
AcDbEntity
  8
0
  6
Continuous
 62
     7
100
AcDbPolyline
 90
       12
 70
     0
 43
0.0
 10
31.9281380499
 20
32.3171478458
 10
32.0375475085
 20
32.3187823771
 10
32.084144636
 20
32.3195098603
 10
32.1256658793
 20
32.3202129027
 10
32.1627634468
 20
32.3208910996
 10
32.197290731
 20
32.3215636375
 10
32.2314854166
 20
32.3222631574
 10
32.266101994
 20
32.3230028493
 10
32.3008006673
 20
32.3237866421
 10
32.3350345857
 20
32.324584287
 10
32.3686884775
 20
32.32540185
 10
32.4013704869
 20
32.3265084856
  0
LWPOLYLINE
  5
15C2
330
220
100
AcDbEntity
  8
0
  6
Continuous
 62
     7
100
AcDbPolyline
 90
        6
 70
     0
 43
0.0
 10
32.4851603814
 20
32.4579241532
 10
32.5666067419
 20
32.4581970938
 10
32.6097912589
 20
32.4583269331
 10
32.6579382992
 20
32.4584691024
 10
32.71320096570001
 20
32.4586346555
 10
32.776116995
 20
32.4588264088
  0
LINE
  5
15C3
330
220
100
AcDbEntity
  8
0
  6
Continuous
 62
     7
100
AcDbLine
 10
32.776116995
 20
32.4588264088
 30
0.0
 11
33.4654475457
 21
32.4608842353
 31
0.0
  0
LINE
  5
15C4
330
220
100
AcDbEntity
  8
0
  6
Continuous
 62
     7
100
AcDbLine
 10
33.4654475457
 20
32.4608842353
 30
0.0
 11
34.3878438853
 21
32.4634700959
 31
0.0
  0
LWPOLYLINE
  5
15C5
330
220
100
AcDbEntity
  8
0
  6
Continuous
 62
     7
100
AcDbPolyline
 90
       18
 70
     0
 43
0.0
 10
34.3878438853
 20
32.4634700959
 10
35.23735937570001
 20
32.4656884083
 10
35.5898842322
 20
32.4665642547
 10
35.9845803414
 20
32.4675148855
 10
36.4273888875
 20
32.468544046
 10
36.9246646535
 20
32.4696524841
 10
37.4839905365
 20
32.4708395698
 10
38.1146147708
 20
32.4721055529
 10
38.8266407062
 20
32.4734454003
 10
39.6328030803
 20
32.4748485553
 10
40.5481013294
 20
32.4763005963
 10
41.5897545658
 20
32.4777782485
 10
42.7801047546
 20
32.4792487001
 10
44.14449560619999
 20
32.4806637952
 10
45.71525246180001
 20
32.4819580498
 10
47.53295226659999
 20
32.4830453941
 10
49.64499776850001
 20
32.4838087173
 10
52.1154891672
 20
32.4841009224
  0
LWPOLYLINE
  5
15C6
330
220
100
AcDbEntity
  8
0
  6
Continuous
 62
     7
100
AcDbPolyline
 90
        3
 70
     0
 43
0.0
 10
32.4043113216
 20
32.4577256188
 10
32.444699144
 20
32.4578077945
 10
32.4851603814
 20
32.4579241532
  0
LINE
  5
15C7
330
220
100
AcDbEntity
  8
0
  6
Continuous
 62
     7
100
AcDbLine
 10
24.2769061325
 20
32.9266904231
 30
0.0
 11
79.9540722452
 21
32.9266904231
 31
0.0
  0
LWPOLYLINE
  5
15C8
330
220
100
AcDbEntity
  8
0
  6
Continuous
 62
     7
100
AcDbPolyline
 90
       18
 70
     0
 43
0.0
 10
52.1154892108
 20
32.4841009224
 10
54.58597725669999
 20
32.4838087191
 10
56.6980203511
 20
32.4830453968
 10
58.51571846239999
 20
32.4819580551
 10
60.0864741596
 20
32.4806638032
 10
61.4508642531
 20
32.4792487108
 10
62.6412139849
 20
32.4777782616
 10
63.68286699430001
 20
32.4763006114
 10
64.5981651892
 20
32.4748485722
 10
65.4043276395
 20
32.4734454185
 10
66.116353749
 20
32.4721055722
 10
66.7469782297
 20
32.4708395897
 10
67.30630441229999
 20
32.46965250440001
 10
67.8035805154
 20
32.4685440665
 10
68.2463894256
 20
32.4675149059
 10
68.6410859127
 20
32.4665642748
 10
68.99361115659999
 20
32.4656884281
 10
69.30865574870001
 20
32.4648838935
  0
LWPOLYLINE
  5
15C9
330
220
100
AcDbEntity
  8
0
  6
Continuous
 62
     7
100
AcDbPolyline
 90
        4
 70
     0
 43
0.0
 10
69.30865574870001
 20
32.4648838935
 10
69.8431278088
 20
32.4634701139
 10
70.0694518648
 20
32.46285256210001
 10
70.27251782899999
 20
32.4622891939
  0
LWPOLYLINE
  5
15CA
330
220
100
AcDbEntity
  8
0
  6
Continuous
 62
     7
100
AcDbPolyline
 90
        6
 70
     0
 43
0.0
 10
70.27251782899999
 20
32.4622891939
 10
70.6184356661
 20
32.4613092046
 10
70.76552590840001
 20
32.4608842496
 10
70.8977167213
 20
32.4604984146
 10
71.0166244409
 20
32.4601488674
 10
71.1235251922
 20
32.4598326888
  0
LINE
  5
15CB
330
220
100
AcDbEntity
  8
0
  6
Continuous
 62
     7
100
AcDbLine
 10
71.5730375804
 20
32.4584691099
 30
0.0
 11
71.62118468590001
 21
32.45832694030001
 31
0.0
  0
LWPOLYLINE
  5
15CC
330
220
100
AcDbEntity
  8
0
  6
Continuous
 62
     7
100
AcDbPolyline
 90
        5
 70
     0
 43
0.0
 10
71.1235251922
 20
32.4598326888
 10
71.3061493103
 20
32.4592838791
 10
71.3843338669
 20
32.4590437263
 10
71.45485841020001
 20
32.458826418
 10
71.5730375804
 20
32.4584691099
  0
LWPOLYLINE
  5
15CD
330
220
100
AcDbEntity
  8
0
  6
Continuous
 62
     7
100
AcDbPolyline
 90
        5
 70
     0
 43
0.0
 10
71.62118468590001
 20
32.45832694030001
 10
71.7053259008
 20
32.4580656664
 10
71.7458170479
 20
32.4579241564
 10
71.7862791094
 20
32.4578077949
 10
71.826667056
 20
32.4577256188
  0
LWPOLYLINE
  5
15CE
330
220
100
AcDbEntity
  8
0
  6
Continuous
 62
     7
100
AcDbPolyline
 90
       11
 70
     0
 43
0.0
 10
74.0845333444
 20
32.3433694479
 10
74.07080656869999
 20
32.3435271226
 10
74.0588523725
 20
32.3459938265
 10
74.04861531859999
 20
32.3504511389
 10
74.0400052885
 20
32.3565897864
 10
74.03285749590001
 20
32.3641822923
 10
74.02697922909999
 20
32.3731604112
 10
74.0222378261
 20
32.3836001512
 10
74.01858278729999
 20
32.3957255887
 10
74.0161038841
 20
32.4096488077
 10
74.0149380002
 20
32.4252397364
  0
LWPOLYLINE
  5
15CF
330
220
100
AcDbEntity
  8
0
  6
Continuous
 62
     7
100
AcDbPolyline
 90
       22
 70
     0
 43
0.0
 10
72.1949464378
 20
32.3187594948
 10
72.30570600580001
 20
32.3171037554
 10
72.3712622977
 20
32.3160701642
 10
72.44471252470001
 20
32.3148623938
 10
72.5261156921
 20
32.313454935
 10
72.6177358569
 20
32.3117569096
 10
72.7123374602
 20
32.3098439859
 10
72.7978209214
 20
32.30793139340001
 10
72.86997563119999
 20
32.306135771
 10
72.9274618178
 20
32.3045467814
 10
72.97429878310001
 20
32.30311700090001
 10
73.0126369722
 20
32.30183028760001
 10
73.0436856045
 20
32.3006906257
 10
73.0692059315
 20
32.2996728192
 10
73.09051731850001
 20
32.298753112
 10
73.1083389261
 20
32.29792475
 10
73.1232040835
 20
32.2971840309
 10
73.1356460728
 20
32.29652187550001
 10
73.1461970462
 20
32.2959254687
 10
73.15532780789999
 20
32.2953788441
 10
73.16340207180001
 20
32.2948662287
 10
73.17056146529999
 20
32.2943843727
  0
LWPOLYLINE
  5
15D0
330
220
100
AcDbEntity
  8
0
  6
Continuous
 62
     7
100
AcDbPolyline
 90
       11
 70
     0
 43
0.0
 10
71.8296078908
 20
32.3265084856
 10
71.86173250510001
 20
32.3254173843
 10
71.8952358588
 20
32.3246004166
 10
71.92956137999999
 20
32.3238010352
 10
71.9644779372
 20
32.3230115704
 10
71.99932720460001
 20
32.3222666209
 10
72.0337491053
 20
32.3215624085
 10
72.06853538449999
 20
32.3208850368
 10
72.105918593
 20
32.3202022222
 10
72.1478372668
 20
32.3194935723
 10
72.1949464378
 20
32.3187594948
  0
LINE
  5
15D1
330
220
100
AcDbEntity
  8
0
  6
Continuous
 62
     7
100
AcDbLine
 10
73.1934153704
 20
32.29265537590001
 30
0.0
 11
73.19613707939999
 21
32.2924781683
 31
0.0
  0
LWPOLYLINE
  5
15D2
330
220
100
AcDbEntity
  8
0
  6
Continuous
 62
     7
100
AcDbPolyline
 90
        4
 70
     0
 43
0.0
 10
73.17056146529999
 20
32.2943843727
 10
73.18216996709999
 20
32.2935495484
 10
73.1865982849
 20
32.2932090337
 10
73.1934153704
 20
32.29265537590001
  0
LWPOLYLINE
  5
15D3
330
220
100
AcDbEntity
  8
0
  6
Continuous
 62
     7
100
AcDbPolyline
 90
        6
 70
     0
 43
0.0
 10
73.1766279129
 20
32.4432058432
 10
73.18817870290001
 20
32.4423437008
 10
73.1925896635
 20
32.4419696272
 10
73.1962459321
 20
32.4416265474
 10
73.1992472176
 20
32.4413448677
 10
73.20839430779999
 20
32.4405763373
  0
LWPOLYLINE
  5
15D4
330
220
100
AcDbEntity
  8
0
  6
Continuous
 62
     7
100
AcDbPolyline
 90
        3
 70
     0
 43
0.0
 10
73.19613713709999
 20
32.2924781186
 10
73.20268455850001
 20
32.2919269345
 10
73.22103736639999
 20
32.2902008786
  0
LINE
  5
15D5
330
220
100
AcDbEntity
  8
0
  6
Continuous
 62
     7
100
AcDbLine
 10
73.22103736639999
 20
32.2902008786
 30
0.0
 11
73.24117611189999
 21
32.2883835174
 31
0.0
  0
LINE
  5
15D6
330
220
100
AcDbEntity
  8
0
  6
Continuous
 62
     7
100
AcDbLine
 10
73.22674424659999
 20
32.4388277023
 30
0.0
 11
73.2468504072
 21
32.4370071679
 31
0.0
  0
LINE
  5
15D7
330
220
100
AcDbEntity
  8
0
  6
Continuous
 62
     7
100
AcDbLine
 10
73.24117611189999
 20
32.2883835174
 30
0.0
 11
73.2624559306
 21
32.28641712530001
 31
0.0
  0
LINE
  5
15D8
330
220
100
AcDbEntity
  8
0
  6
Continuous
 62
     7
100
AcDbLine
 10
73.2468504072
 20
32.4370071679
 30
0.0
 11
73.2681205585
 21
32.4350278627
 31
0.0
  0
LINE
  5
15D9
330
220
100
AcDbEntity
  8
0
  6
Continuous
 62
     7
100
AcDbLine
 10
73.2624559306
 20
32.28641712530001
 30
0.0
 11
73.2895060993
 21
32.2838802875
 31
0.0
  0
LWPOLYLINE
  5
15DA
330
220
100
AcDbEntity
  8
0
  6
Continuous
 62
     7
100
AcDbPolyline
 90
        9
 70
     0
 43
0.0
 10
73.2681205585
 20
32.4350278627
 10
73.31138816069999
 20
32.4309299169
 10
73.32940694199999
 20
32.429198729
 10
73.3492653351
 20
32.4272673932
 10
73.3712280534
 20
32.42510528429999
 10
73.3955379857
 20
32.4226798502
 10
73.4224160432
 20
32.4199562514
 10
73.452056982
 20
32.4168983113
 10
73.48470334489999
 20
32.4134610593
  0
LWPOLYLINE
  5
15DB
330
220
100
AcDbEntity
  8
0
  6
Continuous
 62
     7
100
AcDbPolyline
 90
        8
 70
     0
 43
0.0
 10
73.2895060993
 20
32.2838802875
 10
73.3238042685
 20
32.2806217082
 10
73.34368167529999
 20
32.2787015641
 10
73.36566660310001
 20
32.2765519818
 10
73.3900015354
 20
32.2741403877
 10
73.416907701
 20
32.2714323242
 10
73.44658036050001
 20
32.2683920383
 10
73.4792626168
 20
32.2649746026
  0
LINE
  5
15DC
330
220
100
AcDbEntity
  8
0
  6
Continuous
 62
     7
100
AcDbLine
 10
73.20839430779999
 20
32.4405763373
 30
0.0
 11
73.22674424659999
 21
32.4388277023
 31
0.0
  0
LINE
  5
15DD
330
220
100
AcDbEntity
  8
0
  6
Continuous
 62
     7
100
AcDbLine
 10
73.4792626168
 20
32.2649746026
 30
0.0
 11
73.51100372239999
 21
32.2615828098
 31
0.0
  0
LWPOLYLINE
  5
15DE
330
220
100
AcDbEntity
  8
2_PLANES_JETS
  6
Continuous
 62
     7
100
AcDbPolyline
 90
       20
 70
     0
 43
0.0
 10
70.51782412899999
 20
28.9096972895
 10
70.51283243669999
 20
28.9110658971
 10
70.5055627447
 20
28.9130247827
 10
70.4958097695
 20
28.915599642
 10
70.48334678729999
 20
28.9188191036
 10
70.4679111665
 20
28.9227135192
 10
70.4492041017
 20
28.9273156468
 10
70.4268814265
 20
28.9326614179
 10
70.40054401919999
 20
28.9387909028
 10
70.36972536260001
 20
28.9457495431
 10
70.3338748031
 20
28.9535897421
 10
70.2923368452
 20
28.962372617
 10
70.24432587479999
 20
28.9721697083
 10
70.18889775409999
 20
28.9830653031
 10
70.1249040582
 20
28.9951603483
 10
70.0509257912
 20
29.0085769933
 10
69.9651885976
 20
29.023465155
 10
69.8655249768
 20
29.0399904836
 10
69.7508185864
 20
29.0581094414
 10
69.6231842511
 20
29.0773032071
  0
LINE
  5
15DF
330
220
100
AcDbEntity
  8
2_PLANES_JETS
  6
Continuous
 62
     7
100
AcDbLine
 10
70.52164471020001
 20
28.9086290607
 30
0.0
 11
70.51782412899999
 21
28.9096972895
 31
0.0
  0
LWPOLYLINE
  5
15E0
330
220
100
AcDbEntity
  8
0
  6
Continuous
 62
     7
100
AcDbPolyline
 90
       37
 70
     0
 43
0.0
 10
57.56892733489999
 20
24.1487834579
 10
57.5407359233
 20
24.1790958959
 10
57.5136445293
 20
24.2131853686
 10
57.4877794656
 20
24.2508929351
 10
57.4632613269
 20
24.2920427853
 10
57.4402044283
 20
24.3364430595
 10
57.4187162715
 20
24.3838867434
 10
57.39889704439999
 20
24.4341526323
 10
57.3808391532
 20
24.4870063637
 10
57.3646267922
 20
24.542201509
 10
57.3503355509
 20
24.5994807229
 10
57.3380320617
 20
24.6585769434
 10
57.3277736892
 20
24.7192146365
 10
57.31960826249999
 20
24.7811110814
 10
57.3135738527
 20
24.8439776882
 10
57.309698595
 20
24.9075213438
 10
57.3080005577
 20
24.9714457784
 10
57.30848765760001
 20
25.0354529466
 10
57.3111576239
 20
25.0992444177
 10
57.31599800779999
 20
25.1625227662
 10
57.3229862413
 20
25.2249929593
 10
57.332089742
 20
25.2863637322
 10
57.3432660651
 20
25.3463489459
 10
57.35646310149999
 20
25.4046689217
 10
57.3716193205
 20
25.4610517449
 10
57.3886640569
 20
25.5152345328
 10
57.4075178401
 20
25.5669646603
 10
57.4280927652
 20
25.6160009376
 10
57.4502929024
 20
25.6621147349
 10
57.4740147443
 20
25.7050910484
 10
57.4991476888
 20
25.7447295027
 10
57.52557455439999
 20
25.78084528510001
 10
57.5531721271
 20
25.8132700071
 10
57.5818117341
 20
25.8418524896
 10
57.6113598443
 20
25.866459468
 10
57.6416786908
 20
25.8869762131
 10
57.6726269133
 20
25.9033070664
  0
LWPOLYLINE
  5
15E1
330
220
100
AcDbEntity
  8
0
  6
Continuous
 62
     7
100
AcDbPolyline
 90
        5
 70
     0
 43
0.0
 10
56.7482614172
 20
24.0706317696
 10
56.8176512875
 20
23.9868080834
 10
56.8991988842
 20
23.9192518423
 10
56.985026557
 20
23.87804104
 10
57.0730209436
 20
23.8641904231
  0
LINE
  5
15E2
330
220
100
AcDbEntity
  8
0
  6
Continuous
 62
     7
100
AcDbLine
 10
56.6400082417
 20
24.2237248785
 30
0.0
 11
56.7482614172
 21
24.0706317696
 31
0.0
  0
LINE
  5
15E3
330
220
100
AcDbEntity
  8
0
  6
Continuous
 62
     7
100
AcDbLine
 10
50.9904891888
 20
24.4891904231
 30
0.0
 11
50.9904891888
 21
23.7091904231
 31
0.0
  0
LINE
  5
15E4
330
220
100
AcDbEntity
  8
0
  6
Continuous
 62
     7
100
AcDbLine
 10
51.1304891888
 20
24.6291904231
 30
0.0
 11
51.1304891888
 21
25.5434313137
 31
0.0
  0
LWPOLYLINE
  5
15E5
330
220
100
AcDbEntity
  8
0
  6
Continuous
 62
     7
100
AcDbPolyline
 90
        3
 70
     0
 43
0.0
 10
30.58277874010001
 20
31.12393968780001
 10
30.5459122706
 20
31.1113250627
 10
30.5362477511
 20
31.0964361168
  0
LWPOLYLINE
  5
15E6
330
220
100
AcDbEntity
  8
0
  6
Continuous
 62
     7
100
AcDbPolyline
 90
        5
 70
     0
 43
0.0
 10
73.0315142796
 20
31.1570283848
 10
73.0915312649
 20
31.1441185012
 10
73.1690372569
 20
31.1351474863
 10
73.26405992979999
 20
31.130881185
 10
73.376739954
 20
31.1318892288
  0
LINE
  5
15E7
330
220
100
AcDbEntity
  8
0
  6
Continuous
 62
     7
100
AcDbLine
 10
53.1004891888
 20
24.6291904231
 30
0.0
 11
53.1004891888
 21
25.5434313137
 31
0.0
  0
LINE
  5
15E8
330
220
100
AcDbEntity
  8
0
  6
Continuous
 62
     7
100
AcDbLine
 10
53.24048918879999
 20
24.4891904231
 30
0.0
 11
53.24048918879999
 21
23.7091904231
 31
0.0
  0
LINE
  5
15E9
330
220
100
AcDbEntity
  8
0
  6
Continuous
 62
     7
100
AcDbLine
 10
54.8654891888
 20
22.9266904231
 30
0.0
 11
54.8654891888
 21
23.7391904231
 31
0.0
  0
LINE
  5
15EA
330
220
100
AcDbEntity
  8
0
  6
Continuous
 62
     7
100
AcDbLine
 10
57.1154891888
 20
22.9266904231
 30
0.0
 11
57.1154891888
 21
23.7391904231
 31
0.0
  0
LWPOLYLINE
  5
15EB
330
220
100
AcDbEntity
  8
0
  6
Continuous
 62
     7
100
AcDbPolyline
 90
        4
 70
     0
 43
0.0
 10
36.9821610901
 20
26.0766904231
 10
36.99374087010001
 20
26.080106021
 10
37.0080243356
 20
26.0842086438
 10
37.0277226153
 20
26.0896668024
  0
LWPOLYLINE
  5
15EC
330
220
100
AcDbEntity
  8
0
  6
Continuous
 62
     7
100
AcDbPolyline
 90
       12
 70
     0
 43
0.0
 10
74.03559118459999
 20
32.2273561409
 10
74.0234434603
 20
32.2345533952
 10
74.01199004850001
 20
32.2445003525
 10
74.00128098899999
 20
32.2567702433
 10
73.9913488993
 20
32.2709566281
 10
73.982160875
 20
32.2867541949
 10
73.9736129172
 20
32.30404956520001
 10
73.9655736734
 20
32.3229166245
 10
73.9579179257
 20
32.343594667
 10
73.9505712416
 20
32.3663896455
 10
73.94358957609999
 20
32.3913502367
 10
73.9371065241
 20
32.4181881701
  0
LINE
  5
15ED
330
220
100
AcDbEntity
  8
0
  6
Continuous
 62
     7
100
AcDbLine
 10
62.0161897697
 20
23.49564987489999
 30
0.0
 11
61.20804371560001
 21
26.5116920086
 31
0.0
  0
LINE
  5
15EE
330
220
100
AcDbEntity
  8
0
  6
Continuous
 62
     7
100
AcDbLine
 10
62.136930498
 20
23.5280022555
 30
0.0
 11
61.3374532382
 21
26.5116920086
 31
0.0
  0
LINE
  5
15EF
330
220
100
AcDbEntity
  8
0
  6
Continuous
 62
     7
100
AcDbLine
 10
62.3558311608
 20
23.9724425995
 30
0.0
 11
62.4656590338
 21
23.5625593975
 31
0.0
  0
LINE
  5
15F0
330
220
100
AcDbEntity
  8
0
  6
Continuous
 62
     7
100
AcDbLine
 10
62.4656590338
 20
23.5625593975
 30
0.0
 11
62.49915268279999
 21
23.2500593975
 31
0.0
  0
LWPOLYLINE
  5
15F1
330
220
100
AcDbEntity
  8
0
  6
Continuous
 62
     7
100
AcDbPolyline
 90
        8
 70
     0
 43
0.0
 10
52.8102958199
 20
25.6301598676
 10
52.7363850819
 20
25.5294357803
 10
52.6514835919
 20
25.4427434437
 10
52.56152233
 20
25.3731789356
 10
52.4592876129
 20
25.3146617285
 10
52.347610369
 20
25.270788052
 10
52.2310765345
 20
25.2442013103
 10
52.1154891888
 20
25.2355966107
  0
LINE
  5
15F2
330
220
100
AcDbEntity
  8
0
  6
Continuous
 62
     7
100
AcDbLine
 10
51.1304891888
 20
24.6291904231
 30
0.0
 11
50.9904891888
 21
24.4891904231
 31
0.0
  0
LWPOLYLINE
  5
15F3
330
220
100
AcDbEntity
  8
0
  6
Continuous
 62
     7
100
AcDbPolyline
 90
        5
 70
     0
 43
0.0
 10
73.4905668467
 20
31.0542296143
 10
73.4891847359
 20
31.0551866241
 10
73.4926407296
 20
31.0566434568
 10
73.50112454419999
 20
31.0586111961
 10
73.51478837710001
 20
31.0610942994
  0
LWPOLYLINE
  5
15F4
330
220
100
AcDbEntity
  8
0
  6
Continuous
 62
     7
100
AcDbPolyline
 90
        4
 70
     0
 43
0.0
 10
72.951600473
 20
31.1936776865
 10
72.9693396331
 20
31.1809966018
 10
72.9958533976
 20
31.1685156243
 10
73.0315144388
 20
31.1570283074
  0
LWPOLYLINE
  5
15F5
330
220
100
AcDbEntity
  8
0
  6
Continuous
 62
     7
100
AcDbPolyline
 90
       13
 70
     0
 43
0.0
 10
56.6400082417
 20
25.7546559678
 10
56.57918487669999
 20
25.6521030305
 10
56.53141446430001
 20
25.5402390972
 10
56.49298187220001
 20
25.4148065166
 10
56.46483343839999
 20
25.2788938554
 10
56.4476622707
 20
25.1358477341
 10
56.44189118039999
 20
24.9891904231
 10
56.4476622707
 20
24.8425331122
 10
56.46483343839999
 20
24.69948699090001
 10
56.49298187220001
 20
24.5635743296
 10
56.53141446430001
 20
24.4381417491
 10
56.57918487669999
 20
24.3262778158
 10
56.6400082417
 20
24.2237248785
  0
LWPOLYLINE
  5
15F6
330
220
100
AcDbEntity
  8
0
  6
Continuous
 62
     7
100
AcDbPolyline
 90
       13
 70
     0
 43
0.0
 10
56.7482614172
 20
25.9077490767
 10
56.6752733792
 20
25.784685552
 10
56.61794888420001
 20
25.650448832
 10
56.57182977369999
 20
25.49992973530001
 10
56.5380516532
 20
25.3368345418
 10
56.517446252
 20
25.1651791963
 10
56.5105209436
 20
24.9891904231
 10
56.517446252
 20
24.81320165
 10
56.5380516532
 20
24.6415463045
 10
56.57182977369999
 20
24.4784511109
 10
56.61794888420001
 20
24.3279320143
 10
56.6752733792
 20
24.1936952943
 10
56.7482614172
 20
24.0706317696
  0
LINE
  5
15F7
330
220
100
AcDbEntity
  8
0
  6
Continuous
 62
     7
100
AcDbLine
 10
56.6400082417
 20
25.7546559678
 30
0.0
 11
56.7482614172
 21
25.9077490767
 31
0.0
  0
LINE
  5
15F8
330
220
100
AcDbEntity
  8
0
  6
Continuous
 62
     7
100
AcDbLine
 10
54.8654891888
 20
23.7391904231
 30
0.0
 11
55.0529891888
 21
23.9266904231
 31
0.0
  0
LWPOLYLINE
  5
15F9
330
220
100
AcDbEntity
  8
0
  6
Continuous
 62
     7
100
AcDbPolyline
 90
        4
 70
     0
 43
0.0
 10
56.93577317189999
 20
26.0766904231
 10
56.8991988842
 20
26.059129004
 10
56.8176512875
 20
25.9915727629
 10
56.7482614172
 20
25.9077490767
  0
LINE
  5
15FA
330
220
100
AcDbEntity
  8
0
  6
Continuous
 62
     7
100
AcDbLine
 10
73.5115086456
 20
31.057704291
 30
0.0
 11
73.52833905789999
 21
31.0629266511
 31
0.0
  0
LWPOLYLINE
  5
15FB
330
220
100
AcDbEntity
  8
0
  6
Continuous
 62
     7
100
AcDbPolyline
 90
        4
 70
     0
 43
0.0
 10
51.60716109009999
 20
26.0766904231
 10
51.61874087010001
 20
26.080106021
 10
51.63302433560001
 20
26.0842086438
 10
51.6527226153
 20
26.0896668024
  0
LINE
  5
15FC
330
220
100
AcDbEntity
  8
0
  6
Continuous
 62
     7
100
AcDbLine
 10
82.5190019649
 20
47.565967051
 30
0.0
 11
84.15186956540001
 21
47.56614942979999
 31
0.0
  0
LWPOLYLINE
  5
15FD
330
220
100
AcDbEntity
  8
0
  6
Continuous
 62
     7
100
AcDbPolyline
 90
        4
 70
     0
 43
0.0
 10
23.016807374
 20
47.5718778675
 10
25.4650539748
 20
47.5718021762
 10
27.8462223069
 20
47.5717371171
 10
30.2304016669
 20
47.5716798981
  0
LWPOLYLINE
  5
15FE
330
220
100
AcDbEntity
  8
0
  6
Continuous
 62
     7
100
AcDbPolyline
 90
        5
 70
     0
 43
0.0
 10
71.3397248934
 20
47.5716247652
 10
73.72582938189999
 20
47.5716737902
 10
76.173161628
 20
47.571731726
 10
78.6806031153
 20
47.5717997026
 10
81.21417100370001
 20
47.5718778675
  0
LINE
  5
15FF
330
220
100
AcDbEntity
  8
0
  6
Continuous
 62
     7
100
AcDbLine
 10
30.2304016669
 20
47.5716798981
 30
0.0
 11
35.0063124414
 21
47.5715870593
 31
0.0
  0
LINE
  5
1600
330
220
100
AcDbEntity
  8
0
  6
Continuous
 62
     7
100
AcDbLine
 10
64.16227594199999
 20
47.57151692729999
 30
0.0
 11
71.3397248934
 21
47.5716247652
 31
0.0
  0
LINE
  5
1601
330
220
100
AcDbEntity
  8
0
  6
Continuous
 62
     7
100
AcDbLine
 10
35.0063124414
 20
47.5715870593
 30
0.0
 11
42.18588906939999
 21
47.5714955006
 31
0.0
  0
LINE
  5
1602
330
220
100
AcDbEntity
  8
0
  6
Continuous
 62
     7
100
AcDbLine
 10
54.5797850172
 20
47.5714538952
 30
0.0
 11
64.16227594199999
 21
47.57151692729999
 31
0.0
  0
LWPOLYLINE
  5
1603
330
220
100
AcDbEntity
  8
0
  6
Continuous
 62
     7
100
AcDbPolyline
 90
        3
 70
     0
 43
0.0
 10
42.18588906939999
 20
47.5714955006
 10
49.5621921836
 20
47.57145409329999
 10
54.5797850172
 20
47.5714538952
  0
LINE
  5
1604
330
220
100
AcDbEntity
  8
0
  6
Continuous
 62
     7
100
AcDbLine
 10
84.0917907094
 20
47.64587676449999
 30
0.0
 11
20.1391876683
 21
47.64587676449999
 31
0.0
  0
LINE
  5
1605
330
220
100
AcDbEntity
  8
0
  6
Continuous
 62
     7
100
AcDbLine
 10
20.0791088123
 20
47.56614942979999
 30
0.0
 11
21.7119764128
 21
47.565967051
 31
0.0
  0
LWPOLYLINE
  5
1606
330
220
100
AcDbEntity
  8
0
  6
Continuous
 62
     7
100
AcDbPolyline
 90
       16
 70
     0
 43
0.0
 10
21.7119763653
 20
47.5659670381
 10
21.7486042424
 20
47.5657543056
 10
21.7927488972
 20
47.56563406589999
 10
21.8451800486
 20
47.56560033369999
 10
21.9055767921
 20
47.56565378709999
 10
21.9736623632
 20
47.5657943551
 10
22.0491609462
 20
47.5660216845
 10
22.1317873293
 20
47.5663352305
 10
22.2212079727
 20
47.566734111
 10
22.3170517097
 20
47.5672170817
 10
22.4189110142
 20
47.5677825161
 10
22.5264258685
 20
47.56842890749999
 10
22.6388155194
 20
47.5691519184
 10
22.7583132516
 20
47.5699676933
 10
22.8849260169
 20
47.5708798039
 10
23.0168073552
 20
47.5718778522
  0
LWPOLYLINE
  5
1607
330
220
100
AcDbEntity
  8
0
  6
Continuous
 62
     7
100
AcDbPolyline
 90
       16
 70
     0
 43
0.0
 10
81.21417102249999
 20
47.5718778524
 10
81.34186768140001
 20
47.57091073989999
 10
81.4627993753
 20
47.5700370575
 10
81.5800029072
 20
47.5692328022
 10
81.6927172551
 20
47.56850287209999
 10
81.80043271349999
 20
47.5678501414
 10
81.9026872084
 20
47.567277
 10
81.99905446789999
 20
47.56678546529999
 10
82.08912178410001
 20
47.56637730629999
 10
82.1725143986
 20
47.5660539222
 10
82.2488913397
 20
47.5658163967
 10
82.31798540300001
 20
47.5656654788
 10
82.37928444140001
 20
47.565602031
 10
82.43377345709999
 20
47.5656273671
 10
82.48078001919999
 20
47.5657478919
 10
82.51900201239999
 20
47.5659670381
  0
LWPOLYLINE
  5
1608
330
220
100
AcDbEntity
  8
0
  6
Continuous
 62
     7
100
AcDbPolyline
 90
        4
 70
     0
 43
0.0
 10
69.3585664152
 20
28.5970815204
 10
69.3556857337
 20
28.6012694181
 10
69.34400676600001
 20
28.6051022344
 10
69.3237683846
 20
28.6085662793
  0
LINE
  5
1609
330
220
100
AcDbEntity
  8
0
  6
Continuous
 62
     7
100
AcDbLine
 10
64.2653193439
 20
23.5625593975
 30
0.0
 11
64.23182569489999
 21
23.2500593975
 31
0.0
  0
LWPOLYLINE
  5
160A
330
220
100
AcDbEntity
  8
0
  6
Continuous
 62
     7
100
AcDbPolyline
 90
        5
 70
     0
 43
0.0
 10
58.0834948288
 20
24.0498758107
 10
58.0320362403
 20
23.9868080834
 10
57.9504886435
 20
23.9192518423
 10
57.86466097069999
 20
23.87804104
 10
57.7766665842
 20
23.8641904231
  0
LWPOLYLINE
  5
160B
330
220
100
AcDbEntity
  8
0
  6
Continuous
 62
     7
100
AcDbPolyline
 90
       22
 70
     0
 43
0.0
 10
74.1988234319
 20
32.26597986570001
 10
74.16118645720001
 20
32.2467690031
 10
74.1266769785
 20
32.2319536527
 10
74.0950499221
 20
32.2209297389
 10
74.06610603819999
 20
32.2132590851
 10
74.0396991004
 20
32.208614197
 10
74.01570993060001
 20
32.2067317592
 10
73.9940532273
 20
32.2073841133
 10
73.9746533462
 20
32.2103527827
 10
73.9574616846
 20
32.21540226630001
 10
73.9423855348
 20
32.2222786345
 10
73.9292812898
 20
32.23073207600001
 10
73.91796928019999
 20
32.2405431488
 10
73.9082474958
 20
32.2515535756
 10
73.89990433279999
 20
32.2637042216
 10
73.89273323499999
 20
32.2770825123
 10
73.8865798069
 20
32.2919086219
 10
73.88139927890001
 20
32.3083905243
 10
73.8772067255
 20
32.32676083699999
 10
73.874069992
 20
32.347248632
 10
73.8721014843
 20
32.3700121493
 10
73.8714321633
 20
32.3950466549
  0
LWPOLYLINE
  5
160C
330
220
100
AcDbEntity
  8
0
  6
Continuous
 62
     7
100
AcDbPolyline
 90
        5
 70
     0
 43
0.0
 10
74.20313963499999
 20
32.2851913351
 10
74.15726767639999
 20
32.2619295713
 10
74.1164813696
 20
32.2454770479
 10
74.0781482506
 20
32.2341401622
 10
74.0355904499
 20
32.2273558104
  0
LWPOLYLINE
  5
160D
330
220
100
AcDbEntity
  8
0
  6
Continuous
 62
     7
100
AcDbPolyline
 90
       20
 70
     0
 43
0.0
 10
57.6394188124
 20
26.0766904231
 10
57.6028445248
 20
26.059129004
 10
57.521296928
 20
25.9915727629
 10
57.4460373797
 20
25.8993345418
 10
57.3789190197
 20
25.784685552
 10
57.3215945248
 20
25.650448832
 10
57.2754754143
 20
25.49992973530001
 10
57.2416972937
 20
25.3368345418
 10
57.2210918926
 20
25.1651791963
 10
57.2141665842
 20
24.9891904231
 10
57.2210918926
 20
24.81320165
 10
57.2416972937
 20
24.6415463045
 10
57.2754754143
 20
24.4784511109
 10
57.3215945248
 20
24.3279320143
 10
57.3789190197
 20
24.1936952943
 10
57.4460373797
 20
24.0790463045
 10
57.521296928
 20
23.9868080834
 10
57.6028445248
 20
23.9192518423
 10
57.6886721976
 20
23.87804104
 10
57.7766665842
 20
23.8641904231
  0
LINE
  5
160E
330
220
100
AcDbEntity
  8
0
  6
Continuous
 62
     7
100
AcDbLine
 10
73.9371065241
 20
32.4181881701
 30
0.0
 11
73.88698408270001
 21
32.3958075985
 31
0.0
  0
LWPOLYLINE
  5
160F
330
220
100
AcDbEntity
  8
0
  6
Continuous
 62
     7
100
AcDbPolyline
 90
        5
 70
     0
 43
0.0
 10
57.6726269133
 20
25.9033070664
 10
57.7040602167
 20
25.915375886
 10
57.7358320445
 20
25.9231264014
 10
57.7677942618
 20
25.9265224761
 10
57.7766665842
 20
25.9266904231
  0
LWPOLYLINE
  5
1610
330
220
100
AcDbEntity
  8
0
  6
Continuous
 62
     7
100
AcDbPolyline
 90
       12
 70
     0
 43
0.0
 10
73.58626187989999
 20
31.0124063808
 10
73.5928355927
 20
31.014774605
 10
73.59968633359999
 20
31.0174305472
 10
73.6069115311
 20
31.0204659961
 10
73.61463429439999
 20
31.0240116472
 10
73.6230100101
 20
31.0282577729
 10
73.6322313517
 20
31.0334871922
 10
73.6425256337
 20
31.0401276127
 10
73.65412538
 20
31.0488292785
 10
73.66716965239999
 20
31.0605614339
 10
73.68148172409999
 20
31.0766975954
 10
73.68620171069999
 20
31.0837294838
  0
LINE
  5
1611
330
220
100
AcDbEntity
  8
0
  6
Continuous
 62
     7
100
AcDbLine
 10
68.4146302245
 20
27.0927836765
 30
0.0
 11
68.4020227825
 21
27.0887850699
 31
0.0
  0
LINE
  5
1612
330
220
100
AcDbEntity
  8
0
  6
Continuous
 62
     7
100
AcDbLine
 10
68.36608084229999
 20
27.0784170721
 30
0.0
 11
68.4146302245
 21
27.0927836765
 31
0.0
  0
LWPOLYLINE
  5
1613
330
220
100
AcDbEntity
  8
2_PLANES_JETS
  6
Continuous
 62
     7
100
AcDbPolyline
 90
        9
 70
     0
 43
0.0
 10
70.9156167317
 20
28.965372906
 10
71.0474796076
 20
29.0041560525
 10
71.17614716520001
 20
29.0524948227
 10
71.30092793819999
 20
29.1101294593
 10
71.42115134939999
 20
29.1767502402
 10
71.5361713228
 20
29.2519991477
 10
71.645369774
 20
29.3354718111
 10
71.748159908
 20
29.4267196729
 10
71.8439893655
 20
29.5252523952
  0
LWPOLYLINE
  5
1614
330
220
100
AcDbEntity
  8
0
  6
Continuous
 62
     7
100
AcDbPolyline
 90
        4
 70
     0
 43
0.0
 10
66.23216109010001
 20
26.0766904231
 10
66.2437408701
 20
26.080106021
 10
66.2580243356
 20
26.0842086438
 10
66.27772261529999
 20
26.0896668024
  0
LWPOLYLINE
  5
1617
330
220
100
AcDbEntity
  8
0
  6
Continuous
 62
     7
100
AcDbPolyline
 90
        6
 70
     0
 43
0.0
 10
73.5742007005
 20
32.6406596101
 10
73.51671183419999
 20
32.70883882350001
 10
73.46858989899999
 20
32.7688890719
 10
73.4255793511
 20
32.8253954678
 10
73.38738369890001
 20
32.878266544
 10
73.3542048009
 20
32.9266904231
  0
LINE
  5
1618
330
220
100
AcDbEntity
  8
0
  6
Continuous
 62
     7
100
AcDbLine
 10
68.1037823229
 20
28.8597621987
 30
0.0
 11
68.1047578951
 21
28.8285511483
 31
0.0
  0
LINE
  5
1619
330
220
100
AcDbEntity
  8
0
  6
Continuous
 62
     7
100
AcDbLine
 10
68.1154891889
 20
26.3438917542
 30
0.0
 11
68.1154891889
 21
27.0454404231
 31
0.0
  0
LINE
  5
161A
330
220
100
AcDbEntity
  8
0
  6
Continuous
 62
     7
100
AcDbLine
 10
64.3826864208
 20
24.0005792917
 30
0.0
 11
64.2653193439
 21
23.5625593975
 31
0.0
  0
LINE
  5
161B
330
220
100
AcDbEntity
  8
0
  6
Continuous
 62
     7
100
AcDbLine
 10
64.5940478797
 20
23.5280022555
 30
0.0
 11
64.59522263300001
 21
23.5323864946
 31
0.0
  0
LINE
  5
161C
330
220
100
AcDbEntity
  8
0
  6
Continuous
 62
     7
100
AcDbLine
 10
65.2365518438
 20
25.9258596934
 30
0.0
 11
65.39352513949999
 21
26.5116920086
 31
0.0
  0
LINE
  5
161D
330
220
100
AcDbEntity
  8
0
  6
Continuous
 62
     7
100
AcDbLine
 10
64.7246329054
 20
23.5323892929
 30
0.0
 11
64.71478860800001
 21
23.49564987489999
 31
0.0
  0
LINE
  5
161E
330
220
100
AcDbEntity
  8
0
  6
Continuous
 62
     7
100
AcDbLine
 10
65.36848079710001
 20
25.9352623371
 30
0.0
 11
65.5229346621
 21
26.5116920086
 31
0.0
  0
LWPOLYLINE
  5
161F
330
220
100
AcDbEntity
  8
0
  6
Continuous
 62
     7
100
AcDbPolyline
 90
       16
 70
     0
 43
0.0
 10
64.62754152879999
 20
23.6530022555
 10
64.6213369204
 20
23.6365271689
 10
64.6118491175
 20
23.6210990767
 10
64.5991656166
 20
23.6068602567
 10
64.58340338479999
 20
23.5939420194
 10
64.56470778159999
 20
23.5824634967
 10
64.54325121789999
 20
23.5725305437
 10
64.519231566
 20
23.564234762
 10
64.4928703352
 20
23.5576526554
 10
64.46441062889999
 20
23.552844924
 10
64.43411490249999
 20
23.5498559047
 10
64.40226254319999
 20
23.5487131623
 10
64.36914729359999
 20
23.5494272352
 10
64.33507454249999
 20
23.5519915381
 10
64.3003585088
 20
23.5563824231
 10
64.2653193439
 20
23.5625593975
  0
LWPOLYLINE
  5
1620
330
220
100
AcDbEntity
  8
0
  6
Continuous
 62
     7
100
AcDbPolyline
 90
        4
 70
     0
 43
0.0
 10
73.0315144388
 20
31.1570283074
 10
73.06226436060001
 20
31.1782982136
 10
73.0947736164
 20
31.1971304674
 10
73.1288253875
 20
31.2133994928
  0
LWPOLYLINE
  5
1621
330
220
100
AcDbEntity
  8
0
  6
Continuous
 62
     7
100
AcDbPolyline
 90
        4
 70
     0
 43
0.0
 10
69.6701691567
 20
28.8228906083
 10
69.66328405829999
 20
28.8185169152
 10
69.64582869
 20
28.8138683733
 10
69.6179602994
 20
28.8089859404
  0
LWPOLYLINE
  5
1622
330
220
100
AcDbEntity
  8
0
  6
Continuous
 62
     7
100
AcDbPolyline
 90
        4
 70
     0
 43
0.0
 10
74.87667130279999
 20
32.7967216173
 10
74.7037048645
 20
32.68835328170001
 10
74.4454173716
 20
32.5293494581
 10
74.2256998376
 20
32.3960191422
  0
LWPOLYLINE
  5
1623
330
220
100
AcDbEntity
  8
0
  6
Continuous
 62
     7
100
AcDbPolyline
 90
        4
 70
     0
 43
0.0
 10
74.8253814751
 20
32.6415644085
 10
74.6973316147
 20
32.5664436635
 10
74.42980659299999
 20
32.4129411936
 10
74.20313963409999
 20
32.28519133400001
  0
LWPOLYLINE
  5
1624
330
220
100
AcDbEntity
  8
0
  6
Continuous
 62
     7
100
AcDbPolyline
 90
        5
 70
     0
 43
0.0
 10
74.8165268302
 20
32.6147781618
 10
74.7071445719
 20
32.5515959771
 10
74.52836669389999
 20
32.4498929895
 10
74.36131641740001
 20
32.3561090535
 10
74.1988234319
 20
32.26597986570001
  0
LWPOLYLINE
  5
1625
330
220
100
AcDbEntity
  8
0
  6
Continuous
 62
     7
100
AcDbPolyline
 90
        5
 70
     0
 43
0.0
 10
74.2256998376
 20
32.3960191422
 10
74.18586824070001
 20
32.3743039986
 10
74.15088836889999
 20
32.3592203466
 10
74.1187346793
 20
32.3491215571
 10
74.0845333444
 20
32.3433694479
  0
LINE
  5
1626
330
220
100
AcDbEntity
  8
0
  6
Continuous
 62
     7
100
AcDbLine
 10
68.47047605420001
 20
27.1128372667
 30
0.0
 11
68.4146302732
 21
27.0927836923
 31
0.0
  0
LWPOLYLINE
  5
1627
330
220
100
AcDbEntity
  8
0
  6
Continuous
 62
     7
100
AcDbPolyline
 90
        6
 70
     0
 43
0.0
 10
73.5558528346
 20
32.1314020882
 10
73.53812301659999
 20
32.1611968799
 10
73.52464320580001
 20
32.1894267104
 10
73.5155690615
 20
32.2157656566
 10
73.5110050097
 20
32.2399106082
 10
73.5110037517
 20
32.2615830225
  0
LWPOLYLINE
  5
1628
330
220
100
AcDbEntity
  8
0
  6
Continuous
 62
     7
100
AcDbPolyline
 90
        4
 70
     0
 43
0.0
 10
73.5741042487
 20
31.0185159839
 10
73.5666579018
 20
31.0321849168
 10
73.53579908649999
 20
31.0439799994
 10
73.4905668467
 20
31.0542296143
  0
LWPOLYLINE
  5
1629
330
220
100
AcDbEntity
  8
0
  6
Continuous
 62
     7
100
AcDbPolyline
 90
       11
 70
     0
 43
0.0
 10
68.1047578951
 20
28.8285511483
 10
68.10535030189999
 20
28.8245873175
 10
68.10608442569999
 20
28.8158800958
 10
68.106950005
 20
28.802551189
 10
68.1079349412
 20
28.78478690260001
 10
68.1090254674
 20
28.7628355379
 10
68.1102063405
 20
28.7370039213
 10
68.1114610549
 20
28.7076531155
 10
68.11277207279999
 20
28.675193373
 10
68.11412106929999
 20
28.6400784016
 10
68.11548918879999
 20
28.6027990225
  0
LINE
  5
162A
330
220
100
AcDbEntity
  8
0
  6
Continuous
 62
     7
100
AcDbLine
 10
69.6702863296
 20
28.8235726272
 30
0.0
 11
69.6692490625
 21
28.8547903392
 31
0.0
  0
LINE
  5
162B
330
220
100
AcDbEntity
  8
0
  6
Continuous
 62
     7
100
AcDbLine
 10
69.6702862754
 20
28.8235726254
 30
0.0
 11
69.67016915649999
 21
28.822890613
 31
0.0
  0
LWPOLYLINE
  5
162C
330
220
100
AcDbEntity
  8
0
  6
Continuous
 62
     7
100
AcDbPolyline
 90
        8
 70
     0
 43
0.0
 10
74.03559073529999
 20
32.2273561708
 10
74.04729199409999
 20
32.23947749420001
 10
74.05766105969999
 20
32.2535030663
 10
74.066529635
 20
32.2692053444
 10
74.0737538968
 20
32.2863296725
 10
74.0792166688
 20
32.3045982973
 10
74.08282934909999
 20
32.3237149102
 10
74.0845333444
 20
32.3433694479
  0
LWPOLYLINE
  5
162D
330
220
100
AcDbEntity
  8
0
  6
Continuous
 62
     7
100
AcDbPolyline
 90
       54
 70
     0
 43
0.0
 10
73.5110038329
 20
32.2615828091
 10
73.51258903189999
 20
32.2630984974
 10
73.5142065642
 20
32.2647151728
 10
73.51588629689999
 20
32.2664748722
 10
73.51766157580001
 20
32.2684326085
 10
73.5195653893
 20
32.2706566537
 10
73.5216241154
 20
32.2732273927
 10
73.52378243779999
 20
32.2761408991
 10
73.5259017561
 20
32.2792683318
 10
73.5278606862
 20
32.2824507033
 10
73.52959993439999
 20
32.2855384282
 10
73.53111169039999
 20
32.288473892
 10
73.53239859129999
 20
32.2912132452
 10
73.5334931217
 20
32.2937716602
 10
73.5344388775
 20
32.2962048015
 10
73.53526141439999
 20
32.2985414476
 10
73.53597723060001
 20
32.3007939987
 10
73.536602514
 20
32.3029797589
 10
73.5371525627
 20
32.30512297940001
 10
73.5376348142
 20
32.30724616030001
 10
73.53805354069999
 20
32.3093689178
 10
73.53841072219999
 20
32.31151076590001
 10
73.5387068144
 20
32.3136926995
 10
73.5389407503
 20
32.3159356191
 10
73.53911006619999
 20
32.3182619812
 10
73.5392108973
 20
32.3207034154
 10
73.5392366029
 20
32.3232977377
 10
73.5391765999
 20
32.3260815558
 10
73.5390033315
 20
32.3290799839
 10
73.5386770887
 20
32.3323356481
 10
73.53815937490001
 20
32.3358716288
 10
73.5374223762
 20
32.33963366400001
 10
73.5364450781
 20
32.343578995
 10
73.5352145839
 20
32.3476673973
 10
73.53373487689999
 20
32.3518461731
 10
73.53201946359999
 20
32.3560465317
 10
73.5300727468
 20
32.3602342316
 10
73.5278903201
 20
32.3644043026
 10
73.525477108
 20
32.3685437867
 10
73.522842508
 20
32.37267477630001
 10
73.5199999033
 20
32.3767732573
 10
73.51696991909999
 20
32.38080468590001
 10
73.51378369799999
 20
32.384734282
 10
73.51046751310001
 20
32.3885787444
 10
73.5070523351
 20
32.3923258304
 10
73.5035952317
 20
32.3959260987
 10
73.5003771213
 20
32.39912390030001
 10
73.49756870510001
 20
32.4018192346
 10
73.49511395589999
 20
32.4041212216
 10
73.4929443046
 20
32.4061189691
 10
73.4909988258
 20
32.4078842516
 10
73.48923727759999
 20
32.4094637734
 10
73.487624325
 20
32.4108960874
 10
73.48470336520001
 20
32.41346091980001
  0
LWPOLYLINE
  5
162E
330
220
100
AcDbEntity
  8
0
  6
Continuous
 62
     7
100
AcDbPolyline
 90
        5
 70
     0
 43
0.0
 10
73.0315143193
 20
31.1570283053
 10
73.0131719755
 20
31.1413618754
 10
72.99272530189999
 20
31.1291325946
 10
72.9707135393
 20
31.1206629898
 10
72.9477171586
 20
31.11617642
  0
LINE
  5
162F
330
220
100
AcDbEntity
  8
0
  6
Continuous
 62
     7
100
AcDbLine
 10
68.76733230390001
 20
27.3205321908
 30
0.0
 11
68.815834154
 21
27.3546366403
 31
0.0
  0
LINE
  5
1630
330
220
100
AcDbEntity
  8
0
  6
Continuous
 62
     7
100
AcDbLine
 10
68.70091595069999
 20
27.2706952166
 30
0.0
 11
68.80256820869999
 21
27.3421893528
 31
0.0
  0
LINE
  5
1631
330
220
100
AcDbEntity
  8
0
  6
Continuous
 62
     7
100
AcDbLine
 10
68.65296123350001
 20
27.2401336831
 30
0.0
 11
68.76733230390001
 21
27.3205321908
 31
0.0
  0
LINE
  5
1632
330
220
100
AcDbEntity
  8
0
  6
Continuous
 62
     7
100
AcDbLine
 10
68.815834154
 20
27.3546366403
 30
0.0
 11
68.84107144720001
 21
27.3723309575
 31
0.0
  0
LWPOLYLINE
  5
1633
330
220
100
AcDbEntity
  8
0
  6
Continuous
 62
     7
100
AcDbPolyline
 90
        3
 70
     0
 43
0.0
 10
68.582068874
 20
27.1904010742
 10
68.60464132789999
 20
27.206212724
 10
68.65296123350001
 20
27.2401336831
  0
LINE
  5
1634
330
220
100
AcDbEntity
  8
0
  6
Continuous
 62
     7
100
AcDbLine
 10
68.80256820869999
 20
27.3421893528
 30
0.0
 11
68.82449203500001
 21
27.35756036570001
 31
0.0
  0
LINE
  5
1635
330
220
100
AcDbEntity
  8
0
  6
Continuous
 62
     7
100
AcDbLine
 10
68.53544781610001
 20
27.1578410229
 30
0.0
 11
68.582068874
 21
27.1904010742
 31
0.0
  0
LWPOLYLINE
  5
1636
330
220
100
AcDbEntity
  8
0
  6
Continuous
 62
     7
100
AcDbPolyline
 90
        7
 70
     0
 43
0.0
 10
68.53828727140001
 20
27.1567660882
 10
68.5548972602
 20
27.1683330095
 10
68.5732617661
 20
27.1811478784
 10
68.5930444034
 20
27.1949776151
 10
68.6139053075
 20
27.20958683820001
 10
68.6354866878
 20
27.224724254
 10
68.70091595069999
 20
27.2706952166
  0
LINE
  5
1637
330
220
100
AcDbEntity
  8
0
  6
Continuous
 62
     7
100
AcDbLine
 10
68.50221885409999
 20
27.1347363752
 30
0.0
 11
68.53544781610001
 21
27.1578410229
 31
0.0
  0
LINE
  5
1638
330
220
100
AcDbEntity
  8
0
  6
Continuous
 62
     7
100
AcDbLine
 10
68.5237365004
 20
27.1466572148
 30
0.0
 11
68.53828727140001
 21
27.1567660882
 31
0.0
  0
LINE
  5
1639
330
220
100
AcDbEntity
  8
0
  6
Continuous
 62
     7
100
AcDbLine
 10
68.4925725922
 20
27.1280599064
 30
0.0
 11
68.50221885409999
 21
27.1347363752
 31
0.0
  0
LINE
  5
163A
330
220
100
AcDbEntity
  8
0
  6
Continuous
 62
     7
100
AcDbLine
 10
68.5018238749
 20
27.1314917383
 30
0.0
 11
68.5237365004
 21
27.1466572148
 31
0.0
  0
LINE
  5
163B
330
220
100
AcDbEntity
  8
0
  6
Continuous
 62
     7
100
AcDbLine
 10
68.47047605420001
 20
27.1128372667
 30
0.0
 11
68.4925725922
 21
27.1280599064
 31
0.0
  0
LINE
  5
163C
330
220
100
AcDbEntity
  8
0
  6
Continuous
 62
     7
100
AcDbLine
 10
68.4893588228
 20
27.1228999847
 30
0.0
 11
68.5018238749
 21
27.1314917383
 31
0.0
  0
LINE
  5
163D
330
220
100
AcDbEntity
  8
0
  6
Continuous
 62
     7
100
AcDbLine
 10
68.48934255340001
 20
27.1228887599
 30
0.0
 11
68.4948400909
 21
27.1266761023
 31
0.0
  0
LWPOLYLINE
  5
163E
330
220
100
AcDbEntity
  8
0
  6
Continuous
 62
     7
100
AcDbPolyline
 90
        4
 70
     0
 43
0.0
 10
76.8278052447
 20
32.8752065896
 10
76.8123122881
 20
32.89874517659999
 10
76.79282489720001
 20
32.9230989797
 10
76.78947204329999
 20
32.9266904231
  0
LWPOLYLINE
  5
163F
330
220
100
AcDbEntity
  8
0
  6
Continuous
 62
     7
100
AcDbPolyline
 90
        8
 70
     0
 43
0.0
 10
73.19623804479999
 20
32.9266904231
 10
73.2139357484
 20
32.89202792400001
 10
73.2509234589
 20
32.8216668082
 10
73.2898761383
 20
32.7496001749
 10
73.3322013425
 20
32.6733855512
 10
73.378642832
 20
32.5919792216
 10
73.429422465
 20
32.5053233533
 10
73.48470334489999
 20
32.4134610593
  0
LWPOLYLINE
  5
1640
330
220
100
AcDbEntity
  8
0
  6
Continuous
 62
     7
100
AcDbPolyline
 90
        8
 70
     0
 43
0.0
 10
73.20175488220001
 20
32.44113110260001
 10
73.2098573818
 20
32.420672735
 10
73.21506471880001
 20
32.3992283629
 10
73.217272647
 20
32.3772281937
 10
73.21643687159999
 20
32.3551136004
 10
73.21257416029999
 20
32.3333282515
 10
73.20576200640001
 20
32.3123092095
 10
73.1961370825
 20
32.2924781722
  0
LWPOLYLINE
  5
1641
330
220
100
AcDbEntity
  8
0
  6
Continuous
 62
     7
100
AcDbPolyline
 90
       32
 70
     0
 43
0.0
 10
72.87723144960001
 20
30.9553745317
 10
72.8761711778
 20
30.9584510615
 10
72.8729935151
 20
30.962052035
 10
72.86769096979999
 20
30.9656756504
 10
72.8600891942
 20
30.9693694899
 10
72.84974938319999
 20
30.9732357873
 10
72.8359717883
 20
30.97738463300001
 10
72.8178222169
 20
30.9818940677
 10
72.7949079949
 20
30.9866858152
 10
72.76738097350001
 20
30.9916192329
 10
72.73585615399999
 20
30.9965537397
 10
72.701347047
 20
31.0013527346
 10
72.66448127460001
 20
31.00597698570001
 10
72.62543824089999
 20
31.0104494514
 10
72.5843452184
 20
31.0147899642
 10
72.5413525015
 20
31.0190099216
 10
72.4967510044
 20
31.0231051363
 10
72.4509152686
 20
31.0270648748
 10
72.4041988893
 20
31.0308816948
 10
72.3568631582
 20
31.0345560334
 10
72.30920595979999
 20
31.0380849389
 10
72.2614073613
 20
31.0414735835
 10
72.2136329818
 20
31.0447267606
 10
72.16660738520001
 20
31.0478120377
 10
72.1218128912
 20
31.0506534266
 10
72.08037389579999
 20
31.0532045221
 10
72.0427446084
 20
31.0554614868
 10
72.0089253332
 20
31.0574447439
 10
71.97837594780001
 20
31.059201586
 10
71.9506407408
 20
31.0607695183
 10
71.92547561489999
 20
31.0621708453
 10
71.88193082239999
 20
31.0645500925
  0
LWPOLYLINE
  5
1642
330
220
100
AcDbEntity
  8
0
  6
Continuous
 62
     7
100
AcDbPolyline
 90
       22
 70
     0
 43
0.0
 10
73.12882521680001
 20
31.2134000178
 10
73.1179079808
 20
31.2508827814
 10
73.11265421939999
 20
31.2897363257
 10
73.11217434629999
 20
31.32950280260001
 10
73.11574699000001
 20
31.3698022916
 10
73.1227034663
 20
31.4100255914
 10
73.13240416859999
 20
31.4496955836
 10
73.1443825966
 20
31.4887978671
 10
73.15839381179999
 20
31.5276284715
 10
73.1743196899
 20
31.5664809459
 10
73.1920364411
 20
31.6054365888
 10
73.21143397680001
 20
31.6445240803
 10
73.2325550219
 20
31.6840041994
 10
73.25561114189999
 20
31.7243354338
 10
73.280885548
 20
31.7659754141
 10
73.308693362
 20
31.809331092
 10
73.3394237271
 20
31.85483747780001
 10
73.37359264220001
 20
31.903026253
 10
73.41181552250001
 20
31.9544684288
 10
73.4546744963
 20
32.0095971489
 10
73.5025992234
 20
32.0685899681
 10
73.555835622
 20
32.1313815154
  0
LINE
  5
1643
330
220
100
AcDbEntity
  8
0
  6
Continuous
 62
     7
100
AcDbLine
 10
72.87547622319999
 20
30.9592385941
 30
0.0
 11
72.8762483039
 21
30.9512387589
 31
0.0
  0
LWPOLYLINE
  5
1644
330
220
100
AcDbEntity
  8
0
  6
Continuous
 62
     7
100
AcDbPolyline
 90
        8
 70
     0
 43
0.0
 10
71.82666794399999
 20
32.4577256937
 10
71.8280812024
 20
32.441012008
 10
71.8291835255
 20
32.4231307232
 10
71.8299576128
 20
32.4043649039
 10
71.8303912084
 20
32.3850116405
 10
71.83047744779999
 20
32.3653773232
 10
71.8302149662
 20
32.3457727939
 10
71.8296079104
 20
32.3265084267
  0
LWPOLYLINE
  5
1645
330
220
100
AcDbEntity
  8
0
  6
Continuous
 62
     7
100
AcDbPolyline
 90
        9
 70
     0
 43
0.0
 10
73.9371065241
 20
32.4181881701
 10
73.9323726991
 20
32.4817327659
 10
73.922296713
 20
32.546300846
 10
73.9065537325
 20
32.612018249
 10
73.8847259138
 20
32.6790297369
 10
73.8562319997
 20
32.7476023944
 10
73.82036574989999
 20
32.8179188542
 10
73.77636717379999
 20
32.8899839761
 10
73.75000424220001
 20
32.9266904231
  0
LWPOLYLINE
  5
1646
330
220
100
AcDbEntity
  8
0
  6
Continuous
 62
     7
100
AcDbPolyline
 90
       11
 70
     0
 43
0.0
 10
71.2226657329
 20
31.2558652008
 10
71.2219273268
 20
31.2378874036
 10
71.2209018279
 20
31.2207673935
 10
71.21960431810001
 20
31.2047570017
 10
71.21805388359999
 20
31.1900917403
 10
71.2162733309
 20
31.1769873318
 10
71.2142888515
 20
31.1656365397
 10
71.2121296368
 20
31.1562063319
 10
71.2098274485
 20
31.1488354251
 10
71.20741615109999
 20
31.1436322438
 10
71.20493120350001
 20
31.1406733237
  0
LINE
  5
1647
330
220
100
AcDbEntity
  8
0
  6
Continuous
 62
     7
100
AcDbLine
 10
69.3585664152
 20
28.5970815204
 30
0.0
 11
69.0258164152
 21
27.6828584093
 31
0.0
  0
LWPOLYLINE
  5
1648
330
220
100
AcDbEntity
  8
0
  6
Continuous
 62
     7
100
AcDbPolyline
 90
       18
 70
     0
 43
0.0
 10
69.35856670539999
 20
28.5970824041
 10
69.3676918152
 20
28.6196228824
 10
69.3830583294
 20
28.6498749264
 10
69.40059050949999
 20
28.6773743072
 10
69.4197591747
 20
28.7020054987
 10
69.4400035573
 20
28.7236943253
 10
69.46068541329999
 20
28.7423825239
 10
69.4811804341
 20
28.7581255845
 10
69.50089000430001
 20
28.7710674323
 10
69.51930687269999
 20
28.7814481443
 10
69.5360025028
 20
28.78955415
 10
69.5506074947
 20
28.7956836253
 10
69.56276522479999
 20
28.8001152104
 10
69.5723463764
 20
28.8031684738
 10
69.5793786
 20
28.8051433258
 10
69.5840149527
 20
28.8063008569
 10
69.58642070669999
 20
28.8068402277
 10
69.5868365367
 20
28.8069260858
  0
LWPOLYLINE
  5
1649
330
220
100
AcDbEntity
  8
0
  6
Continuous
 62
     7
100
AcDbPolyline
 90
        5
 70
     0
 43
0.0
 10
69.0258164152
 20
27.6828584093
 10
68.99083007039999
 20
27.5991893061
 10
68.9480101078
 20
27.5188620583
 10
68.89797397619999
 20
27.4430586968
 10
68.84107144720001
 20
27.3723309575
  0
LWPOLYLINE
  5
164A
330
220
100
AcDbEntity
  8
0
  6
Continuous
 62
     7
100
AcDbPolyline
 90
        8
 70
     0
 43
0.0
 10
73.4792626346
 20
32.2649746186
 10
73.48891681169999
 20
32.2847994286
 10
73.4957394485
 20
32.30580396070001
 10
73.49959399630001
 20
32.32756783030001
 10
73.50040331079999
 20
32.3496554576
 10
73.49815119510001
 20
32.371624779
 10
73.4928827179
 20
32.3930361217
 10
73.4847033117
 20
32.4134609665
  0
LINE
  5
164B
330
220
100
AcDbEntity
  8
0
  6
Continuous
 62
     7
100
AcDbLine
 10
72.5961317414
 20
31.2132161243
 30
0.0
 11
73.19613713709999
 21
32.2924781186
 31
0.0
  0
LWPOLYLINE
  5
164C
330
220
100
AcDbEntity
  8
0
  6
Continuous
 62
     7
100
AcDbPolyline
 90
        3
 70
     0
 43
0.0
 10
72.737113656
 20
30.9963569058
 10
72.58968213670001
 20
30.7388663973
 10
72.0785725651
 20
29.8482214854
  0
LWPOLYLINE
  5
164D
330
220
100
AcDbEntity
  8
0
  6
Continuous
 62
     7
100
AcDbPolyline
 90
        5
 70
     0
 43
0.0
 10
74.20313963499999
 20
32.2851913351
 10
74.20071058499999
 20
32.2813905625
 10
74.19914636049999
 20
32.2767963963
 10
74.1985088981
 20
32.27159077960001
 10
74.1988234319
 20
32.26597986570001
  0
LWPOLYLINE
  5
164E
330
220
100
AcDbEntity
  8
0
  6
Continuous
 62
     7
100
AcDbPolyline
 90
        9
 70
     0
 43
0.0
 10
72.5961317524
 20
31.2132159401
 10
72.5861666637
 20
31.1978927204
 10
72.57452291439999
 20
31.1838831839
 10
72.5613626312
 20
31.1713824198
 10
72.5468690111
 20
31.1605644447
 10
72.5312438133
 20
31.1515798515
 10
72.51470454939999
 20
31.1445537112
 10
72.4974814552
 20
31.1395838319
 10
72.4798142452
 20
31.1367393922
  0
LWPOLYLINE
  5
164F
330
220
100
AcDbEntity
  8
0
  6
Continuous
 62
     7
100
AcDbPolyline
 90
        7
 70
     0
 43
0.0
 10
73.5702306421
 20
32.6453525062
 10
73.54153379029999
 20
32.602226635
 10
73.51837211340001
 20
32.5603711038
 10
73.50096943699999
 20
32.5201903799
 10
73.4894930283
 20
32.48207085020001
 10
73.48405350109999
 20
32.446379629
 10
73.4847033577
 20
32.4134608868
  0
LWPOLYLINE
  5
1650
330
220
100
AcDbEntity
  8
2_PLANES_JETS
  6
Continuous
 62
     7
100
AcDbPolyline
 90
        3
 70
     0
 43
0.0
 10
71.9323432181
 20
29.6305405343
 10
72.01274660850001
 20
29.7420182097
 10
72.0785726358
 20
29.8482214987
  0
LWPOLYLINE
  5
1651
330
220
100
AcDbEntity
  8
0
  6
Continuous
 62
     7
100
AcDbPolyline
 90
        8
 70
     0
 43
0.0
 10
74.20313960919999
 20
32.2851913216
 10
74.21186543330001
 20
32.2970599841
 10
74.2188952962
 20
32.3106492731
 10
74.22411648029999
 20
32.3257412936
 10
74.2274452666
 20
32.34209405530001
 10
74.2288282799
 20
32.3594453531
 10
74.22824334399999
 20
32.3775169707
 10
74.2256998376
 20
32.3960191422
  0
LINE
  5
1652
330
220
100
AcDbEntity
  8
2_PLANES_JETS
  6
Continuous
 62
     7
100
AcDbLine
 10
71.84398941239999
 20
29.5252524503
 30
0.0
 11
71.9323432181
 21
29.6305405343
 31
0.0
  0
LWPOLYLINE
  5
1653
330
220
100
AcDbEntity
  8
0
  6
Continuous
 62
     7
100
AcDbPolyline
 90
       51
 70
     0
 43
0.0
 10
73.555835622
 20
32.1313815154
 10
73.5601751546
 20
32.1363120838
 10
73.56466495550001
 20
32.1416217186
 10
73.56946246619999
 20
32.1474185896
 10
73.5746871821
 20
32.15389597170001
 10
73.58047609509999
 20
32.1613021892
 10
73.5869146288
 20
32.1698702619
 10
73.59373085289999
 20
32.1793954878
 10
73.6004382514
 20
32.1893293182
 10
73.60668224359999
 20
32.1991958507
 10
73.61234343869999
 20
32.2087517424
 10
73.61734795609999
 20
32.2177662227
 10
73.62172331149999
 20
32.2261616221
 10
73.6256094619
 20
32.2340940698
 10
73.629115489
 20
32.2417058936
 10
73.63229691109999
 20
32.2490579832
 10
73.63520187049999
 20
32.2562138388
 10
73.6378840283
 20
32.2632511849
 10
73.6403922542
 20
32.2702459167
 10
73.64275621979999
 20
32.27727567960001
 10
73.6449996857
 20
32.2844211825
 10
73.6471391587
 20
32.2917643813
 10
73.64918498119999
 20
32.2993933115
 10
73.6511418482
 20
32.307409772
 10
73.65300718020001
 20
32.3159328729
 10
73.65476441840001
 20
32.325081484
 10
73.6563825857
 20
32.3349569978
 10
73.65784213720001
 20
32.3457515628
 10
73.65908757789999
 20
32.3577039548
 10
73.6600067551
 20
32.3707432879
 10
73.66048924160001
 20
32.3847052015
 10
73.6604445188
 20
32.39944497270001
 10
73.6598105419
 20
32.41470347030001
 10
73.6585607258
 20
32.4302103858
 10
73.65668048589999
 20
32.4458734131
 10
73.6541456695
 20
32.4617343375
 10
73.6509398427
 20
32.4777642223
 10
73.64705483379999
 20
32.4938735962
 10
73.64248761909999
 20
32.5099806912
 10
73.6372500557
 20
32.5259943859
 10
73.6313758334
 20
32.54180019360001
 10
73.624907015
 20
32.5572708399
 10
73.61787303449999
 20
32.5723240911
 10
73.61062565970001
 20
32.5863201724
 10
73.6038938913
 20
32.5982050436
 10
73.59783733319999
 20
32.6080916661
 10
73.5923476494
 20
32.6164544213
 10
73.5873193889
 20
32.623658925
 10
73.5826683678
 20
32.6299672283
 10
73.57832352279999
 20
32.63557497780001
 10
73.5742007005
 20
32.6406596101
  0
LWPOLYLINE
  5
1655
330
220
100
AcDbEntity
  8
0
  6
Continuous
 62
     7
100
AcDbPolyline
 90
        8
 70
     0
 43
0.0
 10
74.0149380002
 20
32.4252397364
 10
74.0101834112
 20
32.4961775649
 10
73.99982344909999
 20
32.5682600044
 10
73.983517938
 20
32.6416229619
 10
73.9608295866
 20
32.7164224318
 10
73.9311505637
 20
32.7929510655
 10
73.89374196899999
 20
32.8714066249
 10
73.86215028689999
 20
32.9266904231
  0
LWPOLYLINE
  5
1656
330
220
100
AcDbEntity
  8
0
  6
Continuous
 62
     7
100
AcDbPolyline
 90
       10
 70
     0
 43
0.0
 10
73.8714321633
 20
32.3950466549
 10
73.8686475005
 20
32.4639158615
 10
73.86049504510001
 20
32.5308823922
 10
73.8470202046
 20
32.5975720375
 10
73.8287121652
 20
32.6625200684
 10
73.8059894859
 20
32.725531675
 10
73.778673181
 20
32.7877358096
 10
73.74556361029999
 20
32.8514045172
 10
73.70444111000001
 20
32.9191391346
 10
73.69912063680001
 20
32.9266904231
  0
LWPOLYLINE
  5
1657
330
220
100
AcDbEntity
  8
0
  6
Continuous
 62
     7
100
AcDbPolyline
 90
        9
 70
     0
 43
0.0
 10
73.88698408270001
 20
32.3958075985
 10
73.88412097279999
 20
32.4673654248
 10
73.8756536384
 20
32.5369443779
 10
73.86163467840001
 20
32.6062138714
 10
73.842600233
 20
32.6735789659
 10
73.8189690455
 20
32.73893022260001
 10
73.7904793376
 20
32.8035908035
 10
73.755737497
 20
32.8700993852
 10
73.7211617131
 20
32.9266904231
  0
LWPOLYLINE
  5
1658
330
220
100
AcDbEntity
  8
0
  6
Continuous
 62
     7
100
AcDbPolyline
 90
       19
 70
     0
 43
0.0
 10
72.95160051669999
 20
31.1936773398
 10
72.9662500386
 20
31.2482386484
 10
72.98334648159999
 20
31.302706937
 10
73.00225907969999
 20
31.3562983241
 10
73.0226105769
 20
31.4089034915
 10
73.0443072147
 20
31.4609341201
 10
73.06737166479999
 20
31.5128504791
 10
73.0917728002
 20
31.5648430896
 10
73.1174170745
 20
31.6169068268
 10
73.1443949155
 20
31.6693631872
 10
73.17300188039999
 20
31.7228443282
 10
73.203589713
 20
31.7779849596
 10
73.23651586060001
 20
31.8353445918
 10
73.27219363409999
 20
31.8955081157
 10
73.31116264710001
 20
31.9591984525
 10
73.3540576365
 20
32.0272094538
 10
73.4014480283
 20
32.1001532528
 10
73.4537048886
 20
32.1782902582
 10
73.51100372239999
 20
32.2615828098
  0
LWPOLYLINE
  5
1659
330
220
100
AcDbEntity
  8
0
  6
Continuous
 62
     7
100
AcDbPolyline
 90
        3
 70
     0
 43
0.0
 10
72.8762483039
 20
30.9512387589
 10
72.8772597074
 20
30.9548531699
 10
72.87723144960001
 20
30.9553745317
  0
LINE
  5
165A
330
220
100
AcDbEntity
  8
0
  6
Continuous
 62
     7
100
AcDbLine
 10
74.91963467979999
 20
32.9266904231
 30
0.0
 11
74.7651890993
 21
32.4594760405
 31
0.0
  0
LWPOLYLINE
  5
165B
330
220
100
AcDbEntity
  8
0
  6
Continuous
 62
     7
100
AcDbPolyline
 90
       43
 70
     0
 43
0.0
 10
74.7651891118
 20
32.4594760783
 10
74.6275828869
 20
32.0647720633
 10
74.4818882709
 20
31.6877369766
 10
74.32986798289999
 20
31.331084292
 10
74.1720390283
 20
30.9938701979
 10
74.0089150885
 20
30.675224479
 10
73.84094861359999
 20
30.374231836
 10
73.66848528609999
 20
30.0898867928
 10
73.4918320762
 20
29.8212385714
 10
73.3112588302
 20
29.5673875869
 10
73.1268839762
 20
29.3273384872
 10
72.9386754977
 20
29.1000504833
 10
72.7464571812
 20
28.884478087
 10
72.54985083920001
 20
28.6795373932
 10
72.34828965120001
 20
28.4841604045
 10
72.14116317840001
 20
28.297447272
 10
71.9279573813
 20
28.1187567995
 10
71.70808063319999
 20
27.9475204484
 10
71.4808646045
 20
27.7832444575
 10
71.245519727
 20
27.625480265
 10
71.0011015208
 20
27.473816681
 10
70.7466415153
 20
27.3279707467
 10
70.4811192025
 20
27.1877598259
 10
70.203220293
 20
27.0529834375
 10
69.9115813872
 20
26.9235709387
 10
69.6048572331
 20
26.7995979711
 10
69.2811131432
 20
26.6810533205
 10
68.9381051275
 20
26.5680147285
 10
68.5739175918
 20
26.46085433210001
 10
68.1885165529
 20
26.3605338235
 10
67.7829212093
 20
26.2681034599
 10
67.3581119092
 20
26.1843455376
 10
66.91471487210001
 20
26.1097500145
 10
66.45336556640001
 20
26.0446259914
 10
65.97467470699999
 20
25.9891080951
 10
65.47794255859999
 20
25.9430637327
 10
64.9613469714
 20
25.9062457019
 10
64.4230560854
 20
25.8784236793
 10
63.8619722285
 20
25.8593586411
 10
63.27814188939999
 20
25.848700509
 10
62.6716189976
 20
25.8458705658
 10
62.0388348682
 20
25.8500704169
 10
61.5125519853
 20
25.8582145878
  0
LWPOLYLINE
  5
165C
330
220
100
AcDbEntity
  8
0
  6
Continuous
 62
     7
100
AcDbPolyline
 90
        6
 70
     0
 43
0.0
 10
76.54544227969999
 20
31.870983378
 10
76.54839941819999
 20
31.8829695549
 10
76.5494157927
 20
31.9021953615
 10
76.5462634597
 20
31.9226475556
 10
76.53895711699999
 20
31.9442307797
 10
76.52753083
 20
31.9668444028
  0
LWPOLYLINE
  5
165D
330
220
100
AcDbEntity
  8
0
  6
Continuous
 62
     7
100
AcDbPolyline
 90
        6
 70
     0
 43
0.0
 10
76.8457163295
 20
32.7793456855
 10
76.84867383300001
 20
32.7913317418
 10
76.8496902074
 20
32.8105575483
 10
76.8465378744
 20
32.8310097424
 10
76.83923153169999
 20
32.8525929665
 10
76.8278052447
 20
32.8752065896
  0
LINE
  5
165E
330
220
100
AcDbEntity
  8
0
  6
Continuous
 62
     7
100
AcDbLine
 10
76.54544227969999
 20
31.870983378
 30
0.0
 11
76.8457166944
 21
32.7793455649
 31
0.0
  0
LINE
  5
1660
330
220
100
AcDbEntity
  8
0
  6
Continuous
 62
     7
100
AcDbLine
 10
79.9540722452
 20
32.9266904231
 30
0.0
 11
84.15186956540001
 21
47.56614942979999
 31
0.0
  0
ARC
  5
1A22
330
220
100
AcDbEntity
  8
2_PLANES_JETS
  6
Continuous
 62
     7
100
AcDbCircle
 10
33.7781359517
 20
30.7823662963
 30
0.0
 40
1.875
100
AcDbArc
 50
209.8816823911
 51
267.8970475244
  0
ARC
  5
1A23
330
220
100
AcDbEntity
  8
0
  6
Continuous
 62
     7
100
AcDbCircle
 10
39.9991526828
 20
23.6250593975
 30
0.0
 40
0.5
100
AcDbArc
 50
195.0
 51
270.0
  0
ARC
  5
1A24
330
220
100
AcDbEntity
  8
0
  6
Continuous
 62
     7
100
AcDbCircle
 10
41.73182569489999
 20
23.6250593975
 30
0.0
 40
0.5
100
AcDbArc
 50
270.0
 51
345.0
  0
ARC
  5
1A25
330
220
100
AcDbEntity
  8
0
  6
Continuous
 62
     7
100
AcDbCircle
 10
39.34224012940001
 20
26.0766904231
 30
0.0
 40
0.375
100
AcDbArc
 50
195.0
 51
270.0
  0
ARC
  5
1A26
330
220
100
AcDbEntity
  8
0
  6
Continuous
 62
     7
100
AcDbCircle
 10
42.3887382483
 20
26.0766904231
 30
0.0
 40
0.375
100
AcDbArc
 50
270.0
 51
345.0
  0
ARC
  5
1A27
330
220
100
AcDbEntity
  8
0
  6
Continuous
 62
     7
100
AcDbCircle
 10
39.9991526828
 20
23.6250593975
 30
0.0
 40
0.375
100
AcDbArc
 50
195.0
 51
270.0
  0
ARC
  5
1A28
330
220
100
AcDbEntity
  8
0
  6
Continuous
 62
     7
100
AcDbCircle
 10
41.73182569489999
 20
23.6250593975
 30
0.0
 40
0.375
100
AcDbArc
 50
270.0
 51
345.0
  0
ARC
  5
1A29
330
220
100
AcDbEntity
  8
0
  6
Continuous
 62
     7
100
AcDbCircle
 10
37.99881728760001
 20
26.3266904231
 30
0.0
 40
0.25
100
AcDbArc
 50
255.2839694256
 51
270.0
  0
ARC
  5
1A2A
330
220
100
AcDbEntity
  8
0
  6
Continuous
 62
     7
100
AcDbCircle
 10
36.9821610901
 20
26.3266904231
 30
0.0
 40
0.25
100
AcDbArc
 50
270.0
 51
284.716030574
  0
ARC
  5
1A2B
330
220
100
AcDbEntity
  8
0
  6
Continuous
 62
     7
100
AcDbCircle
 10
51.60716109009999
 20
26.3266904231
 30
0.0
 40
0.25
100
AcDbArc
 50
270.0
 51
284.7047031809
  0
ARC
  5
1A2C
330
220
100
AcDbEntity
  8
0
  6
Continuous
 62
     7
100
AcDbCircle
 10
35.7948670577
 20
27.2000606284
 30
0.0
 40
0.0937499954
100
AcDbArc
 50
235.4030549348
 51
248.49005892
  0
ARC
  5
1A2D
330
220
100
AcDbEntity
  8
0
  6
Continuous
 62
     7
100
AcDbCircle
 10
35.4601167731
 20
27.43445530280001
 30
0.0
 40
0.0937499735
100
AcDbArc
 50
221.5098143335
 51
235.1055665808
  0
ARC
  5
1A2E
330
220
100
AcDbEntity
  8
0
  6
Continuous
 62
     7
100
AcDbCircle
 10
20.1391876683
 20
47.5833767645
 30
0.0
 40
0.0625
100
AcDbArc
 50
90.0
 51
196.0
  0
ARC
  5
1A2F
330
220
100
AcDbEntity
  8
2_PLANES_JETS
  6
Continuous
 62
     7
100
AcDbCircle
 10
70.45284242600001
 20
30.7823662963
 30
0.0
 40
1.875
100
AcDbArc
 50
272.1029524756001
 51
330.1183175905
  0
ARC
  5
1A30
330
220
100
AcDbEntity
  8
0
  6
Continuous
 62
     7
100
AcDbCircle
 10
52.1154891888
 20
26.0841904231
 30
0.0
 40
1.125
100
AcDbArc
 50
180.3850769427
 51
359.6149230573
  0
ARC
  5
1A31
330
220
100
AcDbEntity
  8
0
  6
Continuous
 62
     7
100
AcDbCircle
 10
52.1154891888
 20
26.0841904231
 30
0.0
 40
0.9375
100
AcDbArc
 50
180.4623917047999
 51
359.5376082952
  0
ARC
  5
1A32
330
220
100
AcDbEntity
  8
0
  6
Continuous
 62
     7
100
AcDbCircle
 10
52.1154891888
 20
26.0841904231
 30
0.0
 40
0.8299999999999998
100
AcDbArc
 50
218.6549073451
 51
321.3046747447001
  0
ARC
  5
1A33
330
220
100
AcDbEntity
  8
0
  6
Continuous
 62
     7
100
AcDbCircle
 10
52.1154891888
 20
26.0841904231
 30
0.0
 40
0.8299999999999998
100
AcDbArc
 50
323.3242438856
 51
359.4767208952
  0
ARC
  5
1A34
330
220
100
AcDbEntity
  8
0
  6
Continuous
 62
     7
100
AcDbCircle
 10
52.1154891888
 20
26.0841904231
 30
0.0
 40
0.8299999999999998
100
AcDbArc
 50
180.5238333658
 51
216.5940069501
  0
ARC
  5
1A35
330
220
100
AcDbEntity
  8
0
  6
Continuous
 62
     7
100
AcDbCircle
 10
62.49915268279999
 20
23.6250593975
 30
0.0
 40
0.5
100
AcDbArc
 50
195.0
 51
270.0
  0
ARC
  5
1A36
330
220
100
AcDbEntity
  8
0
  6
Continuous
 62
     7
100
AcDbCircle
 10
64.23182569489999
 20
23.6250593975
 30
0.0
 40
0.5
100
AcDbArc
 50
270.0
 51
345.0
  0
ARC
  5
1A37
330
220
100
AcDbEntity
  8
0
  6
Continuous
 62
     7
100
AcDbCircle
 10
61.84224012939999
 20
26.0766904231
 30
0.0
 40
0.375
100
AcDbArc
 50
195.0
 51
215.7585207509
  0
ARC
  5
1A38
330
220
100
AcDbEntity
  8
0
  6
Continuous
 62
     7
100
AcDbCircle
 10
62.49915268279999
 20
23.6250593975
 30
0.0
 40
0.375
100
AcDbArc
 50
195.0
 51
270.0
  0
ARC
  5
1A39
330
220
100
AcDbEntity
  8
0
  6
Continuous
 62
     7
100
AcDbCircle
 10
64.8887382483
 20
26.0766904231
 30
0.0
 40
0.375
100
AcDbArc
 50
336.1900219864
 51
345.0
  0
ARC
  5
1A3A
330
220
100
AcDbEntity
  8
0
  6
Continuous
 62
     7
100
AcDbCircle
 10
64.23182569489999
 20
23.6250593975
 30
0.0
 40
0.375
100
AcDbArc
 50
270.0
 51
345.0
  0
ARC
  5
1A3B
330
220
100
AcDbEntity
  8
0
  6
Continuous
 62
     7
100
AcDbCircle
 10
52.62381728760001
 20
26.3266904231
 30
0.0
 40
0.25
100
AcDbArc
 50
255.2839694264
 51
270.0
  0
ARC
  5
1A3C
330
220
100
AcDbEntity
  8
0
  6
Continuous
 62
     7
100
AcDbCircle
 10
66.23216109010001
 20
26.3266904231
 30
0.0
 40
0.25
100
AcDbArc
 50
270.0
 51
284.7160305725
  0
ARC
  5
1A3D
330
220
100
AcDbEntity
  8
0
  6
Continuous
 62
     7
100
AcDbCircle
 10
68.43611131999999
 20
27.2000606284
 30
0.0
 40
0.0937499954
100
AcDbArc
 50
291.50994108
 51
304.6088454762
  0
ARC
  5
1A3E
330
220
100
AcDbEntity
  8
0
  6
Continuous
 62
     7
100
AcDbCircle
 10
68.7708616046
 20
27.43445530280001
 30
0.0
 40
0.0937499735
100
AcDbArc
 50
304.8944334192
 51
318.4901856665
  0
ARC
  5
1A3F
330
220
100
AcDbEntity
  8
0
  6
Continuous
 62
     7
100
AcDbCircle
 10
84.0917907094
 20
47.5833767645
 30
0.0
 40
0.0625
100
AcDbArc
 50
344.0
 51
90.0
  0
ENDSEC
  0
SECTION
  2
OBJECTS
  0
DICTIONARY
  5
C
330
0
100
AcDbDictionary
281
     1
  3
ACAD_COLOR
350
1AAE
  3
ACAD_GROUP
350
D
  3
ACAD_LAYOUT
350
1A
  3
ACAD_MATERIAL
350
1A81
  3
ACAD_MLEADERSTYLE
350
1AD3
  3
ACAD_MLINESTYLE
350
17
  3
ACAD_PLOTSETTINGS
350
19
  3
ACAD_PLOTSTYLENAME
350
E
  3
ACAD_SCALELIST
350
1AB1
  3
ACAD_TABLESTYLE
350
1AAF
  3
ACAD_VISUALSTYLE
350
1A9A
  3
ACDB_RECOMPOSE_DATA
350
1AD7
  3
AcDbVariableDictionary
350
1B09
  0
DICTIONARY
  5
1AD8
330
8
100
AcDbDictionary
280
     1
281
     1
  0
DICTIONARY
  5
1B18
330
10
100
AcDbDictionary
280
     1
281
     1
  3
ADSK_XREC_LAYER_RECONCILED
360
1B19
  0
DICTIONARY
  5
1B1A
330
1FA
100
AcDbDictionary
280
     1
281
     1
  3
ADSK_XREC_LAYER_RECONCILED
360
1B1B
  0
DICTIONARY
  5
1B1C
330
1FB
100
AcDbDictionary
280
     1
281
     1
  3
ADSK_XREC_LAYER_RECONCILED
360
1B1D
  0
DICTIONARY
  5
1B1E
330
1FC
100
AcDbDictionary
280
     1
281
     1
  3
ADSK_XREC_LAYER_RECONCILED
360
1B1F
  0
DICTIONARY
  5
1B20
330
1FD
100
AcDbDictionary
280
     1
281
     1
  3
ADSK_XREC_LAYER_RECONCILED
360
1B21
  0
DICTIONARY
  5
1B22
330
1FE
100
AcDbDictionary
280
     1
281
     1
  3
ADSK_XREC_LAYER_RECONCILED
360
1B23
  0
DICTIONARY
  5
1B24
330
1FF
100
AcDbDictionary
280
     1
281
     1
  3
ADSK_XREC_LAYER_RECONCILED
360
1B25
  0
DICTIONARY
  5
1B26
330
200
100
AcDbDictionary
280
     1
281
     1
  3
ADSK_XREC_LAYER_RECONCILED
360
1B27
  0
DICTIONARY
  5
1B28
330
201
100
AcDbDictionary
280
     1
281
     1
  3
ADSK_XREC_LAYER_RECONCILED
360
1B29
  0
DICTIONARY
  5
1B2A
330
202
100
AcDbDictionary
280
     1
281
     1
  3
ADSK_XREC_LAYER_RECONCILED
360
1B2B
  0
DICTIONARY
  5
1B2C
330
203
100
AcDbDictionary
280
     1
281
     1
  3
ADSK_XREC_LAYER_RECONCILED
360
1B2D
  0
DICTIONARY
  5
1B2E
330
204
100
AcDbDictionary
280
     1
281
     1
  3
ADSK_XREC_LAYER_RECONCILED
360
1B2F
  0
DICTIONARY
  5
1B30
330
205
100
AcDbDictionary
280
     1
281
     1
  3
ADSK_XREC_LAYER_RECONCILED
360
1B31
  0
DICTIONARY
  5
1B32
330
206
100
AcDbDictionary
280
     1
281
     1
  3
ADSK_XREC_LAYER_RECONCILED
360
1B33
  0
DICTIONARY
  5
1B34
330
207
100
AcDbDictionary
280
     1
281
     1
  3
ADSK_XREC_LAYER_RECONCILED
360
1B35
  0
DICTIONARY
  5
1B36
330
208
100
AcDbDictionary
280
     1
281
     1
  3
ADSK_XREC_LAYER_RECONCILED
360
1B37
  0
DICTIONARY
  5
1B38
330
209
100
AcDbDictionary
280
     1
281
     1
  3
ADSK_XREC_LAYER_RECONCILED
360
1B39
  0
DICTIONARY
  5
1B3A
330
20A
100
AcDbDictionary
280
     1
281
     1
  3
ADSK_XREC_LAYER_RECONCILED
360
1B3B
  0
DICTIONARY
  5
1B3C
330
20B
100
AcDbDictionary
280
     1
281
     1
  3
ADSK_XREC_LAYER_RECONCILED
360
1B3D
  0
DICTIONARY
  5
1B3E
330
20C
100
AcDbDictionary
280
     1
281
     1
  3
ADSK_XREC_LAYER_RECONCILED
360
1B3F
  0
DICTIONARY
  5
1B40
330
20D
100
AcDbDictionary
280
     1
281
     1
  3
ADSK_XREC_LAYER_RECONCILED
360
1B41
  0
DICTIONARY
  5
1B42
330
20E
100
AcDbDictionary
280
     1
281
     1
  3
ADSK_XREC_LAYER_RECONCILED
360
1B43
  0
DICTIONARY
  5
1B44
330
20F
100
AcDbDictionary
280
     1
281
     1
  3
ADSK_XREC_LAYER_RECONCILED
360
1B45
  0
DICTIONARY
  5
1B46
330
210
100
AcDbDictionary
280
     1
281
     1
  3
ADSK_XREC_LAYER_RECONCILED
360
1B47
  0
DICTIONARY
  5
1B48
330
211
100
AcDbDictionary
280
     1
281
     1
  3
ADSK_XREC_LAYER_RECONCILED
360
1B49
  0
DICTIONARY
  5
1B4A
330
212
100
AcDbDictionary
280
     1
281
     1
  3
ADSK_XREC_LAYER_RECONCILED
360
1B4B
  0
DICTIONARY
  5
1B4C
330
213
100
AcDbDictionary
280
     1
281
     1
  3
ADSK_XREC_LAYER_RECONCILED
360
1B4D
  0
DICTIONARY
  5
1B4E
330
214
100
AcDbDictionary
280
     1
281
     1
  3
ADSK_XREC_LAYER_RECONCILED
360
1B4F
  0
DICTIONARY
  5
1B50
330
215
100
AcDbDictionary
280
     1
281
     1
  3
ADSK_XREC_LAYER_RECONCILED
360
1B51
  0
DICTIONARY
  5
1B52
330
216
100
AcDbDictionary
280
     1
281
     1
  3
ADSK_XREC_LAYER_RECONCILED
360
1B53
  0
DICTIONARY
  5
1B54
330
217
100
AcDbDictionary
280
     1
281
     1
  3
ADSK_XREC_LAYER_RECONCILED
360
1B55
  0
DICTIONARY
  5
1AAE
102
{ACAD_REACTORS
330
C
102
}
330
C
100
AcDbDictionary
281
     1
  0
DICTIONARY
  5
D
102
{ACAD_REACTORS
330
C
102
}
330
C
100
AcDbDictionary
281
     1
  0
DICTIONARY
  5
1A
102
{ACAD_REACTORS
330
C
102
}
330
C
100
AcDbDictionary
281
     1
  3
Layout1
350
1A7E
  3
Model
350
1A7D
  0
DICTIONARY
  5
1A81
102
{ACAD_REACTORS
330
C
102
}
330
C
100
AcDbDictionary
281
     1
  3
ByBlock
350
1A8A
  3
ByLayer
350
1A82
  3
Global
350
1A92
  0
DICTIONARY
  5
1AD3
102
{ACAD_REACTORS
330
C
102
}
330
C
100
AcDbDictionary
281
     1
  3
Standard
350
1AD4
  0
DICTIONARY
  5
17
102
{ACAD_REACTORS
330
C
102
}
330
C
100
AcDbDictionary
281
     1
  3
Standard
350
18
  0
DICTIONARY
  5
19
102
{ACAD_REACTORS
330
C
102
}
330
C
100
AcDbDictionary
281
     1
  0
ACDBDICTIONARYWDFLT
  5
E
102
{ACAD_REACTORS
330
C
102
}
330
C
100
AcDbDictionary
281
     1
  3
Normal
350
F
100
AcDbDictionaryWithDefault
340
F
  0
DICTIONARY
  5
1AB1
102
{ACAD_REACTORS
330
C
102
}
330
C
100
AcDbDictionary
281
     1
  3
A0
350
1AB2
  3
A1
350
1AB3
  3
A2
350
1AB4
  3
A3
350
1AB5
  3
A4
350
1AB6
  3
A5
350
1AB7
  3
A6
350
1AB8
  3
A7
350
1AB9
  3
A8
350
1ABA
  3
A9
350
1ABB
  3
B0
350
1ABC
  3
B1
350
1ABD
  3
B2
350
1ABE
  3
B3
350
1ABF
  3
B4
350
1AC0
  3
B5
350
1AC1
  3
B6
350
1AC2
  3
B7
350
1AC3
  3
B8
350
1AC4
  3
B9
350
1AC5
  3
C0
350
1AC6
  3
C1
350
1AC7
  3
C2
350
1AC8
  3
C3
350
1AC9
  3
C4
350
1ACA
  3
C5
350
1ACB
  3
C6
350
1ACC
  3
C7
350
1ACD
  3
C8
350
1ACE
  3
C9
350
1ACF
  3
D0
350
1AD0
  3
D1
350
1AD1
  3
D2
350
1AD2
  0
DICTIONARY
  5
1AAF
102
{ACAD_REACTORS
330
C
102
}
330
C
100
AcDbDictionary
281
     1
  3
Standard
350
1AB0
  0
DICTIONARY
  5
1A9A
102
{ACAD_REACTORS
330
C
102
}
330
C
100
AcDbDictionary
281
     1
  3
2dWireframe
350
1AA0
  3
3D Hidden
350
1AA2
  3
3dWireframe
350
1AA1
  3
Basic
350
1A9F
  3
Brighten
350
1AA6
  3
ColorChange
350
1AAA
  3
Conceptual
350
1AA3
  3
Dim
350
1AA5
  3
EdgeColorOff
350
1AAD
  3
Facepattern
350
1AA9
  3
Flat
350
1A9B
  3
FlatWithEdges
350
1A9C
  3
Gouraud
350
1A9D
  3
GouraudWithEdges
350
1A9E
  3
JitterOff
350
1AAB
  3
Linepattern
350
1AA8
  3
OverhangOff
350
1AAC
  3
Realistic
350
1AA4
  3
Thicken
350
1AA7
  0
XRECORD
  5
1AD7
102
{ACAD_REACTORS
330
C
102
}
330
C
100
AcDbXrecord
280
     1
 90
        1
330
1AB0
  0
DICTIONARY
  5
1B09
102
{ACAD_REACTORS
330
C
102
}
330
C
100
AcDbDictionary
281
     1
  3
CANNOSCALE
350
1B0C
  3
CMLEADERSTYLE
350
1B0B
  3
CTABLESTYLE
350
1B0A
  3
DIMASSOC
350
1B0F
  3
INDEXCTL
350
1B0E
  3
LAYEREVAL
350
1B5D
  3
LAYERNOTIFY
350
1B5E
  3
LIGHTINGUNITS
350
1B5C
  3
MSLTSCALE
350
1B5B
  3
SORTENTS
350
1B0D
  3
XCLIPFRAME
350
1B10
  0
XRECORD
  5
1B19
102
{ACAD_REACTORS
330
1B18
102
}
330
1B18
100
AcDbXrecord
280
     1
290
     1
  0
XRECORD
  5
1B1B
102
{ACAD_REACTORS
330
1B1A
102
}
330
1B1A
100
AcDbXrecord
280
     1
290
     1
  0
XRECORD
  5
1B1D
102
{ACAD_REACTORS
330
1B1C
102
}
330
1B1C
100
AcDbXrecord
280
     1
290
     1
  0
XRECORD
  5
1B1F
102
{ACAD_REACTORS
330
1B1E
102
}
330
1B1E
100
AcDbXrecord
280
     1
290
     1
  0
XRECORD
  5
1B21
102
{ACAD_REACTORS
330
1B20
102
}
330
1B20
100
AcDbXrecord
280
     1
290
     1
  0
XRECORD
  5
1B23
102
{ACAD_REACTORS
330
1B22
102
}
330
1B22
100
AcDbXrecord
280
     1
290
     1
  0
XRECORD
  5
1B25
102
{ACAD_REACTORS
330
1B24
102
}
330
1B24
100
AcDbXrecord
280
     1
290
     1
  0
XRECORD
  5
1B27
102
{ACAD_REACTORS
330
1B26
102
}
330
1B26
100
AcDbXrecord
280
     1
290
     1
  0
XRECORD
  5
1B29
102
{ACAD_REACTORS
330
1B28
102
}
330
1B28
100
AcDbXrecord
280
     1
290
     1
  0
XRECORD
  5
1B2B
102
{ACAD_REACTORS
330
1B2A
102
}
330
1B2A
100
AcDbXrecord
280
     1
290
     1
  0
XRECORD
  5
1B2D
102
{ACAD_REACTORS
330
1B2C
102
}
330
1B2C
100
AcDbXrecord
280
     1
290
     1
  0
XRECORD
  5
1B2F
102
{ACAD_REACTORS
330
1B2E
102
}
330
1B2E
100
AcDbXrecord
280
     1
290
     1
  0
XRECORD
  5
1B31
102
{ACAD_REACTORS
330
1B30
102
}
330
1B30
100
AcDbXrecord
280
     1
290
     1
  0
XRECORD
  5
1B33
102
{ACAD_REACTORS
330
1B32
102
}
330
1B32
100
AcDbXrecord
280
     1
290
     1
  0
XRECORD
  5
1B35
102
{ACAD_REACTORS
330
1B34
102
}
330
1B34
100
AcDbXrecord
280
     1
290
     1
  0
XRECORD
  5
1B37
102
{ACAD_REACTORS
330
1B36
102
}
330
1B36
100
AcDbXrecord
280
     1
290
     1
  0
XRECORD
  5
1B39
102
{ACAD_REACTORS
330
1B38
102
}
330
1B38
100
AcDbXrecord
280
     1
290
     1
  0
XRECORD
  5
1B3B
102
{ACAD_REACTORS
330
1B3A
102
}
330
1B3A
100
AcDbXrecord
280
     1
290
     1
  0
XRECORD
  5
1B3D
102
{ACAD_REACTORS
330
1B3C
102
}
330
1B3C
100
AcDbXrecord
280
     1
290
     1
  0
XRECORD
  5
1B3F
102
{ACAD_REACTORS
330
1B3E
102
}
330
1B3E
100
AcDbXrecord
280
     1
290
     1
  0
XRECORD
  5
1B41
102
{ACAD_REACTORS
330
1B40
102
}
330
1B40
100
AcDbXrecord
280
     1
290
     1
  0
XRECORD
  5
1B43
102
{ACAD_REACTORS
330
1B42
102
}
330
1B42
100
AcDbXrecord
280
     1
290
     1
  0
XRECORD
  5
1B45
102
{ACAD_REACTORS
330
1B44
102
}
330
1B44
100
AcDbXrecord
280
     1
290
     1
  0
XRECORD
  5
1B47
102
{ACAD_REACTORS
330
1B46
102
}
330
1B46
100
AcDbXrecord
280
     1
290
     1
  0
XRECORD
  5
1B49
102
{ACAD_REACTORS
330
1B48
102
}
330
1B48
100
AcDbXrecord
280
     1
290
     1
  0
XRECORD
  5
1B4B
102
{ACAD_REACTORS
330
1B4A
102
}
330
1B4A
100
AcDbXrecord
280
     1
290
     1
  0
XRECORD
  5
1B4D
102
{ACAD_REACTORS
330
1B4C
102
}
330
1B4C
100
AcDbXrecord
280
     1
290
     1
  0
XRECORD
  5
1B4F
102
{ACAD_REACTORS
330
1B4E
102
}
330
1B4E
100
AcDbXrecord
280
     1
290
     1
  0
XRECORD
  5
1B51
102
{ACAD_REACTORS
330
1B50
102
}
330
1B50
100
AcDbXrecord
280
     1
290
     1
  0
XRECORD
  5
1B53
102
{ACAD_REACTORS
330
1B52
102
}
330
1B52
100
AcDbXrecord
280
     1
290
     1
  0
XRECORD
  5
1B55
102
{ACAD_REACTORS
330
1B54
102
}
330
1B54
100
AcDbXrecord
280
     1
290
     1
  0
LAYOUT
  5
1A7E
102
{ACAD_REACTORS
330
1A
102
}
330
1A
100
AcDbPlotSettings
  1

  2
none_device
  4
ANSI_B_(17.00_x_11.00_Inches)
  6

 40
0.0
 41
0.0
 42
0.0
 43
0.0
 44
431.8
 45
279.4
 46
0.0
 47
0.0
 48
0.0
 49
0.0
140
0.0
141
0.0
142
1.0
143
1.0
 70
     0
 72
     0
 73
     0
 74
     0
  7

 75
     0
147
1.0
 76
     0
 77
     2
 78
   300
148
0.0
149
0.0
100
AcDbLayout
  1
Layout1
 70
     1
 71
     1
 10
0.0
 20
0.0
 11
12.0
 21
9.0
 12
0.0
 22
0.0
 32
0.0
 14
1.000000000000000E+20
 24
1.000000000000000E+20
 34
1.000000000000000E+20
 15
-1.000000000000000E+20
 25
-1.000000000000000E+20
 35
-1.000000000000000E+20
146
0.0
 13
0.0
 23
0.0
 33
0.0
 16
1.0
 26
0.0
 36
0.0
 17
0.0
 27
1.0
 37
0.0
 76
     0
330
221
  0
LAYOUT
  5
1A7D
102
{ACAD_REACTORS
330
1A
102
}
330
1A
100
AcDbPlotSettings
  1

  2
none_device
  4
ANSI_B_(17.00_x_11.00_Inches)
  6

 40
0.0
 41
0.0
 42
0.0
 43
0.0
 44
431.8
 45
279.4
 46
0.0
 47
0.0
 48
0.0
 49
0.0
140
0.0
141
0.0
142
1.0
143
1.0
 70
  1024
 72
     0
 73
     0
 74
     0
  7

 75
     0
147
1.0
 76
     0
 77
     2
 78
   300
148
0.0
149
0.0
100
AcDbLayout
  1
Model
 70
     0
 71
     0
 10
0.0
 20
0.0
 11
17.0
 21
11.0
 12
0.0
 22
0.0
 32
0.0
 14
0.0
 24
0.0
 34
0.0
 15
0.0
 25
0.0
 35
0.0
146
0.0
 13
0.0
 23
0.0
 33
0.0
 16
1.0
 26
0.0
 36
0.0
 17
0.0
 27
1.0
 37
0.0
 76
     0
330
220
331
1F4
  0
MATERIAL
  5
1A8A
102
{ACAD_XDICTIONARY
360
1A8B
102
}
102
{ACAD_REACTORS
330
1A81
102
}
330
1A81
100
AcDbMaterial
  1
ByBlock
 72
     0
 43
0.0208333333333333
 43
0.0
 43
0.0
 43
0.0
 43
0.0
 43
0.0208333333333333
 43
0.0
 43
0.0
 43
0.0
 43
0.0
 43
1.0
 43
0.0
 43
0.0
 43
0.0
 43
0.0
 43
1.0
 77
     0
 47
0.0208333333333333
 47
0.0
 47
0.0
 47
0.0
 47
0.0
 47
0.0208333333333333
 47
0.0
 47
0.0
 47
0.0
 47
0.0
 47
1.0
 47
0.0
 47
0.0
 47
0.0
 47
0.0
 47
1.0
171
     0
 49
0.0208333333333333
 49
0.0
 49
0.0
 49
0.0
 49
0.0
 49
0.0208333333333333
 49
0.0
 49
0.0
 49
0.0
 49
0.0
 49
1.0
 49
0.0
 49
0.0
 49
0.0
 49
0.0
 49
1.0
175
     0
142
0.0208333333333333
142
0.0
142
0.0
142
0.0
142
0.0
142
0.0208333333333333
142
0.0
142
0.0
142
0.0
142
0.0
142
1.0
142
0.0
142
0.0
142
0.0
142
0.0
142
1.0
179
     0
144
0.0208333333333333
144
0.0
144
0.0
144
0.0
144
0.0
144
0.0208333333333333
144
0.0
144
0.0
144
0.0
144
0.0
144
1.0
144
0.0
144
0.0
144
0.0
144
0.0
144
1.0
147
0.0208333333333333
147
0.0
147
0.0
147
0.0
147
0.0
147
0.0208333333333333
147
0.0
147
0.0
147
0.0
147
0.0
147
1.0
147
0.0
147
0.0
147
0.0
147
0.0
147
1.0
  0
MATERIAL
  5
1A82
102
{ACAD_XDICTIONARY
360
1A83
102
}
102
{ACAD_REACTORS
330
1A81
102
}
330
1A81
100
AcDbMaterial
  1
ByLayer
 72
     0
 43
0.0208333333333333
 43
0.0
 43
0.0
 43
0.0
 43
0.0
 43
0.0208333333333333
 43
0.0
 43
0.0
 43
0.0
 43
0.0
 43
1.0
 43
0.0
 43
0.0
 43
0.0
 43
0.0
 43
1.0
 77
     0
 47
0.0208333333333333
 47
0.0
 47
0.0
 47
0.0
 47
0.0
 47
0.0208333333333333
 47
0.0
 47
0.0
 47
0.0
 47
0.0
 47
1.0
 47
0.0
 47
0.0
 47
0.0
 47
0.0
 47
1.0
171
     0
 49
0.0208333333333333
 49
0.0
 49
0.0
 49
0.0
 49
0.0
 49
0.0208333333333333
 49
0.0
 49
0.0
 49
0.0
 49
0.0
 49
1.0
 49
0.0
 49
0.0
 49
0.0
 49
0.0
 49
1.0
175
     0
142
0.0208333333333333
142
0.0
142
0.0
142
0.0
142
0.0
142
0.0208333333333333
142
0.0
142
0.0
142
0.0
142
0.0
142
1.0
142
0.0
142
0.0
142
0.0
142
0.0
142
1.0
179
     0
144
0.0208333333333333
144
0.0
144
0.0
144
0.0
144
0.0
144
0.0208333333333333
144
0.0
144
0.0
144
0.0
144
0.0
144
1.0
144
0.0
144
0.0
144
0.0
144
0.0
144
1.0
147
0.0208333333333333
147
0.0
147
0.0
147
0.0
147
0.0
147
0.0208333333333333
147
0.0
147
0.0
147
0.0
147
0.0
147
1.0
147
0.0
147
0.0
147
0.0
147
0.0
147
1.0
  0
MATERIAL
  5
1A92
102
{ACAD_XDICTIONARY
360
1A93
102
}
102
{ACAD_REACTORS
330
1A81
102
}
330
1A81
100
AcDbMaterial
  1
Global
 72
     0
 43
0.0208333333333333
 43
0.0
 43
0.0
 43
0.0
 43
0.0
 43
0.0208333333333333
 43
0.0
 43
0.0
 43
0.0
 43
0.0
 43
1.0
 43
0.0
 43
0.0
 43
0.0
 43
0.0
 43
1.0
 77
     0
 47
0.0208333333333333
 47
0.0
 47
0.0
 47
0.0
 47
0.0
 47
0.0208333333333333
 47
0.0
 47
0.0
 47
0.0
 47
0.0
 47
1.0
 47
0.0
 47
0.0
 47
0.0
 47
0.0
 47
1.0
171
     0
 49
0.0208333333333333
 49
0.0
 49
0.0
 49
0.0
 49
0.0
 49
0.0208333333333333
 49
0.0
 49
0.0
 49
0.0
 49
0.0
 49
1.0
 49
0.0
 49
0.0
 49
0.0
 49
0.0
 49
1.0
175
     0
142
0.0208333333333333
142
0.0
142
0.0
142
0.0
142
0.0
142
0.0208333333333333
142
0.0
142
0.0
142
0.0
142
0.0
142
1.0
142
0.0
142
0.0
142
0.0
142
0.0
142
1.0
179
     0
144
0.0208333333333333
144
0.0
144
0.0
144
0.0
144
0.0
144
0.0208333333333333
144
0.0
144
0.0
144
0.0
144
0.0
144
1.0
144
0.0
144
0.0
144
0.0
144
0.0
144
1.0
147
0.0208333333333333
147
0.0
147
0.0
147
0.0
147
0.0
147
0.0208333333333333
147
0.0
147
0.0
147
0.0
147
0.0
147
1.0
147
0.0
147
0.0
147
0.0
147
0.0
147
1.0
  0
MLEADERSTYLE
  5
1AD4
102
{ACAD_REACTORS
330
1AD3
102
}
330
1AD3
100
AcDbMLeaderStyle
170
     2
171
     1
172
     0
 90
        2
 40
0.0
 41
0.0
173
     1
 91
-1056964608
340
14
 92
       -2
290
     1
 42
0.09
291
     1
 43
0.36
  3
Standard
 44
0.18
300

342
11
174
     1
178
     6
175
     1
176
     0
 93
-1056964608
 45
0.18
292
     0
297
     0
 46
0.18
 94
-1056964608
 47
1.0
 49
1.0
140
1.0
293
     1
141
0.0
294
     1
177
     0
142
1.0
295
     0
296
     0
143
0.125
1001
ACAD_MLEADERVER
1070
     2
  0
MLINESTYLE
  5
18
102
{ACAD_REACTORS
330
17
102
}
330
17
100
AcDbMlineStyle
  2
STANDARD
 70
     0
  3

 62
   256
 51
90.0
 52
90.0
 71
     2
 49
0.5
 62
   256
  6
BYLAYER
 49
-0.5
 62
   256
  6
BYLAYER
  0
ACDBPLACEHOLDER
  5
F
102
{ACAD_REACTORS
330
E
102
}
330
E
  0
SCALE
  5
1AB2
102
{ACAD_REACTORS
330
1AB1
102
}
330
1AB1
100
AcDbScale
 70
     0
300
1:1
140
1.0
141
1.0
290
     1
  0
SCALE
  5
1AB3
102
{ACAD_REACTORS
330
1AB1
102
}
330
1AB1
100
AcDbScale
 70
     0
300
1:2
140
1.0
141
2.0
290
     0
  0
SCALE
  5
1AB4
102
{ACAD_REACTORS
330
1AB1
102
}
330
1AB1
100
AcDbScale
 70
     0
300
1:4
140
1.0
141
4.0
290
     0
  0
SCALE
  5
1AB5
102
{ACAD_REACTORS
330
1AB1
102
}
330
1AB1
100
AcDbScale
 70
     0
300
1:5
140
1.0
141
5.0
290
     0
  0
SCALE
  5
1AB6
102
{ACAD_REACTORS
330
1AB1
102
}
330
1AB1
100
AcDbScale
 70
     0
300
1:8
140
1.0
141
8.0
290
     0
  0
SCALE
  5
1AB7
102
{ACAD_REACTORS
330
1AB1
102
}
330
1AB1
100
AcDbScale
 70
     0
300
1:10
140
1.0
141
10.0
290
     0
  0
SCALE
  5
1AB8
102
{ACAD_REACTORS
330
1AB1
102
}
330
1AB1
100
AcDbScale
 70
     0
300
1:16
140
1.0
141
16.0
290
     0
  0
SCALE
  5
1AB9
102
{ACAD_REACTORS
330
1AB1
102
}
330
1AB1
100
AcDbScale
 70
     0
300
1:20
140
1.0
141
20.0
290
     0
  0
SCALE
  5
1ABA
102
{ACAD_REACTORS
330
1AB1
102
}
330
1AB1
100
AcDbScale
 70
     0
300
1:30
140
1.0
141
30.0
290
     0
  0
SCALE
  5
1ABB
102
{ACAD_REACTORS
330
1AB1
102
}
330
1AB1
100
AcDbScale
 70
     0
300
1:40
140
1.0
141
40.0
290
     0
  0
SCALE
  5
1ABC
102
{ACAD_REACTORS
330
1AB1
102
}
330
1AB1
100
AcDbScale
 70
     0
300
1:50
140
1.0
141
50.0
290
     0
  0
SCALE
  5
1ABD
102
{ACAD_REACTORS
330
1AB1
102
}
330
1AB1
100
AcDbScale
 70
     0
300
1:100
140
1.0
141
100.0
290
     0
  0
SCALE
  5
1ABE
102
{ACAD_REACTORS
330
1AB1
102
}
330
1AB1
100
AcDbScale
 70
     0
300
2:1
140
2.0
141
1.0
290
     0
  0
SCALE
  5
1ABF
102
{ACAD_REACTORS
330
1AB1
102
}
330
1AB1
100
AcDbScale
 70
     0
300
4:1
140
4.0
141
1.0
290
     0
  0
SCALE
  5
1AC0
102
{ACAD_REACTORS
330
1AB1
102
}
330
1AB1
100
AcDbScale
 70
     0
300
8:1
140
8.0
141
1.0
290
     0
  0
SCALE
  5
1AC1
102
{ACAD_REACTORS
330
1AB1
102
}
330
1AB1
100
AcDbScale
 70
     0
300
10:1
140
10.0
141
1.0
290
     0
  0
SCALE
  5
1AC2
102
{ACAD_REACTORS
330
1AB1
102
}
330
1AB1
100
AcDbScale
 70
     0
300
100:1
140
100.0
141
1.0
290
     0
  0
SCALE
  5
1AC3
102
{ACAD_REACTORS
330
1AB1
102
}
330
1AB1
100
AcDbScale
 70
     0
300
1/128" = 1'-0"
140
0.0078125
141
12.0
290
     0
  0
SCALE
  5
1AC4
102
{ACAD_REACTORS
330
1AB1
102
}
330
1AB1
100
AcDbScale
 70
     0
300
1/64" = 1'-0"
140
0.015625
141
12.0
290
     0
  0
SCALE
  5
1AC5
102
{ACAD_REACTORS
330
1AB1
102
}
330
1AB1
100
AcDbScale
 70
     0
300
1/32" = 1'-0"
140
0.03125
141
12.0
290
     0
  0
SCALE
  5
1AC6
102
{ACAD_REACTORS
330
1AB1
102
}
330
1AB1
100
AcDbScale
 70
     0
300
1/16" = 1'-0"
140
0.0625
141
12.0
290
     0
  0
SCALE
  5
1AC7
102
{ACAD_REACTORS
330
1AB1
102
}
330
1AB1
100
AcDbScale
 70
     0
300
3/32" = 1'-0"
140
0.09375
141
12.0
290
     0
  0
SCALE
  5
1AC8
102
{ACAD_REACTORS
330
1AB1
102
}
330
1AB1
100
AcDbScale
 70
     0
300
1/8" = 1'-0"
140
0.125
141
12.0
290
     0
  0
SCALE
  5
1AC9
102
{ACAD_REACTORS
330
1AB1
102
}
330
1AB1
100
AcDbScale
 70
     0
300
3/16" = 1'-0"
140
0.1875
141
12.0
290
     0
  0
SCALE
  5
1ACA
102
{ACAD_REACTORS
330
1AB1
102
}
330
1AB1
100
AcDbScale
 70
     0
300
1/4" = 1'-0"
140
0.25
141
12.0
290
     0
  0
SCALE
  5
1ACB
102
{ACAD_REACTORS
330
1AB1
102
}
330
1AB1
100
AcDbScale
 70
     0
300
3/8" = 1'-0"
140
0.375
141
12.0
290
     0
  0
SCALE
  5
1ACC
102
{ACAD_REACTORS
330
1AB1
102
}
330
1AB1
100
AcDbScale
 70
     0
300
1/2" = 1'-0"
140
0.5
141
12.0
290
     0
  0
SCALE
  5
1ACD
102
{ACAD_REACTORS
330
1AB1
102
}
330
1AB1
100
AcDbScale
 70
     0
300
3/4" = 1'-0"
140
0.75
141
12.0
290
     0
  0
SCALE
  5
1ACE
102
{ACAD_REACTORS
330
1AB1
102
}
330
1AB1
100
AcDbScale
 70
     0
300
1" = 1'-0"
140
1.0
141
12.0
290
     0
  0
SCALE
  5
1ACF
102
{ACAD_REACTORS
330
1AB1
102
}
330
1AB1
100
AcDbScale
 70
     0
300
1-1/2" = 1'-0"
140
1.5
141
12.0
290
     0
  0
SCALE
  5
1AD0
102
{ACAD_REACTORS
330
1AB1
102
}
330
1AB1
100
AcDbScale
 70
     0
300
3" = 1'-0"
140
3.0
141
12.0
290
     0
  0
SCALE
  5
1AD1
102
{ACAD_REACTORS
330
1AB1
102
}
330
1AB1
100
AcDbScale
 70
     0
300
6" = 1'-0"
140
6.0
141
12.0
290
     0
  0
SCALE
  5
1AD2
102
{ACAD_REACTORS
330
1AB1
102
}
330
1AB1
100
AcDbScale
 70
     0
300
1'-0" = 1'-0"
140
12.0
141
12.0
290
     0
  0
TABLESTYLE
  5
1AB0
102
{ACAD_XDICTIONARY
360
1AD5
102
}
102
{ACAD_REACTORS
330
1AAF
102
}
330
1AAF
100
AcDbTableStyle
  3
Standard
 70
     0
 71
     0
 40
0.06
 41
0.06
280
     0
281
     0
  7
STANDARD
140
0.18
170
     2
 62
     0
 63
     7
283
     0
 90
      512
 91
        0
  1

274
    -2
284
     1
 64
     0
275
    -2
285
     1
 65
     0
276
    -2
286
     1
 66
     0
277
    -2
287
     1
 67
     0
278
    -2
288
     1
 68
     0
279
    -2
289
     1
 69
     0
  7
STANDARD
140
0.25
170
     5
 62
     0
 63
     7
283
     0
 90
      512
 91
        0
  1

274
    -2
284
     1
 64
     0
275
    -2
285
     1
 65
     0
276
    -2
286
     1
 66
     0
277
    -2
287
     1
 67
     0
278
    -2
288
     1
 68
     0
279
    -2
289
     1
 69
     0
  7
STANDARD
140
0.18
170
     5
 62
     0
 63
     7
283
     0
 90
      512
 91
        0
  1

274
    -2
284
     1
 64
     0
275
    -2
285
     1
 65
     0
276
    -2
286
     1
 66
     0
277
    -2
287
     1
 67
     0
278
    -2
288
     1
 68
     0
279
    -2
289
     1
 69
     0
  0
VISUALSTYLE
  5
1AA0
102
{ACAD_XDICTIONARY
360
1AEB
102
}
102
{ACAD_REACTORS
330
1A9A
102
}
330
1A9A
100
AcDbVisualStyle
  2
2dWireframe
 70
     4
 71
     0
 72
     2
 73
     0
 90
        0
 40
-0.6
 41
-30.0
 62
     5
 63
     7
 74
     1
 91
        4
 64
     7
 65
   257
 75
     1
175
     1
 42
1.0
 92
        0
 66
   257
 43
1.0
 76
     1
 77
     6
 78
     2
 67
     7
 79
     5
170
     0
171
     0
290
     0
174
     0
 93
        1
 44
0.0
173
     0
291
     0
 45
0.0
  0
VISUALSTYLE
  5
1AA2
102
{ACAD_XDICTIONARY
360
1AEF
102
}
102
{ACAD_REACTORS
330
1A9A
102
}
330
1A9A
100
AcDbVisualStyle
  2
3D Hidden
 70
     6
 71
     1
 72
     2
 73
     2
 90
        0
 40
-0.6
 41
-30.0
 62
     5
 63
     7
 74
     2
 91
        2
 64
     7
 65
   257
 75
     2
175
     1
 42
179.0
 92
        0
 66
   257
 43
1.0
 76
     1
 77
     6
 78
     2
 67
     7
 79
     3
170
     0
171
     0
290
     0
174
     0
 93
        1
 44
0.0
173
     0
291
     0
 45
0.0
  0
VISUALSTYLE
  5
1AA1
102
{ACAD_XDICTIONARY
360
1AED
102
}
102
{ACAD_REACTORS
330
1A9A
102
}
330
1A9A
100
AcDbVisualStyle
  2
3dWireframe
 70
     5
 71
     0
 72
     2
 73
     0
 90
        0
 40
-0.6
 41
-30.0
 62
     5
 63
     7
 74
     1
 91
        4
 64
     7
 65
   257
 75
     1
175
     1
 42
1.0
 92
        0
 66
   257
 43
1.0
 76
     1
 77
     6
 78
     2
 67
     7
 79
     5
170
     0
171
     0
290
     0
174
     0
 93
        1
 44
0.0
173
     0
291
     0
 45
0.0
  0
VISUALSTYLE
  5
1A9F
102
{ACAD_XDICTIONARY
360
1AE9
102
}
102
{ACAD_REACTORS
330
1A9A
102
}
330
1A9A
100
AcDbVisualStyle
  2
Basic
 70
     7
 71
     1
 72
     0
 73
     1
 90
        0
 40
-0.6
 41
-30.0
 62
     5
 63
     7
 74
     0
 91
        4
 64
     7
 65
   257
 75
     1
175
     1
 42
1.0
 92
        8
 66
     7
 43
1.0
 76
     1
 77
     6
 78
     2
 67
     7
 79
     5
170
     0
171
     0
290
     0
174
     0
 93
        1
 44
0.0
173
     0
291
     1
 45
0.0
  0
VISUALSTYLE
  5
1AA6
102
{ACAD_XDICTIONARY
360
1AF7
102
}
102
{ACAD_REACTORS
330
1A9A
102
}
330
1A9A
100
AcDbVisualStyle
  2
Brighten
 70
    12
 71
     2
 72
     2
 73
     0
 90
        0
 40
-0.6
 41
-30.0
 62
     5
 63
     7
 74
     1
 91
        4
 64
     7
 65
   257
 75
     1
175
     1
 42
1.0
 92
        8
 66
     7
 43
1.0
 76
     1
 77
     6
 78
     2
 67
     7
 79
     5
170
     0
171
     0
290
     0
174
     0
 93
        1
 44
50.0
173
     0
291
     1
 45
0.0
  0
VISUALSTYLE
  5
1AAA
102
{ACAD_XDICTIONARY
360
1AFF
102
}
102
{ACAD_REACTORS
330
1A9A
102
}
330
1A9A
100
AcDbVisualStyle
  2
ColorChange
 70
    16
 71
     2
 72
     2
 73
     3
 90
        0
 40
-0.6
 41
-30.0
 62
     5
 63
     8
 74
     1
 91
        4
 64
     7
 65
   257
 75
     1
175
     1
 42
1.0
 92
        8
 66
     8
 43
1.0
 76
     1
 77
     6
 78
     2
 67
     7
 79
     5
170
     0
171
     0
290
     0
174
     0
 93
        1
 44
0.0
173
     0
291
     1
 45
0.0
  0
VISUALSTYLE
  5
1AA3
102
{ACAD_XDICTIONARY
360
1AF1
102
}
102
{ACAD_REACTORS
330
1A9A
102
}
330
1A9A
100
AcDbVisualStyle
  2
Conceptual
 70
     9
 71
     3
 72
     2
 73
     0
 90
        0
 40
-0.6
 41
-30.0
 62
     5
 63
     7
 74
     2
 91
        2
 64
     7
 65
   257
 75
     1
175
     1
 42
179.0
 92
        8
 66
     7
 43
1.0
 76
     1
 77
     6
 78
     2
 67
     7
 79
     3
170
     0
171
     0
290
     0
174
     0
 93
        1
 44
0.0
173
     0
291
     0
 45
0.0
  0
VISUALSTYLE
  5
1AA5
102
{ACAD_XDICTIONARY
360
1AF5
102
}
102
{ACAD_REACTORS
330
1A9A
102
}
330
1A9A
100
AcDbVisualStyle
  2
Dim
 70
    11
 71
     2
 72
     2
 73
     0
 90
        0
 40
-0.6
 41
-30.0
 62
     5
 63
     7
 74
     1
 91
        4
 64
     7
 65
   257
 75
     1
175
     1
 42
1.0
 92
        8
 66
     7
 43
1.0
 76
     1
 77
     6
 78
     2
 67
     7
 79
     5
170
     0
171
     0
290
     0
174
     0
 93
        1
 44
-50.0
173
     0
291
     1
 45
0.0
  0
VISUALSTYLE
  5
1AAD
102
{ACAD_XDICTIONARY
360
1B05
102
}
102
{ACAD_REACTORS
330
1A9A
102
}
330
1A9A
100
AcDbVisualStyle
  2
EdgeColorOff
 70
    22
 71
     2
 72
     2
 73
     0
 90
        0
 40
-0.6
 41
-30.0
 62
     5
 63
     7
 74
     1
 91
        4
 64
     7
 65
   257
 75
     1
175
     1
 42
1.0
 92
        8
 66
     7
 43
1.0
 76
     1
 77
     6
 78
     2
 67
     7
 79
     5
170
     0
171
     0
290
     0
174
     0
 93
        1
 44
0.0
173
     0
291
     1
 45
0.0
  0
VISUALSTYLE
  5
1AA9
102
{ACAD_XDICTIONARY
360
1AFD
102
}
102
{ACAD_REACTORS
330
1A9A
102
}
330
1A9A
100
AcDbVisualStyle
  2
Facepattern
 70
    15
 71
     2
 72
     2
 73
     0
 90
        0
 40
-0.6
 41
-30.0
 62
     5
 63
     7
 74
     1
 91
        4
 64
     7
 65
   257
 75
     1
175
     1
 42
1.0
 92
        8
 66
     7
 43
1.0
 76
     1
 77
     6
 78
     2
 67
     7
 79
     5
170
     0
171
     0
290
     0
174
     0
 93
        1
 44
0.0
173
     0
291
     1
 45
0.0
  0
VISUALSTYLE
  5
1A9B
102
{ACAD_XDICTIONARY
360
1AE1
102
}
102
{ACAD_REACTORS
330
1A9A
102
}
330
1A9A
100
AcDbVisualStyle
  2
Flat
 70
     0
 71
     2
 72
     1
 73
     1
 90
        2
 40
-0.6
 41
30.0
 62
     5
 63
     7
 74
     0
 91
        4
 64
     7
 65
   257
 75
     1
175
     1
 42
1.0
 92
        8
 66
     7
 43
1.0
 76
     1
 77
     6
 78
     2
 67
     7
 79
     5
170
     0
171
     0
290
     0
174
     0
 93
       13
 44
0.0
173
     0
291
     1
 45
0.0
  0
VISUALSTYLE
  5
1A9C
102
{ACAD_XDICTIONARY
360
1AE3
102
}
102
{ACAD_REACTORS
330
1A9A
102
}
330
1A9A
100
AcDbVisualStyle
  2
FlatWithEdges
 70
     1
 71
     2
 72
     1
 73
     1
 90
        2
 40
-0.6
 41
30.0
 62
     5
 63
     7
 74
     1
 91
        4
 64
     7
 65
   257
 75
     1
175
     1
 42
1.0
 92
        0
 66
   257
 43
1.0
 76
     1
 77
     6
 78
     2
 67
     7
 79
     5
170
     0
171
     0
290
     0
174
     0
 93
       13
 44
0.0
173
     0
291
     1
 45
0.0
  0
VISUALSTYLE
  5
1A9D
102
{ACAD_XDICTIONARY
360
1AE5
102
}
102
{ACAD_REACTORS
330
1A9A
102
}
330
1A9A
100
AcDbVisualStyle
  2
Gouraud
 70
     2
 71
     2
 72
     2
 73
     1
 90
        2
 40
-0.6
 41
30.0
 62
     5
 63
     7
 74
     0
 91
        4
 64
     7
 65
   257
 75
     1
175
     1
 42
1.0
 92
        0
 66
     7
 43
1.0
 76
     1
 77
     6
 78
     2
 67
     7
 79
     5
170
     0
171
     0
290
     0
174
     0
 93
       13
 44
0.0
173
     0
291
     1
 45
0.0
  0
VISUALSTYLE
  5
1A9E
102
{ACAD_XDICTIONARY
360
1AE7
102
}
102
{ACAD_REACTORS
330
1A9A
102
}
330
1A9A
100
AcDbVisualStyle
  2
GouraudWithEdges
 70
     3
 71
     2
 72
     2
 73
     1
 90
        2
 40
-0.6
 41
30.0
 62
     5
 63
     7
 74
     1
 91
        4
 64
     7
 65
   257
 75
     1
175
     1
 42
1.0
 92
        0
 66
   257
 43
1.0
 76
     1
 77
     6
 78
     2
 67
     7
 79
     5
170
     0
171
     0
290
     0
174
     0
 93
       13
 44
0.0
173
     0
291
     1
 45
0.0
  0
VISUALSTYLE
  5
1AAB
102
{ACAD_XDICTIONARY
360
1B01
102
}
102
{ACAD_REACTORS
330
1A9A
102
}
330
1A9A
100
AcDbVisualStyle
  2
JitterOff
 70
    20
 71
     2
 72
     2
 73
     0
 90
        0
 40
-0.6
 41
-30.0
 62
     5
 63
     7
 74
     1
 91
        4
 64
     7
 65
   257
 75
     1
175
     1
 42
1.0
 92
       10
 66
     7
 43
1.0
 76
     1
 77
     6
 78
     2
 67
     7
 79
     5
170
     0
171
     0
290
     0
174
     0
 93
        1
 44
0.0
173
     0
291
     1
 45
0.0
  0
VISUALSTYLE
  5
1AA8
102
{ACAD_XDICTIONARY
360
1AFB
102
}
102
{ACAD_REACTORS
330
1A9A
102
}
330
1A9A
100
AcDbVisualStyle
  2
Linepattern
 70
    14
 71
     2
 72
     2
 73
     0
 90
        0
 40
-0.6
 41
-30.0
 62
     5
 63
     7
 74
     1
 91
        4
 64
     7
 65
   257
 75
     7
175
     7
 42
1.0
 92
        8
 66
     7
 43
1.0
 76
     1
 77
     6
 78
     2
 67
     7
 79
     5
170
     0
171
     0
290
     0
174
     0
 93
        1
 44
0.0
173
     0
291
     1
 45
0.0
  0
VISUALSTYLE
  5
1AAC
102
{ACAD_XDICTIONARY
360
1B03
102
}
102
{ACAD_REACTORS
330
1A9A
102
}
330
1A9A
100
AcDbVisualStyle
  2
OverhangOff
 70
    21
 71
     2
 72
     2
 73
     0
 90
        0
 40
-0.6
 41
-30.0
 62
     5
 63
     7
 74
     1
 91
        4
 64
     7
 65
   257
 75
     1
175
     1
 42
1.0
 92
        9
 66
     7
 43
1.0
 76
     1
 77
     6
 78
     2
 67
     7
 79
     5
170
     0
171
     0
290
     0
174
     0
 93
        1
 44
0.0
173
     0
291
     1
 45
0.0
  0
VISUALSTYLE
  5
1AA4
102
{ACAD_XDICTIONARY
360
1AF3
102
}
102
{ACAD_REACTORS
330
1A9A
102
}
330
1A9A
100
AcDbVisualStyle
  2
Realistic
 70
     8
 71
     2
 72
     2
 73
     0
 90
        0
 40
-0.6
 41
-30.0
 62
     5
 63
     7
 74
     1
 91
        0
 64
     7
 65
   257
 75
     1
175
     1
 42
1.0
 92
        8
 66
     8
 43
1.0
 76
     1
 77
     6
 78
     2
 67
     7
 79
     5
170
     0
171
     0
290
     0
174
     0
 93
       13
 44
0.0
173
     0
291
     0
 45
0.0
  0
VISUALSTYLE
  5
1AA7
102
{ACAD_XDICTIONARY
360
1AF9
102
}
102
{ACAD_REACTORS
330
1A9A
102
}
330
1A9A
100
AcDbVisualStyle
  2
Thicken
 70
    13
 71
     2
 72
     2
 73
     0
 90
        0
 40
-0.6
 41
-30.0
 62
     5
 63
     7
 74
     1
 91
        4
 64
     7
 65
   257
 75
     1
175
     1
 42
1.0
 92
       12
 66
     7
 43
1.0
 76
     1
 77
     6
 78
     2
 67
     7
 79
     5
170
     0
171
     0
290
     0
174
     0
 93
        1
 44
0.0
173
     0
291
     1
 45
0.0
  0
DICTIONARYVAR
  5
1B0C
102
{ACAD_REACTORS
330
1B09
102
}
330
1B09
100
DictionaryVariables
280
     0
  1
1:1
  0
DICTIONARYVAR
  5
1B0B
102
{ACAD_REACTORS
330
1B09
102
}
330
1B09
100
DictionaryVariables
280
     0
  1
STANDARD
  0
DICTIONARYVAR
  5
1B0A
102
{ACAD_REACTORS
330
1B09
102
}
330
1B09
100
DictionaryVariables
280
     0
  1
STANDARD
  0
DICTIONARYVAR
  5
1B0F
102
{ACAD_REACTORS
330
1B09
102
}
330
1B09
100
DictionaryVariables
280
     0
  1
1
  0
DICTIONARYVAR
  5
1B0E
102
{ACAD_REACTORS
330
1B09
102
}
330
1B09
100
DictionaryVariables
280
     0
  1
0
  0
DICTIONARYVAR
  5
1B5D
102
{ACAD_REACTORS
330
1B09
102
}
330
1B09
100
DictionaryVariables
280
     0
  1
1
  0
DICTIONARYVAR
  5
1B5E
102
{ACAD_REACTORS
330
1B09
102
}
330
1B09
100
DictionaryVariables
280
     0
  1
15
  0
DICTIONARYVAR
  5
1B5C
102
{ACAD_REACTORS
330
1B09
102
}
330
1B09
100
DictionaryVariables
280
     0
  1
0
  0
DICTIONARYVAR
  5
1B5B
102
{ACAD_REACTORS
330
1B09
102
}
330
1B09
100
DictionaryVariables
280
     0
  1
0
  0
DICTIONARYVAR
  5
1B0D
102
{ACAD_REACTORS
330
1B09
102
}
330
1B09
100
DictionaryVariables
280
     0
  1
127
  0
DICTIONARYVAR
  5
1B10
102
{ACAD_REACTORS
330
1B09
102
}
330
1B09
100
DictionaryVariables
280
     0
  1
2
  0
DICTIONARY
  5
1A8B
330
1A8A
100
AcDbDictionary
280
     1
281
     1
  3
BUMPTILE
360
1A8D
  3
DIFFUSETILE
360
1A8C
  3
OPACITYTILE
360
1A90
  3
REFLECTIONTILE
360
1A8F
  3
REFRACTIONTILE
360
1A91
  3
SPECULARTILE
360
1A8E
  0
DICTIONARY
  5
1A83
330
1A82
100
AcDbDictionary
280
     1
281
     1
  3
BUMPTILE
360
1A85
  3
DIFFUSETILE
360
1A84
  3
OPACITYTILE
360
1A88
  3
REFLECTIONTILE
360
1A87
  3
REFRACTIONTILE
360
1A89
  3
SPECULARTILE
360
1A86
  0
DICTIONARY
  5
1A93
330
1A92
100
AcDbDictionary
280
     1
281
     1
  3
BUMPTILE
360
1A95
  3
DIFFUSETILE
360
1A94
  3
OPACITYTILE
360
1A98
  3
REFLECTIONTILE
360
1A97
  3
REFRACTIONTILE
360
1A99
  3
SPECULARTILE
360
1A96
  0
DICTIONARY
  5
1AD5
330
1AB0
100
AcDbDictionary
280
     1
281
     1
  3
ACAD_ROUNDTRIP_2008_TABLESTYLE_CELLSTYLEMAP
360
1B5F
  0
DICTIONARY
  5
1AEB
330
1AA0
100
AcDbDictionary
280
     1
281
     1
  3
ACAD_XREC_ROUNDTRIP
360
1AEC
  0
DICTIONARY
  5
1AEF
330
1AA2
100
AcDbDictionary
280
     1
281
     1
  3
ACAD_XREC_ROUNDTRIP
360
1AF0
  0
DICTIONARY
  5
1AED
330
1AA1
100
AcDbDictionary
280
     1
281
     1
  3
ACAD_XREC_ROUNDTRIP
360
1AEE
  0
DICTIONARY
  5
1AE9
330
1A9F
100
AcDbDictionary
280
     1
281
     1
  3
ACAD_XREC_ROUNDTRIP
360
1AEA
  0
DICTIONARY
  5
1AF7
330
1AA6
100
AcDbDictionary
280
     1
281
     1
  3
ACAD_XREC_ROUNDTRIP
360
1AF8
  0
DICTIONARY
  5
1AFF
330
1AAA
100
AcDbDictionary
280
     1
281
     1
  3
ACAD_XREC_ROUNDTRIP
360
1B00
  0
DICTIONARY
  5
1AF1
330
1AA3
100
AcDbDictionary
280
     1
281
     1
  3
ACAD_XREC_ROUNDTRIP
360
1AF2
  0
DICTIONARY
  5
1AF5
330
1AA5
100
AcDbDictionary
280
     1
281
     1
  3
ACAD_XREC_ROUNDTRIP
360
1AF6
  0
DICTIONARY
  5
1B05
330
1AAD
100
AcDbDictionary
280
     1
281
     1
  3
ACAD_XREC_ROUNDTRIP
360
1B06
  0
DICTIONARY
  5
1AFD
330
1AA9
100
AcDbDictionary
280
     1
281
     1
  3
ACAD_XREC_ROUNDTRIP
360
1AFE
  0
DICTIONARY
  5
1AE1
330
1A9B
100
AcDbDictionary
280
     1
281
     1
  3
ACAD_XREC_ROUNDTRIP
360
1AE2
  0
DICTIONARY
  5
1AE3
330
1A9C
100
AcDbDictionary
280
     1
281
     1
  3
ACAD_XREC_ROUNDTRIP
360
1AE4
  0
DICTIONARY
  5
1AE5
330
1A9D
100
AcDbDictionary
280
     1
281
     1
  3
ACAD_XREC_ROUNDTRIP
360
1AE6
  0
DICTIONARY
  5
1AE7
330
1A9E
100
AcDbDictionary
280
     1
281
     1
  3
ACAD_XREC_ROUNDTRIP
360
1AE8
  0
DICTIONARY
  5
1B01
330
1AAB
100
AcDbDictionary
280
     1
281
     1
  3
ACAD_XREC_ROUNDTRIP
360
1B02
  0
DICTIONARY
  5
1AFB
330
1AA8
100
AcDbDictionary
280
     1
281
     1
  3
ACAD_XREC_ROUNDTRIP
360
1AFC
  0
DICTIONARY
  5
1B03
330
1AAC
100
AcDbDictionary
280
     1
281
     1
  3
ACAD_XREC_ROUNDTRIP
360
1B04
  0
DICTIONARY
  5
1AF3
330
1AA4
100
AcDbDictionary
280
     1
281
     1
  3
ACAD_XREC_ROUNDTRIP
360
1AF4
  0
DICTIONARY
  5
1AF9
330
1AA7
100
AcDbDictionary
280
     1
281
     1
  3
ACAD_XREC_ROUNDTRIP
360
1AFA
  0
XRECORD
  5
1A8D
102
{ACAD_REACTORS
330
1A8B
102
}
330
1A8B
100
AcDbXrecord
280
     1
270
     1
271
     1
  0
XRECORD
  5
1A8C
102
{ACAD_REACTORS
330
1A8B
102
}
330
1A8B
100
AcDbXrecord
280
     1
270
     1
271
     1
  0
XRECORD
  5
1A90
102
{ACAD_REACTORS
330
1A8B
102
}
330
1A8B
100
AcDbXrecord
280
     1
270
     1
271
     1
  0
XRECORD
  5
1A8F
102
{ACAD_REACTORS
330
1A8B
102
}
330
1A8B
100
AcDbXrecord
280
     1
270
     1
271
     1
  0
XRECORD
  5
1A91
102
{ACAD_REACTORS
330
1A8B
102
}
330
1A8B
100
AcDbXrecord
280
     1
270
     1
271
     1
  0
XRECORD
  5
1A8E
102
{ACAD_REACTORS
330
1A8B
102
}
330
1A8B
100
AcDbXrecord
280
     1
270
     1
271
     1
  0
XRECORD
  5
1A85
102
{ACAD_REACTORS
330
1A83
102
}
330
1A83
100
AcDbXrecord
280
     1
270
     1
271
     1
  0
XRECORD
  5
1A84
102
{ACAD_REACTORS
330
1A83
102
}
330
1A83
100
AcDbXrecord
280
     1
270
     1
271
     1
  0
XRECORD
  5
1A88
102
{ACAD_REACTORS
330
1A83
102
}
330
1A83
100
AcDbXrecord
280
     1
270
     1
271
     1
  0
XRECORD
  5
1A87
102
{ACAD_REACTORS
330
1A83
102
}
330
1A83
100
AcDbXrecord
280
     1
270
     1
271
     1
  0
XRECORD
  5
1A89
102
{ACAD_REACTORS
330
1A83
102
}
330
1A83
100
AcDbXrecord
280
     1
270
     1
271
     1
  0
XRECORD
  5
1A86
102
{ACAD_REACTORS
330
1A83
102
}
330
1A83
100
AcDbXrecord
280
     1
270
     1
271
     1
  0
XRECORD
  5
1A95
102
{ACAD_REACTORS
330
1A93
102
}
330
1A93
100
AcDbXrecord
280
     1
270
     1
271
     1
  0
XRECORD
  5
1A94
102
{ACAD_REACTORS
330
1A93
102
}
330
1A93
100
AcDbXrecord
280
     1
270
     1
271
     1
  0
XRECORD
  5
1A98
102
{ACAD_REACTORS
330
1A93
102
}
330
1A93
100
AcDbXrecord
280
     1
270
     1
271
     1
  0
XRECORD
  5
1A97
102
{ACAD_REACTORS
330
1A93
102
}
330
1A93
100
AcDbXrecord
280
     1
270
     1
271
     1
  0
XRECORD
  5
1A99
102
{ACAD_REACTORS
330
1A93
102
}
330
1A93
100
AcDbXrecord
280
     1
270
     1
271
     1
  0
XRECORD
  5
1A96
102
{ACAD_REACTORS
330
1A93
102
}
330
1A93
100
AcDbXrecord
280
     1
270
     1
271
     1
  0
CELLSTYLEMAP
  5
1B5F
102
{ACAD_REACTORS
330
1AD5
102
}
330
1AD5
100
AcDbCellStyleMap
 90
        3
300
CELLSTYLE
  1
TABLEFORMAT_BEGIN
 90
        5
170
     1
 91
        0
 92
    32768
 62
   257
 93
        1
300
CONTENTFORMAT
  1
CONTENTFORMAT_BEGIN
 90
        0
 91
        0
 92
      512
 93
        0
300

 40
0.0
140
1.0
 94
        5
 62
     0
340
11
144
0.25
309
CONTENTFORMAT_END
171
     0
 94
        0
309
TABLEFORMAT_END
  1
CELLSTYLE_BEGIN
 90
        1
 91
        1
300
_TITLE
309
CELLSTYLE_END
300
CELLSTYLE
  1
TABLEFORMAT_BEGIN
 90
        5
170
     1
 91
        0
 92
        0
 62
   257
 93
        1
300
CONTENTFORMAT
  1
CONTENTFORMAT_BEGIN
 90
        0
 91
        0
 92
      512
 93
        0
300

 40
0.0
140
1.0
 94
        5
 62
     0
340
11
144
0.18
309
CONTENTFORMAT_END
171
     0
 94
        0
309
TABLEFORMAT_END
  1
CELLSTYLE_BEGIN
 90
        2
 91
        1
300
_HEADER
309
CELLSTYLE_END
300
CELLSTYLE
  1
TABLEFORMAT_BEGIN
 90
        5
170
     1
 91
        0
 92
        0
 62
   257
 93
        1
300
CONTENTFORMAT
  1
CONTENTFORMAT_BEGIN
 90
        0
 91
        0
 92
      512
 93
        0
300

 40
0.0
140
1.0
 94
        2
 62
     0
340
11
144
0.18
309
CONTENTFORMAT_END
171
     0
 94
        0
309
TABLEFORMAT_END
  1
CELLSTYLE_BEGIN
 90
        3
 91
        2
300
_DATA
309
CELLSTYLE_END
  0
XRECORD
  5
1AEC
102
{ACAD_REACTORS
330
1AEB
102
}
330
1AEB
100
AcDbXrecord
280
     1
102
RTVSPropertyOp0
 70
     1
102
RTVSPropertyOp1
 70
     1
102
RTVSPropertyOp2
 70
     1
102
RTVSPropertyOp3
 70
     1
102
RTVSPropertyOp4
 70
     1
102
RTVSPropertyOp5
 70
     1
102
RTVSPropertyOp6
 70
     1
102
RTVSPropertyOp7
 70
     1
102
RTVSPropertyOp8
 70
     1
102
RTVSPropertyOp9
 70
     1
102
RTVSPropertyOp10
 70
     1
102
RTVSPropertyOp11
 70
     1
102
RTVSPropertyOp12
 70
     1
102
RTVSPropertyOp13
 70
     1
102
RTVSPropertyOp14
 70
     1
102
RTVSPropertyOp15
 70
     1
102
RTVSPropertyOp16
 70
     1
102
RTVSPropertyOp17
 70
     1
102
RTVSPropertyOp18
 70
     1
102
RTVSPropertyOp19
 70
     1
102
RTVSPropertyOp20
 70
     1
102
RTVSPropertyOp21
 70
     1
102
RTVSPropertyOp22
 70
     1
102
RTVSPropertyOp23
 70
     1
102
RTVSPropertyOp24
 70
     1
102
RTVSPropertyOp25
 70
     1
102
RTVSPropertyOp26
 70
     1
102
RTVSPropertyOp27
 70
     1
  0
XRECORD
  5
1AF0
102
{ACAD_REACTORS
330
1AEF
102
}
330
1AEF
100
AcDbXrecord
280
     1
102
RTVSPropertyOp0
 70
     1
102
RTVSPropertyOp1
 70
     1
102
RTVSPropertyOp2
 70
     1
102
RTVSPropertyOp3
 70
     1
102
RTVSPropertyOp4
 70
     1
102
RTVSPropertyOp5
 70
     1
102
RTVSPropertyOp6
 70
     1
102
RTVSPropertyOp7
 70
     1
102
RTVSPropertyOp8
 70
     1
102
RTVSPropertyOp9
 70
     1
102
RTVSPropertyOp10
 70
     1
102
RTVSPropertyOp11
 70
     1
102
RTVSPropertyOp12
 70
     1
102
RTVSPropertyOp13
 70
     1
102
RTVSPropertyOp14
 70
     1
102
RTVSPropertyOp15
 70
     1
102
RTVSPropertyOp16
 70
     1
102
RTVSPropertyOp17
 70
     1
102
RTVSPropertyOp18
 70
     1
102
RTVSPropertyOp19
 70
     1
102
RTVSPropertyOp20
 70
     1
102
RTVSPropertyOp21
 70
     1
102
RTVSPropertyOp22
 70
     1
102
RTVSPropertyOp23
 70
     1
102
RTVSPropertyOp24
 70
     1
102
RTVSPropertyOp25
 70
     1
102
RTVSPropertyOp26
 70
     1
102
RTVSPropertyOp27
 70
     1
  0
XRECORD
  5
1AEE
102
{ACAD_REACTORS
330
1AED
102
}
330
1AED
100
AcDbXrecord
280
     1
102
RTVSPropertyOp0
 70
     1
102
RTVSPropertyOp1
 70
     1
102
RTVSPropertyOp2
 70
     1
102
RTVSPropertyOp3
 70
     1
102
RTVSPropertyOp4
 70
     1
102
RTVSPropertyOp5
 70
     1
102
RTVSPropertyOp6
 70
     1
102
RTVSPropertyOp7
 70
     1
102
RTVSPropertyOp8
 70
     1
102
RTVSPropertyOp9
 70
     1
102
RTVSPropertyOp10
 70
     1
102
RTVSPropertyOp11
 70
     1
102
RTVSPropertyOp12
 70
     1
102
RTVSPropertyOp13
 70
     1
102
RTVSPropertyOp14
 70
     1
102
RTVSPropertyOp15
 70
     1
102
RTVSPropertyOp16
 70
     1
102
RTVSPropertyOp17
 70
     1
102
RTVSPropertyOp18
 70
     1
102
RTVSPropertyOp19
 70
     1
102
RTVSPropertyOp20
 70
     1
102
RTVSPropertyOp21
 70
     1
102
RTVSPropertyOp22
 70
     1
102
RTVSPropertyOp23
 70
     1
102
RTVSPropertyOp24
 70
     1
102
RTVSPropertyOp25
 70
     1
102
RTVSPropertyOp26
 70
     1
102
RTVSPropertyOp27
 70
     1
  0
XRECORD
  5
1AEA
102
{ACAD_REACTORS
330
1AE9
102
}
330
1AE9
100
AcDbXrecord
280
     1
102
RTVSPropertyOp0
 70
     1
102
RTVSPropertyOp1
 70
     1
102
RTVSPropertyOp2
 70
     1
102
RTVSPropertyOp3
 70
     1
102
RTVSPropertyOp4
 70
     1
102
RTVSPropertyOp5
 70
     1
102
RTVSPropertyOp6
 70
     1
102
RTVSPropertyOp7
 70
     1
102
RTVSPropertyOp8
 70
     1
102
RTVSPropertyOp9
 70
     1
102
RTVSPropertyOp10
 70
     1
102
RTVSPropertyOp11
 70
     1
102
RTVSPropertyOp12
 70
     1
102
RTVSPropertyOp13
 70
     1
102
RTVSPropertyOp14
 70
     1
102
RTVSPropertyOp15
 70
     1
102
RTVSPropertyOp16
 70
     1
102
RTVSPropertyOp17
 70
     1
102
RTVSPropertyOp18
 70
     1
102
RTVSPropertyOp19
 70
     1
102
RTVSPropertyOp20
 70
     1
102
RTVSPropertyOp21
 70
     1
102
RTVSPropertyOp22
 70
     1
102
RTVSPropertyOp23
 70
     1
102
RTVSPropertyOp24
 70
     1
102
RTVSPropertyOp25
 70
     1
102
RTVSPropertyOp26
 70
     1
102
RTVSPropertyOp27
 70
     1
  0
XRECORD
  5
1AF8
102
{ACAD_REACTORS
330
1AF7
102
}
330
1AF7
100
AcDbXrecord
280
     1
102
RTVSPropertyOp0
 70
     1
102
RTVSPropertyOp1
 70
     1
102
RTVSPropertyOp2
 70
     1
102
RTVSPropertyOp3
 70
     1
102
RTVSPropertyOp4
 70
     1
102
RTVSPropertyOp5
 70
     1
102
RTVSPropertyOp6
 70
     1
102
RTVSPropertyOp7
 70
     1
102
RTVSPropertyOp8
 70
     1
102
RTVSPropertyOp9
 70
     1
102
RTVSPropertyOp10
 70
     1
102
RTVSPropertyOp11
 70
     1
102
RTVSPropertyOp12
 70
     1
102
RTVSPropertyOp13
 70
     1
102
RTVSPropertyOp14
 70
     1
102
RTVSPropertyOp15
 70
     1
102
RTVSPropertyOp16
 70
     1
102
RTVSPropertyOp17
 70
     1
102
RTVSPropertyOp18
 70
     1
102
RTVSPropertyOp19
 70
     1
102
RTVSPropertyOp20
 70
     1
102
RTVSPropertyOp21
 70
     1
102
RTVSPropertyOp22
 70
     1
102
RTVSPropertyOp23
 70
     1
102
RTVSPropertyOp24
 70
     1
102
RTVSPropertyOp25
 70
     1
102
RTVSPropertyOp26
 70
     1
102
RTVSPropertyOp27
 70
     1
  0
XRECORD
  5
1B00
102
{ACAD_REACTORS
330
1AFF
102
}
330
1AFF
100
AcDbXrecord
280
     1
102
RTVSPropertyOp0
 70
     1
102
RTVSPropertyOp1
 70
     1
102
RTVSPropertyOp2
 70
     1
102
RTVSPropertyOp3
 70
     1
102
RTVSPropertyOp4
 70
     1
102
RTVSPropertyOp5
 70
     1
102
RTVSPropertyOp6
 70
     1
102
RTVSPropertyOp7
 70
     1
102
RTVSPropertyOp8
 70
     1
102
RTVSPropertyOp9
 70
     1
102
RTVSPropertyOp10
 70
     1
102
RTVSPropertyOp11
 70
     1
102
RTVSPropertyOp12
 70
     1
102
RTVSPropertyOp13
 70
     1
102
RTVSPropertyOp14
 70
     1
102
RTVSPropertyOp15
 70
     1
102
RTVSPropertyOp16
 70
     1
102
RTVSPropertyOp17
 70
     1
102
RTVSPropertyOp18
 70
     1
102
RTVSPropertyOp19
 70
     1
102
RTVSPropertyOp20
 70
     1
102
RTVSPropertyOp21
 70
     1
102
RTVSPropertyOp22
 70
     1
102
RTVSPropertyOp23
 70
     1
102
RTVSPropertyOp24
 70
     1
102
RTVSPropertyOp25
 70
     1
102
RTVSPropertyOp26
 70
     1
102
RTVSPropertyOp27
 70
     1
  0
XRECORD
  5
1AF2
102
{ACAD_REACTORS
330
1AF1
102
}
330
1AF1
100
AcDbXrecord
280
     1
102
RTVSPropertyOp0
 70
     1
102
RTVSPropertyOp1
 70
     1
102
RTVSPropertyOp2
 70
     1
102
RTVSPropertyOp3
 70
     1
102
RTVSPropertyOp4
 70
     1
102
RTVSPropertyOp5
 70
     1
102
RTVSPropertyOp6
 70
     1
102
RTVSPropertyOp7
 70
     1
102
RTVSPropertyOp8
 70
     1
102
RTVSPropertyOp9
 70
     1
102
RTVSPropertyOp10
 70
     1
102
RTVSPropertyOp11
 70
     1
102
RTVSPropertyOp12
 70
     1
102
RTVSPropertyOp13
 70
     1
102
RTVSPropertyOp14
 70
     1
102
RTVSPropertyOp15
 70
     1
102
RTVSPropertyOp16
 70
     1
102
RTVSPropertyOp17
 70
     1
102
RTVSPropertyOp18
 70
     1
102
RTVSPropertyOp19
 70
     1
102
RTVSPropertyOp20
 70
     1
102
RTVSPropertyOp21
 70
     1
102
RTVSPropertyOp22
 70
     1
102
RTVSPropertyOp23
 70
     1
102
RTVSPropertyOp24
 70
     1
102
RTVSPropertyOp25
 70
     1
102
RTVSPropertyOp26
 70
     1
102
RTVSPropertyOp27
 70
     1
  0
XRECORD
  5
1AF6
102
{ACAD_REACTORS
330
1AF5
102
}
330
1AF5
100
AcDbXrecord
280
     1
102
RTVSPropertyOp0
 70
     1
102
RTVSPropertyOp1
 70
     1
102
RTVSPropertyOp2
 70
     1
102
RTVSPropertyOp3
 70
     1
102
RTVSPropertyOp4
 70
     1
102
RTVSPropertyOp5
 70
     1
102
RTVSPropertyOp6
 70
     1
102
RTVSPropertyOp7
 70
     1
102
RTVSPropertyOp8
 70
     1
102
RTVSPropertyOp9
 70
     1
102
RTVSPropertyOp10
 70
     1
102
RTVSPropertyOp11
 70
     1
102
RTVSPropertyOp12
 70
     1
102
RTVSPropertyOp13
 70
     1
102
RTVSPropertyOp14
 70
     1
102
RTVSPropertyOp15
 70
     1
102
RTVSPropertyOp16
 70
     1
102
RTVSPropertyOp17
 70
     1
102
RTVSPropertyOp18
 70
     1
102
RTVSPropertyOp19
 70
     1
102
RTVSPropertyOp20
 70
     1
102
RTVSPropertyOp21
 70
     1
102
RTVSPropertyOp22
 70
     1
102
RTVSPropertyOp23
 70
     1
102
RTVSPropertyOp24
 70
     1
102
RTVSPropertyOp25
 70
     1
102
RTVSPropertyOp26
 70
     1
102
RTVSPropertyOp27
 70
     1
  0
XRECORD
  5
1B06
102
{ACAD_REACTORS
330
1B05
102
}
330
1B05
100
AcDbXrecord
280
     1
102
RTVSPropertyOp0
 70
     0
102
RTVSPropertyOp1
 70
     0
102
RTVSPropertyOp2
 70
     0
102
RTVSPropertyOp3
 70
     0
102
RTVSPropertyOp4
 70
     0
102
RTVSPropertyOp5
 70
     0
102
RTVSPropertyOp6
 70
     0
102
RTVSPropertyOp7
 70
     0
102
RTVSPropertyOp8
 70
     0
102
RTVSPropertyOp9
 70
     0
102
RTVSPropertyOp10
 70
     0
102
RTVSPropertyOp11
 70
     0
102
RTVSPropertyOp12
 70
     0
102
RTVSPropertyOp13
 70
     0
102
RTVSPropertyOp14
 70
     2
102
RTVSPropertyOp15
 70
     0
102
RTVSPropertyOp16
 70
     0
102
RTVSPropertyOp17
 70
     0
102
RTVSPropertyOp18
 70
     0
102
RTVSPropertyOp19
 70
     0
102
RTVSPropertyOp20
 70
     0
102
RTVSPropertyOp21
 70
     0
102
RTVSPropertyOp22
 70
     0
102
RTVSPropertyOp23
 70
     0
102
RTVSPropertyOp24
 70
     0
102
RTVSPropertyOp25
 70
     0
102
RTVSPropertyOp26
 70
     0
102
RTVSPropertyOp27
 70
     0
  0
XRECORD
  5
1AFE
102
{ACAD_REACTORS
330
1AFD
102
}
330
1AFD
100
AcDbXrecord
280
     1
102
RTVSPropertyOp0
 70
     1
102
RTVSPropertyOp1
 70
     1
102
RTVSPropertyOp2
 70
     1
102
RTVSPropertyOp3
 70
     1
102
RTVSPropertyOp4
 70
     1
102
RTVSPropertyOp5
 70
     1
102
RTVSPropertyOp6
 70
     1
102
RTVSPropertyOp7
 70
     1
102
RTVSPropertyOp8
 70
     1
102
RTVSPropertyOp9
 70
     1
102
RTVSPropertyOp10
 70
     1
102
RTVSPropertyOp11
 70
     1
102
RTVSPropertyOp12
 70
     1
102
RTVSPropertyOp13
 70
     1
102
RTVSPropertyOp14
 70
     1
102
RTVSPropertyOp15
 70
     1
102
RTVSPropertyOp16
 70
     1
102
RTVSPropertyOp17
 70
     1
102
RTVSPropertyOp18
 70
     1
102
RTVSPropertyOp19
 70
     1
102
RTVSPropertyOp20
 70
     1
102
RTVSPropertyOp21
 70
     1
102
RTVSPropertyOp22
 70
     1
102
RTVSPropertyOp23
 70
     1
102
RTVSPropertyOp24
 70
     1
102
RTVSPropertyOp25
 70
     1
102
RTVSPropertyOp26
 70
     1
102
RTVSPropertyOp27
 70
     1
  0
XRECORD
  5
1AE2
102
{ACAD_REACTORS
330
1AE1
102
}
330
1AE1
100
AcDbXrecord
280
     1
102
RTVSPropertyOp0
 70
     1
102
RTVSPropertyOp1
 70
     1
102
RTVSPropertyOp2
 70
     1
102
RTVSPropertyOp3
 70
     1
102
RTVSPropertyOp4
 70
     1
102
RTVSPropertyOp5
 70
     1
102
RTVSPropertyOp6
 70
     1
102
RTVSPropertyOp7
 70
     1
102
RTVSPropertyOp8
 70
     1
102
RTVSPropertyOp9
 70
     1
102
RTVSPropertyOp10
 70
     1
102
RTVSPropertyOp11
 70
     1
102
RTVSPropertyOp12
 70
     1
102
RTVSPropertyOp13
 70
     1
102
RTVSPropertyOp14
 70
     1
102
RTVSPropertyOp15
 70
     1
102
RTVSPropertyOp16
 70
     1
102
RTVSPropertyOp17
 70
     1
102
RTVSPropertyOp18
 70
     1
102
RTVSPropertyOp19
 70
     1
102
RTVSPropertyOp20
 70
     1
102
RTVSPropertyOp21
 70
     1
102
RTVSPropertyOp22
 70
     1
102
RTVSPropertyOp23
 70
     1
102
RTVSPropertyOp24
 70
     1
102
RTVSPropertyOp25
 70
     1
102
RTVSPropertyOp26
 70
     1
102
RTVSPropertyOp27
 70
     1
  0
XRECORD
  5
1AE4
102
{ACAD_REACTORS
330
1AE3
102
}
330
1AE3
100
AcDbXrecord
280
     1
102
RTVSPropertyOp0
 70
     1
102
RTVSPropertyOp1
 70
     1
102
RTVSPropertyOp2
 70
     1
102
RTVSPropertyOp3
 70
     1
102
RTVSPropertyOp4
 70
     1
102
RTVSPropertyOp5
 70
     1
102
RTVSPropertyOp6
 70
     1
102
RTVSPropertyOp7
 70
     1
102
RTVSPropertyOp8
 70
     1
102
RTVSPropertyOp9
 70
     1
102
RTVSPropertyOp10
 70
     1
102
RTVSPropertyOp11
 70
     1
102
RTVSPropertyOp12
 70
     1
102
RTVSPropertyOp13
 70
     1
102
RTVSPropertyOp14
 70
     1
102
RTVSPropertyOp15
 70
     1
102
RTVSPropertyOp16
 70
     1
102
RTVSPropertyOp17
 70
     1
102
RTVSPropertyOp18
 70
     1
102
RTVSPropertyOp19
 70
     1
102
RTVSPropertyOp20
 70
     1
102
RTVSPropertyOp21
 70
     1
102
RTVSPropertyOp22
 70
     1
102
RTVSPropertyOp23
 70
     1
102
RTVSPropertyOp24
 70
     1
102
RTVSPropertyOp25
 70
     1
102
RTVSPropertyOp26
 70
     1
102
RTVSPropertyOp27
 70
     1
  0
XRECORD
  5
1AE6
102
{ACAD_REACTORS
330
1AE5
102
}
330
1AE5
100
AcDbXrecord
280
     1
102
RTVSPropertyOp0
 70
     1
102
RTVSPropertyOp1
 70
     1
102
RTVSPropertyOp2
 70
     1
102
RTVSPropertyOp3
 70
     1
102
RTVSPropertyOp4
 70
     1
102
RTVSPropertyOp5
 70
     1
102
RTVSPropertyOp6
 70
     1
102
RTVSPropertyOp7
 70
     1
102
RTVSPropertyOp8
 70
     1
102
RTVSPropertyOp9
 70
     1
102
RTVSPropertyOp10
 70
     1
102
RTVSPropertyOp11
 70
     1
102
RTVSPropertyOp12
 70
     1
102
RTVSPropertyOp13
 70
     1
102
RTVSPropertyOp14
 70
     1
102
RTVSPropertyOp15
 70
     1
102
RTVSPropertyOp16
 70
     1
102
RTVSPropertyOp17
 70
     1
102
RTVSPropertyOp18
 70
     1
102
RTVSPropertyOp19
 70
     1
102
RTVSPropertyOp20
 70
     1
102
RTVSPropertyOp21
 70
     1
102
RTVSPropertyOp22
 70
     1
102
RTVSPropertyOp23
 70
     1
102
RTVSPropertyOp24
 70
     1
102
RTVSPropertyOp25
 70
     1
102
RTVSPropertyOp26
 70
     1
102
RTVSPropertyOp27
 70
     1
  0
XRECORD
  5
1AE8
102
{ACAD_REACTORS
330
1AE7
102
}
330
1AE7
100
AcDbXrecord
280
     1
102
RTVSPropertyOp0
 70
     1
102
RTVSPropertyOp1
 70
     1
102
RTVSPropertyOp2
 70
     1
102
RTVSPropertyOp3
 70
     1
102
RTVSPropertyOp4
 70
     1
102
RTVSPropertyOp5
 70
     1
102
RTVSPropertyOp6
 70
     1
102
RTVSPropertyOp7
 70
     1
102
RTVSPropertyOp8
 70
     1
102
RTVSPropertyOp9
 70
     1
102
RTVSPropertyOp10
 70
     1
102
RTVSPropertyOp11
 70
     1
102
RTVSPropertyOp12
 70
     1
102
RTVSPropertyOp13
 70
     1
102
RTVSPropertyOp14
 70
     1
102
RTVSPropertyOp15
 70
     1
102
RTVSPropertyOp16
 70
     1
102
RTVSPropertyOp17
 70
     1
102
RTVSPropertyOp18
 70
     1
102
RTVSPropertyOp19
 70
     1
102
RTVSPropertyOp20
 70
     1
102
RTVSPropertyOp21
 70
     1
102
RTVSPropertyOp22
 70
     1
102
RTVSPropertyOp23
 70
     1
102
RTVSPropertyOp24
 70
     1
102
RTVSPropertyOp25
 70
     1
102
RTVSPropertyOp26
 70
     1
102
RTVSPropertyOp27
 70
     1
  0
XRECORD
  5
1B02
102
{ACAD_REACTORS
330
1B01
102
}
330
1B01
100
AcDbXrecord
280
     1
102
RTVSPropertyOp0
 70
     0
102
RTVSPropertyOp1
 70
     0
102
RTVSPropertyOp2
 70
     0
102
RTVSPropertyOp3
 70
     0
102
RTVSPropertyOp4
 70
     0
102
RTVSPropertyOp5
 70
     0
102
RTVSPropertyOp6
 70
     0
102
RTVSPropertyOp7
 70
     0
102
RTVSPropertyOp8
 70
     0
102
RTVSPropertyOp9
 70
     0
102
RTVSPropertyOp10
 70
     0
102
RTVSPropertyOp11
 70
     0
102
RTVSPropertyOp12
 70
     0
102
RTVSPropertyOp13
 70
     0
102
RTVSPropertyOp14
 70
     2
102
RTVSPropertyOp15
 70
     0
102
RTVSPropertyOp16
 70
     0
102
RTVSPropertyOp17
 70
     0
102
RTVSPropertyOp18
 70
     0
102
RTVSPropertyOp19
 70
     0
102
RTVSPropertyOp20
 70
     0
102
RTVSPropertyOp21
 70
     0
102
RTVSPropertyOp22
 70
     0
102
RTVSPropertyOp23
 70
     0
102
RTVSPropertyOp24
 70
     0
102
RTVSPropertyOp25
 70
     0
102
RTVSPropertyOp26
 70
     0
102
RTVSPropertyOp27
 70
     0
  0
XRECORD
  5
1AFC
102
{ACAD_REACTORS
330
1AFB
102
}
330
1AFB
100
AcDbXrecord
280
     1
102
RTVSPropertyOp0
 70
     1
102
RTVSPropertyOp1
 70
     1
102
RTVSPropertyOp2
 70
     1
102
RTVSPropertyOp3
 70
     1
102
RTVSPropertyOp4
 70
     1
102
RTVSPropertyOp5
 70
     1
102
RTVSPropertyOp6
 70
     1
102
RTVSPropertyOp7
 70
     1
102
RTVSPropertyOp8
 70
     1
102
RTVSPropertyOp9
 70
     1
102
RTVSPropertyOp10
 70
     1
102
RTVSPropertyOp11
 70
     1
102
RTVSPropertyOp12
 70
     1
102
RTVSPropertyOp13
 70
     1
102
RTVSPropertyOp14
 70
     1
102
RTVSPropertyOp15
 70
     1
102
RTVSPropertyOp16
 70
     1
102
RTVSPropertyOp17
 70
     1
102
RTVSPropertyOp18
 70
     1
102
RTVSPropertyOp19
 70
     1
102
RTVSPropertyOp20
 70
     1
102
RTVSPropertyOp21
 70
     1
102
RTVSPropertyOp22
 70
     1
102
RTVSPropertyOp23
 70
     1
102
RTVSPropertyOp24
 70
     1
102
RTVSPropertyOp25
 70
     1
102
RTVSPropertyOp26
 70
     1
102
RTVSPropertyOp27
 70
     1
  0
XRECORD
  5
1B04
102
{ACAD_REACTORS
330
1B03
102
}
330
1B03
100
AcDbXrecord
280
     1
102
RTVSPropertyOp0
 70
     0
102
RTVSPropertyOp1
 70
     0
102
RTVSPropertyOp2
 70
     0
102
RTVSPropertyOp3
 70
     0
102
RTVSPropertyOp4
 70
     0
102
RTVSPropertyOp5
 70
     0
102
RTVSPropertyOp6
 70
     0
102
RTVSPropertyOp7
 70
     0
102
RTVSPropertyOp8
 70
     0
102
RTVSPropertyOp9
 70
     0
102
RTVSPropertyOp10
 70
     0
102
RTVSPropertyOp11
 70
     0
102
RTVSPropertyOp12
 70
     0
102
RTVSPropertyOp13
 70
     0
102
RTVSPropertyOp14
 70
     2
102
RTVSPropertyOp15
 70
     0
102
RTVSPropertyOp16
 70
     0
102
RTVSPropertyOp17
 70
     0
102
RTVSPropertyOp18
 70
     0
102
RTVSPropertyOp19
 70
     0
102
RTVSPropertyOp20
 70
     0
102
RTVSPropertyOp21
 70
     0
102
RTVSPropertyOp22
 70
     0
102
RTVSPropertyOp23
 70
     0
102
RTVSPropertyOp24
 70
     0
102
RTVSPropertyOp25
 70
     0
102
RTVSPropertyOp26
 70
     0
102
RTVSPropertyOp27
 70
     0
  0
XRECORD
  5
1AF4
102
{ACAD_REACTORS
330
1AF3
102
}
330
1AF3
100
AcDbXrecord
280
     1
102
RTVSPropertyOp0
 70
     1
102
RTVSPropertyOp1
 70
     1
102
RTVSPropertyOp2
 70
     1
102
RTVSPropertyOp3
 70
     1
102
RTVSPropertyOp4
 70
     1
102
RTVSPropertyOp5
 70
     1
102
RTVSPropertyOp6
 70
     1
102
RTVSPropertyOp7
 70
     1
102
RTVSPropertyOp8
 70
     1
102
RTVSPropertyOp9
 70
     1
102
RTVSPropertyOp10
 70
     1
102
RTVSPropertyOp11
 70
     1
102
RTVSPropertyOp12
 70
     1
102
RTVSPropertyOp13
 70
     1
102
RTVSPropertyOp14
 70
     1
102
RTVSPropertyOp15
 70
     1
102
RTVSPropertyOp16
 70
     1
102
RTVSPropertyOp17
 70
     1
102
RTVSPropertyOp18
 70
     1
102
RTVSPropertyOp19
 70
     1
102
RTVSPropertyOp20
 70
     1
102
RTVSPropertyOp21
 70
     1
102
RTVSPropertyOp22
 70
     1
102
RTVSPropertyOp23
 70
     1
102
RTVSPropertyOp24
 70
     1
102
RTVSPropertyOp25
 70
     1
102
RTVSPropertyOp26
 70
     1
102
RTVSPropertyOp27
 70
     1
  0
XRECORD
  5
1AFA
102
{ACAD_REACTORS
330
1AF9
102
}
330
1AF9
100
AcDbXrecord
280
     1
102
RTVSPropertyOp0
 70
     1
102
RTVSPropertyOp1
 70
     1
102
RTVSPropertyOp2
 70
     1
102
RTVSPropertyOp3
 70
     1
102
RTVSPropertyOp4
 70
     1
102
RTVSPropertyOp5
 70
     1
102
RTVSPropertyOp6
 70
     1
102
RTVSPropertyOp7
 70
     1
102
RTVSPropertyOp8
 70
     1
102
RTVSPropertyOp9
 70
     1
102
RTVSPropertyOp10
 70
     1
102
RTVSPropertyOp11
 70
     1
102
RTVSPropertyOp12
 70
     1
102
RTVSPropertyOp13
 70
     1
102
RTVSPropertyOp14
 70
     1
102
RTVSPropertyOp15
 70
     1
102
RTVSPropertyOp16
 70
     1
102
RTVSPropertyOp17
 70
     1
102
RTVSPropertyOp18
 70
     1
102
RTVSPropertyOp19
 70
     1
102
RTVSPropertyOp20
 70
     1
102
RTVSPropertyOp21
 70
     1
102
RTVSPropertyOp22
 70
     1
102
RTVSPropertyOp23
 70
     1
102
RTVSPropertyOp24
 70
     1
102
RTVSPropertyOp25
 70
     1
102
RTVSPropertyOp26
 70
     1
102
RTVSPropertyOp27
 70
     1
  0
ENDSEC
  0
EOF
