  0
SECTION
  2
HEADER
  9
$ACADVER
  1
AC1021
  9
$ACADMAINTVER
 70
    50
  9
$DWGCODEPAGE
  3
ANSI_1252
  9
$LASTSAVEDBY
  1
francoisbu
  9
$INSBASE
 10
0.0
 20
0.0
 30
0.0
  9
$EXTMIN
 10
96.94759168087699
 20
18.98323597236532
 30
-0.0015258207003583
  9
$EXTMAX
 10
132.8208011469492
 20
43.70817076038128
 30
0.0000000349246037
  9
$LIMMIN
 10
0.0
 20
0.0
  9
$LIMMAX
 10
181.3333333333
 20
117.3333333333
  9
$ORTHOMODE
 70
     0
  9
$REGENMODE
 70
     1
  9
$FILLMODE
 70
     1
  9
$QTEXTMODE
 70
     0
  9
$MIRRTEXT
 70
     0
  9
$LTSCALE
 40
9.973333333300001
  9
$ATTMODE
 70
     1
  9
$TEXTSIZE
 40
0.2
  9
$TRACEWID
 40
0.05
  9
$TEXTSTYLE
  7
STANDARD
  9
$CLAYER
  8
0
  9
$CELTYPE
  6
BYLAYER
  9
$CECOLOR
 62
   256
  9
$CELTSCALE
 40
1.0
  9
$DISPSILH
 70
     0
  9
$DIMSCALE
 40
1.0
  9
$DIMASZ
 40
2.0
  9
$DIMEXO
 40
0.0625
  9
$DIMDLI
 40
6.890666666699999
  9
$DIMRND
 40
0.0
  9
$DIMDLE
 40
0.0
  9
$DIMEXE
 40
0.125
  9
$DIMTP
 40
0.00001
  9
$DIMTM
 40
0.00001
  9
$DIMTXT
 40
1.333333333299999
  9
$DIMCEN
 40
1.631999999999999
  9
$DIMTSZ
 40
0.0
  9
$DIMTOL
 70
     1
  9
$DIMLIM
 70
     0
  9
$DIMTIH
 70
     1
  9
$DIMTOH
 70
     1
  9
$DIMSE1
 70
     0
  9
$DIMSE2
 70
     0
  9
$DIMTAD
 70
     0
  9
$DIMZIN
 70
     0
  9
$DIMBLK
  1
_FILLED
  9
$DIMASO
 70
     1
  9
$DIMSHO
 70
     1
  9
$DIMPOST
  1

  9
$DIMAPOST
  1

  9
$DIMALT
 70
     0
  9
$DIMALTD
 70
     2
  9
$DIMALTF
 40
25.4
  9
$DIMLFAC
 40
1.0
  9
$DIMTOFL
 70
     0
  9
$DIMTVP
 40
0.0
  9
$DIMTIX
 70
     0
  9
$DIMSOXD
 70
     0
  9
$DIMSAH
 70
     0
  9
$DIMBLK1
  1

  9
$DIMBLK2
  1

  9
$DIMSTYLE
  2
STANDARD
  9
$DIMCLRD
 70
     0
  9
$DIMCLRE
 70
     0
  9
$DIMCLRT
 70
     0
  9
$DIMTFAC
 40
1.0
  9
$DIMGAP
 40
0.09
  9
$DIMJUST
 70
     0
  9
$DIMSD1
 70
     0
  9
$DIMSD2
 70
     0
  9
$DIMTOLJ
 70
     1
  9
$DIMTZIN
 70
     0
  9
$DIMALTZ
 70
     0
  9
$DIMALTTZ
 70
     0
  9
$DIMUPT
 70
     0
  9
$DIMDEC
 70
     4
  9
$DIMTDEC
 70
     4
  9
$DIMALTU
 70
     2
  9
$DIMALTTD
 70
     2
  9
$DIMTXSTY
  7
STANDARD
  9
$DIMAUNIT
 70
     0
  9
$DIMADEC
 70
     0
  9
$DIMALTRND
 40
0.0
  9
$DIMAZIN
 70
     0
  9
$DIMDSEP
 70
    46
  9
$DIMATFIT
 70
     3
  9
$DIMFRAC
 70
     0
  9
$DIMLDRBLK
  1

  9
$DIMLUNIT
 70
     2
  9
$DIMLWD
 70
    -2
  9
$DIMLWE
 70
    -2
  9
$DIMTMOVE
 70
     0
  9
$DIMFXL
 40
1.0
  9
$DIMFXLON
 70
     0
  9
$DIMJOGANG
 40
0.7853981633974483
  9
$DIMTFILL
 70
     0
  9
$DIMTFILLCLR
 70
     0
  9
$DIMARCSYM
 70
     0
  9
$DIMLTYPE
  6

  9
$DIMLTEX1
  6

  9
$DIMLTEX2
  6

  9
$LUNITS
 70
     2
  9
$LUPREC
 70
     4
  9
$SKETCHINC
 40
0.1
  9
$FILLETRAD
 40
0.0
  9
$AUNITS
 70
     0
  9
$AUPREC
 70
     0
  9
$MENU
  1
.
  9
$ELEVATION
 40
0.0
  9
$PELEVATION
 40
0.0
  9
$THICKNESS
 40
0.0
  9
$LIMCHECK
 70
     0
  9
$CHAMFERA
 40
0.0
  9
$CHAMFERB
 40
0.0
  9
$CHAMFERC
 40
0.0
  9
$CHAMFERD
 40
0.0
  9
$SKPOLY
 70
     0
  9
$TDCREATE
 40
2456966.609441412
  9
$TDUCREATE
 40
2456966.817774745
  9
$TDUPDATE
 40
2456966.626400498
  9
$TDUUPDATE
 40
2456966.834733831
  9
$TDINDWG
 40
0.0020076273
  9
$TDUSRTIMER
 40
0.0020076273
  9
$USRTIMER
 70
     1
  9
$ANGBASE
 50
0.0
  9
$ANGDIR
 70
     0
  9
$PDMODE
 70
     3
  9
$PDSIZE
 40
0.03125
  9
$PLINEWID
 40
0.0
  9
$SPLFRAME
 70
     0
  9
$SPLINETYPE
 70
     6
  9
$SPLINESEGS
 70
     8
  9
$HANDSEED
  5
1638
  9
$SURFTAB1
 70
     6
  9
$SURFTAB2
 70
     6
  9
$SURFTYPE
 70
     6
  9
$SURFU
 70
     6
  9
$SURFV
 70
     6
  9
$UCSBASE
  2

  9
$UCSNAME
  2

  9
$UCSORG
 10
0.0
 20
0.0
 30
0.0
  9
$UCSXDIR
 10
1.0
 20
0.0
 30
0.0
  9
$UCSYDIR
 10
0.0
 20
1.0
 30
0.0
  9
$UCSORTHOREF
  2

  9
$UCSORTHOVIEW
 70
     0
  9
$UCSORGTOP
 10
0.0
 20
0.0
 30
0.0
  9
$UCSORGBOTTOM
 10
0.0
 20
0.0
 30
0.0
  9
$UCSORGLEFT
 10
0.0
 20
0.0
 30
0.0
  9
$UCSORGRIGHT
 10
0.0
 20
0.0
 30
0.0
  9
$UCSORGFRONT
 10
0.0
 20
0.0
 30
0.0
  9
$UCSORGBACK
 10
0.0
 20
0.0
 30
0.0
  9
$PUCSBASE
  2

  9
$PUCSNAME
  2

  9
$PUCSORG
 10
0.0
 20
0.0
 30
0.0
  9
$PUCSXDIR
 10
1.0
 20
0.0
 30
0.0
  9
$PUCSYDIR
 10
0.0
 20
1.0
 30
0.0
  9
$PUCSORTHOREF
  2

  9
$PUCSORTHOVIEW
 70
     0
  9
$PUCSORGTOP
 10
0.0
 20
0.0
 30
0.0
  9
$PUCSORGBOTTOM
 10
0.0
 20
0.0
 30
0.0
  9
$PUCSORGLEFT
 10
0.0
 20
0.0
 30
0.0
  9
$PUCSORGRIGHT
 10
0.0
 20
0.0
 30
0.0
  9
$PUCSORGFRONT
 10
0.0
 20
0.0
 30
0.0
  9
$PUCSORGBACK
 10
0.0
 20
0.0
 30
0.0
  9
$USERI1
 70
     0
  9
$USERI2
 70
     0
  9
$USERI3
 70
     0
  9
$USERI4
 70
     0
  9
$USERI5
 70
     0
  9
$USERR1
 40
0.0
  9
$USERR2
 40
0.0
  9
$USERR3
 40
0.0
  9
$USERR4
 40
0.0
  9
$USERR5
 40
0.0
  9
$WORLDVIEW
 70
     1
  9
$SHADEDGE
 70
     3
  9
$SHADEDIF
 70
    70
  9
$TILEMODE
 70
     1
  9
$MAXACTVP
 70
    64
  9
$PINSBASE
 10
0.0
 20
0.0
 30
0.0
  9
$PLIMCHECK
 70
     0
  9
$PEXTMIN
 10
1.000000000000000E+20
 20
1.000000000000000E+20
 30
1.000000000000000E+20
  9
$PEXTMAX
 10
-1.000000000000000E+20
 20
-1.000000000000000E+20
 30
-1.000000000000000E+20
  9
$PLIMMIN
 10
0.0
 20
0.0
  9
$PLIMMAX
 10
12.0
 20
9.0
  9
$UNITMODE
 70
     0
  9
$VISRETAIN
 70
     1
  9
$PLINEGEN
 70
     0
  9
$PSLTSCALE
 70
     1
  9
$TREEDEPTH
 70
  3020
  9
$CMLSTYLE
  2
Standard
  9
$CMLJUST
 70
     0
  9
$CMLSCALE
 40
1.0
  9
$PROXYGRAPHICS
 70
     1
  9
$MEASUREMENT
 70
     0
  9
$CELWEIGHT
370
    -1
  9
$ENDCAPS
280
     0
  9
$JOINSTYLE
280
     0
  9
$LWDISPLAY
290
     0
  9
$INSUNITS
 70
     1
  9
$HYPERLINKBASE
  1

  9
$STYLESHEET
  1

  9
$XEDIT
290
     1
  9
$CEPSNTYPE
380
     0
  9
$PSTYLEMODE
290
     1
  9
$FINGERPRINTGUID
  2
{2190CFF2-5A8C-4969-82D9-46D26A6C7524}
  9
$VERSIONGUID
  2
{1DE626A8-1515-41F7-B5E5-488725106FCB}
  9
$EXTNAMES
290
     1
  9
$PSVPSCALE
 40
0.0
  9
$OLESTARTUP
290
     0
  9
$SORTENTS
280
   127
  9
$INDEXCTL
280
     0
  9
$HIDETEXT
280
     0
  9
$XCLIPFRAME
290
     0
  9
$HALOGAP
280
     0
  9
$OBSCOLOR
 70
   257
  9
$OBSLTYPE
280
     0
  9
$INTERSECTIONDISPLAY
280
     0
  9
$INTERSECTIONCOLOR
 70
   257
  9
$DIMASSOC
280
     1
  9
$PROJECTNAME
  1

  9
$CAMERADISPLAY
290
     0
  9
$LENSLENGTH
 40
50.0
  9
$CAMERAHEIGHT
 40
0.0
  9
$STEPSPERSEC
 40
2.0
  9
$STEPSIZE
 40
6.0
  9
$3DDWFPREC
 40
2.0
  9
$PSOLWIDTH
 40
0.25
  9
$PSOLHEIGHT
 40
4.0
  9
$LOFTANG1
 40
1.570796326794896
  9
$LOFTANG2
 40
1.570796326794896
  9
$LOFTMAG1
 40
0.0
  9
$LOFTMAG2
 40
0.0
  9
$LOFTPARAM
 70
     7
  9
$LOFTNORMALS
280
     1
  9
$LATITUDE
 40
37.795
  9
$LONGITUDE
 40
-122.394
  9
$NORTHDIRECTION
 40
0.0
  9
$TIMEZONE
 70
 -8000
  9
$LIGHTGLYPHDISPLAY
280
     1
  9
$TILEMODELIGHTSYNCH
280
     1
  9
$CMATERIAL
347
1548
  9
$SOLIDHIST
280
     1
  9
$SHOWHIST
280
     1
  9
$DWFFRAME
280
     2
  9
$DGNFRAME
280
     0
  9
$REALWORLDSCALE
290
     1
  9
$INTERFERECOLOR
 62
     1
  9
$INTERFEREOBJVS
345
156A
  9
$INTERFEREVPVS
346
1567
  9
$CSHADOW
280
     0
  9
$SHADOWPLANELOCATION
 40
0.0
  0
ENDSEC
  0
SECTION
  2
CLASSES
  0
CLASS
  1
ACDBDICTIONARYWDFLT
  2
AcDbDictionaryWithDefault
  3
ObjectDBX Classes
 90
        0
 91
        1
280
     0
281
     0
  0
CLASS
  1
MATERIAL
  2
AcDbMaterial
  3
ObjectDBX Classes
 90
     1153
 91
        3
280
     0
281
     0
  0
CLASS
  1
VISUALSTYLE
  2
AcDbVisualStyle
  3
ObjectDBX Classes
 90
     4095
 91
       19
280
     0
281
     0
  0
CLASS
  1
TABLESTYLE
  2
AcDbTableStyle
  3
ObjectDBX Classes
 90
     4095
 91
        1
280
     0
281
     0
  0
CLASS
  1
SCALE
  2
AcDbScale
  3
ObjectDBX Classes
 90
     1153
 91
       33
280
     0
281
     0
  0
CLASS
  1
MLEADERSTYLE
  2
AcDbMLeaderStyle
  3
ACDB_MLEADERSTYLE_CLASS
 90
     4095
 91
        1
280
     0
281
     0
  0
CLASS
  1
CELLSTYLEMAP
  2
AcDbCellStyleMap
  3
ObjectDBX Classes
 90
     1152
 91
        7
280
     0
281
     0
  0
CLASS
  1
DICTIONARYVAR
  2
AcDbDictionaryVar
  3
ObjectDBX Classes
 90
        0
 91
       31
280
     0
281
     0
  0
ENDSEC
  0
SECTION
  2
TABLES
  0
TABLE
  2
VPORT
  5
8
102
{ACAD_XDICTIONARY
360
159E
102
}
330
0
100
AcDbSymbolTable
 70
     1
  0
VPORT
  5
1F4
330
8
100
AcDbSymbolTableRecord
100
AcDbViewportTableRecord
  2
*ACTIVE
 70
     0
 10
0.0
 20
0.0
 11
1.0
 21
1.0
 12
113.1406850674192
 22
30.57774471111184
 13
0.0
 23
0.0
 14
1.0
 24
1.0
 15
0.0
 25
0.0
 16
0.0
 26
0.0
 36
1.0
 17
0.0
 27
0.0
 37
0.0
 40
39.82246593866685
 41
1.780711825487944
 42
50.0
 43
0.0
 44
0.0
 50
0.0
 51
0.0
 71
     0
 72
   100
 73
     1
 74
     1
 75
     0
 76
     0
 77
     0
 78
     0
281
     0
 65
     1
110
0.0
120
0.0
130
0.0
111
1.0
121
0.0
131
0.0
112
0.0
122
1.0
132
0.0
 79
     0
146
0.0
348
1566
 60
     3
 61
     5
292
     1
282
     1
141
0.0
142
0.0
 63
   250
421
  3355443
  0
ENDTAB
  0
TABLE
  2
LTYPE
  5
5
330
0
100
AcDbSymbolTable
 70
     6
  0
LTYPE
  5
14
330
5
100
AcDbSymbolTableRecord
100
AcDbLinetypeTableRecord
  2
BYBLOCK
 70
     0
  3

 72
    65
 73
     0
 40
0.0
  0
LTYPE
  5
15
330
5
100
AcDbSymbolTableRecord
100
AcDbLinetypeTableRecord
  2
BYLAYER
 70
     0
  3

 72
    65
 73
     0
 40
0.0
  0
LTYPE
  5
16
330
5
100
AcDbSymbolTableRecord
100
AcDbLinetypeTableRecord
  2
CONTINUOUS
 70
     0
  3
Solid line
 72
    65
 73
     0
 40
0.0
  0
LTYPE
  5
1F5
330
5
100
AcDbSymbolTableRecord
100
AcDbLinetypeTableRecord
  2
CENTER
 70
     0
  3
____ _ ____ _ ____ _ ____ _ ____ _ ____ _ ____
 72
    65
 73
     4
 40
0.6
 49
0.375
 74
     0
 49
-0.075
 74
     0
 49
0.075
 74
     0
 49
-0.075
 74
     0
  0
LTYPE
  5
1F6
330
5
100
AcDbSymbolTableRecord
100
AcDbLinetypeTableRecord
  2
HIDDEN
 70
     0
  3
- - - - - - - - - - - - - - - - - - - -
 72
    65
 73
     2
 40
0.2
 49
0.1
 74
     0
 49
-0.1
 74
     0
  0
LTYPE
  5
1F7
330
5
100
AcDbSymbolTableRecord
100
AcDbLinetypeTableRecord
  2
PHANTOM
 70
     0
  3
_____ _ _ _____ _ _ _____ _ _ _____
 72
    65
 73
     6
 40
0.8
 49
0.45
 74
     0
 49
-0.05
 74
     0
 49
0.1
 74
     0
 49
-0.05
 74
     0
 49
0.1
 74
     0
 49
-0.05
 74
     0
  0
LTYPE
  5
1F8
330
5
100
AcDbSymbolTableRecord
100
AcDbLinetypeTableRecord
  2
DOT
 70
     0
  3
. . . . . . . . . . . . . . . . . . . .
 72
    65
 73
     2
 40
0.2
 49
0.1
 74
     0
 49
-0.1
 74
     0
  0
LTYPE
  5
1F9
330
5
100
AcDbSymbolTableRecord
100
AcDbLinetypeTableRecord
  2
DASHED
 70
     0
  3
- - - - - - - - - - - - - - - - - - - -
 72
    65
 73
     2
 40
0.2
 49
0.1
 74
     0
 49
-0.1
 74
     0
  0
ENDTAB
  0
TABLE
  2
LAYER
  5
2
330
0
100
AcDbSymbolTable
 70
    30
  0
LAYER
  5
10
102
{ACAD_XDICTIONARY
360
15DE
102
}
330
2
100
AcDbSymbolTableRecord
100
AcDbLayerTableRecord
  2
0
 70
     0
 62
     7
  6
CONTINUOUS
370
    -3
390
F
347
1558
  0
LAYER
  5
1FA
102
{ACAD_XDICTIONARY
360
15E0
102
}
330
2
100
AcDbSymbolTableRecord
100
AcDbLayerTableRecord
  2
DEFAULT_1
 70
     0
 62
     7
  6
CENTER
370
    -3
390
F
347
1558
  0
LAYER
  5
1FB
102
{ACAD_XDICTIONARY
360
15E2
102
}
330
2
100
AcDbSymbolTableRecord
100
AcDbLayerTableRecord
  2
DEFAULT_2
 70
     0
 62
     7
  6
HIDDEN
370
    -3
390
F
347
1558
  0
LAYER
  5
1FC
102
{ACAD_XDICTIONARY
360
15E4
102
}
330
2
100
AcDbSymbolTableRecord
100
AcDbLayerTableRecord
  2
DEFAULT_3
 70
     0
 62
     7
  6
PHANTOM
370
    -3
390
F
347
1558
  0
LAYER
  5
1FD
102
{ACAD_XDICTIONARY
360
15E6
102
}
330
2
100
AcDbSymbolTableRecord
100
AcDbLayerTableRecord
  2
1_CURVES
 70
     0
 62
     7
  6
CONTINUOUS
370
    -3
390
F
347
1558
  0
LAYER
  5
1FE
102
{ACAD_XDICTIONARY
360
15E8
102
}
330
2
100
AcDbSymbolTableRecord
100
AcDbLayerTableRecord
  2
1_CURVES_CONDUIT
 70
     0
 62
     7
  6
CONTINUOUS
370
    -3
390
F
347
1558
  0
LAYER
  5
1FF
102
{ACAD_XDICTIONARY
360
15EA
102
}
330
2
100
AcDbSymbolTableRecord
100
AcDbLayerTableRecord
  2
1_CURVES_DOT
 70
     0
 62
     7
  6
CONTINUOUS
370
    -3
390
F
347
1558
  0
LAYER
  5
200
102
{ACAD_XDICTIONARY
360
15EC
102
}
330
2
100
AcDbSymbolTableRecord
100
AcDbLayerTableRecord
  2
1_CURVES_JETS
 70
     0
 62
     7
  6
CONTINUOUS
370
    -3
390
F
347
1558
  0
LAYER
  5
201
102
{ACAD_XDICTIONARY
360
15EE
102
}
330
2
100
AcDbSymbolTableRecord
100
AcDbLayerTableRecord
  2
1_CURVES_PATINS
 70
     0
 62
     7
  6
CONTINUOUS
370
    -3
390
F
347
1558
  0
LAYER
  5
202
102
{ACAD_XDICTIONARY
360
15F0
102
}
330
2
100
AcDbSymbolTableRecord
100
AcDbLayerTableRecord
  2
1_CURVES_SPEC_FRONT
 70
     0
 62
     7
  6
CONTINUOUS
370
    -3
390
F
347
1558
  0
LAYER
  5
203
102
{ACAD_XDICTIONARY
360
15F2
102
}
330
2
100
AcDbSymbolTableRecord
100
AcDbLayerTableRecord
  2
1_CURVES_SPEC_RIGHT
 70
     0
 62
     7
  6
CONTINUOUS
370
    -3
390
F
347
1558
  0
LAYER
  5
204
102
{ACAD_XDICTIONARY
360
15F4
102
}
330
2
100
AcDbSymbolTableRecord
100
AcDbLayerTableRecord
  2
2_PLANES
 70
     0
 62
     7
  6
CONTINUOUS
370
    -3
390
F
347
1558
  0
LAYER
  5
205
102
{ACAD_XDICTIONARY
360
15F6
102
}
330
2
100
AcDbSymbolTableRecord
100
AcDbLayerTableRecord
  2
2_PLANES_JETS
 70
     0
 62
     7
  6
CONTINUOUS
370
    -3
390
F
347
1558
  0
LAYER
  5
206
102
{ACAD_XDICTIONARY
360
15F8
102
}
330
2
100
AcDbSymbolTableRecord
100
AcDbLayerTableRecord
  2
3_POINTS
 70
     0
 62
     7
  6
CONTINUOUS
370
    -3
390
F
347
1558
  0
LAYER
  5
207
102
{ACAD_XDICTIONARY
360
15FA
102
}
330
2
100
AcDbSymbolTableRecord
100
AcDbLayerTableRecord
  2
3_POINTS_JETS
 70
     0
 62
     7
  6
CONTINUOUS
370
    -3
390
F
347
1558
  0
LAYER
  5
208
102
{ACAD_XDICTIONARY
360
15FC
102
}
330
2
100
AcDbSymbolTableRecord
100
AcDbLayerTableRecord
  2
4_CSYS
 70
     0
 62
     7
  6
CONTINUOUS
370
    -3
390
F
347
1558
  0
LAYER
  5
209
102
{ACAD_XDICTIONARY
360
15FE
102
}
330
2
100
AcDbSymbolTableRecord
100
AcDbLayerTableRecord
  2
5_AXIS
 70
     0
 62
     7
  6
CONTINUOUS
370
    -3
390
F
347
1558
  0
LAYER
  5
20A
102
{ACAD_XDICTIONARY
360
1600
102
}
330
2
100
AcDbSymbolTableRecord
100
AcDbLayerTableRecord
  2
5_AXIS_JETS
 70
     0
 62
     7
  6
CONTINUOUS
370
    -3
390
F
347
1558
  0
LAYER
  5
20B
102
{ACAD_XDICTIONARY
360
1602
102
}
330
2
100
AcDbSymbolTableRecord
100
AcDbLayerTableRecord
  2
6_AIRE_CONDUIT
 70
     0
 62
     7
  6
CONTINUOUS
370
    -3
390
F
347
1558
  0
LAYER
  5
20C
102
{ACAD_XDICTIONARY
360
1604
102
}
330
2
100
AcDbSymbolTableRecord
100
AcDbLayerTableRecord
  2
6_SURFACES
 70
     0
 62
     7
  6
CONTINUOUS
370
    -3
390
F
347
1558
  0
LAYER
  5
20D
102
{ACAD_XDICTIONARY
360
1606
102
}
330
2
100
AcDbSymbolTableRecord
100
AcDbLayerTableRecord
  2
6_SURFACES_AIRE
 70
     0
 62
     7
  6
CONTINUOUS
370
    -3
390
F
347
1558
  0
LAYER
  5
20E
102
{ACAD_XDICTIONARY
360
1608
102
}
330
2
100
AcDbSymbolTableRecord
100
AcDbLayerTableRecord
  2
6_SURFACES_OFFSET_FIBRE_ACRYLIQ
 70
     0
 62
     7
  6
CONTINUOUS
370
    -3
390
F
347
1558
  0
LAYER
  5
20F
102
{ACAD_XDICTIONARY
360
160A
102
}
330
2
100
AcDbSymbolTableRecord
100
AcDbLayerTableRecord
  2
6_SURFACES_POUR_CONDUIT
 70
     0
 62
     7
  6
CONTINUOUS
370
    -3
390
F
347
1558
  0
LAYER
  5
210
102
{ACAD_XDICTIONARY
360
160C
102
}
330
2
100
AcDbSymbolTableRecord
100
AcDbLayerTableRecord
  2
6_SURFACES_POUR_HFL
 70
     0
 62
     7
  6
CONTINUOUS
370
    -3
390
F
347
1558
  0
LAYER
  5
211
102
{ACAD_XDICTIONARY
360
160E
102
}
330
2
100
AcDbSymbolTableRecord
100
AcDbLayerTableRecord
  2
6_SURFACES_TOOLING
 70
     0
 62
     7
  6
CONTINUOUS
370
    -3
390
F
347
1558
  0
LAYER
  5
212
102
{ACAD_XDICTIONARY
360
1610
102
}
330
2
100
AcDbSymbolTableRecord
100
AcDbLayerTableRecord
  2
7_NOTES
 70
     0
 62
     7
  6
CONTINUOUS
370
    -3
390
F
347
1558
  0
LAYER
  5
213
102
{ACAD_XDICTIONARY
360
1612
102
}
330
2
100
AcDbSymbolTableRecord
100
AcDbLayerTableRecord
  2
8_TOL_GEOM
 70
     0
 62
     7
  6
CONTINUOUS
370
    -3
390
F
347
1558
  0
LAYER
  5
214
102
{ACAD_XDICTIONARY
360
1614
102
}
330
2
100
AcDbSymbolTableRecord
100
AcDbLayerTableRecord
  2
DEGAGEMENT_SERIGRAPHIE
 70
     0
 62
     7
  6
CONTINUOUS
370
    -3
390
F
347
1558
  0
LAYER
  5
215
102
{ACAD_XDICTIONARY
360
1616
102
}
330
2
100
AcDbSymbolTableRecord
100
AcDbLayerTableRecord
  2
NONE
 70
     0
 62
     7
  6
CONTINUOUS
370
    -3
390
F
347
1558
  0
LAYER
  5
216
102
{ACAD_XDICTIONARY
360
1618
102
}
330
2
100
AcDbSymbolTableRecord
100
AcDbLayerTableRecord
  2
XSEC_DATUMS
 70
     0
 62
     7
  6
CONTINUOUS
370
    -3
390
F
347
1558
  0
ENDTAB
  0
TABLE
  2
STYLE
  5
3
330
0
100
AcDbSymbolTable
 70
     8
  0
STYLE
  5
11
330
3
100
AcDbSymbolTableRecord
100
AcDbTextStyleTableRecord
  2
STANDARD
 70
     0
 40
0.0
 41
0.8
 50
0.0
 71
     0
 42
0.2
  3
txt
  4

  0
STYLE
  5
217
330
3
100
AcDbSymbolTableRecord
100
AcDbTextStyleTableRecord
  2
TEXTSTYLE_1
 70
     0
 40
0.0
 41
0.8
 50
0.0
 71
     0
 42
0.2
  3
gdt
  4

  0
STYLE
  5
218
330
3
100
AcDbSymbolTableRecord
100
AcDbTextStyleTableRecord
  2
TEXTSTYLE_2
 70
     0
 40
0.0
 41
1.0
 50
0.0
 71
     0
 42
0.2
  3
trium.ttf
  4

  0
STYLE
  5
219
330
3
100
AcDbSymbolTableRecord
100
AcDbTextStyleTableRecord
  2
TEXTSTYLE_3
 70
     0
 40
0.0
 41
1.0
 50
0.0
 71
     0
 42
0.2
  3
trium.ttf
  4

  0
STYLE
  5
21A
330
3
100
AcDbSymbolTableRecord
100
AcDbTextStyleTableRecord
  2
TEXTSTYLE_4
 70
     0
 40
0.0
 41
1.0
 50
0.0
 71
     0
 42
0.2
  3
txt
  4

1001
ACAD
1000
txt
1071
        2
  0
STYLE
  5
21B
330
3
100
AcDbSymbolTableRecord
100
AcDbTextStyleTableRecord
  2
TEXTSTYLE_5
 70
     0
 40
0.0
 41
1.0
 50
0.0
 71
     0
 42
0.2
  3
txt
  4

  0
STYLE
  5
21C
330
3
100
AcDbSymbolTableRecord
100
AcDbTextStyleTableRecord
  2
TEXTSTYLE_6
 70
     0
 40
0.0
 41
1.0
 50
0.0
 71
     0
 42
0.2
  3
trium.ttf
  4

  0
STYLE
  5
21D
330
3
100
AcDbSymbolTableRecord
100
AcDbTextStyleTableRecord
  2
TEXTSTYLE_7
 70
     0
 40
0.0
 41
0.8
 50
0.0
 71
     0
 42
0.2
  3
txt
  4

  0
ENDTAB
  0
TABLE
  2
VIEW
  5
6
330
0
100
AcDbSymbolTable
 70
     0
  0
ENDTAB
  0
TABLE
  2
UCS
  5
7
330
0
100
AcDbSymbolTable
 70
     0
  0
ENDTAB
  0
TABLE
  2
APPID
  5
9
330
0
100
AcDbSymbolTable
 70
     2
  0
APPID
  5
21E
330
9
100
AcDbSymbolTableRecord
100
AcDbRegAppTableRecord
  2
ACAD
 70
     0
  0
APPID
  5
15CE
330
9
100
AcDbSymbolTableRecord
100
AcDbRegAppTableRecord
  2
ACAD_MLEADERVER
 70
     0
  0
ENDTAB
  0
TABLE
  2
DIMSTYLE
  5
A
330
0
100
AcDbSymbolTable
 70
     5
100
AcDbDimStyleTable
 71
     0
  0
DIMSTYLE
105
236
330
A
100
AcDbSymbolTableRecord
100
AcDbDimStyleTableRecord
  2
STANDARD
 70
     0
 41
2.0
 44
0.125
 47
0.00001
 48
0.00001
 71
     1
 78
     4
140
1.333333333299999
271
     5
272
     5
284
     4
340
11
341
221
342
221
343
221
344
221
  0
DIMSTYLE
105
237
330
A
100
AcDbSymbolTableRecord
100
AcDbDimStyleTableRecord
  2
DIMSTYLE_1
 70
     0
 41
2.0
 44
0.125
 47
0.00001
 48
0.00001
 78
     4
140
1.333333333299999
147
0.0625
271
     3
272
     3
284
     4
340
11
341
221
342
221
343
221
344
221
  0
DIMSTYLE
105
238
330
A
100
AcDbSymbolTableRecord
100
AcDbDimStyleTableRecord
  2
DIMSTYLE_2
 70
     0
 41
2.0
 44
0.125
 47
0.00001
 48
0.00001
 78
     4
140
1.333333333299999
147
0.0625
271
     2
272
     2
284
     4
340
11
341
221
342
221
343
221
344
221
  0
DIMSTYLE
105
239
330
A
100
AcDbSymbolTableRecord
100
AcDbDimStyleTableRecord
  2
DIMSTYLE_3
 70
     0
 41
2.0
 44
0.125
 47
1.0
 48
1.0
 78
     4
140
1.333333333299999
271
     0
272
     0
284
     4
340
11
341
221
342
221
343
221
344
221
  0
DIMSTYLE
105
23A
330
A
100
AcDbSymbolTableRecord
100
AcDbDimStyleTableRecord
  2
DIMSTYLE_4
 70
     0
 41
2.0
 44
0.125
 47
0.5
 48
0.5
 78
     4
140
1.333333333299999
271
     6
272
     6
284
     4
340
11
341
221
342
221
343
221
344
221
  0
ENDTAB
  0
TABLE
  2
BLOCK_RECORD
  5
1
330
0
100
AcDbSymbolTable
 70
    21
  0
BLOCK_RECORD
  5
21F
330
1
100
AcDbSymbolTableRecord
100
AcDbBlockTableRecord
  2
*Model_Space
340
1543
 70
     0
280
     1
281
     0
  0
BLOCK_RECORD
  5
220
330
1
100
AcDbSymbolTableRecord
100
AcDbBlockTableRecord
  2
*Paper_Space
340
1544
 70
     0
280
     1
281
     0
  0
BLOCK_RECORD
  5
221
330
1
100
AcDbSymbolTableRecord
100
AcDbBlockTableRecord
  2
_FILLED
340
0
102
{BLKREFS
331
31F
331
320
331
328
331
329
331
331
331
332
331
33A
331
33B
331
343
331
344
331
34C
331
34D
331
355
331
356
331
35F
331
360
331
369
331
36A
331
372
331
373
331
37B
331
37C
331
38C
331
38D
331
396
331
397
102
}
 70
     0
280
     1
281
     0
  0
BLOCK_RECORD
  5
222
330
1
100
AcDbSymbolTableRecord
100
AcDbBlockTableRecord
  2
*D1
340
0
 70
     0
280
     1
281
     0
  0
BLOCK_RECORD
  5
223
330
1
100
AcDbSymbolTableRecord
100
AcDbBlockTableRecord
  2
*D2
340
0
 70
     0
280
     1
281
     0
  0
BLOCK_RECORD
  5
224
330
1
100
AcDbSymbolTableRecord
100
AcDbBlockTableRecord
  2
*D3
340
0
 70
     0
280
     1
281
     0
  0
BLOCK_RECORD
  5
225
330
1
100
AcDbSymbolTableRecord
100
AcDbBlockTableRecord
  2
*D4
340
0
 70
     0
280
     1
281
     0
  0
BLOCK_RECORD
  5
226
330
1
100
AcDbSymbolTableRecord
100
AcDbBlockTableRecord
  2
*D5
340
0
 70
     0
280
     1
281
     0
  0
BLOCK_RECORD
  5
227
330
1
100
AcDbSymbolTableRecord
100
AcDbBlockTableRecord
  2
*D6
340
0
 70
     0
280
     1
281
     0
  0
BLOCK_RECORD
  5
228
330
1
100
AcDbSymbolTableRecord
100
AcDbBlockTableRecord
  2
*D7
340
0
 70
     0
280
     1
281
     0
  0
BLOCK_RECORD
  5
229
330
1
100
AcDbSymbolTableRecord
100
AcDbBlockTableRecord
  2
*D8
340
0
 70
     0
280
     1
281
     0
  0
BLOCK_RECORD
  5
22A
330
1
100
AcDbSymbolTableRecord
100
AcDbBlockTableRecord
  2
*D9
340
0
 70
     0
280
     1
281
     0
  0
BLOCK_RECORD
  5
22B
330
1
100
AcDbSymbolTableRecord
100
AcDbBlockTableRecord
  2
*D10
340
0
 70
     0
280
     1
281
     0
  0
BLOCK_RECORD
  5
22C
330
1
100
AcDbSymbolTableRecord
100
AcDbBlockTableRecord
  2
*D11
340
0
 70
     0
280
     1
281
     0
  0
BLOCK_RECORD
  5
22D
330
1
100
AcDbSymbolTableRecord
100
AcDbBlockTableRecord
  2
*D12
340
0
 70
     0
280
     1
281
     0
  0
BLOCK_RECORD
  5
22E
330
1
100
AcDbSymbolTableRecord
100
AcDbBlockTableRecord
  2
*D13
340
0
 70
     0
280
     1
281
     0
  0
BLOCK_RECORD
  5
22F
330
1
100
AcDbSymbolTableRecord
100
AcDbBlockTableRecord
  2
*D14
340
0
 70
     0
280
     1
281
     0
  0
BLOCK_RECORD
  5
230
330
1
100
AcDbSymbolTableRecord
100
AcDbBlockTableRecord
  2
*D15
340
0
 70
     0
280
     1
281
     0
  0
BLOCK_RECORD
  5
231
330
1
100
AcDbSymbolTableRecord
100
AcDbBlockTableRecord
  2
SYMBOL_3_BL4
340
0
 70
     0
280
     1
281
     0
  0
BLOCK_RECORD
  5
232
330
1
100
AcDbSymbolTableRecord
100
AcDbBlockTableRecord
  2
SYMBOL_7_BL3
340
0
 70
     0
280
     1
281
     0
  0
BLOCK_RECORD
  5
233
330
1
100
AcDbSymbolTableRecord
100
AcDbBlockTableRecord
  2
SYMBOL_6_BL2
340
0
 70
     0
280
     1
281
     0
  0
BLOCK_RECORD
  5
234
330
1
100
AcDbSymbolTableRecord
100
AcDbBlockTableRecord
  2
SYMBOL_5_BL1
340
0
 70
     0
280
     1
281
     0
  0
BLOCK_RECORD
  5
235
330
1
100
AcDbSymbolTableRecord
100
AcDbBlockTableRecord
  2
SYMBOL_0_BL0
340
0
 70
     0
280
     1
281
     0
  0
ENDTAB
  0
ENDSEC
  0
SECTION
  2
BLOCKS
  0
BLOCK
  5
20
330
21F
100
AcDbEntity
  8
0
100
AcDbBlockBegin
  2
*Model_Space
 70
     0
 10
0.0
 20
0.0
 30
0.0
  3
*Model_Space
  1

  0
ENDBLK
  5
21
330
21F
100
AcDbEntity
  8
0
100
AcDbBlockEnd
  0
BLOCK
  5
1C
330
220
100
AcDbEntity
 67
     1
  8
0
100
AcDbBlockBegin
  2
*Paper_Space
 70
     0
 10
0.0
 20
0.0
 30
0.0
  3
*Paper_Space
  1

  0
ENDBLK
  5
1D
330
220
100
AcDbEntity
 67
     1
  8
0
100
AcDbBlockEnd
  0
BLOCK
  5
316
330
221
100
AcDbEntity
  8
0
100
AcDbBlockBegin
  2
_FILLED
 70
     0
 10
0.0
 20
0.0
 30
0.0
  3
_FILLED
  1

  0
SOLID
  5
317
330
221
100
AcDbEntity
  8
0
  6
ByBlock
 62
     0
100
AcDbTrace
 10
0.0
 20
0.0
 30
0.0
 11
-1.0
 21
0.1666666667
 31
0.0
 12
-1.0
 22
-0.1666666667
 32
0.0
 13
-1.0
 23
-0.1666666667
 33
0.0
  0
ENDBLK
  5
318
330
221
100
AcDbEntity
  8
0
  6
ByBlock
 62
     0
100
AcDbBlockEnd
  0
BLOCK
  5
319
330
222
100
AcDbEntity
  8
0
  6
Continuous
 62
     7
100
AcDbBlockBegin
  2
*D1
 70
     1
 10
0.0
 20
0.0
 30
0.0
  3
*D1
  1

  0
MTEXT
  5
31A
330
222
100
AcDbEntity
  8
0
  6
Continuous
 62
     7
100
AcDbMText
 10
135.7064031204
 20
33.153191491
 30
0.0
 40
1.333333333299999
 41
4.266666666699999
 46
0.0
 71
     2
 72
     1
  1
16\P[41]
 73
     1
 44
0.9
  0
LINE
  5
31B
330
222
100
AcDbEntity
  8
0
  6
Continuous
 62
     7
100
AcDbLine
 10
130.6041166804
 20
24.4865248244
 30
0.0
 11
138.1064031204
 21
24.4865248244
 31
0.0
  0
LINE
  5
31C
330
222
100
AcDbEntity
  8
0
  6
Continuous
 62
     7
100
AcDbLine
 10
131.017783347
 20
40.4865248244
 30
0.0
 11
138.1064031204
 21
40.4865248244
 31
0.0
  0
LINE
  5
31D
330
222
100
AcDbEntity
  8
0
  6
Continuous
 62
     7
100
AcDbLine
 10
136.7730697870999
 20
24.4865248244
 30
0.0
 11
136.7730697870999
 21
29.153191491
 31
0.0
  0
LINE
  5
31E
330
222
100
AcDbEntity
  8
0
  6
Continuous
 62
     7
100
AcDbLine
 10
136.7730697870999
 20
40.4865248244
 30
0.0
 11
136.7730697870999
 21
33.8198581577
 31
0.0
  0
INSERT
  5
31F
330
222
100
AcDbEntity
  8
0
  6
Continuous
 62
     7
100
AcDbBlockReference
  2
_FILLED
 10
136.7730697870999
 20
24.4865248244
 30
0.0
 41
2.0
 42
2.0
 43
2.0
 50
270.0
  0
INSERT
  5
320
330
222
100
AcDbEntity
  8
0
  6
Continuous
 62
     7
100
AcDbBlockReference
  2
_FILLED
 10
136.7730697870999
 20
40.4865248244
 30
0.0
 41
2.0
 42
2.0
 43
2.0
 50
90.0
  0
ENDBLK
  5
321
330
222
100
AcDbEntity
  8
0
  6
ByBlock
 62
     0
100
AcDbBlockEnd
  0
BLOCK
  5
322
330
223
100
AcDbEntity
  8
0
  6
Continuous
 62
     7
100
AcDbBlockBegin
  2
*D2
 70
     1
 10
0.0
 20
0.0
 30
0.0
  3
*D2
  1

  0
MTEXT
  5
323
330
223
100
AcDbEntity
  8
0
  6
Continuous
 62
     7
100
AcDbMText
 10
114.8878152095
 20
14.6479740793
 30
0.0
 40
1.333333333299999
 41
6.4
 46
0.0
 71
     2
 72
     1
  1
26-1/4\P[67]
 73
     1
 44
0.9
  0
LINE
  5
324
330
223
100
AcDbEntity
  8
0
  6
Continuous
 62
     7
100
AcDbLine
 10
128.028307481
 20
18.3198581577
 30
0.0
 11
128.028307481
 21
12.6479740793
 31
0.0
  0
LINE
  5
325
330
223
100
AcDbEntity
  8
0
  6
Continuous
 62
     7
100
AcDbLine
 10
101.7473229379
 20
18.3198581577
 30
0.0
 11
101.7473229379
 21
12.6479740793
 31
0.0
  0
LINE
  5
326
330
223
100
AcDbEntity
  8
0
  6
Continuous
 62
     7
100
AcDbLine
 10
128.028307481
 20
13.9813074126
 30
0.0
 11
118.7544818761
 21
13.9813074126
 31
0.0
  0
LINE
  5
327
330
223
100
AcDbEntity
  8
0
  6
Continuous
 62
     7
100
AcDbLine
 10
101.7473229379
 20
13.9813074126
 30
0.0
 11
111.0211485428
 21
13.9813074126
 31
0.0
  0
INSERT
  5
328
330
223
100
AcDbEntity
  8
0
  6
Continuous
 62
     7
100
AcDbBlockReference
  2
_FILLED
 10
128.028307481
 20
13.9813074126
 30
0.0
 41
2.0
 42
2.0
 43
2.0
  0
INSERT
  5
329
330
223
100
AcDbEntity
  8
0
  6
Continuous
 62
     7
100
AcDbBlockReference
  2
_FILLED
 10
101.7473229379
 20
13.9813074126
 30
0.0
 41
2.0
 42
2.0
 43
2.0
 50
180.0
  0
ENDBLK
  5
32A
330
223
100
AcDbEntity
  8
0
  6
ByBlock
 62
     0
100
AcDbBlockEnd
  0
BLOCK
  5
32B
330
224
100
AcDbEntity
  8
0
  6
Continuous
 62
     7
100
AcDbBlockBegin
  2
*D3
 70
     1
 10
0.0
 20
0.0
 30
0.0
  3
*D3
  1

  0
MTEXT
  5
32C
330
224
100
AcDbEntity
  8
0
  6
Continuous
 62
     7
100
AcDbMText
 10
50.8448710113
 20
12.4772959289
 30
0.0
 40
1.333333333299999
 41
5.333333333299999
 46
0.0
 71
     2
 72
     1
  1
50\P[127]
 73
     1
 44
0.9
  0
LINE
  5
32D
330
224
100
AcDbEntity
  8
0
  6
Continuous
 62
     7
100
AcDbLine
 10
77.41600021
 20
18.3198581577
 30
0.0
 11
77.41600021
 21
10.4772959289
 31
0.0
  0
LINE
  5
32E
330
224
100
AcDbEntity
  8
0
  6
Continuous
 62
     7
100
AcDbLine
 10
27.4737418125
 20
18.3198581577
 30
0.0
 11
27.4737418125
 21
10.4772959289
 31
0.0
  0
LINE
  5
32F
330
224
100
AcDbEntity
  8
0
  6
Continuous
 62
     7
100
AcDbLine
 10
77.41600021
 20
11.8106292622
 30
0.0
 11
55.7782043446
 21
11.8106292622
 31
0.0
  0
LINE
  5
330
330
224
100
AcDbEntity
  8
0
  6
Continuous
 62
     7
100
AcDbLine
 10
27.4737418125
 20
11.8106292622
 30
0.0
 11
49.11153767790001
 21
11.8106292622
 31
0.0
  0
INSERT
  5
331
330
224
100
AcDbEntity
  8
0
  6
Continuous
 62
     7
100
AcDbBlockReference
  2
_FILLED
 10
77.41600021
 20
11.8106292622
 30
0.0
 41
2.0
 42
2.0
 43
2.0
  0
INSERT
  5
332
330
224
100
AcDbEntity
  8
0
  6
Continuous
 62
     7
100
AcDbBlockReference
  2
_FILLED
 10
27.4737418125
 20
11.8106292622
 30
0.0
 41
2.0
 42
2.0
 43
2.0
 50
180.0
  0
ENDBLK
  5
333
330
224
100
AcDbEntity
  8
0
  6
ByBlock
 62
     0
100
AcDbBlockEnd
  0
BLOCK
  5
334
330
225
100
AcDbEntity
  8
0
  6
Continuous
 62
     7
100
AcDbBlockBegin
  2
*D4
 70
     1
 10
0.0
 20
0.0
 30
0.0
  3
*D4
  1

  0
MTEXT
  5
335
330
225
100
AcDbEntity
  8
0
  6
Continuous
 62
     7
100
AcDbMText
 10
13.680681604
 20
32.0127835922
 30
0.0
 40
1.333333333299999
 41
6.4
 46
0.0
 71
     2
 72
     1
  1
24-3/4\P[63]
 73
     1
 44
0.9
  0
LINE
  5
336
330
225
100
AcDbEntity
  8
0
  6
Continuous
 62
     7
100
AcDbLine
 10
26.0069034375
 20
18.9865248244
 30
0.0
 11
12.3473482707
 21
18.9865248244
 31
0.0
  0
LINE
  5
337
330
225
100
AcDbEntity
  8
0
  6
Continuous
 62
     7
100
AcDbLine
 10
19.8019034375
 20
43.70570902659999
 30
0.0
 11
12.3473482707
 21
43.70570902659999
 31
0.0
  0
LINE
  5
338
330
225
100
AcDbEntity
  8
0
  6
Continuous
 62
     7
100
AcDbLine
 10
13.680681604
 20
18.9865248244
 30
0.0
 11
13.680681604
 21
28.0127835922
 31
0.0
  0
LINE
  5
339
330
225
100
AcDbEntity
  8
0
  6
Continuous
 62
     7
100
AcDbLine
 10
13.680681604
 20
43.70570902659999
 30
0.0
 11
13.680681604
 21
32.6794502588
 31
0.0
  0
INSERT
  5
33A
330
225
100
AcDbEntity
  8
0
  6
Continuous
 62
     7
100
AcDbBlockReference
  2
_FILLED
 10
13.680681604
 20
18.9865248244
 30
0.0
 41
2.0
 42
2.0
 43
2.0
 50
270.0
  0
INSERT
  5
33B
330
225
100
AcDbEntity
  8
0
  6
Continuous
 62
     7
100
AcDbBlockReference
  2
_FILLED
 10
13.680681604
 20
43.70570902659999
 30
0.0
 41
2.0
 42
2.0
 43
2.0
 50
90.0
  0
ENDBLK
  5
33C
330
225
100
AcDbEntity
  8
0
  6
ByBlock
 62
     0
100
AcDbBlockEnd
  0
BLOCK
  5
33D
330
226
100
AcDbEntity
  8
0
  6
Continuous
 62
     7
100
AcDbBlockBegin
  2
*D5
 70
     1
 10
0.0
 20
0.0
 30
0.0
  3
*D5
  1

  0
MTEXT
  5
33E
330
226
100
AcDbEntity
  8
0
  6
Continuous
 62
     7
100
AcDbMText
 10
116.6744542373
 20
86.0355629572
 30
0.0
 40
1.333333333299999
 41
6.4
 46
0.0
 71
     2
 72
     1
  1
35-7/8\P[91]
 73
     1
 44
0.9
  0
LINE
  5
33F
330
226
100
AcDbEntity
  8
0
  6
Continuous
 62
     7
100
AcDbLine
 10
53.1115376821
 20
103.3009926662
 30
0.0
 11
118.0077875706
 21
103.3009926662
 31
0.0
  0
LINE
  5
340
330
226
100
AcDbEntity
  8
0
  6
Continuous
 62
     7
100
AcDbLine
 10
53.1115376758
 20
67.43679991489999
 30
0.0
 11
118.0077875706
 21
67.43679991489999
 31
0.0
  0
LINE
  5
341
330
226
100
AcDbEntity
  8
0
  6
Continuous
 62
     7
100
AcDbLine
 10
116.6744542373
 20
103.3009926662
 30
0.0
 11
116.6744542373
 21
86.70222962389999
 31
0.0
  0
LINE
  5
342
330
226
100
AcDbEntity
  8
0
  6
Continuous
 62
     7
100
AcDbLine
 10
116.6744542373
 20
67.43679991489999
 30
0.0
 11
116.6744542373
 21
82.0355629572
 31
0.0
  0
INSERT
  5
343
330
226
100
AcDbEntity
  8
0
  6
Continuous
 62
     7
100
AcDbBlockReference
  2
_FILLED
 10
116.6744542373
 20
103.3009926662
 30
0.0
 41
2.0
 42
2.0
 43
2.0
 50
90.0
  0
INSERT
  5
344
330
226
100
AcDbEntity
  8
0
  6
Continuous
 62
     7
100
AcDbBlockReference
  2
_FILLED
 10
116.6744542373
 20
67.43679991489999
 30
0.0
 41
2.0
 42
2.0
 43
2.0
 50
270.0
  0
ENDBLK
  5
345
330
226
100
AcDbEntity
  8
0
  6
ByBlock
 62
     0
100
AcDbBlockEnd
  0
BLOCK
  5
346
330
227
100
AcDbEntity
  8
0
  6
Continuous
 62
     7
100
AcDbBlockBegin
  2
*D6
 70
     1
 10
0.0
 20
0.0
 30
0.0
  3
*D6
  1

  0
MTEXT
  5
347
330
227
100
AcDbEntity
  8
0
  6
Continuous
 62
     7
100
AcDbMText
 10
52.4448710113
 20
109.0956939613
 30
0.0
 40
1.333333333299999
 41
6.4
 46
0.0
 71
     2
 72
     1
  1
64-1/8\P[163]
 73
     1
 44
0.9
  0
LINE
  5
348
330
227
100
AcDbEntity
  8
0
  6
Continuous
 62
     7
100
AcDbLine
 10
84.4836719184
 20
86.0355629572
 30
0.0
 11
84.4836719184
 21
109.762360628
 31
0.0
  0
LINE
  5
349
330
227
100
AcDbEntity
  8
0
  6
Continuous
 62
     7
100
AcDbLine
 10
20.4060701042
 20
86.0355629572
 30
0.0
 11
20.4060701042
 21
109.762360628
 31
0.0
  0
LINE
  5
34A
330
227
100
AcDbEntity
  8
0
  6
Continuous
 62
     7
100
AcDbLine
 10
84.4836719184
 20
108.4290272947
 30
0.0
 11
56.31153767789999
 21
108.4290272947
 31
0.0
  0
LINE
  5
34B
330
227
100
AcDbEntity
  8
0
  6
Continuous
 62
     7
100
AcDbLine
 10
20.4060701042
 20
108.4290272947
 30
0.0
 11
48.5782043446
 21
108.4290272947
 31
0.0
  0
INSERT
  5
34C
330
227
100
AcDbEntity
  8
0
  6
Continuous
 62
     7
100
AcDbBlockReference
  2
_FILLED
 10
84.4836719184
 20
108.4290272947
 30
0.0
 41
2.0
 42
2.0
 43
2.0
  0
INSERT
  5
34D
330
227
100
AcDbEntity
  8
0
  6
Continuous
 62
     7
100
AcDbBlockReference
  2
_FILLED
 10
20.4060701042
 20
108.4290272947
 30
0.0
 41
2.0
 42
2.0
 43
2.0
 50
180.0
  0
ENDBLK
  5
34E
330
227
100
AcDbEntity
  8
0
  6
ByBlock
 62
     0
100
AcDbBlockEnd
  0
BLOCK
  5
34F
330
228
100
AcDbEntity
  8
0
  6
Continuous
 62
     7
100
AcDbBlockBegin
  2
*D7
 70
     1
 10
0.0
 20
0.0
 30
0.0
  3
*D7
  1

  0
MTEXT
  5
350
330
228
100
AcDbEntity
  8
0
  6
Continuous
 62
     7
100
AcDbMText
 10
61.8431560256
 20
64.67809093869999
 30
0.0
 40
1.333333333299999
 41
5.333333333299999
 46
0.0
 71
     1
 72
     1
  1
3-7/8\P[10]
 73
     1
 44
0.9
  0
LINE
  5
351
330
228
100
AcDbEntity
  8
0
  6
Continuous
 62
     7
100
AcDbLine
 10
52.4448710113
 20
81.5308371665
 30
0.0
 11
52.4448710113
 21
62.6780909387
 31
0.0
  0
LINE
  5
352
330
228
100
AcDbEntity
  8
0
  6
Continuous
 62
     7
100
AcDbLine
 10
56.3198710113
 20
78.2605629572
 30
0.0
 11
56.3198710113
 21
62.6780909387
 31
0.0
  0
LINE
  5
353
330
228
100
AcDbEntity
  8
0
  6
Continuous
 62
     7
100
AcDbLine
 10
52.4448710113
 20
64.01142427199999
 30
0.0
 11
47.1115376779
 21
64.01142427199999
 31
0.0
  0
LINE
  5
354
330
228
100
AcDbEntity
  8
0
  6
Continuous
 62
     7
100
AcDbLine
 10
56.3198710113
 20
64.01142427199999
 30
0.0
 11
61.17648935890001
 21
64.01142427199999
 31
0.0
  0
INSERT
  5
355
330
228
100
AcDbEntity
  8
0
  6
Continuous
 62
     7
100
AcDbBlockReference
  2
_FILLED
 10
52.4448710113
 20
64.01142427199999
 30
0.0
 41
2.0
 42
2.0
 43
2.0
  0
INSERT
  5
356
330
228
100
AcDbEntity
  8
0
  6
Continuous
 62
     7
100
AcDbBlockReference
  2
_FILLED
 10
56.3198710113
 20
64.01142427199999
 30
0.0
 41
2.0
 42
2.0
 43
2.0
 50
180.0
  0
ENDBLK
  5
357
330
228
100
AcDbEntity
  8
0
  6
ByBlock
 62
     0
100
AcDbBlockEnd
  0
BLOCK
  5
358
330
229
100
AcDbEntity
  8
0
  6
Continuous
 62
     7
100
AcDbBlockBegin
  2
*D8
 70
     1
 10
0.0
 20
0.0
 30
0.0
  3
*D8
  1

  0
MTEXT
  5
359
330
229
100
AcDbEntity
  8
0
  6
Continuous
 62
     7
100
AcDbMText
 10
92.00663669790001
 20
92.1382475266
 30
0.0
 40
1.333333333299999
 41
5.333333333299999
 46
0.0
 71
     1
 72
     1
  1
4-1/4\P[11]
 73
     1
 44
0.9
  0
LINE
  5
35A
330
229
100
AcDbEntity
  8
0
  6
Continuous
 62
     7
100
AcDbLine
 10
85.43753767789999
 20
81.1188962906
 30
0.0
 11
90.67330336459999
 21
81.1188962906
 31
0.0
  0
LINE
  5
35B
330
229
100
AcDbEntity
  8
0
  6
Continuous
 62
     7
100
AcDbLine
 10
86.055596802
 20
85.3688962906
 30
0.0
 11
90.67330336459999
 21
85.3688962906
 31
0.0
  0
LINE
  5
35C
330
229
100
AcDbEntity
  8
0
  6
Continuous
 62
     7
100
AcDbLine
 10
89.33997003120001
 20
81.1188962906
 30
0.0
 11
89.33997003120001
 21
75.7855629572
 31
0.0
  0
LINE
  5
35D
330
229
100
AcDbEntity
  8
0
  6
Continuous
 62
     7
100
AcDbLine
 10
89.33997003120001
 20
85.3688962906
 30
0.0
 11
89.33997003120001
 21
91.4715808599
 31
0.0
  0
LINE
  5
35E
330
229
100
AcDbEntity
  8
0
  6
Continuous
 62
     7
100
AcDbLine
 10
89.33997003120001
 20
91.4715808599
 30
0.0
 11
91.33997003120001
 21
91.4715808599
 31
0.0
  0
INSERT
  5
35F
330
229
100
AcDbEntity
  8
0
  6
Continuous
 62
     7
100
AcDbBlockReference
  2
_FILLED
 10
89.33997003120001
 20
81.1188962906
 30
0.0
 41
2.0
 42
2.0
 43
2.0
 50
90.0
  0
INSERT
  5
360
330
229
100
AcDbEntity
  8
0
  6
Continuous
 62
     7
100
AcDbBlockReference
  2
_FILLED
 10
89.33997003120001
 20
85.3688962906
 30
0.0
 41
2.0
 42
2.0
 43
2.0
 50
270.0
  0
ENDBLK
  5
361
330
229
100
AcDbEntity
  8
0
  6
ByBlock
 62
     0
100
AcDbBlockEnd
  0
BLOCK
  5
362
330
22A
100
AcDbEntity
  8
0
  6
Continuous
 62
     7
100
AcDbBlockBegin
  2
*D9
 70
     1
 10
0.0
 20
0.0
 30
0.0
  3
*D9
  1

  0
MTEXT
  5
363
330
22A
100
AcDbEntity
  8
0
  6
Continuous
 62
     7
100
AcDbMText
 10
12.9990645721
 20
96.6576756851
 30
0.0
 40
1.333333333299999
 41
5.333333333299999
 46
0.0
 71
     3
 72
     1
  1
4-1/4\P[11]
 73
     1
 44
0.9
  0
LINE
  5
364
330
22A
100
AcDbEntity
  8
0
  6
Continuous
 62
     7
100
AcDbLine
 10
19.4002043446
 20
89.59639629059999
 30
0.0
 11
14.3323979055
 21
89.59639629059999
 31
0.0
  0
LINE
  5
365
330
22A
100
AcDbEntity
  8
0
  6
Continuous
 62
     7
100
AcDbLine
 10
19.5028118873
 20
85.3688962906
 30
0.0
 11
14.3323979055
 21
85.3688962906
 31
0.0
  0
LINE
  5
366
330
22A
100
AcDbEntity
  8
0
  6
Continuous
 62
     7
100
AcDbLine
 10
15.6657312388
 20
89.59639629059999
 30
0.0
 11
15.6657312388
 21
95.9910090185
 31
0.0
  0
LINE
  5
367
330
22A
100
AcDbEntity
  8
0
  6
Continuous
 62
     7
100
AcDbLine
 10
15.6657312388
 20
95.9910090185
 30
0.0
 11
13.6657312388
 21
95.9910090185
 31
0.0
  0
LINE
  5
368
330
22A
100
AcDbEntity
  8
0
  6
Continuous
 62
     7
100
AcDbLine
 10
15.6657312388
 20
85.3688962906
 30
0.0
 11
15.6657312388
 21
80.03556295720001
 31
0.0
  0
INSERT
  5
369
330
22A
100
AcDbEntity
  8
0
  6
Continuous
 62
     7
100
AcDbBlockReference
  2
_FILLED
 10
15.6657312388
 20
89.59639629059999
 30
0.0
 41
2.0
 42
2.0
 43
2.0
 50
270.0
  0
INSERT
  5
36A
330
22A
100
AcDbEntity
  8
0
  6
Continuous
 62
     7
100
AcDbBlockReference
  2
_FILLED
 10
15.6657312388
 20
85.3688962906
 30
0.0
 41
2.0
 42
2.0
 43
2.0
 50
90.0
  0
ENDBLK
  5
36B
330
22A
100
AcDbEntity
  8
0
  6
ByBlock
 62
     0
100
AcDbBlockEnd
  0
BLOCK
  5
36C
330
22B
100
AcDbEntity
  8
0
  6
Continuous
 62
     7
100
AcDbBlockBegin
  2
*D10
 70
     1
 10
0.0
 20
0.0
 30
0.0
  3
*D10
  1

  0
MTEXT
  5
36D
330
22B
100
AcDbEntity
  8
0
  6
Continuous
 62
     7
100
AcDbMText
 10
105.1013941169
 20
86.0241486337
 30
0.0
 40
1.333333333299999
 41
6.4
 46
0.0
 71
     2
 72
     1
  1
23-5/8\P[60]
 73
     1
 44
0.9
  0
LINE
  5
36E
330
22B
100
AcDbEntity
  8
0
  6
Continuous
 62
     7
100
AcDbLine
 10
79.6242043446
 20
97.18748257530002
 30
0.0
 11
106.4347274502
 21
97.18748257530002
 31
0.0
  0
LINE
  5
36F
330
22B
100
AcDbEntity
  8
0
  6
Continuous
 62
     7
100
AcDbLine
 10
79.6768710113
 20
73.5274813587
 30
0.0
 11
106.4347274502
 21
73.5274813587
 31
0.0
  0
LINE
  5
370
330
22B
100
AcDbEntity
  8
0
  6
Continuous
 62
     7
100
AcDbLine
 10
105.1013941169
 20
97.18748257530002
 30
0.0
 11
105.1013941169
 21
86.69081530040001
 31
0.0
  0
LINE
  5
371
330
22B
100
AcDbEntity
  8
0
  6
Continuous
 62
     7
100
AcDbLine
 10
105.1013941169
 20
73.5274813587
 30
0.0
 11
105.1013941169
 21
82.0241486337
 31
0.0
  0
INSERT
  5
372
330
22B
100
AcDbEntity
  8
0
  6
Continuous
 62
     7
100
AcDbBlockReference
  2
_FILLED
 10
105.1013941169
 20
97.18748257530002
 30
0.0
 41
2.0
 42
2.0
 43
2.0
 50
90.0
  0
INSERT
  5
373
330
22B
100
AcDbEntity
  8
0
  6
Continuous
 62
     7
100
AcDbBlockReference
  2
_FILLED
 10
105.1013941169
 20
73.5274813587
 30
0.0
 41
2.0
 42
2.0
 43
2.0
 50
270.0
  0
ENDBLK
  5
374
330
22B
100
AcDbEntity
  8
0
  6
ByBlock
 62
     0
100
AcDbBlockEnd
  0
BLOCK
  5
375
330
22C
100
AcDbEntity
  8
0
  6
Continuous
 62
     7
100
AcDbBlockBegin
  2
*D11
 70
     1
 10
0.0
 20
0.0
 30
0.0
  3
*D11
  1

  0
MTEXT
  5
376
330
22C
100
AcDbEntity
  8
0
  6
Continuous
 62
     7
100
AcDbMText
 10
52.5237096756
 20
59.09846296739999
 30
0.0
 40
1.333333333299999
 41
6.4
 46
0.0
 71
     2
 72
     1
  1
41-3/4\P[106]
 73
     1
 44
0.9
  0
LINE
  5
377
330
22C
100
AcDbEntity
  8
0
  6
Continuous
 62
     7
100
AcDbLine
 10
73.35540497060001
 20
57.0984629674
 30
0.0
 11
73.35540497060001
 21
70.191412066
 31
0.0
  0
LINE
  5
378
330
22C
100
AcDbEntity
  8
0
  6
Continuous
 62
     7
100
AcDbLine
 10
31.6920143807
 20
57.0984629674
 30
0.0
 11
31.6920143807
 21
69.7401315991
 31
0.0
  0
LINE
  5
379
330
22C
100
AcDbEntity
  8
0
  6
Continuous
 62
     7
100
AcDbLine
 10
73.35540497060001
 20
58.4317963007
 30
0.0
 11
56.3903763423
 21
58.4317963007
 31
0.0
  0
LINE
  5
37A
330
22C
100
AcDbEntity
  8
0
  6
Continuous
 62
     7
100
AcDbLine
 10
31.6920143807
 20
58.4317963007
 30
0.0
 11
48.657043009
 21
58.4317963007
 31
0.0
  0
INSERT
  5
37B
330
22C
100
AcDbEntity
  8
0
  6
Continuous
 62
     7
100
AcDbBlockReference
  2
_FILLED
 10
73.35540497060001
 20
58.4317963007
 30
0.0
 41
2.0
 42
2.0
 43
2.0
  0
INSERT
  5
37C
330
22C
100
AcDbEntity
  8
0
  6
Continuous
 62
     7
100
AcDbBlockReference
  2
_FILLED
 10
31.6920143807
 20
58.4317963007
 30
0.0
 41
2.0
 42
2.0
 43
2.0
 50
180.0
  0
ENDBLK
  5
37D
330
22C
100
AcDbEntity
  8
0
  6
ByBlock
 62
     0
100
AcDbBlockEnd
  0
BLOCK
  5
37E
330
22D
100
AcDbEntity
  8
0
  6
Continuous
 62
     7
100
AcDbBlockBegin
  2
*D12
 70
     1
 10
0.0
 20
0.0
 30
0.0
  3
*D12
  1

  0
MTEXT
  5
37F
330
22D
100
AcDbEntity
  8
0
  6
Continuous
 62
     7
100
AcDbMText
 10
61.31752677579999
 20
30.9494847028
 30
0.0
 40
1.333333333299999
 41
1.955555555599999
 46
0.0
 71
     2
 72
     1
  1
2\Fgdt;{\Fgdt;~}
 73
     1
 44
0.9
  0
LINE
  5
380
330
22D
100
AcDbEntity
  8
0
  6
Continuous
 62
     7
100
AcDbLine
 10
54.9865376779
 20
24.4865248244
 30
0.0
 11
64.7396888791
 21
24.4865248244
 31
0.0
  0
ARC
  5
381
330
22D
100
AcDbEntity
  8
0
  6
Continuous
 62
     7
100
AcDbCircle
 10
54.3198710113
 20
24.4865248244
 30
0.0
 40
9.0864845345
100
AcDbArc
 50
326.3701083103
 51
360.0
  0
ARC
  5
382
330
22D
100
AcDbEntity
  8
0
  6
Continuous
 62
     7
100
AcDbCircle
 10
54.3198710113
 20
24.4865248244
 30
0.0
 40
9.0864845345
100
AcDbArc
 50
2.102952189
 51
39.6356078929
  0
SOLID
  5
383
330
22D
100
AcDbEntity
  8
0
  6
Continuous
 62
     7
100
AcDbTrace
 10
63.5180092043
 20
22.4620138781
 30
0.0
 11
63.4063555458
 21
24.4865248244
 31
0.0
 12
62.8553757267
 22
22.5352349048
 32
0.0
 13
62.8553757267
 23
22.5352349048
 33
0.0
  0
SOLID
  5
384
330
22D
100
AcDbEntity
  8
0
  6
Continuous
 62
     7
100
AcDbTrace
 10
62.77802412869999
 20
26.7497126068
 30
0.0
 11
63.40023583819999
 21
24.8199551869
 31
0.0
 12
63.4375244654
 22
26.8471997871
 32
0.0
 13
63.4375244654
 23
26.8471997871
 33
0.0
  0
ENDBLK
  5
385
330
22D
100
AcDbEntity
  8
0
  6
ByBlock
 62
     0
100
AcDbBlockEnd
  0
BLOCK
  5
386
330
22E
100
AcDbEntity
  8
0
  6
Continuous
 62
     7
100
AcDbBlockBegin
  2
*D13
 70
     1
 10
0.0
 20
0.0
 30
0.0
  3
*D13
  1

  0
MTEXT
  5
387
330
22E
100
AcDbEntity
  8
0
  6
Continuous
 62
     7
100
AcDbMText
 10
12.689744717
 20
68.6664159317
 30
0.0
 40
1.333333333299999
 41
3.2
 46
0.0
 71
     3
 72
     1
  1
2\P[5]
 73
     1
 44
0.9
  0
LINE
  5
388
330
22E
100
AcDbEntity
  8
0
  6
Continuous
 62
     7
100
AcDbLine
 10
22.4467579558
 20
76.64989629059999
 30
0.0
 11
22.4467579558
 21
66.6664159317
 31
0.0
  0
LINE
  5
389
330
22E
100
AcDbEntity
  8
0
  6
Continuous
 62
     7
100
AcDbLine
 10
20.4084912482
 20
80.22556295719999
 30
0.0
 11
20.4084912482
 21
66.6664159317
 31
0.0
  0
LINE
  5
38A
330
22E
100
AcDbEntity
  8
0
  6
Continuous
 62
     7
100
AcDbLine
 10
22.4467579558
 20
67.999749265
 30
0.0
 11
27.7800912891
 21
67.999749265
 31
0.0
  0
LINE
  5
38B
330
22E
100
AcDbEntity
  8
0
  6
Continuous
 62
     7
100
AcDbLine
 10
20.4084912482
 20
67.999749265
 30
0.0
 11
15.489744717
 21
67.999749265
 31
0.0
  0
INSERT
  5
38C
330
22E
100
AcDbEntity
  8
0
  6
Continuous
 62
     7
100
AcDbBlockReference
  2
_FILLED
 10
22.4467579558
 20
67.999749265
 30
0.0
 41
2.0
 42
2.0
 43
2.0
 50
180.0
  0
INSERT
  5
38D
330
22E
100
AcDbEntity
  8
0
  6
Continuous
 62
     7
100
AcDbBlockReference
  2
_FILLED
 10
20.4084912482
 20
67.999749265
 30
0.0
 41
2.0
 42
2.0
 43
2.0
  0
ENDBLK
  5
38E
330
22E
100
AcDbEntity
  8
0
  6
ByBlock
 62
     0
100
AcDbBlockEnd
  0
BLOCK
  5
38F
330
22F
100
AcDbEntity
  8
0
  6
Continuous
 62
     7
100
AcDbBlockBegin
  2
*D14
 70
     1
 10
0.0
 20
0.0
 30
0.0
  3
*D14
  1

  0
MTEXT
  5
390
330
22F
100
AcDbEntity
  8
0
  6
Continuous
 62
     7
100
AcDbMText
 10
112.5589117055
 20
63.1158765542
 30
0.0
 40
1.333333333299999
 41
5.333333333299999
 46
0.0
 71
     1
 72
     1
  1
1-1/8\P[3]
 73
     1
 44
0.9
  0
LINE
  5
391
330
22F
100
AcDbEntity
  8
0
  6
Continuous
 62
     7
100
AcDbLine
 10
63.54953767579999
 20
67.43679991489999
 30
0.0
 11
111.2255783722
 21
67.43679991489999
 31
0.0
  0
LINE
  5
392
330
22F
100
AcDbEntity
  8
0
  6
Continuous
 62
     7
100
AcDbLine
 10
68.3265376779
 20
68.5432442927
 30
0.0
 11
111.2255783722
 21
68.5432442927
 31
0.0
  0
LINE
  5
393
330
22F
100
AcDbEntity
  8
0
  6
Continuous
 62
     7
100
AcDbLine
 10
109.8922450389
 20
67.43679991489999
 30
0.0
 11
109.8922450389
 21
62.44920988749999
 31
0.0
  0
LINE
  5
394
330
22F
100
AcDbEntity
  8
0
  6
Continuous
 62
     7
100
AcDbLine
 10
109.8922450389
 20
62.44920988749999
 30
0.0
 11
111.8922450389
 21
62.44920988749999
 31
0.0
  0
LINE
  5
395
330
22F
100
AcDbEntity
  8
0
  6
Continuous
 62
     7
100
AcDbLine
 10
109.8922450389
 20
68.5432442927
 30
0.0
 11
109.8922450389
 21
73.87657762599999
 31
0.0
  0
INSERT
  5
396
330
22F
100
AcDbEntity
  8
0
  6
Continuous
 62
     7
100
AcDbBlockReference
  2
_FILLED
 10
109.8922450389
 20
67.43679991489999
 30
0.0
 41
2.0
 42
2.0
 43
2.0
 50
90.0
  0
INSERT
  5
397
330
22F
100
AcDbEntity
  8
0
  6
Continuous
 62
     7
100
AcDbBlockReference
  2
_FILLED
 10
109.8922450389
 20
68.5432442927
 30
0.0
 41
2.0
 42
2.0
 43
2.0
 50
270.0
  0
ENDBLK
  5
398
330
22F
100
AcDbEntity
  8
0
  6
ByBlock
 62
     0
100
AcDbBlockEnd
  0
BLOCK
  5
399
330
230
100
AcDbEntity
  8
0
  6
Continuous
 62
     7
100
AcDbBlockBegin
  2
*D15
 70
     1
 10
0.0
 20
0.0
 30
0.0
  3
*D15
  1

  0
MTEXT
  5
39A
330
230
100
AcDbEntity
  8
0
  6
Continuous
 62
     7
100
AcDbMText
 10
91.61401950780001
 20
38.1612778615
 30
0.0
 40
1.333333333299999
 41
3.0222222222
 46
0.0
 71
     2
 72
     1
  1
31\Fgdt;{\Fgdt;~}
 73
     1
 44
0.9
  0
LINE
  5
39B
330
230
100
AcDbEntity
  8
0
  6
Continuous
 62
     7
100
AcDbLine
 10
79.00743075060001
 20
37.87127303710001
 30
0.0
 11
77.6097956429
 21
35.5452176036
 31
0.0
  0
LINE
  5
39C
330
230
100
AcDbEntity
  8
0
  6
Continuous
 62
     7
100
AcDbLine
 10
84.367775355
 20
42.49905124709999
 30
0.0
 11
84.367775355
 21
33.6710639612
 31
0.0
  0
ARC
  5
39D
330
230
100
AcDbEntity
  8
0
  6
Continuous
 62
     7
100
AcDbCircle
 10
84.367775355
 20
46.79238458039999
 30
0.0
 40
11.7879872859
100
AcDbArc
 50
213.0772123921
 51
239.0
  0
ARC
  5
39E
330
230
100
AcDbEntity
  8
0
  6
Continuous
 62
     7
100
AcDbCircle
 10
84.367775355
 20
46.79238458039999
 30
0.0
 40
11.7879872859
100
AcDbArc
 50
270.0
 51
307.9311625192
  0
SOLID
  5
39F
330
230
100
AcDbEntity
  8
0
  6
Continuous
 62
     7
100
AcDbTrace
 10
76.4803507841
 20
37.5895870326
 30
0.0
 11
78.2965130762
 21
36.68810733780001
 31
0.0
 12
76.8708935117
 22
38.1298840087
 32
0.0
 13
76.8708935117
 23
38.1298840087
 33
0.0
  0
SOLID
  5
3A0
330
230
100
AcDbEntity
  8
0
  6
Continuous
 62
     7
100
AcDbTrace
 10
86.33233970979999
 20
35.5059927556
 30
0.0
 11
84.367775355
 21
35.0043972945
 31
0.0
 12
86.388826651
 22
34.8417234805
 32
0.0
 13
86.388826651
 23
34.8417234805
 33
0.0
  0
ENDBLK
  5
3A1
330
230
100
AcDbEntity
  8
0
  6
ByBlock
 62
     0
100
AcDbBlockEnd
  0
BLOCK
  5
23B
330
231
100
AcDbEntity
  8
0
  6
Continuous
 62
     7
100
AcDbBlockBegin
  2
SYMBOL_3_BL4
 70
     0
 10
120.2457639667
 20
50.23865679
 30
0.0
  3
SYMBOL_3_BL4
  1

  0
TEXT
  5
23C
330
231
100
AcDbEntity
  8
0
  6
Continuous
 62
     7
100
AcDbText
 10
113.9317036649
 20
52.4836907758
 30
0.0
 40
1.1626666667
  1
INTERNAL USE 
 50
10.0
  7
TEXTSTYLE_3
100
AcDbText
  0
TEXT
  5
23D
330
231
100
AcDbEntity
  8
0
  6
Continuous
 62
     7
100
AcDbText
 10
113.1880194609
 20
50.48216959810001
 30
0.0
 40
1.1626666667
  1
DOCUMENT ONLY
 50
10.0
  7
TEXTSTYLE_3
100
AcDbText
  0
TEXT
  5
23E
330
231
100
AcDbEntity
  8
0
  6
Continuous
 62
     7
100
AcDbText
 10
118.9727470242
 20
50.2337415476
 30
0.0
 40
1.1626666667
  1
 
 50
10.0
  7
TEXTSTYLE_5
100
AcDbText
  0
TEXT
  5
23F
330
231
100
AcDbEntity
  8
0
  6
Continuous
 62
     7
100
AcDbText
 10
110.5280991411
 20
46.0566471413
 30
0.0
 40
1.1626666667
  1
DOCUMENT POUR USAGE
 50
10.0
  7
TEXTSTYLE_3
100
AcDbText
  0
TEXT
  5
240
330
231
100
AcDbEntity
  8
0
  6
Continuous
 62
     7
100
AcDbText
 10
110.9571985872
 20
44.0398986809
 30
0.0
 40
1.1626666667
  1
A L'INTERNE SEULEMENT
 50
10.0
  7
TEXTSTYLE_3
100
AcDbText
  0
LINE
  5
241
330
231
100
AcDbEntity
  8
0
  6
Continuous
 62
     7
100
AcDbLine
 10
134.10231569
 20
45.89512317199999
 30
0.0
 11
134.1090746226
 21
45.9018821047
 31
0.0
  0
LINE
  5
242
330
231
100
AcDbEntity
  8
0
  6
Continuous
 62
     7
100
AcDbLine
 10
133.3697461236
 20
45.7659513922
 30
0.0
 11
134.0186275687
 21
46.41483283729999
 31
0.0
  0
LINE
  5
243
330
231
100
AcDbEntity
  8
0
  6
Continuous
 62
     7
100
AcDbLine
 10
132.6371765572
 20
45.63677961239999
 30
0.0
 11
133.9281805148
 21
46.92778357
 31
0.0
  0
LINE
  5
244
330
231
100
AcDbEntity
  8
0
  6
Continuous
 62
     7
100
AcDbLine
 10
131.9046069907
 20
45.5076078326
 30
0.0
 11
133.8377334608
 21
47.44073430270001
 31
0.0
  0
LINE
  5
245
330
231
100
AcDbEntity
  8
0
  6
Continuous
 62
     7
100
AcDbLine
 10
131.1720374243
 20
45.37843605279999
 30
0.0
 11
133.7472864069
 21
47.95368503539999
 31
0.0
  0
LINE
  5
246
330
231
100
AcDbEntity
  8
0
  6
Continuous
 62
     7
100
AcDbLine
 10
130.4394678579
 20
45.249264273
 30
0.0
 11
131.9804716727
 21
46.79026808779999
 31
0.0
  0
LINE
  5
247
330
231
100
AcDbEntity
  8
0
  6
Continuous
 62
     7
100
AcDbLine
 10
132.5778168654
 20
47.3876132805
 30
0.0
 11
133.6568393529
 21
48.46663576800001
 31
0.0
  0
LINE
  5
248
330
231
100
AcDbEntity
  8
0
  6
Continuous
 62
     7
100
AcDbLine
 10
129.7068982915
 20
45.1200924932
 30
0.0
 11
131.2479021063
 21
46.661096308
 31
0.0
  0
LINE
  5
249
330
231
100
AcDbEntity
  8
0
  6
Continuous
 62
     7
100
AcDbLine
 10
132.4873698115
 20
47.9005640132
 30
0.0
 11
133.566392299
 21
48.97958650069999
 31
0.0
  0
LINE
  5
24A
330
231
100
AcDbEntity
  8
0
  6
Continuous
 62
     7
100
AcDbLine
 10
128.9743287251
 20
44.9909207134
 30
0.0
 11
130.5153325399
 21
46.53192452819999
 31
0.0
  0
LINE
  5
24B
330
231
100
AcDbEntity
  8
0
  6
Continuous
 62
     7
100
AcDbLine
 10
132.3969227575
 20
48.4135147458
 30
0.0
 11
133.475945245
 21
49.4925372334
 31
0.0
  0
LINE
  5
24C
330
231
100
AcDbEntity
  8
0
  6
Continuous
 62
     7
100
AcDbLine
 10
128.2417591587
 20
44.8617489336
 30
0.0
 11
129.7827629734
 21
46.4027527484
 31
0.0
  0
LINE
  5
24D
330
231
100
AcDbEntity
  8
0
  6
Continuous
 62
     7
100
AcDbLine
 10
132.3064757036
 20
48.9264654785
 30
0.0
 11
133.3854981911
 21
50.005487966
 31
0.0
  0
LINE
  5
24E
330
231
100
AcDbEntity
  8
0
  6
Continuous
 62
     7
100
AcDbLine
 10
127.5091895922
 20
44.73257715379999
 30
0.0
 11
129.050193407
 21
46.27358096859999
 31
0.0
  0
LINE
  5
24F
330
231
100
AcDbEntity
  8
0
  6
Continuous
 62
     7
100
AcDbLine
 10
132.2160286496
 20
49.4394162112
 30
0.0
 11
133.2950511372
 21
50.51843869869999
 31
0.0
  0
LINE
  5
250
330
231
100
AcDbEntity
  8
0
  6
Continuous
 62
     7
100
AcDbLine
 10
126.7766200258
 20
44.60340537399999
 30
0.0
 11
128.3176238406
 21
46.1444091888
 31
0.0
  0
LINE
  5
251
330
231
100
AcDbEntity
  8
0
  6
Continuous
 62
     7
100
AcDbLine
 10
132.1255815957
 20
49.9523669438
 30
0.0
 11
133.2046040832
 21
51.0313894314
 31
0.0
  0
LINE
  5
252
330
231
100
AcDbEntity
  8
0
  6
Continuous
 62
     7
100
AcDbLine
 10
126.0440504594
 20
44.4742335942
 30
0.0
 11
127.5850542742
 21
46.01523740890001
 31
0.0
  0
LINE
  5
253
330
231
100
AcDbEntity
  8
0
  6
Continuous
 62
     7
100
AcDbLine
 10
132.0351345417
 20
50.46531767649999
 30
0.0
 11
133.1141570293
 21
51.54434016399999
 31
0.0
  0
LINE
  5
254
330
231
100
AcDbEntity
  8
0
  6
Continuous
 62
     7
100
AcDbLine
 10
125.311480893
 20
44.34506181439999
 30
0.0
 11
126.8524847078
 21
45.88606562909999
 31
0.0
  0
LINE
  5
255
330
231
100
AcDbEntity
  8
0
  6
Continuous
 62
     7
100
AcDbLine
 10
131.9446874878
 20
50.97826840919999
 30
0.0
 11
133.0237099753
 21
52.05729089670001
 31
0.0
  0
LINE
  5
256
330
231
100
AcDbEntity
  8
0
  6
Continuous
 62
     7
100
AcDbLine
 10
124.5789113266
 20
44.2158900346
 30
0.0
 11
126.1199151413
 21
45.7568938493
 31
0.0
  0
LINE
  5
257
330
231
100
AcDbEntity
  8
0
  6
Continuous
 62
     7
100
AcDbLine
 10
131.8542404339
 20
51.4912191419
 30
0.0
 11
132.9332629214
 21
52.57024162939999
 31
0.0
  0
LINE
  5
258
330
231
100
AcDbEntity
  8
0
  6
Continuous
 62
     7
100
AcDbLine
 10
123.8463417601
 20
44.08671825479999
 30
0.0
 11
125.3873455749
 21
45.6277220695
 31
0.0
  0
LINE
  5
259
330
231
100
AcDbEntity
  8
0
  6
Continuous
 62
     7
100
AcDbLine
 10
131.551360834
 20
51.7917373286
 30
0.0
 11
132.8428158674
 21
53.083192362
 31
0.0
  0
LINE
  5
25A
330
231
100
AcDbEntity
  8
0
  6
Continuous
 62
     7
100
AcDbLine
 10
123.1137721937
 20
43.9575464749
 30
0.0
 11
124.6547760085
 21
45.4985502897
 31
0.0
  0
LINE
  5
25B
330
231
100
AcDbEntity
  8
0
  6
Continuous
 62
     7
100
AcDbLine
 10
130.8187912676
 20
51.6625655488
 30
0.0
 11
132.7523688135
 21
53.5961430947
 31
0.0
  0
LINE
  5
25C
330
231
100
AcDbEntity
  8
0
  6
Continuous
 62
     7
100
AcDbLine
 10
122.3812026273
 20
43.8283746951
 30
0.0
 11
123.9222064421
 21
45.36937850989999
 31
0.0
  0
LINE
  5
25D
330
231
100
AcDbEntity
  8
0
  6
Continuous
 62
     7
100
AcDbLine
 10
130.0862217012
 20
51.53339376899999
 30
0.0
 11
131.1135639995
 21
52.5607360673
 31
0.0
  0
LINE
  5
25E
330
231
100
AcDbEntity
  8
0
  6
Continuous
 62
     7
100
AcDbLine
 10
131.582899272
 20
53.0300713399
 30
0.0
 11
132.6619217595
 21
54.10909382739999
 31
0.0
  0
LINE
  5
25F
330
231
100
AcDbEntity
  8
0
  6
Continuous
 62
     7
100
AcDbLine
 10
121.6486330609
 20
43.69920291529999
 30
0.0
 11
123.1896368757
 21
45.24020673009999
 31
0.0
  0
LINE
  5
260
330
231
100
AcDbEntity
  8
0
  6
Continuous
 62
     7
100
AcDbLine
 10
129.3536521348
 20
51.4042219892
 30
0.0
 11
130.3809942234
 21
52.43156407789999
 31
0.0
  0
LINE
  5
261
330
231
100
AcDbEntity
  8
0
  6
Continuous
 62
     7
100
AcDbLine
 10
131.4924522181
 20
53.5430220725
 30
0.0
 11
132.5714747056
 21
54.62204456
 31
0.0
  0
LINE
  5
262
330
231
100
AcDbEntity
  8
0
  6
Continuous
 62
     7
100
AcDbLine
 10
120.9160634945
 20
43.5700311355
 30
0.0
 11
122.4570673093
 21
45.11103495029999
 31
0.0
  0
LINE
  5
263
330
231
100
AcDbEntity
  8
0
  6
Continuous
 62
     7
100
AcDbLine
 10
128.6210825684
 20
51.27505020939999
 30
0.0
 11
129.6484244474
 21
52.30239208850001
 31
0.0
  0
LINE
  5
264
330
231
100
AcDbEntity
  8
0
  6
Continuous
 62
     7
100
AcDbLine
 10
131.4020051641
 20
54.05597280520001
 30
0.0
 11
132.4810276517
 21
55.1349952927
 31
0.0
  0
LINE
  5
265
330
231
100
AcDbEntity
  8
0
  6
Continuous
 62
     7
100
AcDbLine
 10
120.1834939281
 20
43.44085935569999
 30
0.0
 11
121.7244977428
 21
44.9818631705
 31
0.0
  0
LINE
  5
266
330
231
100
AcDbEntity
  8
0
  6
Continuous
 62
     7
100
AcDbLine
 10
127.8885130019
 20
51.1458784296
 30
0.0
 11
128.9158546714
 21
52.173220099
 31
0.0
  0
LINE
  5
267
330
231
100
AcDbEntity
  8
0
  6
Continuous
 62
     7
100
AcDbLine
 10
131.3115581102
 20
54.56892353789999
 30
0.0
 11
132.3905805977
 21
55.64794602540001
 31
0.0
  0
LINE
  5
268
330
231
100
AcDbEntity
  8
0
  6
Continuous
 62
     7
100
AcDbLine
 10
119.4509243616
 20
43.3116875759
 30
0.0
 11
120.9919281764
 21
44.85269139069999
 31
0.0
  0
LINE
  5
269
330
231
100
AcDbEntity
  8
0
  6
Continuous
 62
     7
100
AcDbLine
 10
127.1559434355
 20
51.01670664979999
 30
0.0
 11
128.1832848953
 21
52.04404810959999
 31
0.0
  0
LINE
  5
26A
330
231
100
AcDbEntity
  8
0
  6
Continuous
 62
     7
100
AcDbLine
 10
131.2211110563
 20
55.0818742705
 30
0.0
 11
132.3001335438
 21
56.1608967581
 31
0.0
  0
LINE
  5
26B
330
231
100
AcDbEntity
  8
0
  6
Continuous
 62
     7
100
AcDbLine
 10
118.7183547952
 20
43.1825157961
 30
0.0
 11
120.25935861
 21
44.7235196109
 31
0.0
  0
LINE
  5
26C
330
231
100
AcDbEntity
  8
0
  6
Continuous
 62
     7
100
AcDbLine
 10
126.4233738691
 20
50.88753487
 30
0.0
 11
127.4507151193
 21
51.91487612020001
 31
0.0
  0
LINE
  5
26D
330
231
100
AcDbEntity
  8
0
  6
Continuous
 62
     7
100
AcDbLine
 10
131.1306640023
 20
55.5948250032
 30
0.0
 11
132.2096864898
 21
56.6738474907
 31
0.0
  0
LINE
  5
26E
330
231
100
AcDbEntity
  8
0
  6
Continuous
 62
     7
100
AcDbLine
 10
117.9857852288
 20
43.0533440163
 30
0.0
 11
119.5267890436
 21
44.59434783109999
 31
0.0
  0
LINE
  5
26F
330
231
100
AcDbEntity
  8
0
  6
Continuous
 62
     7
100
AcDbLine
 10
125.6908043027
 20
50.75836309020001
 30
0.0
 11
126.7181453433
 21
51.7857041308
 31
0.0
  0
LINE
  5
270
330
231
100
AcDbEntity
  8
0
  6
Continuous
 62
     7
100
AcDbLine
 10
131.0402169484
 20
56.1077757359
 30
0.0
 11
132.1192394359
 21
57.1867982234
 31
0.0
  0
LINE
  5
271
330
231
100
AcDbEntity
  8
0
  6
Continuous
 62
     7
100
AcDbLine
 10
117.2532156624
 20
42.9241722365
 30
0.0
 11
118.7942194772
 21
44.4651760513
 31
0.0
  0
LINE
  5
272
330
231
100
AcDbEntity
  8
0
  6
Continuous
 62
     7
100
AcDbLine
 10
124.9582347363
 20
50.62919131040001
 30
0.0
 11
125.9855755673
 21
51.6565321414
 31
0.0
  0
LINE
  5
273
330
231
100
AcDbEntity
  8
0
  6
Continuous
 62
     7
100
AcDbLine
 10
130.9497698944
 20
56.6207264685
 30
0.0
 11
132.0287923819
 21
57.69974895609999
 31
0.0
  0
LINE
  5
274
330
231
100
AcDbEntity
  8
0
  6
Continuous
 62
     7
100
AcDbLine
 10
116.520646096
 20
42.7950004567
 30
0.0
 11
118.0616499107
 21
44.3360042715
 31
0.0
  0
LINE
  5
275
330
231
100
AcDbEntity
  8
0
  6
Continuous
 62
     7
100
AcDbLine
 10
124.2256651699
 20
50.5000195306
 30
0.0
 11
125.2530057912
 21
51.527360152
 31
0.0
  0
LINE
  5
276
330
231
100
AcDbEntity
  8
0
  6
Continuous
 62
     7
100
AcDbLine
 10
130.8593228405
 20
57.1336772012
 30
0.0
 11
131.938345328
 21
58.2126996887
 31
0.0
  0
LINE
  5
277
330
231
100
AcDbEntity
  8
0
  6
Continuous
 62
     7
100
AcDbLine
 10
115.7880765296
 20
42.6658286769
 30
0.0
 11
117.3290803443
 21
44.20683249169999
 31
0.0
  0
LINE
  5
278
330
231
100
AcDbEntity
  8
0
  6
Continuous
 62
     7
100
AcDbLine
 10
123.4930956034
 20
50.3708477508
 30
0.0
 11
124.5204360152
 21
51.3981881625
 31
0.0
  0
LINE
  5
279
330
231
100
AcDbEntity
  8
0
  6
Continuous
 62
     7
100
AcDbLine
 10
130.6844467391
 20
57.5621988864
 30
0.0
 11
131.8478982741
 21
58.7256504214
 31
0.0
  0
LINE
  5
27A
330
231
100
AcDbEntity
  8
0
  6
Continuous
 62
     7
100
AcDbLine
 10
115.0555069631
 20
42.5366568971
 30
0.0
 11
116.5965107779
 21
44.07766071189999
 31
0.0
  0
LINE
  5
27B
330
231
100
AcDbEntity
  8
0
  6
Continuous
 62
     7
100
AcDbLine
 10
122.760526037
 20
50.241675971
 30
0.0
 11
123.7878662392
 21
51.2690161731
 31
0.0
  0
LINE
  5
27C
330
231
100
AcDbEntity
  8
0
  6
Continuous
 62
     7
100
AcDbLine
 10
129.9518771726
 20
57.4330271066
 30
0.0
 11
131.4928809874
 21
58.9740309214
 31
0.0
  0
LINE
  5
27D
330
231
100
AcDbEntity
  8
0
  6
Continuous
 62
     7
100
AcDbLine
 10
114.3229373967
 20
42.40748511729999
 30
0.0
 11
115.8639412115
 21
43.94848893209999
 31
0.0
  0
LINE
  5
27E
330
231
100
AcDbEntity
  8
0
  6
Continuous
 62
     7
100
AcDbLine
 10
122.0279564706
 20
50.11250419119999
 30
0.0
 11
123.0552964631
 21
51.1398441837
 31
0.0
  0
LINE
  5
27F
330
231
100
AcDbEntity
  8
0
  6
Continuous
 62
     7
100
AcDbLine
 10
129.2193076062
 20
57.3038553268
 30
0.0
 11
130.760311421
 21
58.84485914159999
 31
0.0
  0
LINE
  5
280
330
231
100
AcDbEntity
  8
0
  6
Continuous
 62
     7
100
AcDbLine
 10
113.5903678303
 20
42.2783133375
 30
0.0
 11
115.1313716451
 21
43.81931715229999
 31
0.0
  0
LINE
  5
281
330
231
100
AcDbEntity
  8
0
  6
Continuous
 62
     7
100
AcDbLine
 10
121.2953869042
 20
49.9833324114
 30
0.0
 11
122.3227266871
 21
51.01067219429999
 31
0.0
  0
LINE
  5
282
330
231
100
AcDbEntity
  8
0
  6
Continuous
 62
     7
100
AcDbLine
 10
128.4867380398
 20
57.174683547
 30
0.0
 11
130.0277418545999
 21
58.7156873618
 31
0.0
  0
LINE
  5
283
330
231
100
AcDbEntity
  8
0
  6
Continuous
 62
     7
100
AcDbLine
 10
112.8577982639
 20
42.14914155769999
 30
0.0
 11
114.3988020787
 21
43.69014537239999
 31
0.0
  0
LINE
  5
284
330
231
100
AcDbEntity
  8
0
  6
Continuous
 62
     7
100
AcDbLine
 10
120.5628173378
 20
49.85416063159999
 30
0.0
 11
121.5901569111
 21
50.8815002049
 31
0.0
  0
LINE
  5
285
330
231
100
AcDbEntity
  8
0
  6
Continuous
 62
     7
100
AcDbLine
 10
127.7541684734
 20
57.0455117672
 30
0.0
 11
129.2951722882
 21
58.586515582
 31
0.0
  0
LINE
  5
286
330
231
100
AcDbEntity
  8
0
  6
Continuous
 62
     7
100
AcDbLine
 10
112.1252286975
 20
42.0199697779
 30
0.0
 11
113.6662325122
 21
43.5609735926
 31
0.0
  0
LINE
  5
287
330
231
100
AcDbEntity
  8
0
  6
Continuous
 62
     7
100
AcDbLine
 10
119.8302477713
 20
49.72498885180001
 30
0.0
 11
120.8575871351
 21
50.7523282155
 31
0.0
  0
LINE
  5
288
330
231
100
AcDbEntity
  8
0
  6
Continuous
 62
     7
100
AcDbLine
 10
127.021598907
 20
56.9163399874
 30
0.0
 11
128.5626027218
 21
58.4573438022
 31
0.0
  0
LINE
  5
289
330
231
100
AcDbEntity
  8
0
  6
Continuous
 62
     7
100
AcDbLine
 10
111.392659131
 20
41.8907979981
 30
0.0
 11
112.9336629458
 21
43.4318018128
 31
0.0
  0
LINE
  5
28A
330
231
100
AcDbEntity
  8
0
  6
Continuous
 62
     7
100
AcDbLine
 10
119.0976782049
 20
49.59581707189999
 30
0.0
 11
120.125017359
 21
50.623156226
 31
0.0
  0
LINE
  5
28B
330
231
100
AcDbEntity
  8
0
  6
Continuous
 62
     7
100
AcDbLine
 10
126.2890293406
 20
56.7871682076
 30
0.0
 11
127.8300331553
 21
58.3281720223
 31
0.0
  0
LINE
  5
28C
330
231
100
AcDbEntity
  8
0
  6
Continuous
 62
     7
100
AcDbLine
 10
110.6600895646
 20
41.7616262183
 30
0.0
 11
112.2010933794
 21
43.30263003299999
 31
0.0
  0
LINE
  5
28D
330
231
100
AcDbEntity
  8
0
  6
Continuous
 62
     7
100
AcDbLine
 10
118.3651086385
 20
49.4666452921
 30
0.0
 11
119.392447583
 21
50.4939842366
 31
0.0
  0
LINE
  5
28E
330
231
100
AcDbEntity
  8
0
  6
Continuous
 62
     7
100
AcDbLine
 10
125.5564597741
 20
56.6579964278
 30
0.0
 11
127.0974635889
 21
58.19900024249999
 31
0.0
  0
LINE
  5
28F
330
231
100
AcDbEntity
  8
0
  6
Continuous
 62
     7
100
AcDbLine
 10
109.9275199982
 20
41.6324544385
 30
0.0
 11
111.468523813
 21
43.17345825319999
 31
0.0
  0
LINE
  5
290
330
231
100
AcDbEntity
  8
0
  6
Continuous
 62
     7
100
AcDbLine
 10
117.6325390721
 20
49.3374735123
 30
0.0
 11
118.659877807
 21
50.3648122472
 31
0.0
  0
LINE
  5
291
330
231
100
AcDbEntity
  8
0
  6
Continuous
 62
     7
100
AcDbLine
 10
124.8238902077
 20
56.52882464800001
 30
0.0
 11
126.3648940225
 21
58.0698284627
 31
0.0
  0
LINE
  5
292
330
231
100
AcDbEntity
  8
0
  6
Continuous
 62
     7
100
AcDbLine
 10
109.1949504318
 20
41.50328265859999
 30
0.0
 11
110.7359542466
 21
43.04428647339999
 31
0.0
  0
LINE
  5
293
330
231
100
AcDbEntity
  8
0
  6
Continuous
 62
     7
100
AcDbLine
 10
116.8999695057
 20
49.20830173249999
 30
0.0
 11
117.9273080309
 21
50.2356402578
 31
0.0
  0
LINE
  5
294
330
231
100
AcDbEntity
  8
0
  6
Continuous
 62
     7
100
AcDbLine
 10
124.0913206413
 20
56.3996528682
 30
0.0
 11
125.6323244561
 21
57.9406566829
 31
0.0
  0
LINE
  5
295
330
231
100
AcDbEntity
  8
0
  6
Continuous
 62
     7
100
AcDbLine
 10
108.6436296593
 20
41.5553596727
 30
0.0
 11
110.0033846801
 21
42.9151146936
 31
0.0
  0
LINE
  5
296
330
231
100
AcDbEntity
  8
0
  6
Continuous
 62
     7
100
AcDbLine
 10
116.1673999393
 20
49.07912995270001
 30
0.0
 11
117.1947382549
 21
50.1064682684
 31
0.0
  0
LINE
  5
297
330
231
100
AcDbEntity
  8
0
  6
Continuous
 62
     7
100
AcDbLine
 10
123.3587510749
 20
56.2704810884
 30
0.0
 11
124.8997548897
 21
57.8114849031
 31
0.0
  0
LINE
  5
298
330
231
100
AcDbEntity
  8
0
  6
Continuous
 62
     7
100
AcDbLine
 10
108.5531826053
 20
42.0683104054
 30
0.0
 11
109.6322050928
 21
43.14733289289999
 31
0.0
  0
LINE
  5
299
330
231
100
AcDbEntity
  8
0
  6
Continuous
 62
     7
100
AcDbLine
 10
115.4348303728
 20
48.94995817289999
 30
0.0
 11
116.4621684789
 21
49.977296279
 31
0.0
  0
LINE
  5
29A
330
231
100
AcDbEntity
  8
0
  6
Continuous
 62
     7
100
AcDbLine
 10
122.6261815085
 20
56.1413093085
 30
0.0
 11
124.1671853232
 21
57.6823131233
 31
0.0
  0
LINE
  5
29B
330
231
100
AcDbEntity
  8
0
  6
Continuous
 62
     7
100
AcDbLine
 10
108.4627355514
 20
42.58126113809999
 30
0.0
 11
109.5417580389
 21
43.6602836256
 31
0.0
  0
LINE
  5
29C
330
231
100
AcDbEntity
  8
0
  6
Continuous
 62
     7
100
AcDbLine
 10
114.7022608064
 20
48.82078639310001
 30
0.0
 11
115.7295987029
 21
49.8481242896
 31
0.0
  0
LINE
  5
29D
330
231
100
AcDbEntity
  8
0
  6
Continuous
 62
     7
100
AcDbLine
 10
121.893611942
 20
56.0121375287
 30
0.0
 11
123.4346157568
 21
57.5531413435
 31
0.0
  0
LINE
  5
29E
330
231
100
AcDbEntity
  8
0
  6
Continuous
 62
     7
100
AcDbLine
 10
108.3722884974
 20
43.09421187069999
 30
0.0
 11
109.451310985
 21
44.1732343583
 31
0.0
  0
LINE
  5
29F
330
231
100
AcDbEntity
  8
0
  6
Continuous
 62
     7
100
AcDbLine
 10
113.96969124
 20
48.6916146133
 30
0.0
 11
114.9970289268
 21
49.7189523001
 31
0.0
  0
LINE
  5
2A0
330
231
100
AcDbEntity
  8
0
  6
Continuous
 62
     7
100
AcDbLine
 10
121.1610423756
 20
55.88296574890001
 30
0.0
 11
122.7020461904
 21
57.4239695637
 31
0.0
  0
LINE
  5
2A1
330
231
100
AcDbEntity
  8
0
  6
Continuous
 62
     7
100
AcDbLine
 10
108.2818414435
 20
43.6071626034
 30
0.0
 11
109.360863931
 21
44.6861850909
 31
0.0
  0
LINE
  5
2A2
330
231
100
AcDbEntity
  8
0
  6
Continuous
 62
     7
100
AcDbLine
 10
113.2371216736
 20
48.5624428335
 30
0.0
 11
114.2644591508
 21
49.5897803107
 31
0.0
  0
LINE
  5
2A3
330
231
100
AcDbEntity
  8
0
  6
Continuous
 62
     7
100
AcDbLine
 10
120.4284728092
 20
55.7537939691
 30
0.0
 11
121.969476624
 21
57.2947977839
 31
0.0
  0
LINE
  5
2A4
330
231
100
AcDbEntity
  8
0
  6
Continuous
 62
     7
100
AcDbLine
 10
108.1913943896
 20
44.12011333609999
 30
0.0
 11
109.2704168771
 21
45.1991358236
 31
0.0
  0
LINE
  5
2A5
330
231
100
AcDbEntity
  8
0
  6
Continuous
 62
     7
100
AcDbLine
 10
112.5045521072
 20
48.4332710537
 30
0.0
 11
113.5318893748
 21
49.4606083213
 31
0.0
  0
LINE
  5
2A6
330
231
100
AcDbEntity
  8
0
  6
Continuous
 62
     7
100
AcDbLine
 10
119.6959032428
 20
55.62462218930001
 30
0.0
 11
121.2369070576
 21
57.1656260041
 31
0.0
  0
LINE
  5
2A7
330
231
100
AcDbEntity
  8
0
  6
Continuous
 62
     7
100
AcDbLine
 10
108.1009473356
 20
44.6330640687
 30
0.0
 11
109.1799698231
 21
45.7120865563
 31
0.0
  0
LINE
  5
2A8
330
231
100
AcDbEntity
  8
0
  6
Continuous
 62
     7
100
AcDbLine
 10
111.7719825408
 20
48.3040992739
 30
0.0
 11
112.7993195987
 21
49.33143633189999
 31
0.0
  0
LINE
  5
2A9
330
231
100
AcDbEntity
  8
0
  6
Continuous
 62
     7
100
AcDbLine
 10
118.9633336764
 20
55.4954504095
 30
0.0
 11
120.5043374912
 21
57.0364542243
 31
0.0
  0
LINE
  5
2AA
330
231
100
AcDbEntity
  8
0
  6
Continuous
 62
     7
100
AcDbLine
 10
108.0105002817
 20
45.1460148014
 30
0.0
 11
109.0895227692
 21
46.2250372889
 31
0.0
  0
LINE
  5
2AB
330
231
100
AcDbEntity
  8
0
  6
Continuous
 62
     7
100
AcDbLine
 10
111.0394129743
 20
48.1749274941
 30
0.0
 11
112.0667498227
 21
49.2022643425
 31
0.0
  0
LINE
  5
2AC
330
231
100
AcDbEntity
  8
0
  6
Continuous
 62
     7
100
AcDbLine
 10
118.23076411
 20
55.3662786297
 30
0.0
 11
119.7717679247
 21
56.90728244449999
 31
0.0
  0
LINE
  5
2AD
330
231
100
AcDbEntity
  8
0
  6
Continuous
 62
     7
100
AcDbLine
 10
107.9200532277
 20
45.6589655341
 30
0.0
 11
108.9990757152
 21
46.73798802159999
 31
0.0
  0
LINE
  5
2AE
330
231
100
AcDbEntity
  8
0
  6
Continuous
 62
     7
100
AcDbLine
 10
110.3068434079
 20
48.0457557143
 30
0.0
 11
111.3341800467
 21
49.0730923531
 31
0.0
  0
LINE
  5
2AF
330
231
100
AcDbEntity
  8
0
  6
Continuous
 62
     7
100
AcDbLine
 10
117.4981945435
 20
55.2371068499
 30
0.0
 11
119.0391983583
 21
56.7781106647
 31
0.0
  0
LINE
  5
2B0
330
231
100
AcDbEntity
  8
0
  6
Continuous
 62
     7
100
AcDbLine
 10
107.8296061738
 20
46.1719162668
 30
0.0
 11
108.9086286612999
 21
47.2509387543
 31
0.0
  0
LINE
  5
2B1
330
231
100
AcDbEntity
  8
0
  6
Continuous
 62
     7
100
AcDbLine
 10
109.5742738415
 20
47.91658393449999
 30
0.0
 11
110.6016102707
 21
48.94392036359999
 31
0.0
  0
LINE
  5
2B2
330
231
100
AcDbEntity
  8
0
  6
Continuous
 62
     7
100
AcDbLine
 10
116.7656249771
 20
55.1079350701
 30
0.0
 11
118.3066287919
 21
56.64893888489999
 31
0.0
  0
LINE
  5
2B3
330
231
100
AcDbEntity
  8
0
  6
Continuous
 62
     7
100
AcDbLine
 10
107.7391591198
 20
46.68486699939999
 30
0.0
 11
108.8181816073
 21
47.7638894869
 31
0.0
  0
LINE
  5
2B4
330
231
100
AcDbEntity
  8
0
  6
Continuous
 62
     7
100
AcDbLine
 10
108.8417042751
 20
47.7874121547
 30
0.0
 11
109.8690404946
 21
48.8147483742
 31
0.0
  0
LINE
  5
2B5
330
231
100
AcDbEntity
  8
0
  6
Continuous
 62
     7
100
AcDbLine
 10
116.0330554107
 20
54.97876329029999
 30
0.0
 11
117.5740592255
 21
56.5197671051
 31
0.0
  0
LINE
  5
2B6
330
231
100
AcDbEntity
  8
0
  6
Continuous
 62
     7
100
AcDbLine
 10
107.6487120659
 20
47.1978177321
 30
0.0
 11
109.1364707186
 21
48.68557638479999
 31
0.0
  0
LINE
  5
2B7
330
231
100
AcDbEntity
  8
0
  6
Continuous
 62
     7
100
AcDbLine
 10
115.3004858443
 20
54.8495915105
 30
0.0
 11
116.8414896591
 21
56.3905953253
 31
0.0
  0
LINE
  5
2B8
330
231
100
AcDbEntity
  8
0
  6
Continuous
 62
     7
100
AcDbLine
 10
107.5582650119
 20
47.71076846479999
 30
0.0
 11
108.6372874995
 21
48.7897909523
 31
0.0
  0
LINE
  5
2B9
330
231
100
AcDbEntity
  8
0
  6
Continuous
 62
     7
100
AcDbLine
 10
114.5679162779
 20
54.72041973069999
 30
0.0
 11
116.1089200926
 21
56.2614235455
 31
0.0
  0
LINE
  5
2BA
330
231
100
AcDbEntity
  8
0
  6
Continuous
 62
     7
100
AcDbLine
 10
107.467817958
 20
48.2237191974
 30
0.0
 11
108.5468404455
 21
49.3027416849
 31
0.0
  0
LINE
  5
2BB
330
231
100
AcDbEntity
  8
0
  6
Continuous
 62
     7
100
AcDbLine
 10
113.8353467115
 20
54.59124795090001
 30
0.0
 11
115.3763505262
 21
56.1322517657
 31
0.0
  0
LINE
  5
2BC
330
231
100
AcDbEntity
  8
0
  6
Continuous
 62
     7
100
AcDbLine
 10
107.3773709041
 20
48.7366699301
 30
0.0
 11
108.4563933916
 21
49.8156924176
 31
0.0
  0
LINE
  5
2BD
330
231
100
AcDbEntity
  8
0
  6
Continuous
 62
     7
100
AcDbLine
 10
113.102777145
 20
54.46207617109999
 30
0.0
 11
114.6437809598
 21
56.0030799859
 31
0.0
  0
LINE
  5
2BE
330
231
100
AcDbEntity
  8
0
  6
Continuous
 62
     7
100
AcDbLine
 10
107.2869238501
 20
49.24962066279999
 30
0.0
 11
108.3659463376
 21
50.3286431503
 31
0.0
  0
LINE
  5
2BF
330
231
100
AcDbEntity
  8
0
  6
Continuous
 62
     7
100
AcDbLine
 10
112.3702075786
 20
54.3329043913
 30
0.0
 11
113.9112113934
 21
55.873908206
 31
0.0
  0
LINE
  5
2C0
330
231
100
AcDbEntity
  8
0
  6
Continuous
 62
     7
100
AcDbLine
 10
107.1964767962
 20
49.7625713954
 30
0.0
 11
108.2754992837
 21
50.841593883
 31
0.0
  0
LINE
  5
2C1
330
231
100
AcDbEntity
  8
0
  6
Continuous
 62
     7
100
AcDbLine
 10
111.6376380122
 20
54.20373261149999
 30
0.0
 11
113.178641827
 21
55.7447364262
 31
0.0
  0
LINE
  5
2C2
330
231
100
AcDbEntity
  8
0
  6
Continuous
 62
     7
100
AcDbLine
 10
107.1060297422
 20
50.2755221281
 30
0.0
 11
108.1850522297
 21
51.35454461560001
 31
0.0
  0
LINE
  5
2C3
330
231
100
AcDbEntity
  8
0
  6
Continuous
 62
     7
100
AcDbLine
 10
110.9050684458
 20
54.0745608317
 30
0.0
 11
112.4460722606
 21
55.6155646464
 31
0.0
  0
LINE
  5
2C4
330
231
100
AcDbEntity
  8
0
  6
Continuous
 62
     7
100
AcDbLine
 10
107.0155826883
 20
50.7884728608
 30
0.0
 11
108.0946051758
 21
51.86749534829999
 31
0.0
  0
LINE
  5
2C5
330
231
100
AcDbEntity
  8
0
  6
Continuous
 62
     7
100
AcDbLine
 10
110.1724988794
 20
53.9453890519
 30
0.0
 11
111.7135026941
 21
55.4863928666
 31
0.0
  0
LINE
  5
2C6
330
231
100
AcDbEntity
  8
0
  6
Continuous
 62
     7
100
AcDbLine
 10
106.9251356343
 20
51.3014235934
 30
0.0
 11
108.0041581219
 21
52.380446081
 31
0.0
  0
LINE
  5
2C7
330
231
100
AcDbEntity
  8
0
  6
Continuous
 62
     7
100
AcDbLine
 10
109.4399293129
 20
53.81621727199999
 30
0.0
 11
110.9809331277
 21
55.3572210868
 31
0.0
  0
LINE
  5
2C8
330
231
100
AcDbEntity
  8
0
  6
Continuous
 62
     7
100
AcDbLine
 10
106.8346885804
 20
51.8143743261
 30
0.0
 11
107.9137110679
 21
52.8933968136
 31
0.0
  0
LINE
  5
2C9
330
231
100
AcDbEntity
  8
0
  6
Continuous
 62
     7
100
AcDbLine
 10
108.7073597465
 20
53.6870454922
 30
0.0
 11
110.2483635613
 21
55.228049307
 31
0.0
  0
LINE
  5
2CA
330
231
100
AcDbEntity
  8
0
  6
Continuous
 62
     7
100
AcDbLine
 10
106.7442415265
 20
52.3273250588
 30
0.0
 11
107.823264014
 21
53.4063475463
 31
0.0
  0
LINE
  5
2CB
330
231
100
AcDbEntity
  8
0
  6
Continuous
 62
     7
100
AcDbLine
 10
107.9747901801
 20
53.55787371239999
 30
0.0
 11
109.5157939949
 21
55.0988775272
 31
0.0
  0
LINE
  5
2CC
330
231
100
AcDbEntity
  8
0
  6
Continuous
 62
     7
100
AcDbLine
 10
106.6537944725
 20
52.84027579149999
 30
0.0
 11
108.7832244285
 21
54.9697057474
 31
0.0
  0
LINE
  5
2CD
330
231
100
AcDbEntity
  8
0
  6
Continuous
 62
     7
100
AcDbLine
 10
106.5633474186
 20
53.3532265241
 30
0.0
 11
108.050654862
 21
54.8405339676
 31
0.0
  0
LINE
  5
2CE
330
231
100
AcDbEntity
  8
0
  6
Continuous
 62
     7
100
AcDbLine
 10
106.4729003646
 20
53.8661772568
 30
0.0
 11
107.3180852956
 21
54.71136218779999
 31
0.0
  0
LINE
  5
2CF
330
231
100
AcDbEntity
  8
0
  6
Continuous
 62
     7
100
AcDbLine
 10
106.3824533107
 20
54.3791279895
 30
0.0
 11
106.5855157292
 21
54.582190408
 31
0.0
  0
ENDBLK
  5
2D0
330
231
100
AcDbEntity
  8
0
  6
ByBlock
 62
     0
100
AcDbBlockEnd
  0
BLOCK
  5
2D1
330
232
100
AcDbEntity
  8
0
  6
Continuous
 62
     7
100
AcDbBlockBegin
  2
SYMBOL_7_BL3
 70
     0
 10
40.1361644286
 20
96.60917899680001
 30
0.0
  3
SYMBOL_7_BL3
  1

  0
TEXT
  5
2D2
330
232
100
AcDbEntity
  8
0
  6
Continuous
 62
     7
100
AcDbText
 10
39.8234290256
 20
95.7935404989
 30
0.0
 40
1.333333852099999
  1
L
 50
18.0
  7
TEXTSTYLE_2
100
AcDbText
  0
TEXT
  5
2D3
330
232
100
AcDbEntity
  8
0
  6
Continuous
 62
     7
100
AcDbText
 10
35.859776089
 20
94.5187211076
 30
0.0
 40
1.333333852099999
  1
J1
 50
18.0
  7
TEXTSTYLE_2
100
AcDbText
  0
TEXT
  5
2D4
330
232
100
AcDbEntity
  8
0
  6
Continuous
 62
     7
100
AcDbText
 10
42.94124812399999
 20
96.8196308501
 30
0.0
 40
1.333333852099999
  1
J2
 50
18.0
  7
TEXTSTYLE_2
100
AcDbText
  0
ELLIPSE
  5
2D5
330
232
100
AcDbEntity
  8
0
  6
Continuous
 62
     7
100
AcDbEllipse
 10
40.119951378
 20
96.59086154040002
 30
0.0
 11
-1.847795881899999
 21
-0.6003852765999999
 31
0.0
210
0.0
220
0.0
230
1.0
 40
0.6606458385
 41
0.0
 42
6.283185307179586
  0
ENDBLK
  5
2D6
330
232
100
AcDbEntity
  8
0
  6
ByBlock
 62
     0
100
AcDbBlockEnd
  0
BLOCK
  5
2D7
330
233
100
AcDbEntity
  8
0
  6
Continuous
 62
     7
100
AcDbBlockBegin
  2
SYMBOL_6_BL2
 70
     0
 10
64.80204218129999
 20
96.5154918524
 30
0.0
  3
SYMBOL_6_BL2
  1

  0
TEXT
  5
2D8
330
233
100
AcDbEntity
  8
0
  6
Continuous
 62
     7
100
AcDbText
 10
64.0696136452
 20
96.0394477041
 30
0.0
 40
1.333333852099999
  1
L
 50
342.0
  7
TEXTSTYLE_2
100
AcDbText
  0
TEXT
  5
2D9
330
233
100
AcDbEntity
  8
0
  6
Continuous
 62
     7
100
AcDbText
 10
60.1136310222
 20
97.33787389319999
 30
0.0
 40
1.333333852099999
  1
J1
 50
342.0
  7
TEXTSTYLE_2
100
AcDbText
  0
TEXT
  5
2DA
330
233
100
AcDbEntity
  8
0
  6
Continuous
 62
     7
100
AcDbText
 10
67.1951030571
 20
95.03696415070001
 30
0.0
 40
1.333333852099999
  1
J2
 50
342.0
  7
TEXTSTYLE_2
100
AcDbText
  0
ELLIPSE
  5
2DB
330
233
100
AcDbEntity
  8
0
  6
Continuous
 62
     7
100
AcDbEllipse
 10
64.7781588171
 20
96.510202511
 30
0.0
 11
-1.847795881899999
 21
0.6003852765999999
 31
0.0
210
0.0
220
0.0
230
1.0
 40
0.6606458385
 41
0.0
 42
6.283185307179586
  0
ENDBLK
  5
2DC
330
233
100
AcDbEntity
  8
0
  6
ByBlock
 62
     0
100
AcDbBlockEnd
  0
BLOCK
  5
2DD
330
234
100
AcDbEntity
  8
0
  6
Continuous
 62
     7
100
AcDbBlockBegin
  2
SYMBOL_5_BL1
 70
     0
 10
52.3604130063
 20
71.9932823466
 30
0.0
  3
SYMBOL_5_BL1
  1

  0
TEXT
  5
2DE
330
234
100
AcDbEntity
  8
0
  6
Continuous
 62
     7
100
AcDbText
 10
51.83201773899999
 20
71.32661542060001
 30
0.0
 40
1.333333852099999
  1
L
  7
TEXTSTYLE_2
100
AcDbText
  0
ELLIPSE
  5
2DF
330
234
100
AcDbEntity
  8
0
  6
Continuous
 62
     7
100
AcDbEllipse
 10
52.3604130063
 20
71.9932823466
 30
0.0
 11
-1.942887567899999
 21
0.0
 31
0.0
210
0.0
220
0.0
230
1.0
 40
0.6606458385
 41
0.0
 42
6.283185307179586
  0
ENDBLK
  5
2E0
330
234
100
AcDbEntity
  8
0
  6
ByBlock
 62
     0
100
AcDbBlockEnd
  0
BLOCK
  5
2E1
330
235
100
AcDbEntity
  8
0
  6
Continuous
 62
     7
100
AcDbBlockBegin
  2
SYMBOL_0_BL0
 70
     0
 10
160.6669938391
 20
55.3336716871
 30
0.0
  3
SYMBOL_0_BL0
  1

  0
TEXT
  5
2E2
330
235
100
AcDbEntity
  8
0
  6
Continuous
 62
     7
100
AcDbText
 10
144.4192087629
 20
63.1071050782
 30
0.0
 40
0.5
  1
Infomations Techniques/Technical Infomations
  7
TEXTSTYLE_2
100
AcDbText
  0
TEXT
  5
2E3
330
235
100
AcDbEntity
  8
0
  6
Continuous
 62
     7
100
AcDbText
 10
144.6669938391
 20
61.6670050204
 30
0.0
 40
0.6666666667
  1
NOMBRE DE JETS:     
  7
TEXTSTYLE_2
100
AcDbText
  0
TEXT
  5
2E4
330
235
100
AcDbEntity
  8
0
  6
Continuous
 62
     7
100
AcDbText
 10
154.5114382835
 20
61.6670050204
 30
0.0
 40
0.6666666667
  1
35
  7
TEXTSTYLE_2
100
AcDbText
  0
TEXT
  5
2E5
330
235
100
AcDbEntity
  8
0
  6
Continuous
 62
     7
100
AcDbText
 10
144.6669938391
 20
60.66700502039999
 30
0.0
 40
0.6666666667
  1
 
  7
TEXTSTYLE_2
100
AcDbText
  0
TEXT
  5
2E6
330
235
100
AcDbEntity
  8
0
  6
Continuous
 62
     7
100
AcDbText
 10
144.6669938391
 20
59.6670050204
 30
0.0
 40
0.6666666667
  1
NIVEAU D'EAU              GALLONS(US)        LITRES        GALLONS(UK)
  7
TEXTSTYLE_2
100
AcDbText
  0
TEXT
  5
2E7
330
235
100
AcDbEntity
  8
0
  6
Continuous
 62
     7
100
AcDbText
 10
144.6669938391
 20
58.6670050204
 30
0.0
 40
0.6666666667
  1
PLEIN
  7
TEXTSTYLE_2
100
AcDbText
  0
TEXT
  5
2E8
330
235
100
AcDbEntity
  8
0
  6
Continuous
 62
     7
100
AcDbText
 10
144.6669938391
 20
57.66700502039999
 30
0.0
 40
0.6666666667
  1
HAUT T.PLEIN
  7
TEXTSTYLE_2
100
AcDbText
  0
TEXT
  5
2E9
330
235
100
AcDbEntity
  8
0
  6
Continuous
 62
     7
100
AcDbText
 10
144.6669938391
 20
56.6670050204
 30
0.0
 40
0.6666666667
  1
MILIEU T.PLEIN
  7
TEXTSTYLE_2
100
AcDbText
  0
TEXT
  5
2EA
330
235
100
AcDbEntity
  8
0
  6
Continuous
 62
     7
100
AcDbText
 10
144.6669938391
 20
55.66700502039999
 30
0.0
 40
0.6666666667
  1
BAS T.PLEIN
  7
TEXTSTYLE_2
100
AcDbText
  0
TEXT
  5
2EB
330
235
100
AcDbEntity
  8
0
  6
Continuous
 62
     7
100
AcDbText
 10
144.6669938391
 20
54.6670050204
 30
0.0
 40
0.6666666667
  1
3" EN BAS T.PLEIN
  7
TEXTSTYLE_2
100
AcDbText
  0
TEXT
  5
2EC
330
235
100
AcDbEntity
  8
0
  6
Continuous
 62
     7
100
AcDbText
 10
144.6669938391
 20
53.6670050204
 30
0.0
 40
0.6666666667
  1
 
  7
TEXTSTYLE_2
100
AcDbText
  0
TEXT
  5
2ED
330
235
100
AcDbEntity
  8
0
  6
Continuous
 62
     7
100
AcDbText
 10
144.4668323335
 20
53.1202180956
 30
0.0
 40
0.5
  1
Legende/Legend
  7
TEXTSTYLE_2
100
AcDbText
  0
TEXT
  5
2EE
330
235
100
AcDbEntity
  8
0
  6
Continuous
 62
     7
100
AcDbText
 10
150.9956672775
 20
51.6089531179
 30
0.0
 40
0.6666666667
  1
ZONE DE ROBINETTERIE
  7
TEXTSTYLE_2
100
AcDbText
  0
TEXT
  5
2EF
330
235
100
AcDbEntity
  8
0
  6
Continuous
 62
     7
100
AcDbText
 10
145.9159427106
 20
50.1137086035
 30
0.0
 40
0.6666666667
  1
L   :  SYSTEME LED       DC   :  DOUBLE DOSSIER CHAUFFANT
  7
TEXTSTYLE_2
100
AcDbText
  0
TEXT
  5
2F0
330
235
100
AcDbEntity
  8
0
  6
Continuous
 62
     7
100
AcDbText
 10
145.9159427106
 20
48.7803752702
 30
0.0
 40
0.6666666667
  1
C   :  CONTROLE
  7
TEXTSTYLE_2
100
AcDbText
  0
TEXT
  5
2F1
330
235
100
AcDbEntity
  8
0
  6
Continuous
 62
     7
100
AcDbText
 10
145.9159427106
 20
47.44704193689999
 30
0.0
 40
0.6666666667
  1
T   :  MOTEUR
  7
TEXTSTYLE_2
100
AcDbText
  0
TEXT
  5
2F2
330
235
100
AcDbEntity
  8
0
  6
Continuous
 62
     7
100
AcDbText
 10
157.4996905384
 20
58.6670050204
 30
0.0
 40
0.6666666667
  1
90
  7
TEXTSTYLE_2
100
AcDbText
  0
TEXT
  5
2F3
330
235
100
AcDbEntity
  8
0
  6
Continuous
 62
     7
100
AcDbText
 10
157.4996905384
 20
57.66700502039999
 30
0.0
 40
0.6666666667
  1
69
  7
TEXTSTYLE_2
100
AcDbText
  0
TEXT
  5
2F4
330
235
100
AcDbEntity
  8
0
  6
Continuous
 62
     7
100
AcDbText
 10
157.4996905384
 20
56.6670050204
 30
0.0
 40
0.6666666667
  1
68
  7
TEXTSTYLE_2
100
AcDbText
  0
TEXT
  5
2F5
330
235
100
AcDbEntity
  8
0
  6
Continuous
 62
     7
100
AcDbText
 10
157.4996905384
 20
55.66700502039999
 30
0.0
 40
0.6666666667
  1
66
  7
TEXTSTYLE_2
100
AcDbText
  0
TEXT
  5
2F6
330
235
100
AcDbEntity
  8
0
  6
Continuous
 62
     7
100
AcDbText
 10
157.4996905384
 20
54.6670050204
 30
0.0
 40
0.6666666667
  1
51
  7
TEXTSTYLE_2
100
AcDbText
  0
TEXT
  5
2F7
330
235
100
AcDbEntity
  8
0
  6
Continuous
 62
     7
100
AcDbText
 10
164.4198964821
 20
58.6840844226
 30
0.0
 40
0.6666666667
  1
341
  7
TEXTSTYLE_2
100
AcDbText
  0
TEXT
  5
2F8
330
235
100
AcDbEntity
  8
0
  6
Continuous
 62
     7
100
AcDbText
 10
164.4198964821
 20
57.6840844226
 30
0.0
 40
0.6666666667
  1
260
  7
TEXTSTYLE_2
100
AcDbText
  0
TEXT
  5
2F9
330
235
100
AcDbEntity
  8
0
  6
Continuous
 62
     7
100
AcDbText
 10
164.4198964821
 20
56.6840844226
 30
0.0
 40
0.6666666667
  1
256
  7
TEXTSTYLE_2
100
AcDbText
  0
TEXT
  5
2FA
330
235
100
AcDbEntity
  8
0
  6
Continuous
 62
     7
100
AcDbText
 10
164.4198964821
 20
55.6840844226
 30
0.0
 40
0.6666666667
  1
251
  7
TEXTSTYLE_2
100
AcDbText
  0
TEXT
  5
2FB
330
235
100
AcDbEntity
  8
0
  6
Continuous
 62
     7
100
AcDbText
 10
164.4198964821
 20
54.6840844226
 30
0.0
 40
0.6666666667
  1
192
  7
TEXTSTYLE_2
100
AcDbText
  0
TEXT
  5
2FC
330
235
100
AcDbEntity
  8
0
  6
Continuous
 62
     7
100
AcDbText
 10
171.3645354196
 20
58.6670050204
 30
0.0
 40
0.6666666667
  1
75
  7
TEXTSTYLE_2
100
AcDbText
  0
TEXT
  5
2FD
330
235
100
AcDbEntity
  8
0
  6
Continuous
 62
     7
100
AcDbText
 10
171.3645354196
 20
57.66700502039999
 30
0.0
 40
0.6666666667
  1
57
  7
TEXTSTYLE_2
100
AcDbText
  0
TEXT
  5
2FE
330
235
100
AcDbEntity
  8
0
  6
Continuous
 62
     7
100
AcDbText
 10
171.3645354196
 20
56.6670050204
 30
0.0
 40
0.6666666667
  1
56
  7
TEXTSTYLE_2
100
AcDbText
  0
TEXT
  5
2FF
330
235
100
AcDbEntity
  8
0
  6
Continuous
 62
     7
100
AcDbText
 10
171.3645354196
 20
55.66700502039999
 30
0.0
 40
0.6666666667
  1
55
  7
TEXTSTYLE_2
100
AcDbText
  0
TEXT
  5
300
330
235
100
AcDbEntity
  8
0
  6
Continuous
 62
     7
100
AcDbText
 10
171.3645354196
 20
54.6670050204
 30
0.0
 40
0.6666666667
  1
42
  7
TEXTSTYLE_2
100
AcDbText
  0
LINE
  5
301
330
235
100
AcDbEntity
  8
0
  6
Continuous
 62
     7
100
AcDbLine
 10
144.0003271724
 20
64.0003383538
 30
0.0
 11
144.0003271724
 21
46.6670050204
 31
0.0
  0
LINE
  5
302
330
235
100
AcDbEntity
  8
0
  6
Continuous
 62
     7
100
AcDbLine
 10
144.0003271724
 20
64.0003383538
 30
0.0
 11
177.3336605057
 21
64.0003383538
 31
0.0
  0
LINE
  5
303
330
235
100
AcDbEntity
  8
0
  6
Continuous
 62
     7
100
AcDbLine
 10
177.3336605057
 20
64.0003383538
 30
0.0
 11
177.3336605057
 21
46.6670050204
 31
0.0
  0
LINE
  5
304
330
235
100
AcDbEntity
  8
0
  6
Continuous
 62
     7
100
AcDbLine
 10
144.0003271724
 20
46.6670050204
 30
0.0
 11
177.3336605057
 21
46.6670050204
 31
0.0
  0
LINE
  5
305
330
235
100
AcDbEntity
  8
0
  6
Continuous
 62
     7
100
AcDbLine
 10
145.3336605057
 20
54.0003383538
 30
0.0
 11
176.0003271724
 21
54.0003383538
 31
0.0
  0
LINE
  5
306
330
235
100
AcDbEntity
  8
0
  6
Continuous
 62
     7
100
AcDbLine
 10
145.3336605057
 20
61.0003383538
 30
0.0
 11
176.0003271724
 21
61.0003383538
 31
0.0
  0
LINE
  5
307
330
235
100
AcDbEntity
  8
0
  6
Continuous
 62
     7
100
AcDbLine
 10
144.8092337317
 20
52.37850285810001
 30
0.0
 11
144.4402129893
 21
52.0094821158
 31
0.0
  0
LINE
  5
308
330
235
100
AcDbEntity
  8
0
  6
Continuous
 62
     7
100
AcDbLine
 10
145.4759003983
 20
52.37850285810001
 30
0.0
 11
144.6778846079
 21
51.5804870677
 31
0.0
  0
LINE
  5
309
330
235
100
AcDbEntity
  8
0
  6
Continuous
 62
     7
100
AcDbLine
 10
146.142567065
 20
52.37850285810001
 30
0.0
 11
145.3445512745999
 21
51.5804870677
 31
0.0
  0
LINE
  5
30A
330
235
100
AcDbEntity
  8
0
  6
Continuous
 62
     7
100
AcDbLine
 10
146.8092337317
 20
52.37850285810001
 30
0.0
 11
146.0112179412
 21
51.5804870677
 31
0.0
  0
LINE
  5
30B
330
235
100
AcDbEntity
  8
0
  6
Continuous
 62
     7
100
AcDbLine
 10
147.4759003983
 20
52.37850285810001
 30
0.0
 11
146.6778846079
 21
51.5804870677
 31
0.0
  0
LINE
  5
30C
330
235
100
AcDbEntity
  8
0
  6
Continuous
 62
     7
100
AcDbLine
 10
148.142567065
 20
52.37850285810001
 30
0.0
 11
147.3445512746
 21
51.5804870677
 31
0.0
  0
LINE
  5
30D
330
235
100
AcDbEntity
  8
0
  6
Continuous
 62
     7
100
AcDbLine
 10
148.8092337317
 20
52.37850285810001
 30
0.0
 11
148.0112179412
 21
51.5804870677
 31
0.0
  0
LINE
  5
30E
330
235
100
AcDbEntity
  8
0
  6
Continuous
 62
     7
100
AcDbLine
 10
149.4759003983
 20
52.37850285810001
 30
0.0
 11
148.6778846079
 21
51.5804870677
 31
0.0
  0
LINE
  5
30F
330
235
100
AcDbEntity
  8
0
  6
Continuous
 62
     7
100
AcDbLine
 10
150.142567065
 20
52.37850285810001
 30
0.0
 11
149.3445512745999
 21
51.5804870677
 31
0.0
  0
LINE
  5
310
330
235
100
AcDbEntity
  8
0
  6
Continuous
 62
     7
100
AcDbLine
 10
150.5860544992
 20
52.15532362560001
 30
0.0
 11
150.0112179412
 21
51.5804870677
 31
0.0
  0
ELLIPSE
  5
311
330
235
100
AcDbEntity
  8
0
  6
Continuous
 62
     7
100
AcDbEllipse
 10
146.1457296546
 20
50.43128606069999
 30
0.0
 11
1.0473539356
 21
0.0
 31
0.0
210
0.0
220
0.0
230
1.0
 40
0.4938647983
 41
0.0
 42
6.283185307179586
  0
ELLIPSE
  5
312
330
235
100
AcDbEntity
  8
0
  6
Continuous
 62
     7
100
AcDbEllipse
 10
146.1457296546
 20
49.0979527274
 30
0.0
 11
1.0473539356
 21
0.0
 31
0.0
210
0.0
220
0.0
230
1.0
 40
0.4938647983
 41
0.0
 42
6.283185307179586
  0
ELLIPSE
  5
313
330
235
100
AcDbEntity
  8
0
  6
Continuous
 62
     7
100
AcDbEllipse
 10
146.1457296546
 20
47.76461939409999
 30
0.0
 11
1.0473539356
 21
0.0
 31
0.0
210
0.0
220
0.0
230
1.0
 40
0.4938647983
 41
0.0
 42
6.283185307179586
  0
ELLIPSE
  5
314
330
235
100
AcDbEntity
  8
0
  6
Continuous
 62
     7
100
AcDbEllipse
 10
157.1643652357
 20
50.4508074178
 30
0.0
 11
1.0473539356
 21
0.0
 31
0.0
210
0.0
220
0.0
230
1.0
 40
0.4938647983
 41
0.0
 42
6.283185307179586
  0
ENDBLK
  5
315
330
235
100
AcDbEntity
  8
0
  6
ByBlock
 62
     0
100
AcDbBlockEnd
  0
ENDSEC
  0
SECTION
  2
ENTITIES
  0
LINE
  5
4D1
330
21F
100
AcDbEntity
  8
DEFAULT_2
  6
HIDDEN
 62
     7
100
AcDbLine
 10
116.8584216958
 20
24.4916827894
 30
0.0
 11
124.2165421211
 21
24.8886530087
 31
0.0
  0
LINE
  5
4D5
330
21F
100
AcDbEntity
  8
DEFAULT_2
  6
HIDDEN
 62
     7
100
AcDbLine
 10
113.6175143773
 20
23.9865248244
 30
0.0
 11
116.1581160417
 21
23.9865248244
 31
0.0
  0
LINE
  5
4D8
330
21F
100
AcDbEntity
  8
DEFAULT_2
  6
HIDDEN
 62
     7
100
AcDbLine
 10
112.9172087231
 20
24.4916827894
 30
0.0
 11
105.5590882978
 21
24.8886530087
 31
0.0
  0
LINE
  5
687
330
21F
100
AcDbEntity
  8
DEFAULT_2
  6
HIDDEN
 62
     7
100
AcDbLine
 10
113.4395919048
 20
24.0597481291
 30
0.0
 11
113.0805147146
 21
24.4188253192
 31
0.0
  0
LINE
  5
6EB
330
21F
100
AcDbEntity
  8
DEFAULT_2
  6
HIDDEN
 62
     7
100
AcDbLine
 10
130.1801718117
 20
40.083803951
 30
0.0
 11
130.1583098214
 21
40.0930838153
 31
0.0
  0
LINE
  5
6EC
330
21F
100
AcDbEntity
  8
DEFAULT_2
  6
HIDDEN
 62
     7
100
AcDbLine
 10
130.5220615491
 20
40.8892456978
 30
0.0
 11
130.5001995588
 21
40.8985255621
 31
0.0
  0
LWPOLYLINE
  5
6EF
330
21F
100
AcDbEntity
  8
DEFAULT_2
  6
HIDDEN
 62
     7
100
AcDbPolyline
 90
       26
 70
     0
 43
0.0
 10
98.0621632116
 20
43.58070902659999
 10
98.144669951
 20
43.41154744709999
 10
98.42510505180001
 20
42.83657007699999
 10
98.56532631090001
 20
42.54907948159999
 10
98.7055565894
 20
42.2615842422
 10
98.8445806048
 20
41.9741474399
 10
98.9802107671
 20
41.6855407172
 10
99.11246083729999
 20
41.3956344316
 10
99.2414838528
 20
41.10448548179999
 10
99.36731448020001
 20
40.8121034348
 10
99.4900468476
 20
40.5185246455
 10
99.6490512619
 20
40.12529573699999
 10
99.80295411909999
 20
39.7300978647
 10
99.9519681141
 20
39.33301306980001
 10
100.0963067947
 20
38.934123728
 10
100.236187119
 20
38.5335135521
 10
100.3718268978
 20
38.1312665894
 10
100.50344372
 20
37.7274668083
 10
100.6312542873
 20
37.3221978602
 10
100.7554750793
 20
36.91554331760001
 10
100.9355491492
 20
36.30314638130001
 10
101.10876489
 20
35.68810226780001
 10
101.2758538878
 20
35.0706933497
 10
101.4375477286
 20
34.4512019996
 10
101.6252527857
 20
33.7064138096
 10
101.8075185827
 20
32.9595261586
  0
LINE
  5
6F0
330
21F
100
AcDbEntity
  8
DEFAULT_2
  6
HIDDEN
 62
     7
100
AcDbLine
 10
98.0183170963
 20
43.6706070938
 30
0.0
 11
98.0621632116
 21
43.58070902659999
 31
0.0
  0
LINE
  5
750
330
21F
100
AcDbEntity
  8
DEFAULT_2
  6
HIDDEN
 62
     7
100
AcDbLine
 10
101.8084425681
 20
32.9559679723
 30
0.0
 11
101.8075185827
 21
32.9595261586
 31
0.0
  0
LWPOLYLINE
  5
751
330
21F
100
AcDbEntity
  8
DEFAULT_2
  6
HIDDEN
 62
     7
100
AcDbPolyline
 90
        5
 70
     0
 43
0.0
 10
103.064898373
 20
27.5981801582
 10
103.1172706717
 20
27.3845024769
 10
103.1700679826
 20
27.1709888427
 10
103.2233198243
 20
26.9576506491
 10
103.2701676418
 20
26.7717000704
  0
LINE
  5
752
330
21F
100
AcDbEntity
  8
DEFAULT_2
  6
HIDDEN
 62
     7
100
AcDbLine
 10
103.064898373
 20
27.5981801582
 30
0.0
 11
103.0279523033
 21
27.7499992955
 31
0.0
  0
LWPOLYLINE
  5
753
330
21F
100
AcDbEntity
  8
DEFAULT_2
  6
HIDDEN
 62
     7
100
AcDbPolyline
 90
        7
 70
     0
 43
0.0
 10
102.2647117387
 20
31.0124834322
 10
102.444467639
 20
30.233251389
 10
102.62465411
 20
29.4541855386
 10
102.7240701405
 20
29.0275953155
 10
102.8242705824
 20
28.6013078609
 10
102.9254873365
 20
28.1754126844
 10
103.0279523033
 20
27.7499992955
  0
LWPOLYLINE
  5
754
330
21F
100
AcDbEntity
  8
DEFAULT_2
  6
HIDDEN
 62
     7
100
AcDbPolyline
 90
       30
 70
     0
 43
0.0
 10
102.2446335299
 20
31.1072040769
 10
102.2360858825
 20
31.1472354727
 10
102.2262580601
 20
31.1930463186
 10
102.2152375127
 20
31.2441439189
 10
102.2031191048
 20
31.3000018715
 10
102.1899580285
 20
31.3602788722
 10
102.1758000355
 20
31.4246778359
 10
102.1607133967
 20
31.4928020762
 10
102.1446936424
 20
31.564585705
 10
102.1278099121
 20
31.6396338594
 10
102.1100494524
 20
31.7179194582
 10
102.0914785833
 20
31.7990681982
 10
102.0721532235
 20
31.882760107
 10
102.0522357484
 20
31.9682291105
 10
102.0319665634
 20
32.0544050673
 10
102.0115379042
 20
32.1404584192
 10
101.9912415655
 20
32.2251762029
 10
101.9712207449
 20
32.3080008633
 10
101.9516790649
 20
32.3881470944
 10
101.9327293088
 20
32.4652227106
 10
101.9145805887
 20
32.5384589087
 10
101.8973766006
 20
32.607368046
 10
101.8812916874
 20
32.6713502016
 10
101.8664812126
 20
32.7298897831
 10
101.8530609455
 20
32.7826307442
 10
101.8411741376
 20
32.8291080158
 10
101.8309383371
 20
32.8689540064
 10
101.8225045582
 20
32.9016646261
 10
101.8159242922
 20
32.9271119435
 10
101.8084425681
 20
32.9559679723
  0
LINE
  5
755
330
21F
100
AcDbEntity
  8
DEFAULT_2
  6
HIDDEN
 62
     7
100
AcDbLine
 10
102.2573968594
 20
31.0471028246
 30
0.0
 11
102.2446335299
 21
31.1072040769
 31
0.0
  0
LINE
  5
756
330
21F
100
AcDbEntity
  8
DEFAULT_2
  6
HIDDEN
 62
     7
100
AcDbLine
 10
102.2647117387
 20
31.0124834322
 30
0.0
 11
102.2573968594
 21
31.0471028246
 31
0.0
  0
LWPOLYLINE
  5
97B
330
21F
100
AcDbEntity
  8
DEFAULT_2
  6
HIDDEN
 62
     7
100
AcDbPolyline
 90
       20
 70
     0
 43
0.0
 10
129.8517290595
 20
39.4089251401
 10
129.8236623049
 20
39.33301306980001
 10
129.6793236243
 20
38.934123728
 10
129.5394433
 20
38.5335135521
 10
129.4038035212
 20
38.1312665894
 10
129.2078191634
 20
37.52501075690001
 10
129.0201553397
 20
36.91554331760001
 10
128.8400812698
 20
36.30314638130001
 10
128.6668655289
 20
35.68810226780001
 10
128.4997765311
 20
35.0706933497
 10
128.3380826904
 20
34.4512019996
 10
128.1296189428
 20
33.6224622321
 10
127.9277121175
 20
32.7911916054
 10
127.7306283435
 20
31.9580593661
 10
127.4402530224
 20
30.7063344729
 10
127.150976309
 20
29.4541855386
 10
126.9558456068
 20
28.6202994513
 10
126.7568683425
 20
27.7878980672
 10
126.5523105946
 20
26.9576506491
 10
126.5054627772
 20
26.7717000705
  0
LWPOLYLINE
  5
97C
330
21F
100
AcDbEntity
  8
DEFAULT_2
  6
HIDDEN
 62
     7
100
AcDbPolyline
 90
       14
 70
     0
 43
0.0
 10
129.8517290595
 20
39.4089251401
 10
129.8608361281
 20
39.4333540921
 10
129.8700889845
 20
39.4577199076
 10
129.8795935315
 20
39.4819758164
 10
129.8894433395999
 20
39.5060805037
 10
129.8996826501
 20
39.5300144764
 10
129.9103433721
 20
39.5537636966
 10
129.9214481016
 20
39.5773182459
 10
129.9329821825
 20
39.6006846817
 10
129.9449216456
 20
39.6238736808
 10
129.957236774
 20
39.6468984621
 10
129.9698748593
 20
39.6697824125
 10
129.9827774456
 20
39.6925514613
 10
129.9985204878
 20
39.7197622036
  0
LINE
  5
97D
330
21F
100
AcDbEntity
  8
DEFAULT_2
  6
HIDDEN
 62
     7
100
AcDbLine
 10
130.4084130401
 20
40.8614414013
 30
0.0
 11
130.1212256606
 21
40.184870334
 31
0.0
  0
LINE
  5
97E
330
21F
100
AcDbEntity
  8
DEFAULT_2
  6
HIDDEN
 62
     7
100
AcDbLine
 10
130.5709029401
 20
41.0043088044
 30
0.0
 11
130.1312927389
 21
39.9686520719
 31
0.0
  0
LWPOLYLINE
  5
97F
330
21F
100
AcDbEntity
  8
DEFAULT_2
  6
HIDDEN
 62
     7
100
AcDbPolyline
 90
       18
 70
     0
 43
0.0
 10
131.3360672571
 20
42.8069229708
 10
131.2825105537
 20
42.6968725051
 10
131.2293185258
 20
42.5866558392
 10
131.1767639823
 20
42.4761486633
 10
131.125119732
 20
42.3652266675
 10
131.0746131015
 20
42.2537862672
 10
131.0252894884
 20
42.1418067784
 10
130.9771488082
 20
42.02928824239999
 10
130.9301909762
 20
41.9162307004
 10
130.8843704257
 20
41.8026549189
 10
130.8394596609
 20
41.688664565
 10
130.7951857037
 20
41.5743840311
 10
130.7512755762
 20
41.45993770949999
 10
130.7162027035
 20
41.36835548799999
 10
130.6809084897
 20
41.2768741302
 10
130.6451134486
 20
41.1856209925
 10
130.6085380942
 20
41.0947234317
 10
130.5709029401
 20
41.0043088044
  0
LINE
  5
980
330
21F
100
AcDbEntity
  8
DEFAULT_2
  6
HIDDEN
 62
     7
100
AcDbLine
 10
131.7573133227
 20
43.6706070938
 30
0.0
 11
131.3360672571
 21
42.8069229708
 31
0.0
  0
LWPOLYLINE
  5
981
330
21F
100
AcDbEntity
  8
DEFAULT_2
  6
HIDDEN
 62
     7
100
AcDbPolyline
 90
       11
 70
     0
 43
0.0
 10
129.9985204878
 20
39.7197622036
 10
130.0303271234
 20
39.7740516484
 10
130.0461059356
 20
39.801256512
 10
130.0616118897
 20
39.82858557690001
 10
130.0724453289
 20
39.8482156866
 10
130.0830371486
 20
39.8679545251
 10
130.0933575906
 20
39.88781526949999
 10
130.1033768968
 20
39.9078110967
 10
130.1130653093
 20
39.9279551836
 10
130.1223930699
 20
39.9482607072
 10
130.1313304206
 20
39.9687408443
  0
LINE
  5
982
330
21F
100
AcDbEntity
  8
DEFAULT_2
  6
HIDDEN
 62
     7
100
AcDbLine
 10
116.3360385142
 20
24.0597481291
 30
0.0
 11
116.6951157043
 21
24.4188253192
 31
0.0
  0
LWPOLYLINE
  5
1514
330
21F
100
AcDbEntity
  8
0
  6
Continuous
 62
     7
100
AcDbPolyline
 90
       20
 70
     0
 43
0.0
 10
102.1131089701
 20
19.0274365517
 10
102.1971998481
 20
19.0263733126
 10
102.3110778662
 20
19.0250760857
 10
102.453122947
 20
19.0236391691
 10
102.6221038419
 20
19.0221506586
 10
102.8172043308
 20
19.0207234965
 10
103.037753602
 20
19.0194817925
 10
103.2832730743
 20
19.0185129472
 10
103.5527914533
 20
19.01787720579999
 10
103.8452183777
 20
19.0175856256
 10
104.1592709569
 20
19.0176605147
 10
104.4935578888
 20
19.01808030619999
 10
104.8461826769
 20
19.0188323255
 10
105.2146483455
 20
19.0199038023
 10
105.5961368134
 20
19.0212442141
 10
105.9884102267
 20
19.0228209509
 10
106.3899659589
 20
19.024613878
 10
106.7994368386
 20
19.0265660559
 10
107.2147556258
 20
19.0286326157
 10
107.6328888019
 20
19.0307724573
  0
LINE
  5
1515
330
21F
100
AcDbEntity
  8
0
  6
Continuous
 62
     7
100
AcDbLine
 10
102.0424248594
 20
19.028434843
 30
0.0
 11
102.1131089701
 21
19.0274365517
 31
0.0
  0
LINE
  5
1516
330
21F
100
AcDbEntity
  8
0
  6
Continuous
 62
     7
100
AcDbLine
 10
101.6802013883
 20
19.3318352619
 30
0.0
 11
96.9568671348
 21
43.63128346439999
 31
0.0
  0
LWPOLYLINE
  5
1517
330
21F
100
AcDbEntity
  8
0
  6
Continuous
 62
     7
100
AcDbPolyline
 90
       17
 70
     0
 43
0.0
 10
107.6328888019
 20
19.0307724573
 10
108.4688506185
 20
19.0350996452
 10
108.8860949961
 20
19.0372028713
 10
109.3031320883
 20
19.0392423236
 10
109.719953686
 20
19.0411939004
 10
110.1367532415
 20
19.0430372441
 10
110.5538875369
 20
19.0447511283
 10
110.971855338
 20
19.0463219844
 10
111.3913108732
 20
19.0477387106
 10
111.8131467959
 20
19.0489965369
 10
112.2381479287
 20
19.050086323
 10
112.6670423229
 20
19.0510052966
 10
113.1005750592
 20
19.0517508702
 10
113.5396149256
 20
19.0523238189
 10
113.9850420039
 20
19.0527255722
 10
114.4378057377
 20
19.0529604587
 10
114.8878152095
 20
19.0530352316
  0
LINE
  5
1518
330
21F
100
AcDbEntity
  8
0
  6
Continuous
 62
     7
100
AcDbLine
 10
109.5128261549
 20
18.9865248244
 30
0.0
 11
111.762804264
 21
18.9865248244
 31
0.0
  0
LWPOLYLINE
  5
1519
330
21F
100
AcDbEntity
  8
0
  6
Continuous
 62
     7
100
AcDbPolyline
 90
       38
 70
     0
 43
0.0
 10
114.8878152095
 20
19.0530352316
 10
115.3386912702
 20
19.0529601664
 10
115.7914103993
 20
19.0527249918
 10
116.2367934061
 20
19.0523229612
 10
116.6757900733
 20
19.0517497608
 10
117.109281069
 20
19.0510039575
 10
117.5381355648
 20
19.0500847864
 10
117.9630991662
 20
19.0489948275
 10
118.3849002174
 20
19.0477368625
 10
118.8043231579
 20
19.0463200262
 10
119.2222600492
 20
19.0447490916
 10
119.639364539
 20
19.0430351609
 10
120.0561349211
 20
19.0411918108
 10
120.4729279463
 20
19.039240263
 10
120.8899372057
 20
19.0372008732
 10
121.3071542666
 20
19.035097734
 10
121.7248233917
 20
19.0329446532
 10
122.1430604221
 20
19.0307708076
 10
122.5611657254
 20
19.0286311451
 10
122.976458116
 20
19.0265647642
 10
123.3859040994
 20
19.0246127664
 10
123.7874360416
 20
19.0228200312
 10
124.1796867083
 20
19.0212434853
 10
124.5611536404
 20
19.0199032479
 10
124.929599775
 20
19.0188319381
 10
125.2822071039
 20
19.0180800777
 10
125.6164784266
 20
19.0176604223
 10
125.9305168751
 20
19.0175856625
 10
126.2229309
 20
19.017877359
 10
126.4924374254
 20
19.0185131979
 10
126.7379458921
 20
19.0194821238
 10
126.9584847444
 20
19.0207238776
 10
127.1535752441
 20
19.0221510547
 10
127.3225467393
 20
19.0236395416
 10
127.4645831051
 20
19.0250764149
 10
127.5784530481
 20
19.0263735838
 10
127.662536336
 20
19.0274367497
 10
127.7332054972
 20
19.028434842
  0
LINE
  5
151A
330
21F
100
AcDbEntity
  8
0
  6
Continuous
 62
     7
100
AcDbLine
 10
109.5128152095
 20
18.9865248244
 30
0.0
 11
109.5128152095
 21
19.0402240691
 31
0.0
  0
LINE
  5
151B
330
21F
100
AcDbEntity
  8
0
  6
Continuous
 62
     7
100
AcDbLine
 10
111.7628152095
 20
18.9865248244
 30
0.0
 11
111.7628152095
 21
19.0488464587
 31
0.0
  0
LINE
  5
151C
330
21F
100
AcDbEntity
  8
0
  6
Continuous
 62
     7
100
AcDbLine
 10
114.8878152095
 20
43.70570902659999
 30
0.0
 11
114.8878152095
 21
43.58070902659999
 31
0.0
  0
LINE
  5
151D
330
21F
100
AcDbEntity
  8
0
  6
Continuous
 62
     7
100
AcDbLine
 10
132.7911288965
 20
43.58070902659999
 30
0.0
 11
96.98450152239999
 21
43.58070902659999
 31
0.0
  0
LINE
  5
151E
330
21F
100
AcDbEntity
  8
0
  6
Continuous
 62
     7
100
AcDbLine
 10
132.7574115851
 20
43.70570902659999
 30
0.0
 11
97.01821883379999
 21
43.70570902659999
 31
0.0
  0
LINE
  5
151F
330
21F
100
AcDbEntity
  8
DEFAULT_1
  6
CENTER
 62
     7
100
AcDbLine
 10
129.2829475067
 20
40.93993573809999
 30
0.0
 11
131.6206462908
 21
39.9476414763
 31
0.0
  0
LINE
  5
1520
330
21F
100
AcDbEntity
  8
0
  6
Continuous
 62
     7
100
AcDbLine
 10
128.0954290306
 20
19.3318352619
 30
0.0
 11
132.8187632841
 21
43.63128346439999
 31
0.0
  0
ARC
  5
1521
330
21F
100
AcDbEntity
  8
DEFAULT_2
  6
HIDDEN
 62
     7
100
AcDbCircle
 10
124.0818631052
 20
27.3850226854
 30
0.0
 40
2.5
100
AcDbArc
 50
273.0881106042
 51
345.7987198479
  0
ARC
  5
1522
330
21F
100
AcDbEntity
  8
DEFAULT_2
  6
HIDDEN
 62
     7
100
AcDbCircle
 10
105.6937673137
 20
27.3850226854
 30
0.0
 40
2.5
100
AcDbArc
 50
194.2012801521
 51
266.9118893957
  0
ARC
  5
152C
330
21F
100
AcDbEntity
  8
DEFAULT_2
  6
HIDDEN
 62
     7
100
AcDbCircle
 10
116.8718895974
 20
24.2420458217
 30
0.0
 40
0.25
100
AcDbArc
 50
93.0881106042
 51
135.0
  0
ARC
  5
152D
330
21F
100
AcDbEntity
  8
DEFAULT_2
  6
HIDDEN
 62
     7
100
AcDbCircle
 10
116.1592618189
 20
24.2365248244
 30
0.0
 40
0.25
100
AcDbArc
 50
270.0
 51
315.0
  0
ARC
  5
152E
330
21F
100
AcDbEntity
  8
DEFAULT_2
  6
HIDDEN
 62
     7
100
AcDbCircle
 10
113.6163686001
 20
24.2365248244
 30
0.0
 40
0.25
100
AcDbArc
 50
225.0
 51
270.0
  0
ARC
  5
152F
330
21F
100
AcDbEntity
  8
DEFAULT_2
  6
HIDDEN
 62
     7
100
AcDbCircle
 10
112.9037408215
 20
24.2420458217
 30
0.0
 40
0.25
100
AcDbArc
 50
45.0
 51
86.9118893957
  0
ARC
  5
1534
330
21F
100
AcDbEntity
  8
DEFAULT_2
  6
HIDDEN
 62
     7
100
AcDbCircle
 10
130.4728483797999
 20
40.83409022229999
 30
0.0
 40
0.07
100
AcDbArc
 50
67.0
 51
157.0
  0
ARC
  5
1535
330
21F
100
AcDbEntity
  8
DEFAULT_2
  6
HIDDEN
 62
     7
100
AcDbCircle
 10
130.1856610004
 20
40.157519155
 30
0.0
 40
0.07
100
AcDbArc
 50
157.0
 51
247.0
  0
ARC
  5
1536
330
21F
100
AcDbEntity
  8
DEFAULT_2
  6
HIDDEN
 62
     7
100
AcDbCircle
 10
131.8134880137
 20
43.6432090266
 30
0.0
 40
0.0625
100
AcDbArc
 50
90.0
 51
154.0001320346
  0
ARC
  5
1537
330
21F
100
AcDbEntity
  8
DEFAULT_2
  6
HIDDEN
 62
     7
100
AcDbCircle
 10
97.96214240520001
 20
43.6432090266
 30
0.0
 40
0.0625
100
AcDbArc
 50
25.9998679654
 51
90.0
  0
ARC
  5
153F
330
21F
100
AcDbEntity
  8
0
  6
Continuous
 62
     7
100
AcDbCircle
 10
127.7273188371
 20
19.4033886355
 30
0.0
 40
0.375
100
AcDbArc
 50
270.8994944975
 51
348.999999935
  0
ARC
  5
1540
330
21F
100
AcDbEntity
  8
0
  6
Continuous
 62
     7
100
AcDbCircle
 10
102.0483115819
 20
19.4033886355
 30
0.0
 40
0.375
100
AcDbArc
 50
191.0000000662
 51
269.100484775
  0
ARC
  5
1541
330
21F
100
AcDbEntity
  8
0
  6
Continuous
 62
     7
100
AcDbCircle
 10
97.01821883379999
 20
43.6432090266
 30
0.0
 40
0.0625
100
AcDbArc
 50
90.0
 51
191.0
  0
ARC
  5
1542
330
21F
100
AcDbEntity
  8
0
  6
Continuous
 62
     7
100
AcDbCircle
 10
132.7574115851
 20
43.6432090266
 30
0.0
 40
0.0625
100
AcDbArc
 50
349.0
 51
90.0
  0
ENDSEC
  0
SECTION
  2
OBJECTS
  0
DICTIONARY
  5
C
330
0
100
AcDbDictionary
281
     1
  3
ACAD_COLOR
350
1574
  3
ACAD_GROUP
350
D
  3
ACAD_LAYOUT
350
1A
  3
ACAD_MATERIAL
350
1547
  3
ACAD_MLEADERSTYLE
350
1599
  3
ACAD_MLINESTYLE
350
17
  3
ACAD_PLOTSETTINGS
350
19
  3
ACAD_PLOTSTYLENAME
350
E
  3
ACAD_SCALELIST
350
1577
  3
ACAD_TABLESTYLE
350
1575
  3
ACAD_VISUALSTYLE
350
1560
  3
ACDB_RECOMPOSE_DATA
350
159D
  3
AcDbVariableDictionary
350
15CF
  0
DICTIONARY
  5
159E
330
8
100
AcDbDictionary
280
     1
281
     1
  0
DICTIONARY
  5
15DE
330
10
100
AcDbDictionary
280
     1
281
     1
  3
ADSK_XREC_LAYER_RECONCILED
360
15DF
  0
DICTIONARY
  5
15E0
330
1FA
100
AcDbDictionary
280
     1
281
     1
  3
ADSK_XREC_LAYER_RECONCILED
360
15E1
  0
DICTIONARY
  5
15E2
330
1FB
100
AcDbDictionary
280
     1
281
     1
  3
ADSK_XREC_LAYER_RECONCILED
360
15E3
  0
DICTIONARY
  5
15E4
330
1FC
100
AcDbDictionary
280
     1
281
     1
  3
ADSK_XREC_LAYER_RECONCILED
360
15E5
  0
DICTIONARY
  5
15E6
330
1FD
100
AcDbDictionary
280
     1
281
     1
  3
ADSK_XREC_LAYER_RECONCILED
360
15E7
  0
DICTIONARY
  5
15E8
330
1FE
100
AcDbDictionary
280
     1
281
     1
  3
ADSK_XREC_LAYER_RECONCILED
360
15E9
  0
DICTIONARY
  5
15EA
330
1FF
100
AcDbDictionary
280
     1
281
     1
  3
ADSK_XREC_LAYER_RECONCILED
360
15EB
  0
DICTIONARY
  5
15EC
330
200
100
AcDbDictionary
280
     1
281
     1
  3
ADSK_XREC_LAYER_RECONCILED
360
15ED
  0
DICTIONARY
  5
15EE
330
201
100
AcDbDictionary
280
     1
281
     1
  3
ADSK_XREC_LAYER_RECONCILED
360
15EF
  0
DICTIONARY
  5
15F0
330
202
100
AcDbDictionary
280
     1
281
     1
  3
ADSK_XREC_LAYER_RECONCILED
360
15F1
  0
DICTIONARY
  5
15F2
330
203
100
AcDbDictionary
280
     1
281
     1
  3
ADSK_XREC_LAYER_RECONCILED
360
15F3
  0
DICTIONARY
  5
15F4
330
204
100
AcDbDictionary
280
     1
281
     1
  3
ADSK_XREC_LAYER_RECONCILED
360
15F5
  0
DICTIONARY
  5
15F6
330
205
100
AcDbDictionary
280
     1
281
     1
  3
ADSK_XREC_LAYER_RECONCILED
360
15F7
  0
DICTIONARY
  5
15F8
330
206
100
AcDbDictionary
280
     1
281
     1
  3
ADSK_XREC_LAYER_RECONCILED
360
15F9
  0
DICTIONARY
  5
15FA
330
207
100
AcDbDictionary
280
     1
281
     1
  3
ADSK_XREC_LAYER_RECONCILED
360
15FB
  0
DICTIONARY
  5
15FC
330
208
100
AcDbDictionary
280
     1
281
     1
  3
ADSK_XREC_LAYER_RECONCILED
360
15FD
  0
DICTIONARY
  5
15FE
330
209
100
AcDbDictionary
280
     1
281
     1
  3
ADSK_XREC_LAYER_RECONCILED
360
15FF
  0
DICTIONARY
  5
1600
330
20A
100
AcDbDictionary
280
     1
281
     1
  3
ADSK_XREC_LAYER_RECONCILED
360
1601
  0
DICTIONARY
  5
1602
330
20B
100
AcDbDictionary
280
     1
281
     1
  3
ADSK_XREC_LAYER_RECONCILED
360
1603
  0
DICTIONARY
  5
1604
330
20C
100
AcDbDictionary
280
     1
281
     1
  3
ADSK_XREC_LAYER_RECONCILED
360
1605
  0
DICTIONARY
  5
1606
330
20D
100
AcDbDictionary
280
     1
281
     1
  3
ADSK_XREC_LAYER_RECONCILED
360
1607
  0
DICTIONARY
  5
1608
330
20E
100
AcDbDictionary
280
     1
281
     1
  3
ADSK_XREC_LAYER_RECONCILED
360
1609
  0
DICTIONARY
  5
160A
330
20F
100
AcDbDictionary
280
     1
281
     1
  3
ADSK_XREC_LAYER_RECONCILED
360
160B
  0
DICTIONARY
  5
160C
330
210
100
AcDbDictionary
280
     1
281
     1
  3
ADSK_XREC_LAYER_RECONCILED
360
160D
  0
DICTIONARY
  5
160E
330
211
100
AcDbDictionary
280
     1
281
     1
  3
ADSK_XREC_LAYER_RECONCILED
360
160F
  0
DICTIONARY
  5
1610
330
212
100
AcDbDictionary
280
     1
281
     1
  3
ADSK_XREC_LAYER_RECONCILED
360
1611
  0
DICTIONARY
  5
1612
330
213
100
AcDbDictionary
280
     1
281
     1
  3
ADSK_XREC_LAYER_RECONCILED
360
1613
  0
DICTIONARY
  5
1614
330
214
100
AcDbDictionary
280
     1
281
     1
  3
ADSK_XREC_LAYER_RECONCILED
360
1615
  0
DICTIONARY
  5
1616
330
215
100
AcDbDictionary
280
     1
281
     1
  3
ADSK_XREC_LAYER_RECONCILED
360
1617
  0
DICTIONARY
  5
1618
330
216
100
AcDbDictionary
280
     1
281
     1
  3
ADSK_XREC_LAYER_RECONCILED
360
1619
  0
DICTIONARY
  5
1574
102
{ACAD_REACTORS
330
C
102
}
330
C
100
AcDbDictionary
281
     1
  0
DICTIONARY
  5
D
102
{ACAD_REACTORS
330
C
102
}
330
C
100
AcDbDictionary
281
     1
  0
DICTIONARY
  5
1A
102
{ACAD_REACTORS
330
C
102
}
330
C
100
AcDbDictionary
281
     1
  3
Layout1
350
1544
  3
Model
350
1543
  0
DICTIONARY
  5
1547
102
{ACAD_REACTORS
330
C
102
}
330
C
100
AcDbDictionary
281
     1
  3
ByBlock
350
1550
  3
ByLayer
350
1548
  3
Global
350
1558
  0
DICTIONARY
  5
1599
102
{ACAD_REACTORS
330
C
102
}
330
C
100
AcDbDictionary
281
     1
  3
Standard
350
159A
  0
DICTIONARY
  5
17
102
{ACAD_REACTORS
330
C
102
}
330
C
100
AcDbDictionary
281
     1
  3
Standard
350
18
  0
DICTIONARY
  5
19
102
{ACAD_REACTORS
330
C
102
}
330
C
100
AcDbDictionary
281
     1
  0
ACDBDICTIONARYWDFLT
  5
E
102
{ACAD_REACTORS
330
C
102
}
330
C
100
AcDbDictionary
281
     1
  3
Normal
350
F
100
AcDbDictionaryWithDefault
340
F
  0
DICTIONARY
  5
1577
102
{ACAD_REACTORS
330
C
102
}
330
C
100
AcDbDictionary
281
     1
  3
A0
350
1578
  3
A1
350
1579
  3
A2
350
157A
  3
A3
350
157B
  3
A4
350
157C
  3
A5
350
157D
  3
A6
350
157E
  3
A7
350
157F
  3
A8
350
1580
  3
A9
350
1581
  3
B0
350
1582
  3
B1
350
1583
  3
B2
350
1584
  3
B3
350
1585
  3
B4
350
1586
  3
B5
350
1587
  3
B6
350
1588
  3
B7
350
1589
  3
B8
350
158A
  3
B9
350
158B
  3
C0
350
158C
  3
C1
350
158D
  3
C2
350
158E
  3
C3
350
158F
  3
C4
350
1590
  3
C5
350
1591
  3
C6
350
1592
  3
C7
350
1593
  3
C8
350
1594
  3
C9
350
1595
  3
D0
350
1596
  3
D1
350
1597
  3
D2
350
1598
  0
DICTIONARY
  5
1575
102
{ACAD_REACTORS
330
C
102
}
330
C
100
AcDbDictionary
281
     1
  3
Standard
350
1576
  0
DICTIONARY
  5
1560
102
{ACAD_REACTORS
330
C
102
}
330
C
100
AcDbDictionary
281
     1
  3
2dWireframe
350
1566
  3
3D Hidden
350
1568
  3
3dWireframe
350
1567
  3
Basic
350
1565
  3
Brighten
350
156C
  3
ColorChange
350
1570
  3
Conceptual
350
1569
  3
Dim
350
156B
  3
EdgeColorOff
350
1573
  3
Facepattern
350
156F
  3
Flat
350
1561
  3
FlatWithEdges
350
1562
  3
Gouraud
350
1563
  3
GouraudWithEdges
350
1564
  3
JitterOff
350
1571
  3
Linepattern
350
156E
  3
OverhangOff
350
1572
  3
Realistic
350
156A
  3
Thicken
350
156D
  0
XRECORD
  5
159D
102
{ACAD_REACTORS
330
C
102
}
330
C
100
AcDbXrecord
280
     1
 90
        1
330
1576
  0
DICTIONARY
  5
15CF
102
{ACAD_REACTORS
330
C
102
}
330
C
100
AcDbDictionary
281
     1
  3
CANNOSCALE
350
15D2
  3
CMLEADERSTYLE
350
15D1
  3
CTABLESTYLE
350
15D0
  3
DIMASSOC
350
15D5
  3
INDEXCTL
350
15D4
  3
LAYEREVAL
350
1635
  3
LAYERNOTIFY
350
1636
  3
LIGHTINGUNITS
350
1634
  3
MSLTSCALE
350
1633
  3
SORTENTS
350
15D3
  3
XCLIPFRAME
350
15D6
  0
XRECORD
  5
15DF
102
{ACAD_REACTORS
330
15DE
102
}
330
15DE
100
AcDbXrecord
280
     1
290
     1
  0
XRECORD
  5
15E1
102
{ACAD_REACTORS
330
15E0
102
}
330
15E0
100
AcDbXrecord
280
     1
290
     1
  0
XRECORD
  5
15E3
102
{ACAD_REACTORS
330
15E2
102
}
330
15E2
100
AcDbXrecord
280
     1
290
     1
  0
XRECORD
  5
15E5
102
{ACAD_REACTORS
330
15E4
102
}
330
15E4
100
AcDbXrecord
280
     1
290
     1
  0
XRECORD
  5
15E7
102
{ACAD_REACTORS
330
15E6
102
}
330
15E6
100
AcDbXrecord
280
     1
290
     1
  0
XRECORD
  5
15E9
102
{ACAD_REACTORS
330
15E8
102
}
330
15E8
100
AcDbXrecord
280
     1
290
     1
  0
XRECORD
  5
15EB
102
{ACAD_REACTORS
330
15EA
102
}
330
15EA
100
AcDbXrecord
280
     1
290
     1
  0
XRECORD
  5
15ED
102
{ACAD_REACTORS
330
15EC
102
}
330
15EC
100
AcDbXrecord
280
     1
290
     1
  0
XRECORD
  5
15EF
102
{ACAD_REACTORS
330
15EE
102
}
330
15EE
100
AcDbXrecord
280
     1
290
     1
  0
XRECORD
  5
15F1
102
{ACAD_REACTORS
330
15F0
102
}
330
15F0
100
AcDbXrecord
280
     1
290
     1
  0
XRECORD
  5
15F3
102
{ACAD_REACTORS
330
15F2
102
}
330
15F2
100
AcDbXrecord
280
     1
290
     1
  0
XRECORD
  5
15F5
102
{ACAD_REACTORS
330
15F4
102
}
330
15F4
100
AcDbXrecord
280
     1
290
     1
  0
XRECORD
  5
15F7
102
{ACAD_REACTORS
330
15F6
102
}
330
15F6
100
AcDbXrecord
280
     1
290
     1
  0
XRECORD
  5
15F9
102
{ACAD_REACTORS
330
15F8
102
}
330
15F8
100
AcDbXrecord
280
     1
290
     1
  0
XRECORD
  5
15FB
102
{ACAD_REACTORS
330
15FA
102
}
330
15FA
100
AcDbXrecord
280
     1
290
     1
  0
XRECORD
  5
15FD
102
{ACAD_REACTORS
330
15FC
102
}
330
15FC
100
AcDbXrecord
280
     1
290
     1
  0
XRECORD
  5
15FF
102
{ACAD_REACTORS
330
15FE
102
}
330
15FE
100
AcDbXrecord
280
     1
290
     1
  0
XRECORD
  5
1601
102
{ACAD_REACTORS
330
1600
102
}
330
1600
100
AcDbXrecord
280
     1
290
     1
  0
XRECORD
  5
1603
102
{ACAD_REACTORS
330
1602
102
}
330
1602
100
AcDbXrecord
280
     1
290
     1
  0
XRECORD
  5
1605
102
{ACAD_REACTORS
330
1604
102
}
330
1604
100
AcDbXrecord
280
     1
290
     1
  0
XRECORD
  5
1607
102
{ACAD_REACTORS
330
1606
102
}
330
1606
100
AcDbXrecord
280
     1
290
     1
  0
XRECORD
  5
1609
102
{ACAD_REACTORS
330
1608
102
}
330
1608
100
AcDbXrecord
280
     1
290
     1
  0
XRECORD
  5
160B
102
{ACAD_REACTORS
330
160A
102
}
330
160A
100
AcDbXrecord
280
     1
290
     1
  0
XRECORD
  5
160D
102
{ACAD_REACTORS
330
160C
102
}
330
160C
100
AcDbXrecord
280
     1
290
     1
  0
XRECORD
  5
160F
102
{ACAD_REACTORS
330
160E
102
}
330
160E
100
AcDbXrecord
280
     1
290
     1
  0
XRECORD
  5
1611
102
{ACAD_REACTORS
330
1610
102
}
330
1610
100
AcDbXrecord
280
     1
290
     1
  0
XRECORD
  5
1613
102
{ACAD_REACTORS
330
1612
102
}
330
1612
100
AcDbXrecord
280
     1
290
     1
  0
XRECORD
  5
1615
102
{ACAD_REACTORS
330
1614
102
}
330
1614
100
AcDbXrecord
280
     1
290
     1
  0
XRECORD
  5
1617
102
{ACAD_REACTORS
330
1616
102
}
330
1616
100
AcDbXrecord
280
     1
290
     1
  0
XRECORD
  5
1619
102
{ACAD_REACTORS
330
1618
102
}
330
1618
100
AcDbXrecord
280
     1
290
     1
  0
LAYOUT
  5
1544
102
{ACAD_REACTORS
330
1A
102
}
330
1A
100
AcDbPlotSettings
  1

  2
none_device
  4
ANSI_B_(17.00_x_11.00_Inches)
  6

 40
0.0
 41
0.0
 42
0.0
 43
0.0
 44
431.8
 45
279.4
 46
0.0
 47
0.0
 48
0.0
 49
0.0
140
0.0
141
0.0
142
1.0
143
1.0
 70
     0
 72
     0
 73
     0
 74
     0
  7

 75
     0
147
1.0
 76
     0
 77
     2
 78
   300
148
0.0
149
0.0
100
AcDbLayout
  1
Layout1
 70
     1
 71
     1
 10
0.0
 20
0.0
 11
12.0
 21
9.0
 12
0.0
 22
0.0
 32
0.0
 14
1.000000000000000E+20
 24
1.000000000000000E+20
 34
1.000000000000000E+20
 15
-1.000000000000000E+20
 25
-1.000000000000000E+20
 35
-1.000000000000000E+20
146
0.0
 13
0.0
 23
0.0
 33
0.0
 16
1.0
 26
0.0
 36
0.0
 17
0.0
 27
1.0
 37
0.0
 76
     0
330
220
  0
LAYOUT
  5
1543
102
{ACAD_REACTORS
330
1A
102
}
330
1A
100
AcDbPlotSettings
  1

  2
none_device
  4
ANSI_B_(17.00_x_11.00_Inches)
  6

 40
0.0
 41
0.0
 42
0.0
 43
0.0
 44
431.8
 45
279.4
 46
0.0
 47
0.0
 48
0.0
 49
0.0
140
0.0
141
0.0
142
1.0
143
1.0
 70
  1024
 72
     0
 73
     0
 74
     0
  7

 75
     0
147
1.0
 76
     0
 77
     2
 78
   300
148
0.0
149
0.0
100
AcDbLayout
  1
Model
 70
     0
 71
     0
 10
0.0
 20
0.0
 11
17.0
 21
11.0
 12
0.0
 22
0.0
 32
0.0
 14
0.0
 24
0.0
 34
0.0
 15
0.0
 25
0.0
 35
0.0
146
0.0
 13
0.0
 23
0.0
 33
0.0
 16
1.0
 26
0.0
 36
0.0
 17
0.0
 27
1.0
 37
0.0
 76
     0
330
21F
331
1F4
  0
MATERIAL
  5
1550
102
{ACAD_XDICTIONARY
360
1551
102
}
102
{ACAD_REACTORS
330
1547
102
}
330
1547
100
AcDbMaterial
  1
ByBlock
 72
     0
 43
0.0208333333333333
 43
0.0
 43
0.0
 43
0.0
 43
0.0
 43
0.0208333333333333
 43
0.0
 43
0.0
 43
0.0
 43
0.0
 43
1.0
 43
0.0
 43
0.0
 43
0.0
 43
0.0
 43
1.0
 77
     0
 47
0.0208333333333333
 47
0.0
 47
0.0
 47
0.0
 47
0.0
 47
0.0208333333333333
 47
0.0
 47
0.0
 47
0.0
 47
0.0
 47
1.0
 47
0.0
 47
0.0
 47
0.0
 47
0.0
 47
1.0
171
     0
 49
0.0208333333333333
 49
0.0
 49
0.0
 49
0.0
 49
0.0
 49
0.0208333333333333
 49
0.0
 49
0.0
 49
0.0
 49
0.0
 49
1.0
 49
0.0
 49
0.0
 49
0.0
 49
0.0
 49
1.0
175
     0
142
0.0208333333333333
142
0.0
142
0.0
142
0.0
142
0.0
142
0.0208333333333333
142
0.0
142
0.0
142
0.0
142
0.0
142
1.0
142
0.0
142
0.0
142
0.0
142
0.0
142
1.0
179
     0
144
0.0208333333333333
144
0.0
144
0.0
144
0.0
144
0.0
144
0.0208333333333333
144
0.0
144
0.0
144
0.0
144
0.0
144
1.0
144
0.0
144
0.0
144
0.0
144
0.0
144
1.0
147
0.0208333333333333
147
0.0
147
0.0
147
0.0
147
0.0
147
0.0208333333333333
147
0.0
147
0.0
147
0.0
147
0.0
147
1.0
147
0.0
147
0.0
147
0.0
147
0.0
147
1.0
  0
MATERIAL
  5
1548
102
{ACAD_XDICTIONARY
360
1549
102
}
102
{ACAD_REACTORS
330
1547
102
}
330
1547
100
AcDbMaterial
  1
ByLayer
 72
     0
 43
0.0208333333333333
 43
0.0
 43
0.0
 43
0.0
 43
0.0
 43
0.0208333333333333
 43
0.0
 43
0.0
 43
0.0
 43
0.0
 43
1.0
 43
0.0
 43
0.0
 43
0.0
 43
0.0
 43
1.0
 77
     0
 47
0.0208333333333333
 47
0.0
 47
0.0
 47
0.0
 47
0.0
 47
0.0208333333333333
 47
0.0
 47
0.0
 47
0.0
 47
0.0
 47
1.0
 47
0.0
 47
0.0
 47
0.0
 47
0.0
 47
1.0
171
     0
 49
0.0208333333333333
 49
0.0
 49
0.0
 49
0.0
 49
0.0
 49
0.0208333333333333
 49
0.0
 49
0.0
 49
0.0
 49
0.0
 49
1.0
 49
0.0
 49
0.0
 49
0.0
 49
0.0
 49
1.0
175
     0
142
0.0208333333333333
142
0.0
142
0.0
142
0.0
142
0.0
142
0.0208333333333333
142
0.0
142
0.0
142
0.0
142
0.0
142
1.0
142
0.0
142
0.0
142
0.0
142
0.0
142
1.0
179
     0
144
0.0208333333333333
144
0.0
144
0.0
144
0.0
144
0.0
144
0.0208333333333333
144
0.0
144
0.0
144
0.0
144
0.0
144
1.0
144
0.0
144
0.0
144
0.0
144
0.0
144
1.0
147
0.0208333333333333
147
0.0
147
0.0
147
0.0
147
0.0
147
0.0208333333333333
147
0.0
147
0.0
147
0.0
147
0.0
147
1.0
147
0.0
147
0.0
147
0.0
147
0.0
147
1.0
  0
MATERIAL
  5
1558
102
{ACAD_XDICTIONARY
360
1559
102
}
102
{ACAD_REACTORS
330
1547
102
}
330
1547
100
AcDbMaterial
  1
Global
 72
     0
 43
0.0208333333333333
 43
0.0
 43
0.0
 43
0.0
 43
0.0
 43
0.0208333333333333
 43
0.0
 43
0.0
 43
0.0
 43
0.0
 43
1.0
 43
0.0
 43
0.0
 43
0.0
 43
0.0
 43
1.0
 77
     0
 47
0.0208333333333333
 47
0.0
 47
0.0
 47
0.0
 47
0.0
 47
0.0208333333333333
 47
0.0
 47
0.0
 47
0.0
 47
0.0
 47
1.0
 47
0.0
 47
0.0
 47
0.0
 47
0.0
 47
1.0
171
     0
 49
0.0208333333333333
 49
0.0
 49
0.0
 49
0.0
 49
0.0
 49
0.0208333333333333
 49
0.0
 49
0.0
 49
0.0
 49
0.0
 49
1.0
 49
0.0
 49
0.0
 49
0.0
 49
0.0
 49
1.0
175
     0
142
0.0208333333333333
142
0.0
142
0.0
142
0.0
142
0.0
142
0.0208333333333333
142
0.0
142
0.0
142
0.0
142
0.0
142
1.0
142
0.0
142
0.0
142
0.0
142
0.0
142
1.0
179
     0
144
0.0208333333333333
144
0.0
144
0.0
144
0.0
144
0.0
144
0.0208333333333333
144
0.0
144
0.0
144
0.0
144
0.0
144
1.0
144
0.0
144
0.0
144
0.0
144
0.0
144
1.0
147
0.0208333333333333
147
0.0
147
0.0
147
0.0
147
0.0
147
0.0208333333333333
147
0.0
147
0.0
147
0.0
147
0.0
147
1.0
147
0.0
147
0.0
147
0.0
147
0.0
147
1.0
  0
MLEADERSTYLE
  5
159A
102
{ACAD_REACTORS
330
1599
102
}
330
1599
100
AcDbMLeaderStyle
170
     2
171
     1
172
     0
 90
        2
 40
0.0
 41
0.0
173
     1
 91
-1056964608
340
14
 92
       -2
290
     1
 42
0.09
291
     1
 43
0.36
  3
Standard
 44
0.18
300

342
11
174
     1
178
     6
175
     1
176
     0
 93
-1056964608
 45
0.18
292
     0
297
     0
 46
0.18
 94
-1056964608
 47
1.0
 49
1.0
140
1.0
293
     1
141
0.0
294
     1
177
     0
142
1.0
295
     0
296
     0
143
0.125
1001
ACAD_MLEADERVER
1070
     2
  0
MLINESTYLE
  5
18
102
{ACAD_REACTORS
330
17
102
}
330
17
100
AcDbMlineStyle
  2
STANDARD
 70
     0
  3

 62
   256
 51
90.0
 52
90.0
 71
     2
 49
0.5
 62
   256
  6
BYLAYER
 49
-0.5
 62
   256
  6
BYLAYER
  0
ACDBPLACEHOLDER
  5
F
102
{ACAD_REACTORS
330
E
102
}
330
E
  0
SCALE
  5
1578
102
{ACAD_REACTORS
330
1577
102
}
330
1577
100
AcDbScale
 70
     0
300
1:1
140
1.0
141
1.0
290
     1
  0
SCALE
  5
1579
102
{ACAD_REACTORS
330
1577
102
}
330
1577
100
AcDbScale
 70
     0
300
1:2
140
1.0
141
2.0
290
     0
  0
SCALE
  5
157A
102
{ACAD_REACTORS
330
1577
102
}
330
1577
100
AcDbScale
 70
     0
300
1:4
140
1.0
141
4.0
290
     0
  0
SCALE
  5
157B
102
{ACAD_REACTORS
330
1577
102
}
330
1577
100
AcDbScale
 70
     0
300
1:5
140
1.0
141
5.0
290
     0
  0
SCALE
  5
157C
102
{ACAD_REACTORS
330
1577
102
}
330
1577
100
AcDbScale
 70
     0
300
1:8
140
1.0
141
8.0
290
     0
  0
SCALE
  5
157D
102
{ACAD_REACTORS
330
1577
102
}
330
1577
100
AcDbScale
 70
     0
300
1:10
140
1.0
141
10.0
290
     0
  0
SCALE
  5
157E
102
{ACAD_REACTORS
330
1577
102
}
330
1577
100
AcDbScale
 70
     0
300
1:16
140
1.0
141
16.0
290
     0
  0
SCALE
  5
157F
102
{ACAD_REACTORS
330
1577
102
}
330
1577
100
AcDbScale
 70
     0
300
1:20
140
1.0
141
20.0
290
     0
  0
SCALE
  5
1580
102
{ACAD_REACTORS
330
1577
102
}
330
1577
100
AcDbScale
 70
     0
300
1:30
140
1.0
141
30.0
290
     0
  0
SCALE
  5
1581
102
{ACAD_REACTORS
330
1577
102
}
330
1577
100
AcDbScale
 70
     0
300
1:40
140
1.0
141
40.0
290
     0
  0
SCALE
  5
1582
102
{ACAD_REACTORS
330
1577
102
}
330
1577
100
AcDbScale
 70
     0
300
1:50
140
1.0
141
50.0
290
     0
  0
SCALE
  5
1583
102
{ACAD_REACTORS
330
1577
102
}
330
1577
100
AcDbScale
 70
     0
300
1:100
140
1.0
141
100.0
290
     0
  0
SCALE
  5
1584
102
{ACAD_REACTORS
330
1577
102
}
330
1577
100
AcDbScale
 70
     0
300
2:1
140
2.0
141
1.0
290
     0
  0
SCALE
  5
1585
102
{ACAD_REACTORS
330
1577
102
}
330
1577
100
AcDbScale
 70
     0
300
4:1
140
4.0
141
1.0
290
     0
  0
SCALE
  5
1586
102
{ACAD_REACTORS
330
1577
102
}
330
1577
100
AcDbScale
 70
     0
300
8:1
140
8.0
141
1.0
290
     0
  0
SCALE
  5
1587
102
{ACAD_REACTORS
330
1577
102
}
330
1577
100
AcDbScale
 70
     0
300
10:1
140
10.0
141
1.0
290
     0
  0
SCALE
  5
1588
102
{ACAD_REACTORS
330
1577
102
}
330
1577
100
AcDbScale
 70
     0
300
100:1
140
100.0
141
1.0
290
     0
  0
SCALE
  5
1589
102
{ACAD_REACTORS
330
1577
102
}
330
1577
100
AcDbScale
 70
     0
300
1/128" = 1'-0"
140
0.0078125
141
12.0
290
     0
  0
SCALE
  5
158A
102
{ACAD_REACTORS
330
1577
102
}
330
1577
100
AcDbScale
 70
     0
300
1/64" = 1'-0"
140
0.015625
141
12.0
290
     0
  0
SCALE
  5
158B
102
{ACAD_REACTORS
330
1577
102
}
330
1577
100
AcDbScale
 70
     0
300
1/32" = 1'-0"
140
0.03125
141
12.0
290
     0
  0
SCALE
  5
158C
102
{ACAD_REACTORS
330
1577
102
}
330
1577
100
AcDbScale
 70
     0
300
1/16" = 1'-0"
140
0.0625
141
12.0
290
     0
  0
SCALE
  5
158D
102
{ACAD_REACTORS
330
1577
102
}
330
1577
100
AcDbScale
 70
     0
300
3/32" = 1'-0"
140
0.09375
141
12.0
290
     0
  0
SCALE
  5
158E
102
{ACAD_REACTORS
330
1577
102
}
330
1577
100
AcDbScale
 70
     0
300
1/8" = 1'-0"
140
0.125
141
12.0
290
     0
  0
SCALE
  5
158F
102
{ACAD_REACTORS
330
1577
102
}
330
1577
100
AcDbScale
 70
     0
300
3/16" = 1'-0"
140
0.1875
141
12.0
290
     0
  0
SCALE
  5
1590
102
{ACAD_REACTORS
330
1577
102
}
330
1577
100
AcDbScale
 70
     0
300
1/4" = 1'-0"
140
0.25
141
12.0
290
     0
  0
SCALE
  5
1591
102
{ACAD_REACTORS
330
1577
102
}
330
1577
100
AcDbScale
 70
     0
300
3/8" = 1'-0"
140
0.375
141
12.0
290
     0
  0
SCALE
  5
1592
102
{ACAD_REACTORS
330
1577
102
}
330
1577
100
AcDbScale
 70
     0
300
1/2" = 1'-0"
140
0.5
141
12.0
290
     0
  0
SCALE
  5
1593
102
{ACAD_REACTORS
330
1577
102
}
330
1577
100
AcDbScale
 70
     0
300
3/4" = 1'-0"
140
0.75
141
12.0
290
     0
  0
SCALE
  5
1594
102
{ACAD_REACTORS
330
1577
102
}
330
1577
100
AcDbScale
 70
     0
300
1" = 1'-0"
140
1.0
141
12.0
290
     0
  0
SCALE
  5
1595
102
{ACAD_REACTORS
330
1577
102
}
330
1577
100
AcDbScale
 70
     0
300
1-1/2" = 1'-0"
140
1.5
141
12.0
290
     0
  0
SCALE
  5
1596
102
{ACAD_REACTORS
330
1577
102
}
330
1577
100
AcDbScale
 70
     0
300
3" = 1'-0"
140
3.0
141
12.0
290
     0
  0
SCALE
  5
1597
102
{ACAD_REACTORS
330
1577
102
}
330
1577
100
AcDbScale
 70
     0
300
6" = 1'-0"
140
6.0
141
12.0
290
     0
  0
SCALE
  5
1598
102
{ACAD_REACTORS
330
1577
102
}
330
1577
100
AcDbScale
 70
     0
300
1'-0" = 1'-0"
140
12.0
141
12.0
290
     0
  0
TABLESTYLE
  5
1576
102
{ACAD_XDICTIONARY
360
159B
102
}
102
{ACAD_REACTORS
330
1575
102
}
330
1575
100
AcDbTableStyle
  3
Standard
 70
     0
 71
     0
 40
0.06
 41
0.06
280
     0
281
     0
  7
STANDARD
140
0.18
170
     2
 62
     0
 63
     7
283
     0
 90
      512
 91
        0
  1

274
    -2
284
     1
 64
     0
275
    -2
285
     1
 65
     0
276
    -2
286
     1
 66
     0
277
    -2
287
     1
 67
     0
278
    -2
288
     1
 68
     0
279
    -2
289
     1
 69
     0
  7
STANDARD
140
0.25
170
     5
 62
     0
 63
     7
283
     0
 90
      512
 91
        0
  1

274
    -2
284
     1
 64
     0
275
    -2
285
     1
 65
     0
276
    -2
286
     1
 66
     0
277
    -2
287
     1
 67
     0
278
    -2
288
     1
 68
     0
279
    -2
289
     1
 69
     0
  7
STANDARD
140
0.18
170
     5
 62
     0
 63
     7
283
     0
 90
      512
 91
        0
  1

274
    -2
284
     1
 64
     0
275
    -2
285
     1
 65
     0
276
    -2
286
     1
 66
     0
277
    -2
287
     1
 67
     0
278
    -2
288
     1
 68
     0
279
    -2
289
     1
 69
     0
  0
VISUALSTYLE
  5
1566
102
{ACAD_XDICTIONARY
360
15B1
102
}
102
{ACAD_REACTORS
330
1560
102
}
330
1560
100
AcDbVisualStyle
  2
2dWireframe
 70
     4
 71
     0
 72
     2
 73
     0
 90
        0
 40
-0.6
 41
-30.0
 62
     5
 63
     7
 74
     1
 91
        4
 64
     7
 65
   257
 75
     1
175
     1
 42
1.0
 92
        0
 66
   257
 43
1.0
 76
     1
 77
     6
 78
     2
 67
     7
 79
     5
170
     0
171
     0
290
     0
174
     0
 93
        1
 44
0.0
173
     0
291
     0
 45
0.0
  0
VISUALSTYLE
  5
1568
102
{ACAD_XDICTIONARY
360
15B5
102
}
102
{ACAD_REACTORS
330
1560
102
}
330
1560
100
AcDbVisualStyle
  2
3D Hidden
 70
     6
 71
     1
 72
     2
 73
     2
 90
        0
 40
-0.6
 41
-30.0
 62
     5
 63
     7
 74
     2
 91
        2
 64
     7
 65
   257
 75
     2
175
     1
 42
179.0
 92
        0
 66
   257
 43
1.0
 76
     1
 77
     6
 78
     2
 67
     7
 79
     3
170
     0
171
     0
290
     0
174
     0
 93
        1
 44
0.0
173
     0
291
     0
 45
0.0
  0
VISUALSTYLE
  5
1567
102
{ACAD_XDICTIONARY
360
15B3
102
}
102
{ACAD_REACTORS
330
1560
102
}
330
1560
100
AcDbVisualStyle
  2
3dWireframe
 70
     5
 71
     0
 72
     2
 73
     0
 90
        0
 40
-0.6
 41
-30.0
 62
     5
 63
     7
 74
     1
 91
        4
 64
     7
 65
   257
 75
     1
175
     1
 42
1.0
 92
        0
 66
   257
 43
1.0
 76
     1
 77
     6
 78
     2
 67
     7
 79
     5
170
     0
171
     0
290
     0
174
     0
 93
        1
 44
0.0
173
     0
291
     0
 45
0.0
  0
VISUALSTYLE
  5
1565
102
{ACAD_XDICTIONARY
360
15AF
102
}
102
{ACAD_REACTORS
330
1560
102
}
330
1560
100
AcDbVisualStyle
  2
Basic
 70
     7
 71
     1
 72
     0
 73
     1
 90
        0
 40
-0.6
 41
-30.0
 62
     5
 63
     7
 74
     0
 91
        4
 64
     7
 65
   257
 75
     1
175
     1
 42
1.0
 92
        8
 66
     7
 43
1.0
 76
     1
 77
     6
 78
     2
 67
     7
 79
     5
170
     0
171
     0
290
     0
174
     0
 93
        1
 44
0.0
173
     0
291
     1
 45
0.0
  0
VISUALSTYLE
  5
156C
102
{ACAD_XDICTIONARY
360
15BD
102
}
102
{ACAD_REACTORS
330
1560
102
}
330
1560
100
AcDbVisualStyle
  2
Brighten
 70
    12
 71
     2
 72
     2
 73
     0
 90
        0
 40
-0.6
 41
-30.0
 62
     5
 63
     7
 74
     1
 91
        4
 64
     7
 65
   257
 75
     1
175
     1
 42
1.0
 92
        8
 66
     7
 43
1.0
 76
     1
 77
     6
 78
     2
 67
     7
 79
     5
170
     0
171
     0
290
     0
174
     0
 93
        1
 44
50.0
173
     0
291
     1
 45
0.0
  0
VISUALSTYLE
  5
1570
102
{ACAD_XDICTIONARY
360
15C5
102
}
102
{ACAD_REACTORS
330
1560
102
}
330
1560
100
AcDbVisualStyle
  2
ColorChange
 70
    16
 71
     2
 72
     2
 73
     3
 90
        0
 40
-0.6
 41
-30.0
 62
     5
 63
     8
 74
     1
 91
        4
 64
     7
 65
   257
 75
     1
175
     1
 42
1.0
 92
        8
 66
     8
 43
1.0
 76
     1
 77
     6
 78
     2
 67
     7
 79
     5
170
     0
171
     0
290
     0
174
     0
 93
        1
 44
0.0
173
     0
291
     1
 45
0.0
  0
VISUALSTYLE
  5
1569
102
{ACAD_XDICTIONARY
360
15B7
102
}
102
{ACAD_REACTORS
330
1560
102
}
330
1560
100
AcDbVisualStyle
  2
Conceptual
 70
     9
 71
     3
 72
     2
 73
     0
 90
        0
 40
-0.6
 41
-30.0
 62
     5
 63
     7
 74
     2
 91
        2
 64
     7
 65
   257
 75
     1
175
     1
 42
179.0
 92
        8
 66
     7
 43
1.0
 76
     1
 77
     6
 78
     2
 67
     7
 79
     3
170
     0
171
     0
290
     0
174
     0
 93
        1
 44
0.0
173
     0
291
     0
 45
0.0
  0
VISUALSTYLE
  5
156B
102
{ACAD_XDICTIONARY
360
15BB
102
}
102
{ACAD_REACTORS
330
1560
102
}
330
1560
100
AcDbVisualStyle
  2
Dim
 70
    11
 71
     2
 72
     2
 73
     0
 90
        0
 40
-0.6
 41
-30.0
 62
     5
 63
     7
 74
     1
 91
        4
 64
     7
 65
   257
 75
     1
175
     1
 42
1.0
 92
        8
 66
     7
 43
1.0
 76
     1
 77
     6
 78
     2
 67
     7
 79
     5
170
     0
171
     0
290
     0
174
     0
 93
        1
 44
-50.0
173
     0
291
     1
 45
0.0
  0
VISUALSTYLE
  5
1573
102
{ACAD_XDICTIONARY
360
15CB
102
}
102
{ACAD_REACTORS
330
1560
102
}
330
1560
100
AcDbVisualStyle
  2
EdgeColorOff
 70
    22
 71
     2
 72
     2
 73
     0
 90
        0
 40
-0.6
 41
-30.0
 62
     5
 63
     7
 74
     1
 91
        4
 64
     7
 65
   257
 75
     1
175
     1
 42
1.0
 92
        8
 66
     7
 43
1.0
 76
     1
 77
     6
 78
     2
 67
     7
 79
     5
170
     0
171
     0
290
     0
174
     0
 93
        1
 44
0.0
173
     0
291
     1
 45
0.0
  0
VISUALSTYLE
  5
156F
102
{ACAD_XDICTIONARY
360
15C3
102
}
102
{ACAD_REACTORS
330
1560
102
}
330
1560
100
AcDbVisualStyle
  2
Facepattern
 70
    15
 71
     2
 72
     2
 73
     0
 90
        0
 40
-0.6
 41
-30.0
 62
     5
 63
     7
 74
     1
 91
        4
 64
     7
 65
   257
 75
     1
175
     1
 42
1.0
 92
        8
 66
     7
 43
1.0
 76
     1
 77
     6
 78
     2
 67
     7
 79
     5
170
     0
171
     0
290
     0
174
     0
 93
        1
 44
0.0
173
     0
291
     1
 45
0.0
  0
VISUALSTYLE
  5
1561
102
{ACAD_XDICTIONARY
360
15A7
102
}
102
{ACAD_REACTORS
330
1560
102
}
330
1560
100
AcDbVisualStyle
  2
Flat
 70
     0
 71
     2
 72
     1
 73
     1
 90
        2
 40
-0.6
 41
30.0
 62
     5
 63
     7
 74
     0
 91
        4
 64
     7
 65
   257
 75
     1
175
     1
 42
1.0
 92
        8
 66
     7
 43
1.0
 76
     1
 77
     6
 78
     2
 67
     7
 79
     5
170
     0
171
     0
290
     0
174
     0
 93
       13
 44
0.0
173
     0
291
     1
 45
0.0
  0
VISUALSTYLE
  5
1562
102
{ACAD_XDICTIONARY
360
15A9
102
}
102
{ACAD_REACTORS
330
1560
102
}
330
1560
100
AcDbVisualStyle
  2
FlatWithEdges
 70
     1
 71
     2
 72
     1
 73
     1
 90
        2
 40
-0.6
 41
30.0
 62
     5
 63
     7
 74
     1
 91
        4
 64
     7
 65
   257
 75
     1
175
     1
 42
1.0
 92
        0
 66
   257
 43
1.0
 76
     1
 77
     6
 78
     2
 67
     7
 79
     5
170
     0
171
     0
290
     0
174
     0
 93
       13
 44
0.0
173
     0
291
     1
 45
0.0
  0
VISUALSTYLE
  5
1563
102
{ACAD_XDICTIONARY
360
15AB
102
}
102
{ACAD_REACTORS
330
1560
102
}
330
1560
100
AcDbVisualStyle
  2
Gouraud
 70
     2
 71
     2
 72
     2
 73
     1
 90
        2
 40
-0.6
 41
30.0
 62
     5
 63
     7
 74
     0
 91
        4
 64
     7
 65
   257
 75
     1
175
     1
 42
1.0
 92
        0
 66
     7
 43
1.0
 76
     1
 77
     6
 78
     2
 67
     7
 79
     5
170
     0
171
     0
290
     0
174
     0
 93
       13
 44
0.0
173
     0
291
     1
 45
0.0
  0
VISUALSTYLE
  5
1564
102
{ACAD_XDICTIONARY
360
15AD
102
}
102
{ACAD_REACTORS
330
1560
102
}
330
1560
100
AcDbVisualStyle
  2
GouraudWithEdges
 70
     3
 71
     2
 72
     2
 73
     1
 90
        2
 40
-0.6
 41
30.0
 62
     5
 63
     7
 74
     1
 91
        4
 64
     7
 65
   257
 75
     1
175
     1
 42
1.0
 92
        0
 66
   257
 43
1.0
 76
     1
 77
     6
 78
     2
 67
     7
 79
     5
170
     0
171
     0
290
     0
174
     0
 93
       13
 44
0.0
173
     0
291
     1
 45
0.0
  0
VISUALSTYLE
  5
1571
102
{ACAD_XDICTIONARY
360
15C7
102
}
102
{ACAD_REACTORS
330
1560
102
}
330
1560
100
AcDbVisualStyle
  2
JitterOff
 70
    20
 71
     2
 72
     2
 73
     0
 90
        0
 40
-0.6
 41
-30.0
 62
     5
 63
     7
 74
     1
 91
        4
 64
     7
 65
   257
 75
     1
175
     1
 42
1.0
 92
       10
 66
     7
 43
1.0
 76
     1
 77
     6
 78
     2
 67
     7
 79
     5
170
     0
171
     0
290
     0
174
     0
 93
        1
 44
0.0
173
     0
291
     1
 45
0.0
  0
VISUALSTYLE
  5
156E
102
{ACAD_XDICTIONARY
360
15C1
102
}
102
{ACAD_REACTORS
330
1560
102
}
330
1560
100
AcDbVisualStyle
  2
Linepattern
 70
    14
 71
     2
 72
     2
 73
     0
 90
        0
 40
-0.6
 41
-30.0
 62
     5
 63
     7
 74
     1
 91
        4
 64
     7
 65
   257
 75
     7
175
     7
 42
1.0
 92
        8
 66
     7
 43
1.0
 76
     1
 77
     6
 78
     2
 67
     7
 79
     5
170
     0
171
     0
290
     0
174
     0
 93
        1
 44
0.0
173
     0
291
     1
 45
0.0
  0
VISUALSTYLE
  5
1572
102
{ACAD_XDICTIONARY
360
15C9
102
}
102
{ACAD_REACTORS
330
1560
102
}
330
1560
100
AcDbVisualStyle
  2
OverhangOff
 70
    21
 71
     2
 72
     2
 73
     0
 90
        0
 40
-0.6
 41
-30.0
 62
     5
 63
     7
 74
     1
 91
        4
 64
     7
 65
   257
 75
     1
175
     1
 42
1.0
 92
        9
 66
     7
 43
1.0
 76
     1
 77
     6
 78
     2
 67
     7
 79
     5
170
     0
171
     0
290
     0
174
     0
 93
        1
 44
0.0
173
     0
291
     1
 45
0.0
  0
VISUALSTYLE
  5
156A
102
{ACAD_XDICTIONARY
360
15B9
102
}
102
{ACAD_REACTORS
330
1560
102
}
330
1560
100
AcDbVisualStyle
  2
Realistic
 70
     8
 71
     2
 72
     2
 73
     0
 90
        0
 40
-0.6
 41
-30.0
 62
     5
 63
     7
 74
     1
 91
        0
 64
     7
 65
   257
 75
     1
175
     1
 42
1.0
 92
        8
 66
     8
 43
1.0
 76
     1
 77
     6
 78
     2
 67
     7
 79
     5
170
     0
171
     0
290
     0
174
     0
 93
       13
 44
0.0
173
     0
291
     0
 45
0.0
  0
VISUALSTYLE
  5
156D
102
{ACAD_XDICTIONARY
360
15BF
102
}
102
{ACAD_REACTORS
330
1560
102
}
330
1560
100
AcDbVisualStyle
  2
Thicken
 70
    13
 71
     2
 72
     2
 73
     0
 90
        0
 40
-0.6
 41
-30.0
 62
     5
 63
     7
 74
     1
 91
        4
 64
     7
 65
   257
 75
     1
175
     1
 42
1.0
 92
       12
 66
     7
 43
1.0
 76
     1
 77
     6
 78
     2
 67
     7
 79
     5
170
     0
171
     0
290
     0
174
     0
 93
        1
 44
0.0
173
     0
291
     1
 45
0.0
  0
DICTIONARYVAR
  5
15D2
102
{ACAD_REACTORS
330
15CF
102
}
330
15CF
100
DictionaryVariables
280
     0
  1
1:1
  0
DICTIONARYVAR
  5
15D1
102
{ACAD_REACTORS
330
15CF
102
}
330
15CF
100
DictionaryVariables
280
     0
  1
STANDARD
  0
DICTIONARYVAR
  5
15D0
102
{ACAD_REACTORS
330
15CF
102
}
330
15CF
100
DictionaryVariables
280
     0
  1
STANDARD
  0
DICTIONARYVAR
  5
15D5
102
{ACAD_REACTORS
330
15CF
102
}
330
15CF
100
DictionaryVariables
280
     0
  1
1
  0
DICTIONARYVAR
  5
15D4
102
{ACAD_REACTORS
330
15CF
102
}
330
15CF
100
DictionaryVariables
280
     0
  1
0
  0
DICTIONARYVAR
  5
1635
102
{ACAD_REACTORS
330
15CF
102
}
330
15CF
100
DictionaryVariables
280
     0
  1
1
  0
DICTIONARYVAR
  5
1636
102
{ACAD_REACTORS
330
15CF
102
}
330
15CF
100
DictionaryVariables
280
     0
  1
15
  0
DICTIONARYVAR
  5
1634
102
{ACAD_REACTORS
330
15CF
102
}
330
15CF
100
DictionaryVariables
280
     0
  1
0
  0
DICTIONARYVAR
  5
1633
102
{ACAD_REACTORS
330
15CF
102
}
330
15CF
100
DictionaryVariables
280
     0
  1
0
  0
DICTIONARYVAR
  5
15D3
102
{ACAD_REACTORS
330
15CF
102
}
330
15CF
100
DictionaryVariables
280
     0
  1
127
  0
DICTIONARYVAR
  5
15D6
102
{ACAD_REACTORS
330
15CF
102
}
330
15CF
100
DictionaryVariables
280
     0
  1
2
  0
DICTIONARY
  5
1551
330
1550
100
AcDbDictionary
280
     1
281
     1
  3
BUMPTILE
360
1553
  3
DIFFUSETILE
360
1552
  3
OPACITYTILE
360
1556
  3
REFLECTIONTILE
360
1555
  3
REFRACTIONTILE
360
1557
  3
SPECULARTILE
360
1554
  0
DICTIONARY
  5
1549
330
1548
100
AcDbDictionary
280
     1
281
     1
  3
BUMPTILE
360
154B
  3
DIFFUSETILE
360
154A
  3
OPACITYTILE
360
154E
  3
REFLECTIONTILE
360
154D
  3
REFRACTIONTILE
360
154F
  3
SPECULARTILE
360
154C
  0
DICTIONARY
  5
1559
330
1558
100
AcDbDictionary
280
     1
281
     1
  3
BUMPTILE
360
155B
  3
DIFFUSETILE
360
155A
  3
OPACITYTILE
360
155E
  3
REFLECTIONTILE
360
155D
  3
REFRACTIONTILE
360
155F
  3
SPECULARTILE
360
155C
  0
DICTIONARY
  5
159B
330
1576
100
AcDbDictionary
280
     1
281
     1
  3
ACAD_ROUNDTRIP_2008_TABLESTYLE_CELLSTYLEMAP
360
1637
  0
DICTIONARY
  5
15B1
330
1566
100
AcDbDictionary
280
     1
281
     1
  3
ACAD_XREC_ROUNDTRIP
360
15B2
  0
DICTIONARY
  5
15B5
330
1568
100
AcDbDictionary
280
     1
281
     1
  3
ACAD_XREC_ROUNDTRIP
360
15B6
  0
DICTIONARY
  5
15B3
330
1567
100
AcDbDictionary
280
     1
281
     1
  3
ACAD_XREC_ROUNDTRIP
360
15B4
  0
DICTIONARY
  5
15AF
330
1565
100
AcDbDictionary
280
     1
281
     1
  3
ACAD_XREC_ROUNDTRIP
360
15B0
  0
DICTIONARY
  5
15BD
330
156C
100
AcDbDictionary
280
     1
281
     1
  3
ACAD_XREC_ROUNDTRIP
360
15BE
  0
DICTIONARY
  5
15C5
330
1570
100
AcDbDictionary
280
     1
281
     1
  3
ACAD_XREC_ROUNDTRIP
360
15C6
  0
DICTIONARY
  5
15B7
330
1569
100
AcDbDictionary
280
     1
281
     1
  3
ACAD_XREC_ROUNDTRIP
360
15B8
  0
DICTIONARY
  5
15BB
330
156B
100
AcDbDictionary
280
     1
281
     1
  3
ACAD_XREC_ROUNDTRIP
360
15BC
  0
DICTIONARY
  5
15CB
330
1573
100
AcDbDictionary
280
     1
281
     1
  3
ACAD_XREC_ROUNDTRIP
360
15CC
  0
DICTIONARY
  5
15C3
330
156F
100
AcDbDictionary
280
     1
281
     1
  3
ACAD_XREC_ROUNDTRIP
360
15C4
  0
DICTIONARY
  5
15A7
330
1561
100
AcDbDictionary
280
     1
281
     1
  3
ACAD_XREC_ROUNDTRIP
360
15A8
  0
DICTIONARY
  5
15A9
330
1562
100
AcDbDictionary
280
     1
281
     1
  3
ACAD_XREC_ROUNDTRIP
360
15AA
  0
DICTIONARY
  5
15AB
330
1563
100
AcDbDictionary
280
     1
281
     1
  3
ACAD_XREC_ROUNDTRIP
360
15AC
  0
DICTIONARY
  5
15AD
330
1564
100
AcDbDictionary
280
     1
281
     1
  3
ACAD_XREC_ROUNDTRIP
360
15AE
  0
DICTIONARY
  5
15C7
330
1571
100
AcDbDictionary
280
     1
281
     1
  3
ACAD_XREC_ROUNDTRIP
360
15C8
  0
DICTIONARY
  5
15C1
330
156E
100
AcDbDictionary
280
     1
281
     1
  3
ACAD_XREC_ROUNDTRIP
360
15C2
  0
DICTIONARY
  5
15C9
330
1572
100
AcDbDictionary
280
     1
281
     1
  3
ACAD_XREC_ROUNDTRIP
360
15CA
  0
DICTIONARY
  5
15B9
330
156A
100
AcDbDictionary
280
     1
281
     1
  3
ACAD_XREC_ROUNDTRIP
360
15BA
  0
DICTIONARY
  5
15BF
330
156D
100
AcDbDictionary
280
     1
281
     1
  3
ACAD_XREC_ROUNDTRIP
360
15C0
  0
XRECORD
  5
1553
102
{ACAD_REACTORS
330
1551
102
}
330
1551
100
AcDbXrecord
280
     1
270
     1
271
     1
  0
XRECORD
  5
1552
102
{ACAD_REACTORS
330
1551
102
}
330
1551
100
AcDbXrecord
280
     1
270
     1
271
     1
  0
XRECORD
  5
1556
102
{ACAD_REACTORS
330
1551
102
}
330
1551
100
AcDbXrecord
280
     1
270
     1
271
     1
  0
XRECORD
  5
1555
102
{ACAD_REACTORS
330
1551
102
}
330
1551
100
AcDbXrecord
280
     1
270
     1
271
     1
  0
XRECORD
  5
1557
102
{ACAD_REACTORS
330
1551
102
}
330
1551
100
AcDbXrecord
280
     1
270
     1
271
     1
  0
XRECORD
  5
1554
102
{ACAD_REACTORS
330
1551
102
}
330
1551
100
AcDbXrecord
280
     1
270
     1
271
     1
  0
XRECORD
  5
154B
102
{ACAD_REACTORS
330
1549
102
}
330
1549
100
AcDbXrecord
280
     1
270
     1
271
     1
  0
XRECORD
  5
154A
102
{ACAD_REACTORS
330
1549
102
}
330
1549
100
AcDbXrecord
280
     1
270
     1
271
     1
  0
XRECORD
  5
154E
102
{ACAD_REACTORS
330
1549
102
}
330
1549
100
AcDbXrecord
280
     1
270
     1
271
     1
  0
XRECORD
  5
154D
102
{ACAD_REACTORS
330
1549
102
}
330
1549
100
AcDbXrecord
280
     1
270
     1
271
     1
  0
XRECORD
  5
154F
102
{ACAD_REACTORS
330
1549
102
}
330
1549
100
AcDbXrecord
280
     1
270
     1
271
     1
  0
XRECORD
  5
154C
102
{ACAD_REACTORS
330
1549
102
}
330
1549
100
AcDbXrecord
280
     1
270
     1
271
     1
  0
XRECORD
  5
155B
102
{ACAD_REACTORS
330
1559
102
}
330
1559
100
AcDbXrecord
280
     1
270
     1
271
     1
  0
XRECORD
  5
155A
102
{ACAD_REACTORS
330
1559
102
}
330
1559
100
AcDbXrecord
280
     1
270
     1
271
     1
  0
XRECORD
  5
155E
102
{ACAD_REACTORS
330
1559
102
}
330
1559
100
AcDbXrecord
280
     1
270
     1
271
     1
  0
XRECORD
  5
155D
102
{ACAD_REACTORS
330
1559
102
}
330
1559
100
AcDbXrecord
280
     1
270
     1
271
     1
  0
XRECORD
  5
155F
102
{ACAD_REACTORS
330
1559
102
}
330
1559
100
AcDbXrecord
280
     1
270
     1
271
     1
  0
XRECORD
  5
155C
102
{ACAD_REACTORS
330
1559
102
}
330
1559
100
AcDbXrecord
280
     1
270
     1
271
     1
  0
CELLSTYLEMAP
  5
1637
102
{ACAD_REACTORS
330
159B
102
}
330
159B
100
AcDbCellStyleMap
 90
        3
300
CELLSTYLE
  1
TABLEFORMAT_BEGIN
 90
        5
170
     1
 91
        0
 92
    32768
 62
   257
 93
        1
300
CONTENTFORMAT
  1
CONTENTFORMAT_BEGIN
 90
        0
 91
        0
 92
      512
 93
        0
300

 40
0.0
140
1.0
 94
        5
 62
     0
340
11
144
0.25
309
CONTENTFORMAT_END
171
     0
 94
        0
309
TABLEFORMAT_END
  1
CELLSTYLE_BEGIN
 90
        1
 91
        1
300
_TITLE
309
CELLSTYLE_END
300
CELLSTYLE
  1
TABLEFORMAT_BEGIN
 90
        5
170
     1
 91
        0
 92
        0
 62
   257
 93
        1
300
CONTENTFORMAT
  1
CONTENTFORMAT_BEGIN
 90
        0
 91
        0
 92
      512
 93
        0
300

 40
0.0
140
1.0
 94
        5
 62
     0
340
11
144
0.18
309
CONTENTFORMAT_END
171
     0
 94
        0
309
TABLEFORMAT_END
  1
CELLSTYLE_BEGIN
 90
        2
 91
        1
300
_HEADER
309
CELLSTYLE_END
300
CELLSTYLE
  1
TABLEFORMAT_BEGIN
 90
        5
170
     1
 91
        0
 92
        0
 62
   257
 93
        1
300
CONTENTFORMAT
  1
CONTENTFORMAT_BEGIN
 90
        0
 91
        0
 92
      512
 93
        0
300

 40
0.0
140
1.0
 94
        2
 62
     0
340
11
144
0.18
309
CONTENTFORMAT_END
171
     0
 94
        0
309
TABLEFORMAT_END
  1
CELLSTYLE_BEGIN
 90
        3
 91
        2
300
_DATA
309
CELLSTYLE_END
  0
XRECORD
  5
15B2
102
{ACAD_REACTORS
330
15B1
102
}
330
15B1
100
AcDbXrecord
280
     1
102
RTVSPropertyOp0
 70
     1
102
RTVSPropertyOp1
 70
     1
102
RTVSPropertyOp2
 70
     1
102
RTVSPropertyOp3
 70
     1
102
RTVSPropertyOp4
 70
     1
102
RTVSPropertyOp5
 70
     1
102
RTVSPropertyOp6
 70
     1
102
RTVSPropertyOp7
 70
     1
102
RTVSPropertyOp8
 70
     1
102
RTVSPropertyOp9
 70
     1
102
RTVSPropertyOp10
 70
     1
102
RTVSPropertyOp11
 70
     1
102
RTVSPropertyOp12
 70
     1
102
RTVSPropertyOp13
 70
     1
102
RTVSPropertyOp14
 70
     1
102
RTVSPropertyOp15
 70
     1
102
RTVSPropertyOp16
 70
     1
102
RTVSPropertyOp17
 70
     1
102
RTVSPropertyOp18
 70
     1
102
RTVSPropertyOp19
 70
     1
102
RTVSPropertyOp20
 70
     1
102
RTVSPropertyOp21
 70
     1
102
RTVSPropertyOp22
 70
     1
102
RTVSPropertyOp23
 70
     1
102
RTVSPropertyOp24
 70
     1
102
RTVSPropertyOp25
 70
     1
102
RTVSPropertyOp26
 70
     1
102
RTVSPropertyOp27
 70
     1
  0
XRECORD
  5
15B6
102
{ACAD_REACTORS
330
15B5
102
}
330
15B5
100
AcDbXrecord
280
     1
102
RTVSPropertyOp0
 70
     1
102
RTVSPropertyOp1
 70
     1
102
RTVSPropertyOp2
 70
     1
102
RTVSPropertyOp3
 70
     1
102
RTVSPropertyOp4
 70
     1
102
RTVSPropertyOp5
 70
     1
102
RTVSPropertyOp6
 70
     1
102
RTVSPropertyOp7
 70
     1
102
RTVSPropertyOp8
 70
     1
102
RTVSPropertyOp9
 70
     1
102
RTVSPropertyOp10
 70
     1
102
RTVSPropertyOp11
 70
     1
102
RTVSPropertyOp12
 70
     1
102
RTVSPropertyOp13
 70
     1
102
RTVSPropertyOp14
 70
     1
102
RTVSPropertyOp15
 70
     1
102
RTVSPropertyOp16
 70
     1
102
RTVSPropertyOp17
 70
     1
102
RTVSPropertyOp18
 70
     1
102
RTVSPropertyOp19
 70
     1
102
RTVSPropertyOp20
 70
     1
102
RTVSPropertyOp21
 70
     1
102
RTVSPropertyOp22
 70
     1
102
RTVSPropertyOp23
 70
     1
102
RTVSPropertyOp24
 70
     1
102
RTVSPropertyOp25
 70
     1
102
RTVSPropertyOp26
 70
     1
102
RTVSPropertyOp27
 70
     1
  0
XRECORD
  5
15B4
102
{ACAD_REACTORS
330
15B3
102
}
330
15B3
100
AcDbXrecord
280
     1
102
RTVSPropertyOp0
 70
     1
102
RTVSPropertyOp1
 70
     1
102
RTVSPropertyOp2
 70
     1
102
RTVSPropertyOp3
 70
     1
102
RTVSPropertyOp4
 70
     1
102
RTVSPropertyOp5
 70
     1
102
RTVSPropertyOp6
 70
     1
102
RTVSPropertyOp7
 70
     1
102
RTVSPropertyOp8
 70
     1
102
RTVSPropertyOp9
 70
     1
102
RTVSPropertyOp10
 70
     1
102
RTVSPropertyOp11
 70
     1
102
RTVSPropertyOp12
 70
     1
102
RTVSPropertyOp13
 70
     1
102
RTVSPropertyOp14
 70
     1
102
RTVSPropertyOp15
 70
     1
102
RTVSPropertyOp16
 70
     1
102
RTVSPropertyOp17
 70
     1
102
RTVSPropertyOp18
 70
     1
102
RTVSPropertyOp19
 70
     1
102
RTVSPropertyOp20
 70
     1
102
RTVSPropertyOp21
 70
     1
102
RTVSPropertyOp22
 70
     1
102
RTVSPropertyOp23
 70
     1
102
RTVSPropertyOp24
 70
     1
102
RTVSPropertyOp25
 70
     1
102
RTVSPropertyOp26
 70
     1
102
RTVSPropertyOp27
 70
     1
  0
XRECORD
  5
15B0
102
{ACAD_REACTORS
330
15AF
102
}
330
15AF
100
AcDbXrecord
280
     1
102
RTVSPropertyOp0
 70
     1
102
RTVSPropertyOp1
 70
     1
102
RTVSPropertyOp2
 70
     1
102
RTVSPropertyOp3
 70
     1
102
RTVSPropertyOp4
 70
     1
102
RTVSPropertyOp5
 70
     1
102
RTVSPropertyOp6
 70
     1
102
RTVSPropertyOp7
 70
     1
102
RTVSPropertyOp8
 70
     1
102
RTVSPropertyOp9
 70
     1
102
RTVSPropertyOp10
 70
     1
102
RTVSPropertyOp11
 70
     1
102
RTVSPropertyOp12
 70
     1
102
RTVSPropertyOp13
 70
     1
102
RTVSPropertyOp14
 70
     1
102
RTVSPropertyOp15
 70
     1
102
RTVSPropertyOp16
 70
     1
102
RTVSPropertyOp17
 70
     1
102
RTVSPropertyOp18
 70
     1
102
RTVSPropertyOp19
 70
     1
102
RTVSPropertyOp20
 70
     1
102
RTVSPropertyOp21
 70
     1
102
RTVSPropertyOp22
 70
     1
102
RTVSPropertyOp23
 70
     1
102
RTVSPropertyOp24
 70
     1
102
RTVSPropertyOp25
 70
     1
102
RTVSPropertyOp26
 70
     1
102
RTVSPropertyOp27
 70
     1
  0
XRECORD
  5
15BE
102
{ACAD_REACTORS
330
15BD
102
}
330
15BD
100
AcDbXrecord
280
     1
102
RTVSPropertyOp0
 70
     1
102
RTVSPropertyOp1
 70
     1
102
RTVSPropertyOp2
 70
     1
102
RTVSPropertyOp3
 70
     1
102
RTVSPropertyOp4
 70
     1
102
RTVSPropertyOp5
 70
     1
102
RTVSPropertyOp6
 70
     1
102
RTVSPropertyOp7
 70
     1
102
RTVSPropertyOp8
 70
     1
102
RTVSPropertyOp9
 70
     1
102
RTVSPropertyOp10
 70
     1
102
RTVSPropertyOp11
 70
     1
102
RTVSPropertyOp12
 70
     1
102
RTVSPropertyOp13
 70
     1
102
RTVSPropertyOp14
 70
     1
102
RTVSPropertyOp15
 70
     1
102
RTVSPropertyOp16
 70
     1
102
RTVSPropertyOp17
 70
     1
102
RTVSPropertyOp18
 70
     1
102
RTVSPropertyOp19
 70
     1
102
RTVSPropertyOp20
 70
     1
102
RTVSPropertyOp21
 70
     1
102
RTVSPropertyOp22
 70
     1
102
RTVSPropertyOp23
 70
     1
102
RTVSPropertyOp24
 70
     1
102
RTVSPropertyOp25
 70
     1
102
RTVSPropertyOp26
 70
     1
102
RTVSPropertyOp27
 70
     1
  0
XRECORD
  5
15C6
102
{ACAD_REACTORS
330
15C5
102
}
330
15C5
100
AcDbXrecord
280
     1
102
RTVSPropertyOp0
 70
     1
102
RTVSPropertyOp1
 70
     1
102
RTVSPropertyOp2
 70
     1
102
RTVSPropertyOp3
 70
     1
102
RTVSPropertyOp4
 70
     1
102
RTVSPropertyOp5
 70
     1
102
RTVSPropertyOp6
 70
     1
102
RTVSPropertyOp7
 70
     1
102
RTVSPropertyOp8
 70
     1
102
RTVSPropertyOp9
 70
     1
102
RTVSPropertyOp10
 70
     1
102
RTVSPropertyOp11
 70
     1
102
RTVSPropertyOp12
 70
     1
102
RTVSPropertyOp13
 70
     1
102
RTVSPropertyOp14
 70
     1
102
RTVSPropertyOp15
 70
     1
102
RTVSPropertyOp16
 70
     1
102
RTVSPropertyOp17
 70
     1
102
RTVSPropertyOp18
 70
     1
102
RTVSPropertyOp19
 70
     1
102
RTVSPropertyOp20
 70
     1
102
RTVSPropertyOp21
 70
     1
102
RTVSPropertyOp22
 70
     1
102
RTVSPropertyOp23
 70
     1
102
RTVSPropertyOp24
 70
     1
102
RTVSPropertyOp25
 70
     1
102
RTVSPropertyOp26
 70
     1
102
RTVSPropertyOp27
 70
     1
  0
XRECORD
  5
15B8
102
{ACAD_REACTORS
330
15B7
102
}
330
15B7
100
AcDbXrecord
280
     1
102
RTVSPropertyOp0
 70
     1
102
RTVSPropertyOp1
 70
     1
102
RTVSPropertyOp2
 70
     1
102
RTVSPropertyOp3
 70
     1
102
RTVSPropertyOp4
 70
     1
102
RTVSPropertyOp5
 70
     1
102
RTVSPropertyOp6
 70
     1
102
RTVSPropertyOp7
 70
     1
102
RTVSPropertyOp8
 70
     1
102
RTVSPropertyOp9
 70
     1
102
RTVSPropertyOp10
 70
     1
102
RTVSPropertyOp11
 70
     1
102
RTVSPropertyOp12
 70
     1
102
RTVSPropertyOp13
 70
     1
102
RTVSPropertyOp14
 70
     1
102
RTVSPropertyOp15
 70
     1
102
RTVSPropertyOp16
 70
     1
102
RTVSPropertyOp17
 70
     1
102
RTVSPropertyOp18
 70
     1
102
RTVSPropertyOp19
 70
     1
102
RTVSPropertyOp20
 70
     1
102
RTVSPropertyOp21
 70
     1
102
RTVSPropertyOp22
 70
     1
102
RTVSPropertyOp23
 70
     1
102
RTVSPropertyOp24
 70
     1
102
RTVSPropertyOp25
 70
     1
102
RTVSPropertyOp26
 70
     1
102
RTVSPropertyOp27
 70
     1
  0
XRECORD
  5
15BC
102
{ACAD_REACTORS
330
15BB
102
}
330
15BB
100
AcDbXrecord
280
     1
102
RTVSPropertyOp0
 70
     1
102
RTVSPropertyOp1
 70
     1
102
RTVSPropertyOp2
 70
     1
102
RTVSPropertyOp3
 70
     1
102
RTVSPropertyOp4
 70
     1
102
RTVSPropertyOp5
 70
     1
102
RTVSPropertyOp6
 70
     1
102
RTVSPropertyOp7
 70
     1
102
RTVSPropertyOp8
 70
     1
102
RTVSPropertyOp9
 70
     1
102
RTVSPropertyOp10
 70
     1
102
RTVSPropertyOp11
 70
     1
102
RTVSPropertyOp12
 70
     1
102
RTVSPropertyOp13
 70
     1
102
RTVSPropertyOp14
 70
     1
102
RTVSPropertyOp15
 70
     1
102
RTVSPropertyOp16
 70
     1
102
RTVSPropertyOp17
 70
     1
102
RTVSPropertyOp18
 70
     1
102
RTVSPropertyOp19
 70
     1
102
RTVSPropertyOp20
 70
     1
102
RTVSPropertyOp21
 70
     1
102
RTVSPropertyOp22
 70
     1
102
RTVSPropertyOp23
 70
     1
102
RTVSPropertyOp24
 70
     1
102
RTVSPropertyOp25
 70
     1
102
RTVSPropertyOp26
 70
     1
102
RTVSPropertyOp27
 70
     1
  0
XRECORD
  5
15CC
102
{ACAD_REACTORS
330
15CB
102
}
330
15CB
100
AcDbXrecord
280
     1
102
RTVSPropertyOp0
 70
     0
102
RTVSPropertyOp1
 70
     0
102
RTVSPropertyOp2
 70
     0
102
RTVSPropertyOp3
 70
     0
102
RTVSPropertyOp4
 70
     0
102
RTVSPropertyOp5
 70
     0
102
RTVSPropertyOp6
 70
     0
102
RTVSPropertyOp7
 70
     0
102
RTVSPropertyOp8
 70
     0
102
RTVSPropertyOp9
 70
     0
102
RTVSPropertyOp10
 70
     0
102
RTVSPropertyOp11
 70
     0
102
RTVSPropertyOp12
 70
     0
102
RTVSPropertyOp13
 70
     0
102
RTVSPropertyOp14
 70
     2
102
RTVSPropertyOp15
 70
     0
102
RTVSPropertyOp16
 70
     0
102
RTVSPropertyOp17
 70
     0
102
RTVSPropertyOp18
 70
     0
102
RTVSPropertyOp19
 70
     0
102
RTVSPropertyOp20
 70
     0
102
RTVSPropertyOp21
 70
     0
102
RTVSPropertyOp22
 70
     0
102
RTVSPropertyOp23
 70
     0
102
RTVSPropertyOp24
 70
     0
102
RTVSPropertyOp25
 70
     0
102
RTVSPropertyOp26
 70
     0
102
RTVSPropertyOp27
 70
     0
  0
XRECORD
  5
15C4
102
{ACAD_REACTORS
330
15C3
102
}
330
15C3
100
AcDbXrecord
280
     1
102
RTVSPropertyOp0
 70
     1
102
RTVSPropertyOp1
 70
     1
102
RTVSPropertyOp2
 70
     1
102
RTVSPropertyOp3
 70
     1
102
RTVSPropertyOp4
 70
     1
102
RTVSPropertyOp5
 70
     1
102
RTVSPropertyOp6
 70
     1
102
RTVSPropertyOp7
 70
     1
102
RTVSPropertyOp8
 70
     1
102
RTVSPropertyOp9
 70
     1
102
RTVSPropertyOp10
 70
     1
102
RTVSPropertyOp11
 70
     1
102
RTVSPropertyOp12
 70
     1
102
RTVSPropertyOp13
 70
     1
102
RTVSPropertyOp14
 70
     1
102
RTVSPropertyOp15
 70
     1
102
RTVSPropertyOp16
 70
     1
102
RTVSPropertyOp17
 70
     1
102
RTVSPropertyOp18
 70
     1
102
RTVSPropertyOp19
 70
     1
102
RTVSPropertyOp20
 70
     1
102
RTVSPropertyOp21
 70
     1
102
RTVSPropertyOp22
 70
     1
102
RTVSPropertyOp23
 70
     1
102
RTVSPropertyOp24
 70
     1
102
RTVSPropertyOp25
 70
     1
102
RTVSPropertyOp26
 70
     1
102
RTVSPropertyOp27
 70
     1
  0
XRECORD
  5
15A8
102
{ACAD_REACTORS
330
15A7
102
}
330
15A7
100
AcDbXrecord
280
     1
102
RTVSPropertyOp0
 70
     1
102
RTVSPropertyOp1
 70
     1
102
RTVSPropertyOp2
 70
     1
102
RTVSPropertyOp3
 70
     1
102
RTVSPropertyOp4
 70
     1
102
RTVSPropertyOp5
 70
     1
102
RTVSPropertyOp6
 70
     1
102
RTVSPropertyOp7
 70
     1
102
RTVSPropertyOp8
 70
     1
102
RTVSPropertyOp9
 70
     1
102
RTVSPropertyOp10
 70
     1
102
RTVSPropertyOp11
 70
     1
102
RTVSPropertyOp12
 70
     1
102
RTVSPropertyOp13
 70
     1
102
RTVSPropertyOp14
 70
     1
102
RTVSPropertyOp15
 70
     1
102
RTVSPropertyOp16
 70
     1
102
RTVSPropertyOp17
 70
     1
102
RTVSPropertyOp18
 70
     1
102
RTVSPropertyOp19
 70
     1
102
RTVSPropertyOp20
 70
     1
102
RTVSPropertyOp21
 70
     1
102
RTVSPropertyOp22
 70
     1
102
RTVSPropertyOp23
 70
     1
102
RTVSPropertyOp24
 70
     1
102
RTVSPropertyOp25
 70
     1
102
RTVSPropertyOp26
 70
     1
102
RTVSPropertyOp27
 70
     1
  0
XRECORD
  5
15AA
102
{ACAD_REACTORS
330
15A9
102
}
330
15A9
100
AcDbXrecord
280
     1
102
RTVSPropertyOp0
 70
     1
102
RTVSPropertyOp1
 70
     1
102
RTVSPropertyOp2
 70
     1
102
RTVSPropertyOp3
 70
     1
102
RTVSPropertyOp4
 70
     1
102
RTVSPropertyOp5
 70
     1
102
RTVSPropertyOp6
 70
     1
102
RTVSPropertyOp7
 70
     1
102
RTVSPropertyOp8
 70
     1
102
RTVSPropertyOp9
 70
     1
102
RTVSPropertyOp10
 70
     1
102
RTVSPropertyOp11
 70
     1
102
RTVSPropertyOp12
 70
     1
102
RTVSPropertyOp13
 70
     1
102
RTVSPropertyOp14
 70
     1
102
RTVSPropertyOp15
 70
     1
102
RTVSPropertyOp16
 70
     1
102
RTVSPropertyOp17
 70
     1
102
RTVSPropertyOp18
 70
     1
102
RTVSPropertyOp19
 70
     1
102
RTVSPropertyOp20
 70
     1
102
RTVSPropertyOp21
 70
     1
102
RTVSPropertyOp22
 70
     1
102
RTVSPropertyOp23
 70
     1
102
RTVSPropertyOp24
 70
     1
102
RTVSPropertyOp25
 70
     1
102
RTVSPropertyOp26
 70
     1
102
RTVSPropertyOp27
 70
     1
  0
XRECORD
  5
15AC
102
{ACAD_REACTORS
330
15AB
102
}
330
15AB
100
AcDbXrecord
280
     1
102
RTVSPropertyOp0
 70
     1
102
RTVSPropertyOp1
 70
     1
102
RTVSPropertyOp2
 70
     1
102
RTVSPropertyOp3
 70
     1
102
RTVSPropertyOp4
 70
     1
102
RTVSPropertyOp5
 70
     1
102
RTVSPropertyOp6
 70
     1
102
RTVSPropertyOp7
 70
     1
102
RTVSPropertyOp8
 70
     1
102
RTVSPropertyOp9
 70
     1
102
RTVSPropertyOp10
 70
     1
102
RTVSPropertyOp11
 70
     1
102
RTVSPropertyOp12
 70
     1
102
RTVSPropertyOp13
 70
     1
102
RTVSPropertyOp14
 70
     1
102
RTVSPropertyOp15
 70
     1
102
RTVSPropertyOp16
 70
     1
102
RTVSPropertyOp17
 70
     1
102
RTVSPropertyOp18
 70
     1
102
RTVSPropertyOp19
 70
     1
102
RTVSPropertyOp20
 70
     1
102
RTVSPropertyOp21
 70
     1
102
RTVSPropertyOp22
 70
     1
102
RTVSPropertyOp23
 70
     1
102
RTVSPropertyOp24
 70
     1
102
RTVSPropertyOp25
 70
     1
102
RTVSPropertyOp26
 70
     1
102
RTVSPropertyOp27
 70
     1
  0
XRECORD
  5
15AE
102
{ACAD_REACTORS
330
15AD
102
}
330
15AD
100
AcDbXrecord
280
     1
102
RTVSPropertyOp0
 70
     1
102
RTVSPropertyOp1
 70
     1
102
RTVSPropertyOp2
 70
     1
102
RTVSPropertyOp3
 70
     1
102
RTVSPropertyOp4
 70
     1
102
RTVSPropertyOp5
 70
     1
102
RTVSPropertyOp6
 70
     1
102
RTVSPropertyOp7
 70
     1
102
RTVSPropertyOp8
 70
     1
102
RTVSPropertyOp9
 70
     1
102
RTVSPropertyOp10
 70
     1
102
RTVSPropertyOp11
 70
     1
102
RTVSPropertyOp12
 70
     1
102
RTVSPropertyOp13
 70
     1
102
RTVSPropertyOp14
 70
     1
102
RTVSPropertyOp15
 70
     1
102
RTVSPropertyOp16
 70
     1
102
RTVSPropertyOp17
 70
     1
102
RTVSPropertyOp18
 70
     1
102
RTVSPropertyOp19
 70
     1
102
RTVSPropertyOp20
 70
     1
102
RTVSPropertyOp21
 70
     1
102
RTVSPropertyOp22
 70
     1
102
RTVSPropertyOp23
 70
     1
102
RTVSPropertyOp24
 70
     1
102
RTVSPropertyOp25
 70
     1
102
RTVSPropertyOp26
 70
     1
102
RTVSPropertyOp27
 70
     1
  0
XRECORD
  5
15C8
102
{ACAD_REACTORS
330
15C7
102
}
330
15C7
100
AcDbXrecord
280
     1
102
RTVSPropertyOp0
 70
     0
102
RTVSPropertyOp1
 70
     0
102
RTVSPropertyOp2
 70
     0
102
RTVSPropertyOp3
 70
     0
102
RTVSPropertyOp4
 70
     0
102
RTVSPropertyOp5
 70
     0
102
RTVSPropertyOp6
 70
     0
102
RTVSPropertyOp7
 70
     0
102
RTVSPropertyOp8
 70
     0
102
RTVSPropertyOp9
 70
     0
102
RTVSPropertyOp10
 70
     0
102
RTVSPropertyOp11
 70
     0
102
RTVSPropertyOp12
 70
     0
102
RTVSPropertyOp13
 70
     0
102
RTVSPropertyOp14
 70
     2
102
RTVSPropertyOp15
 70
     0
102
RTVSPropertyOp16
 70
     0
102
RTVSPropertyOp17
 70
     0
102
RTVSPropertyOp18
 70
     0
102
RTVSPropertyOp19
 70
     0
102
RTVSPropertyOp20
 70
     0
102
RTVSPropertyOp21
 70
     0
102
RTVSPropertyOp22
 70
     0
102
RTVSPropertyOp23
 70
     0
102
RTVSPropertyOp24
 70
     0
102
RTVSPropertyOp25
 70
     0
102
RTVSPropertyOp26
 70
     0
102
RTVSPropertyOp27
 70
     0
  0
XRECORD
  5
15C2
102
{ACAD_REACTORS
330
15C1
102
}
330
15C1
100
AcDbXrecord
280
     1
102
RTVSPropertyOp0
 70
     1
102
RTVSPropertyOp1
 70
     1
102
RTVSPropertyOp2
 70
     1
102
RTVSPropertyOp3
 70
     1
102
RTVSPropertyOp4
 70
     1
102
RTVSPropertyOp5
 70
     1
102
RTVSPropertyOp6
 70
     1
102
RTVSPropertyOp7
 70
     1
102
RTVSPropertyOp8
 70
     1
102
RTVSPropertyOp9
 70
     1
102
RTVSPropertyOp10
 70
     1
102
RTVSPropertyOp11
 70
     1
102
RTVSPropertyOp12
 70
     1
102
RTVSPropertyOp13
 70
     1
102
RTVSPropertyOp14
 70
     1
102
RTVSPropertyOp15
 70
     1
102
RTVSPropertyOp16
 70
     1
102
RTVSPropertyOp17
 70
     1
102
RTVSPropertyOp18
 70
     1
102
RTVSPropertyOp19
 70
     1
102
RTVSPropertyOp20
 70
     1
102
RTVSPropertyOp21
 70
     1
102
RTVSPropertyOp22
 70
     1
102
RTVSPropertyOp23
 70
     1
102
RTVSPropertyOp24
 70
     1
102
RTVSPropertyOp25
 70
     1
102
RTVSPropertyOp26
 70
     1
102
RTVSPropertyOp27
 70
     1
  0
XRECORD
  5
15CA
102
{ACAD_REACTORS
330
15C9
102
}
330
15C9
100
AcDbXrecord
280
     1
102
RTVSPropertyOp0
 70
     0
102
RTVSPropertyOp1
 70
     0
102
RTVSPropertyOp2
 70
     0
102
RTVSPropertyOp3
 70
     0
102
RTVSPropertyOp4
 70
     0
102
RTVSPropertyOp5
 70
     0
102
RTVSPropertyOp6
 70
     0
102
RTVSPropertyOp7
 70
     0
102
RTVSPropertyOp8
 70
     0
102
RTVSPropertyOp9
 70
     0
102
RTVSPropertyOp10
 70
     0
102
RTVSPropertyOp11
 70
     0
102
RTVSPropertyOp12
 70
     0
102
RTVSPropertyOp13
 70
     0
102
RTVSPropertyOp14
 70
     2
102
RTVSPropertyOp15
 70
     0
102
RTVSPropertyOp16
 70
     0
102
RTVSPropertyOp17
 70
     0
102
RTVSPropertyOp18
 70
     0
102
RTVSPropertyOp19
 70
     0
102
RTVSPropertyOp20
 70
     0
102
RTVSPropertyOp21
 70
     0
102
RTVSPropertyOp22
 70
     0
102
RTVSPropertyOp23
 70
     0
102
RTVSPropertyOp24
 70
     0
102
RTVSPropertyOp25
 70
     0
102
RTVSPropertyOp26
 70
     0
102
RTVSPropertyOp27
 70
     0
  0
XRECORD
  5
15BA
102
{ACAD_REACTORS
330
15B9
102
}
330
15B9
100
AcDbXrecord
280
     1
102
RTVSPropertyOp0
 70
     1
102
RTVSPropertyOp1
 70
     1
102
RTVSPropertyOp2
 70
     1
102
RTVSPropertyOp3
 70
     1
102
RTVSPropertyOp4
 70
     1
102
RTVSPropertyOp5
 70
     1
102
RTVSPropertyOp6
 70
     1
102
RTVSPropertyOp7
 70
     1
102
RTVSPropertyOp8
 70
     1
102
RTVSPropertyOp9
 70
     1
102
RTVSPropertyOp10
 70
     1
102
RTVSPropertyOp11
 70
     1
102
RTVSPropertyOp12
 70
     1
102
RTVSPropertyOp13
 70
     1
102
RTVSPropertyOp14
 70
     1
102
RTVSPropertyOp15
 70
     1
102
RTVSPropertyOp16
 70
     1
102
RTVSPropertyOp17
 70
     1
102
RTVSPropertyOp18
 70
     1
102
RTVSPropertyOp19
 70
     1
102
RTVSPropertyOp20
 70
     1
102
RTVSPropertyOp21
 70
     1
102
RTVSPropertyOp22
 70
     1
102
RTVSPropertyOp23
 70
     1
102
RTVSPropertyOp24
 70
     1
102
RTVSPropertyOp25
 70
     1
102
RTVSPropertyOp26
 70
     1
102
RTVSPropertyOp27
 70
     1
  0
XRECORD
  5
15C0
102
{ACAD_REACTORS
330
15BF
102
}
330
15BF
100
AcDbXrecord
280
     1
102
RTVSPropertyOp0
 70
     1
102
RTVSPropertyOp1
 70
     1
102
RTVSPropertyOp2
 70
     1
102
RTVSPropertyOp3
 70
     1
102
RTVSPropertyOp4
 70
     1
102
RTVSPropertyOp5
 70
     1
102
RTVSPropertyOp6
 70
     1
102
RTVSPropertyOp7
 70
     1
102
RTVSPropertyOp8
 70
     1
102
RTVSPropertyOp9
 70
     1
102
RTVSPropertyOp10
 70
     1
102
RTVSPropertyOp11
 70
     1
102
RTVSPropertyOp12
 70
     1
102
RTVSPropertyOp13
 70
     1
102
RTVSPropertyOp14
 70
     1
102
RTVSPropertyOp15
 70
     1
102
RTVSPropertyOp16
 70
     1
102
RTVSPropertyOp17
 70
     1
102
RTVSPropertyOp18
 70
     1
102
RTVSPropertyOp19
 70
     1
102
RTVSPropertyOp20
 70
     1
102
RTVSPropertyOp21
 70
     1
102
RTVSPropertyOp22
 70
     1
102
RTVSPropertyOp23
 70
     1
102
RTVSPropertyOp24
 70
     1
102
RTVSPropertyOp25
 70
     1
102
RTVSPropertyOp26
 70
     1
102
RTVSPropertyOp27
 70
     1
  0
ENDSEC
  0
EOF
