  0
SECTION
  2
HEADER
  9
$ACADVER
  1
AC1021
  9
$ACADMAINTVER
 70
    50
  9
$DWGCODEPAGE
  3
ANSI_1252
  9
$LASTSAVEDBY
  1
francoisbu
  9
$INSBASE
 10
0.0
 20
0.0
 30
0.0
  9
$EXTMIN
 10
17.59212283850962
 20
22.05371123635558
 30
-0.0015258207003583
  9
$EXTMAX
 10
81.68798858743214
 20
46.78759784729862
 30
0.0000000349246037
  9
$LIMMIN
 10
0.0
 20
0.0
  9
$LIMMAX
 10
181.3333333333
 20
117.3333333333
  9
$ORTHOMODE
 70
     0
  9
$REGENMODE
 70
     1
  9
$FILLMODE
 70
     1
  9
$QTEXTMODE
 70
     0
  9
$MIRRTEXT
 70
     0
  9
$LTSCALE
 40
9.973333333300001
  9
$ATTMODE
 70
     1
  9
$TEXTSIZE
 40
0.2
  9
$TRACEWID
 40
0.05
  9
$TEXTSTYLE
  7
STANDARD
  9
$CLAYER
  8
0
  9
$CELTYPE
  6
BYLAYER
  9
$CECOLOR
 62
   256
  9
$CELTSCALE
 40
1.0
  9
$DISPSILH
 70
     0
  9
$DIMSCALE
 40
1.0
  9
$DIMASZ
 40
2.0
  9
$DIMEXO
 40
0.0625
  9
$DIMDLI
 40
6.890666666699999
  9
$DIMRND
 40
0.0
  9
$DIMDLE
 40
0.0
  9
$DIMEXE
 40
0.125
  9
$DIMTP
 40
0.00001
  9
$DIMTM
 40
0.00001
  9
$DIMTXT
 40
1.333333333299999
  9
$DIMCEN
 40
1.631999999999999
  9
$DIMTSZ
 40
0.0
  9
$DIMTOL
 70
     1
  9
$DIMLIM
 70
     0
  9
$DIMTIH
 70
     1
  9
$DIMTOH
 70
     1
  9
$DIMSE1
 70
     0
  9
$DIMSE2
 70
     0
  9
$DIMTAD
 70
     0
  9
$DIMZIN
 70
     0
  9
$DIMBLK
  1
_FILLED
  9
$DIMASO
 70
     1
  9
$DIMSHO
 70
     1
  9
$DIMPOST
  1

  9
$DIMAPOST
  1

  9
$DIMALT
 70
     0
  9
$DIMALTD
 70
     2
  9
$DIMALTF
 40
25.4
  9
$DIMLFAC
 40
1.0
  9
$DIMTOFL
 70
     0
  9
$DIMTVP
 40
0.0
  9
$DIMTIX
 70
     0
  9
$DIMSOXD
 70
     0
  9
$DIMSAH
 70
     0
  9
$DIMBLK1
  1

  9
$DIMBLK2
  1

  9
$DIMSTYLE
  2
STANDARD
  9
$DIMCLRD
 70
     0
  9
$DIMCLRE
 70
     0
  9
$DIMCLRT
 70
     0
  9
$DIMTFAC
 40
1.0
  9
$DIMGAP
 40
0.09
  9
$DIMJUST
 70
     0
  9
$DIMSD1
 70
     0
  9
$DIMSD2
 70
     0
  9
$DIMTOLJ
 70
     1
  9
$DIMTZIN
 70
     0
  9
$DIMALTZ
 70
     0
  9
$DIMALTTZ
 70
     0
  9
$DIMUPT
 70
     0
  9
$DIMDEC
 70
     4
  9
$DIMTDEC
 70
     4
  9
$DIMALTU
 70
     2
  9
$DIMALTTD
 70
     2
  9
$DIMTXSTY
  7
STANDARD
  9
$DIMAUNIT
 70
     0
  9
$DIMADEC
 70
     0
  9
$DIMALTRND
 40
0.0
  9
$DIMAZIN
 70
     0
  9
$DIMDSEP
 70
    46
  9
$DIMATFIT
 70
     3
  9
$DIMFRAC
 70
     0
  9
$DIMLDRBLK
  1

  9
$DIMLUNIT
 70
     2
  9
$DIMLWD
 70
    -2
  9
$DIMLWE
 70
    -2
  9
$DIMTMOVE
 70
     0
  9
$DIMFXL
 40
1.0
  9
$DIMFXLON
 70
     0
  9
$DIMJOGANG
 40
0.7853981633974483
  9
$DIMTFILL
 70
     0
  9
$DIMTFILLCLR
 70
     0
  9
$DIMARCSYM
 70
     0
  9
$DIMLTYPE
  6

  9
$DIMLTEX1
  6

  9
$DIMLTEX2
  6

  9
$LUNITS
 70
     2
  9
$LUPREC
 70
     4
  9
$SKETCHINC
 40
0.1
  9
$FILLETRAD
 40
0.0
  9
$AUNITS
 70
     0
  9
$AUPREC
 70
     0
  9
$MENU
  1
.
  9
$ELEVATION
 40
0.0
  9
$PELEVATION
 40
0.0
  9
$THICKNESS
 40
0.0
  9
$LIMCHECK
 70
     0
  9
$CHAMFERA
 40
0.0
  9
$CHAMFERB
 40
0.0
  9
$CHAMFERC
 40
0.0
  9
$CHAMFERD
 40
0.0
  9
$SKPOLY
 70
     0
  9
$TDCREATE
 40
2456973.419096146
  9
$TDUCREATE
 40
2456973.627429480
  9
$TDUPDATE
 40
2456973.452508438
  9
$TDUUPDATE
 40
2456973.660841771
  9
$TDINDWG
 40
0.0005191898
  9
$TDUSRTIMER
 40
0.0005191898
  9
$USRTIMER
 70
     1
  9
$ANGBASE
 50
0.0
  9
$ANGDIR
 70
     0
  9
$PDMODE
 70
     3
  9
$PDSIZE
 40
0.03125
  9
$PLINEWID
 40
0.0
  9
$SPLFRAME
 70
     0
  9
$SPLINETYPE
 70
     6
  9
$SPLINESEGS
 70
     8
  9
$HANDSEED
  5
1A88
  9
$SURFTAB1
 70
     6
  9
$SURFTAB2
 70
     6
  9
$SURFTYPE
 70
     6
  9
$SURFU
 70
     6
  9
$SURFV
 70
     6
  9
$UCSBASE
  2

  9
$UCSNAME
  2

  9
$UCSORG
 10
0.0
 20
0.0
 30
0.0
  9
$UCSXDIR
 10
1.0
 20
0.0
 30
0.0
  9
$UCSYDIR
 10
0.0
 20
1.0
 30
0.0
  9
$UCSORTHOREF
  2

  9
$UCSORTHOVIEW
 70
     0
  9
$UCSORGTOP
 10
0.0
 20
0.0
 30
0.0
  9
$UCSORGBOTTOM
 10
0.0
 20
0.0
 30
0.0
  9
$UCSORGLEFT
 10
0.0
 20
0.0
 30
0.0
  9
$UCSORGRIGHT
 10
0.0
 20
0.0
 30
0.0
  9
$UCSORGFRONT
 10
0.0
 20
0.0
 30
0.0
  9
$UCSORGBACK
 10
0.0
 20
0.0
 30
0.0
  9
$PUCSBASE
  2

  9
$PUCSNAME
  2

  9
$PUCSORG
 10
0.0
 20
0.0
 30
0.0
  9
$PUCSXDIR
 10
1.0
 20
0.0
 30
0.0
  9
$PUCSYDIR
 10
0.0
 20
1.0
 30
0.0
  9
$PUCSORTHOREF
  2

  9
$PUCSORTHOVIEW
 70
     0
  9
$PUCSORGTOP
 10
0.0
 20
0.0
 30
0.0
  9
$PUCSORGBOTTOM
 10
0.0
 20
0.0
 30
0.0
  9
$PUCSORGLEFT
 10
0.0
 20
0.0
 30
0.0
  9
$PUCSORGRIGHT
 10
0.0
 20
0.0
 30
0.0
  9
$PUCSORGFRONT
 10
0.0
 20
0.0
 30
0.0
  9
$PUCSORGBACK
 10
0.0
 20
0.0
 30
0.0
  9
$USERI1
 70
     0
  9
$USERI2
 70
     0
  9
$USERI3
 70
     0
  9
$USERI4
 70
     0
  9
$USERI5
 70
     0
  9
$USERR1
 40
0.0
  9
$USERR2
 40
0.0
  9
$USERR3
 40
0.0
  9
$USERR4
 40
0.0
  9
$USERR5
 40
0.0
  9
$WORLDVIEW
 70
     1
  9
$SHADEDGE
 70
     3
  9
$SHADEDIF
 70
    70
  9
$TILEMODE
 70
     1
  9
$MAXACTVP
 70
    64
  9
$PINSBASE
 10
0.0
 20
0.0
 30
0.0
  9
$PLIMCHECK
 70
     0
  9
$PEXTMIN
 10
1.000000000000000E+20
 20
1.000000000000000E+20
 30
1.000000000000000E+20
  9
$PEXTMAX
 10
-1.000000000000000E+20
 20
-1.000000000000000E+20
 30
-1.000000000000000E+20
  9
$PLIMMIN
 10
0.0
 20
0.0
  9
$PLIMMAX
 10
12.0
 20
9.0
  9
$UNITMODE
 70
     0
  9
$VISRETAIN
 70
     1
  9
$PLINEGEN
 70
     0
  9
$PSLTSCALE
 70
     1
  9
$TREEDEPTH
 70
  3020
  9
$CMLSTYLE
  2
Standard
  9
$CMLJUST
 70
     0
  9
$CMLSCALE
 40
1.0
  9
$PROXYGRAPHICS
 70
     1
  9
$MEASUREMENT
 70
     0
  9
$CELWEIGHT
370
    -1
  9
$ENDCAPS
280
     0
  9
$JOINSTYLE
280
     0
  9
$LWDISPLAY
290
     0
  9
$INSUNITS
 70
     1
  9
$HYPERLINKBASE
  1

  9
$STYLESHEET
  1

  9
$XEDIT
290
     1
  9
$CEPSNTYPE
380
     0
  9
$PSTYLEMODE
290
     1
  9
$FINGERPRINTGUID
  2
{32C5069A-CF7A-4F9B-BBD7-201D0A40961E}
  9
$VERSIONGUID
  2
{F4CF4E20-CFE2-40AA-937E-71557F574A4F}
  9
$EXTNAMES
290
     1
  9
$PSVPSCALE
 40
0.0
  9
$OLESTARTUP
290
     0
  9
$SORTENTS
280
   127
  9
$INDEXCTL
280
     0
  9
$HIDETEXT
280
     0
  9
$XCLIPFRAME
290
     0
  9
$HALOGAP
280
     0
  9
$OBSCOLOR
 70
   257
  9
$OBSLTYPE
280
     0
  9
$INTERSECTIONDISPLAY
280
     0
  9
$INTERSECTIONCOLOR
 70
   257
  9
$DIMASSOC
280
     1
  9
$PROJECTNAME
  1

  9
$CAMERADISPLAY
290
     0
  9
$LENSLENGTH
 40
50.0
  9
$CAMERAHEIGHT
 40
0.0
  9
$STEPSPERSEC
 40
2.0
  9
$STEPSIZE
 40
6.0
  9
$3DDWFPREC
 40
2.0
  9
$PSOLWIDTH
 40
0.25
  9
$PSOLHEIGHT
 40
4.0
  9
$LOFTANG1
 40
1.570796326794896
  9
$LOFTANG2
 40
1.570796326794896
  9
$LOFTMAG1
 40
0.0
  9
$LOFTMAG2
 40
0.0
  9
$LOFTPARAM
 70
     7
  9
$LOFTNORMALS
280
     1
  9
$LATITUDE
 40
37.795
  9
$LONGITUDE
 40
-122.394
  9
$NORTHDIRECTION
 40
0.0
  9
$TIMEZONE
 70
 -8000
  9
$LIGHTGLYPHDISPLAY
280
     1
  9
$TILEMODELIGHTSYNCH
280
     1
  9
$CMATERIAL
347
19AC
  9
$SOLIDHIST
280
     1
  9
$SHOWHIST
280
     1
  9
$DWFFRAME
280
     2
  9
$DGNFRAME
280
     0
  9
$REALWORLDSCALE
290
     1
  9
$INTERFERECOLOR
 62
     1
  9
$INTERFEREOBJVS
345
19CE
  9
$INTERFEREVPVS
346
19CB
  9
$CSHADOW
280
     0
  9
$SHADOWPLANELOCATION
 40
0.0
  0
ENDSEC
  0
SECTION
  2
CLASSES
  0
CLASS
  1
ACDBDICTIONARYWDFLT
  2
AcDbDictionaryWithDefault
  3
ObjectDBX Classes
 90
        0
 91
        1
280
     0
281
     0
  0
CLASS
  1
MATERIAL
  2
AcDbMaterial
  3
ObjectDBX Classes
 90
     1153
 91
        3
280
     0
281
     0
  0
CLASS
  1
VISUALSTYLE
  2
AcDbVisualStyle
  3
ObjectDBX Classes
 90
     4095
 91
       19
280
     0
281
     0
  0
CLASS
  1
TABLESTYLE
  2
AcDbTableStyle
  3
ObjectDBX Classes
 90
     4095
 91
        1
280
     0
281
     0
  0
CLASS
  1
SCALE
  2
AcDbScale
  3
ObjectDBX Classes
 90
     1153
 91
       33
280
     0
281
     0
  0
CLASS
  1
MLEADERSTYLE
  2
AcDbMLeaderStyle
  3
ACDB_MLEADERSTYLE_CLASS
 90
     4095
 91
        1
280
     0
281
     0
  0
CLASS
  1
CELLSTYLEMAP
  2
AcDbCellStyleMap
  3
ObjectDBX Classes
 90
     1152
 91
        3
280
     0
281
     0
  0
CLASS
  1
DICTIONARYVAR
  2
AcDbDictionaryVar
  3
ObjectDBX Classes
 90
        0
 91
       15
280
     0
281
     0
  0
ENDSEC
  0
SECTION
  2
TABLES
  0
TABLE
  2
VPORT
  5
8
102
{ACAD_XDICTIONARY
360
1A02
102
}
330
0
100
AcDbSymbolTable
 70
     1
  0
VPORT
  5
1F4
330
8
100
AcDbSymbolTableRecord
100
AcDbViewportTableRecord
  2
*ACTIVE
 70
     0
 10
0.0
 20
0.0
 11
1.0
 21
1.0
 12
49.1461737636869
 22
32.89311958684711
 13
0.0
 23
0.0
 14
1.0
 24
1.0
 15
0.0
 25
0.0
 16
0.0
 26
0.0
 36
1.0
 17
0.0
 27
0.0
 37
0.0
 40
64.85810489536723
 41
1.780711825487944
 42
50.0
 43
0.0
 44
0.0
 50
0.0
 51
0.0
 71
     0
 72
   100
 73
     1
 74
     1
 75
     0
 76
     0
 77
     0
 78
     0
281
     0
 65
     1
110
0.0
120
0.0
130
0.0
111
1.0
121
0.0
131
0.0
112
0.0
122
1.0
132
0.0
 79
     0
146
0.0
348
19CA
 60
     3
 61
     5
292
     1
282
     1
141
0.0
142
0.0
 63
   250
421
  3355443
  0
ENDTAB
  0
TABLE
  2
LTYPE
  5
5
330
0
100
AcDbSymbolTable
 70
     6
  0
LTYPE
  5
14
330
5
100
AcDbSymbolTableRecord
100
AcDbLinetypeTableRecord
  2
BYBLOCK
 70
     0
  3

 72
    65
 73
     0
 40
0.0
  0
LTYPE
  5
15
330
5
100
AcDbSymbolTableRecord
100
AcDbLinetypeTableRecord
  2
BYLAYER
 70
     0
  3

 72
    65
 73
     0
 40
0.0
  0
LTYPE
  5
16
330
5
100
AcDbSymbolTableRecord
100
AcDbLinetypeTableRecord
  2
CONTINUOUS
 70
     0
  3
Solid line
 72
    65
 73
     0
 40
0.0
  0
LTYPE
  5
1F5
330
5
100
AcDbSymbolTableRecord
100
AcDbLinetypeTableRecord
  2
CENTER
 70
     0
  3
____ _ ____ _ ____ _ ____ _ ____ _ ____ _ ____
 72
    65
 73
     4
 40
0.6
 49
0.375
 74
     0
 49
-0.075
 74
     0
 49
0.075
 74
     0
 49
-0.075
 74
     0
  0
LTYPE
  5
1F6
330
5
100
AcDbSymbolTableRecord
100
AcDbLinetypeTableRecord
  2
HIDDEN
 70
     0
  3
- - - - - - - - - - - - - - - - - - - -
 72
    65
 73
     2
 40
0.2
 49
0.1
 74
     0
 49
-0.1
 74
     0
  0
LTYPE
  5
1F7
330
5
100
AcDbSymbolTableRecord
100
AcDbLinetypeTableRecord
  2
PHANTOM
 70
     0
  3
_____ _ _ _____ _ _ _____ _ _ _____
 72
    65
 73
     6
 40
0.8
 49
0.45
 74
     0
 49
-0.05
 74
     0
 49
0.1
 74
     0
 49
-0.05
 74
     0
 49
0.1
 74
     0
 49
-0.05
 74
     0
  0
LTYPE
  5
1F8
330
5
100
AcDbSymbolTableRecord
100
AcDbLinetypeTableRecord
  2
DOT
 70
     0
  3
. . . . . . . . . . . . . . . . . . . .
 72
    65
 73
     2
 40
0.2
 49
0.1
 74
     0
 49
-0.1
 74
     0
  0
LTYPE
  5
1F9
330
5
100
AcDbSymbolTableRecord
100
AcDbLinetypeTableRecord
  2
DASHED
 70
     0
  3
- - - - - - - - - - - - - - - - - - - -
 72
    65
 73
     2
 40
0.2
 49
0.1
 74
     0
 49
-0.1
 74
     0
  0
ENDTAB
  0
TABLE
  2
LAYER
  5
2
330
0
100
AcDbSymbolTable
 70
    30
  0
LAYER
  5
10
102
{ACAD_XDICTIONARY
360
1A42
102
}
330
2
100
AcDbSymbolTableRecord
100
AcDbLayerTableRecord
  2
0
 70
     0
 62
     7
  6
CONTINUOUS
370
    -3
390
F
347
19BC
  0
LAYER
  5
1FA
102
{ACAD_XDICTIONARY
360
1A44
102
}
330
2
100
AcDbSymbolTableRecord
100
AcDbLayerTableRecord
  2
DEFAULT_1
 70
     0
 62
     7
  6
CENTER
370
    -3
390
F
347
19BC
  0
LAYER
  5
1FB
102
{ACAD_XDICTIONARY
360
1A46
102
}
330
2
100
AcDbSymbolTableRecord
100
AcDbLayerTableRecord
  2
DEFAULT_2
 70
     0
 62
     7
  6
HIDDEN
370
    -3
390
F
347
19BC
  0
LAYER
  5
1FC
102
{ACAD_XDICTIONARY
360
1A48
102
}
330
2
100
AcDbSymbolTableRecord
100
AcDbLayerTableRecord
  2
DEFAULT_3
 70
     0
 62
     7
  6
PHANTOM
370
    -3
390
F
347
19BC
  0
LAYER
  5
1FD
102
{ACAD_XDICTIONARY
360
1A4A
102
}
330
2
100
AcDbSymbolTableRecord
100
AcDbLayerTableRecord
  2
1_CURVES
 70
     0
 62
     7
  6
CONTINUOUS
370
    -3
390
F
347
19BC
  0
LAYER
  5
1FE
102
{ACAD_XDICTIONARY
360
1A4C
102
}
330
2
100
AcDbSymbolTableRecord
100
AcDbLayerTableRecord
  2
1_CURVES_CONDUIT
 70
     0
 62
     7
  6
CONTINUOUS
370
    -3
390
F
347
19BC
  0
LAYER
  5
1FF
102
{ACAD_XDICTIONARY
360
1A4E
102
}
330
2
100
AcDbSymbolTableRecord
100
AcDbLayerTableRecord
  2
1_CURVES_DOT
 70
     0
 62
     7
  6
CONTINUOUS
370
    -3
390
F
347
19BC
  0
LAYER
  5
200
102
{ACAD_XDICTIONARY
360
1A50
102
}
330
2
100
AcDbSymbolTableRecord
100
AcDbLayerTableRecord
  2
1_CURVES_JETS
 70
     0
 62
     7
  6
CONTINUOUS
370
    -3
390
F
347
19BC
  0
LAYER
  5
201
102
{ACAD_XDICTIONARY
360
1A52
102
}
330
2
100
AcDbSymbolTableRecord
100
AcDbLayerTableRecord
  2
1_CURVES_PATINS
 70
     0
 62
     7
  6
CONTINUOUS
370
    -3
390
F
347
19BC
  0
LAYER
  5
202
102
{ACAD_XDICTIONARY
360
1A54
102
}
330
2
100
AcDbSymbolTableRecord
100
AcDbLayerTableRecord
  2
1_CURVES_SPEC_FRONT
 70
     0
 62
     7
  6
CONTINUOUS
370
    -3
390
F
347
19BC
  0
LAYER
  5
203
102
{ACAD_XDICTIONARY
360
1A56
102
}
330
2
100
AcDbSymbolTableRecord
100
AcDbLayerTableRecord
  2
1_CURVES_SPEC_RIGHT
 70
     0
 62
     7
  6
CONTINUOUS
370
    -3
390
F
347
19BC
  0
LAYER
  5
204
102
{ACAD_XDICTIONARY
360
1A58
102
}
330
2
100
AcDbSymbolTableRecord
100
AcDbLayerTableRecord
  2
2_PLANES
 70
     0
 62
     7
  6
CONTINUOUS
370
    -3
390
F
347
19BC
  0
LAYER
  5
205
102
{ACAD_XDICTIONARY
360
1A5A
102
}
330
2
100
AcDbSymbolTableRecord
100
AcDbLayerTableRecord
  2
2_PLANES_JETS
 70
     0
 62
     7
  6
CONTINUOUS
370
    -3
390
F
347
19BC
  0
LAYER
  5
206
102
{ACAD_XDICTIONARY
360
1A5C
102
}
330
2
100
AcDbSymbolTableRecord
100
AcDbLayerTableRecord
  2
3_POINTS
 70
     0
 62
     7
  6
CONTINUOUS
370
    -3
390
F
347
19BC
  0
LAYER
  5
207
102
{ACAD_XDICTIONARY
360
1A5E
102
}
330
2
100
AcDbSymbolTableRecord
100
AcDbLayerTableRecord
  2
3_POINTS_JETS
 70
     0
 62
     7
  6
CONTINUOUS
370
    -3
390
F
347
19BC
  0
LAYER
  5
208
102
{ACAD_XDICTIONARY
360
1A60
102
}
330
2
100
AcDbSymbolTableRecord
100
AcDbLayerTableRecord
  2
4_CSYS
 70
     0
 62
     7
  6
CONTINUOUS
370
    -3
390
F
347
19BC
  0
LAYER
  5
209
102
{ACAD_XDICTIONARY
360
1A62
102
}
330
2
100
AcDbSymbolTableRecord
100
AcDbLayerTableRecord
  2
5_AXIS
 70
     0
 62
     7
  6
CONTINUOUS
370
    -3
390
F
347
19BC
  0
LAYER
  5
20A
102
{ACAD_XDICTIONARY
360
1A64
102
}
330
2
100
AcDbSymbolTableRecord
100
AcDbLayerTableRecord
  2
5_AXIS_JETS
 70
     0
 62
     7
  6
CONTINUOUS
370
    -3
390
F
347
19BC
  0
LAYER
  5
20B
102
{ACAD_XDICTIONARY
360
1A66
102
}
330
2
100
AcDbSymbolTableRecord
100
AcDbLayerTableRecord
  2
6_AIRE_CONDUIT
 70
     0
 62
     7
  6
CONTINUOUS
370
    -3
390
F
347
19BC
  0
LAYER
  5
20C
102
{ACAD_XDICTIONARY
360
1A68
102
}
330
2
100
AcDbSymbolTableRecord
100
AcDbLayerTableRecord
  2
6_SURFACES
 70
     0
 62
     7
  6
CONTINUOUS
370
    -3
390
F
347
19BC
  0
LAYER
  5
20D
102
{ACAD_XDICTIONARY
360
1A6A
102
}
330
2
100
AcDbSymbolTableRecord
100
AcDbLayerTableRecord
  2
6_SURFACES_AIRE
 70
     0
 62
     7
  6
CONTINUOUS
370
    -3
390
F
347
19BC
  0
LAYER
  5
20E
102
{ACAD_XDICTIONARY
360
1A6C
102
}
330
2
100
AcDbSymbolTableRecord
100
AcDbLayerTableRecord
  2
6_SURFACES_OFFSET_FIBRE_ACRYLIQ
 70
     0
 62
     7
  6
CONTINUOUS
370
    -3
390
F
347
19BC
  0
LAYER
  5
20F
102
{ACAD_XDICTIONARY
360
1A6E
102
}
330
2
100
AcDbSymbolTableRecord
100
AcDbLayerTableRecord
  2
6_SURFACES_POUR_CONDUIT
 70
     0
 62
     7
  6
CONTINUOUS
370
    -3
390
F
347
19BC
  0
LAYER
  5
210
102
{ACAD_XDICTIONARY
360
1A70
102
}
330
2
100
AcDbSymbolTableRecord
100
AcDbLayerTableRecord
  2
6_SURFACES_POUR_HFL
 70
     0
 62
     7
  6
CONTINUOUS
370
    -3
390
F
347
19BC
  0
LAYER
  5
211
102
{ACAD_XDICTIONARY
360
1A72
102
}
330
2
100
AcDbSymbolTableRecord
100
AcDbLayerTableRecord
  2
6_SURFACES_TOOLING
 70
     0
 62
     7
  6
CONTINUOUS
370
    -3
390
F
347
19BC
  0
LAYER
  5
212
102
{ACAD_XDICTIONARY
360
1A74
102
}
330
2
100
AcDbSymbolTableRecord
100
AcDbLayerTableRecord
  2
7_NOTES
 70
     0
 62
     7
  6
CONTINUOUS
370
    -3
390
F
347
19BC
  0
LAYER
  5
213
102
{ACAD_XDICTIONARY
360
1A76
102
}
330
2
100
AcDbSymbolTableRecord
100
AcDbLayerTableRecord
  2
8_TOL_GEOM
 70
     0
 62
     7
  6
CONTINUOUS
370
    -3
390
F
347
19BC
  0
LAYER
  5
214
102
{ACAD_XDICTIONARY
360
1A78
102
}
330
2
100
AcDbSymbolTableRecord
100
AcDbLayerTableRecord
  2
DEGAGEMENT_SERIGRAPHIE
 70
     0
 62
     7
  6
CONTINUOUS
370
    -3
390
F
347
19BC
  0
LAYER
  5
215
102
{ACAD_XDICTIONARY
360
1A7A
102
}
330
2
100
AcDbSymbolTableRecord
100
AcDbLayerTableRecord
  2
NONE
 70
     0
 62
     7
  6
CONTINUOUS
370
    -3
390
F
347
19BC
  0
LAYER
  5
216
102
{ACAD_XDICTIONARY
360
1A7C
102
}
330
2
100
AcDbSymbolTableRecord
100
AcDbLayerTableRecord
  2
XSEC_DATUMS
 70
     0
 62
     7
  6
CONTINUOUS
370
    -3
390
F
347
19BC
  0
ENDTAB
  0
TABLE
  2
STYLE
  5
3
330
0
100
AcDbSymbolTable
 70
     8
  0
STYLE
  5
11
330
3
100
AcDbSymbolTableRecord
100
AcDbTextStyleTableRecord
  2
STANDARD
 70
     0
 40
0.0
 41
0.8
 50
0.0
 71
     0
 42
0.2
  3
txt
  4

  0
STYLE
  5
217
330
3
100
AcDbSymbolTableRecord
100
AcDbTextStyleTableRecord
  2
TEXTSTYLE_1
 70
     0
 40
0.0
 41
0.8
 50
0.0
 71
     0
 42
0.2
  3
gdt
  4

  0
STYLE
  5
218
330
3
100
AcDbSymbolTableRecord
100
AcDbTextStyleTableRecord
  2
TEXTSTYLE_2
 70
     0
 40
0.0
 41
1.0
 50
0.0
 71
     0
 42
0.2
  3
trium.ttf
  4

  0
STYLE
  5
219
330
3
100
AcDbSymbolTableRecord
100
AcDbTextStyleTableRecord
  2
TEXTSTYLE_3
 70
     0
 40
0.0
 41
1.0
 50
0.0
 71
     0
 42
0.2
  3
trium.ttf
  4

  0
STYLE
  5
21A
330
3
100
AcDbSymbolTableRecord
100
AcDbTextStyleTableRecord
  2
TEXTSTYLE_4
 70
     0
 40
0.0
 41
1.0
 50
0.0
 71
     0
 42
0.2
  3
txt
  4

1001
ACAD
1000
txt
1071
        2
  0
STYLE
  5
21B
330
3
100
AcDbSymbolTableRecord
100
AcDbTextStyleTableRecord
  2
TEXTSTYLE_5
 70
     0
 40
0.0
 41
1.0
 50
0.0
 71
     0
 42
0.2
  3
txt
  4

  0
STYLE
  5
21C
330
3
100
AcDbSymbolTableRecord
100
AcDbTextStyleTableRecord
  2
TEXTSTYLE_6
 70
     0
 40
0.0
 41
1.0
 50
0.0
 71
     0
 42
0.2
  3
trium.ttf
  4

  0
STYLE
  5
21D
330
3
100
AcDbSymbolTableRecord
100
AcDbTextStyleTableRecord
  2
TEXTSTYLE_7
 70
     0
 40
0.0
 41
0.8
 50
0.0
 71
     0
 42
0.2
  3
txt
  4

  0
ENDTAB
  0
TABLE
  2
VIEW
  5
6
330
0
100
AcDbSymbolTable
 70
     0
  0
ENDTAB
  0
TABLE
  2
UCS
  5
7
330
0
100
AcDbSymbolTable
 70
     0
  0
ENDTAB
  0
TABLE
  2
APPID
  5
9
330
0
100
AcDbSymbolTable
 70
     2
  0
APPID
  5
21E
330
9
100
AcDbSymbolTableRecord
100
AcDbRegAppTableRecord
  2
ACAD
 70
     0
  0
APPID
  5
1A32
330
9
100
AcDbSymbolTableRecord
100
AcDbRegAppTableRecord
  2
ACAD_MLEADERVER
 70
     0
  0
ENDTAB
  0
TABLE
  2
DIMSTYLE
  5
A
330
0
100
AcDbSymbolTable
 70
     4
100
AcDbDimStyleTable
 71
     0
  0
DIMSTYLE
105
22A
330
A
100
AcDbSymbolTableRecord
100
AcDbDimStyleTableRecord
  2
STANDARD
 70
     0
 41
2.0
 44
0.125
 47
0.00001
 48
0.00001
 71
     1
 78
     4
140
1.333333333299999
271
     5
272
     5
284
     4
340
11
341
221
342
221
343
221
344
221
  0
DIMSTYLE
105
22B
330
A
100
AcDbSymbolTableRecord
100
AcDbDimStyleTableRecord
  2
DIMSTYLE_1
 70
     0
 41
2.0
 44
0.125
 47
0.00001
 48
0.00001
 78
     4
140
1.333333333299999
147
0.0625
271
     3
272
     3
284
     4
340
11
341
221
342
221
343
221
344
221
  0
DIMSTYLE
105
22C
330
A
100
AcDbSymbolTableRecord
100
AcDbDimStyleTableRecord
  2
DIMSTYLE_2
 70
     0
 41
2.0
 44
0.125
 47
0.00001
 48
0.00001
 78
     4
140
1.333333333299999
147
0.0625
284
     4
340
11
341
221
342
221
343
221
344
221
  0
DIMSTYLE
105
22D
330
A
100
AcDbSymbolTableRecord
100
AcDbDimStyleTableRecord
  2
DIMSTYLE_3
 70
     0
 41
2.0
 44
0.125
 47
0.00001
 48
0.00001
 78
     4
140
1.333333333299999
147
0.0625
271
     2
272
     2
284
     4
340
11
341
221
342
221
343
221
344
221
  0
ENDTAB
  0
TABLE
  2
BLOCK_RECORD
  5
1
330
0
100
AcDbSymbolTable
 70
     9
  0
BLOCK_RECORD
  5
21F
330
1
100
AcDbSymbolTableRecord
100
AcDbBlockTableRecord
  2
*Model_Space
340
19A7
 70
     0
280
     1
281
     0
  0
BLOCK_RECORD
  5
220
330
1
100
AcDbSymbolTableRecord
100
AcDbBlockTableRecord
  2
*Paper_Space
340
19A8
 70
     0
280
     1
281
     0
  0
BLOCK_RECORD
  5
221
330
1
100
AcDbSymbolTableRecord
100
AcDbBlockTableRecord
  2
_FILLED
340
0
102
{BLKREFS
331
302
331
303
331
30B
331
30C
331
314
331
315
331
31D
331
31E
331
326
331
327
331
32F
331
330
102
}
 70
     0
280
     1
281
     0
  0
BLOCK_RECORD
  5
222
330
1
100
AcDbSymbolTableRecord
100
AcDbBlockTableRecord
  2
*D1
340
0
 70
     0
280
     1
281
     0
  0
BLOCK_RECORD
  5
223
330
1
100
AcDbSymbolTableRecord
100
AcDbBlockTableRecord
  2
*D2
340
0
 70
     0
280
     1
281
     0
  0
BLOCK_RECORD
  5
224
330
1
100
AcDbSymbolTableRecord
100
AcDbBlockTableRecord
  2
*D3
340
0
 70
     0
280
     1
281
     0
  0
BLOCK_RECORD
  5
225
330
1
100
AcDbSymbolTableRecord
100
AcDbBlockTableRecord
  2
*D4
340
0
 70
     0
280
     1
281
     0
  0
BLOCK_RECORD
  5
226
330
1
100
AcDbSymbolTableRecord
100
AcDbBlockTableRecord
  2
*D5
340
0
 70
     0
280
     1
281
     0
  0
BLOCK_RECORD
  5
227
330
1
100
AcDbSymbolTableRecord
100
AcDbBlockTableRecord
  2
*D6
340
0
 70
     0
280
     1
281
     0
  0
BLOCK_RECORD
  5
228
330
1
100
AcDbSymbolTableRecord
100
AcDbBlockTableRecord
  2
SYMBOL_5_BL1
340
0
 70
     0
280
     1
281
     0
  0
BLOCK_RECORD
  5
229
330
1
100
AcDbSymbolTableRecord
100
AcDbBlockTableRecord
  2
SYMBOL_2_BL0
340
0
 70
     0
280
     1
281
     0
  0
ENDTAB
  0
ENDSEC
  0
SECTION
  2
BLOCKS
  0
BLOCK
  5
20
330
21F
100
AcDbEntity
  8
0
100
AcDbBlockBegin
  2
*Model_Space
 70
     0
 10
0.0
 20
0.0
 30
0.0
  3
*Model_Space
  1

  0
ENDBLK
  5
21
330
21F
100
AcDbEntity
  8
0
100
AcDbBlockEnd
  0
BLOCK
  5
1C
330
220
100
AcDbEntity
 67
     1
  8
0
100
AcDbBlockBegin
  2
*Paper_Space
 70
     0
 10
0.0
 20
0.0
 30
0.0
  3
*Paper_Space
  1

  0
ENDBLK
  5
1D
330
220
100
AcDbEntity
 67
     1
  8
0
100
AcDbBlockEnd
  0
BLOCK
  5
2F9
330
221
100
AcDbEntity
  8
0
100
AcDbBlockBegin
  2
_FILLED
 70
     0
 10
0.0
 20
0.0
 30
0.0
  3
_FILLED
  1

  0
SOLID
  5
2FA
330
221
100
AcDbEntity
  8
0
  6
ByBlock
 62
     0
100
AcDbTrace
 10
0.0
 20
0.0
 30
0.0
 11
-1.0
 21
0.1666666667
 31
0.0
 12
-1.0
 22
-0.1666666667
 32
0.0
 13
-1.0
 23
-0.1666666667
 33
0.0
  0
ENDBLK
  5
2FB
330
221
100
AcDbEntity
  8
0
  6
ByBlock
 62
     0
100
AcDbBlockEnd
  0
BLOCK
  5
2FC
330
222
100
AcDbEntity
  8
0
  6
Continuous
 62
     7
100
AcDbBlockBegin
  2
*D1
 70
     1
 10
0.0
 20
0.0
 30
0.0
  3
*D1
  1

  0
MTEXT
  5
2FD
330
222
100
AcDbEntity
  8
0
  6
Continuous
 62
     7
100
AcDbMText
 10
49.637087461
 20
19.0029036771
 30
0.0
 40
1.333333333299999
 41
6.4
 46
0.0
 71
     2
 72
     1
  1
55-5/8\P[141]
 73
     1
 44
0.9
  0
LINE
  5
2FE
330
222
100
AcDbEntity
  8
0
  6
Continuous
 62
     7
100
AcDbLine
 10
77.47567051729999
 20
31.3953266094
 30
0.0
 11
77.47567051729999
 21
17.0029036771
 31
0.0
  0
LINE
  5
2FF
330
222
100
AcDbEntity
  8
0
  6
Continuous
 62
     7
100
AcDbLine
 10
21.7985044046
 20
31.3953266094
 30
0.0
 11
21.7985044046
 21
17.0029036771
 31
0.0
  0
LINE
  5
300
330
222
100
AcDbEntity
  8
0
  6
Continuous
 62
     7
100
AcDbLine
 10
77.47567051729999
 20
18.3362370104
 30
0.0
 11
53.5037541277
 21
18.3362370104
 31
0.0
  0
LINE
  5
301
330
222
100
AcDbEntity
  8
0
  6
Continuous
 62
     7
100
AcDbLine
 10
21.7985044046
 20
18.3362370104
 30
0.0
 11
45.77042079429999
 21
18.3362370104
 31
0.0
  0
INSERT
  5
302
330
222
100
AcDbEntity
  8
0
  6
Continuous
 62
     7
100
AcDbBlockReference
  2
_FILLED
 10
77.47567051729999
 20
18.3362370104
 30
0.0
 41
2.0
 42
2.0
 43
2.0
  0
INSERT
  5
303
330
222
100
AcDbEntity
  8
0
  6
Continuous
 62
     7
100
AcDbBlockReference
  2
_FILLED
 10
21.7985044046
 20
18.3362370104
 30
0.0
 41
2.0
 42
2.0
 43
2.0
 50
180.0
  0
ENDBLK
  5
304
330
222
100
AcDbEntity
  8
0
  6
ByBlock
 62
     0
100
AcDbBlockEnd
  0
BLOCK
  5
305
330
223
100
AcDbEntity
  8
0
  6
Continuous
 62
     7
100
AcDbBlockBegin
  2
*D2
 70
     1
 10
0.0
 20
0.0
 30
0.0
  3
*D2
  1

  0
MTEXT
  5
306
330
223
100
AcDbEntity
  8
0
  6
Continuous
 62
     7
100
AcDbMText
 10
113.1848902088
 20
18.8247491783
 30
0.0
 40
1.333333333299999
 41
6.4
 46
0.0
 71
     2
 72
     1
  1
30-1/8\P[77]
 73
     1
 44
0.9
  0
LINE
  5
307
330
223
100
AcDbEntity
  8
0
  6
Continuous
 62
     7
100
AcDbLine
 10
128.2691855717
 20
31.3953266094
 30
0.0
 11
128.2691855717
 21
16.8247491783
 31
0.0
  0
LINE
  5
308
330
223
100
AcDbEntity
  8
0
  6
Continuous
 62
     7
100
AcDbLine
 10
98.10059484580001
 20
31.3953266094
 30
0.0
 11
98.10059484580001
 21
16.8247491783
 31
0.0
  0
LINE
  5
309
330
223
100
AcDbEntity
  8
0
  6
Continuous
 62
     7
100
AcDbLine
 10
128.2691855717
 20
18.1580825116
 30
0.0
 11
117.0515568754
 21
18.1580825116
 31
0.0
  0
LINE
  5
30A
330
223
100
AcDbEntity
  8
0
  6
Continuous
 62
     7
100
AcDbLine
 10
98.10059484580001
 20
18.1580825116
 30
0.0
 11
109.3182235421
 21
18.1580825116
 31
0.0
  0
INSERT
  5
30B
330
223
100
AcDbEntity
  8
0
  6
Continuous
 62
     7
100
AcDbBlockReference
  2
_FILLED
 10
128.2691855717
 20
18.1580825116
 30
0.0
 41
2.0
 42
2.0
 43
2.0
  0
INSERT
  5
30C
330
223
100
AcDbEntity
  8
0
  6
Continuous
 62
     7
100
AcDbBlockReference
  2
_FILLED
 10
98.10059484580001
 20
18.1580825116
 30
0.0
 41
2.0
 42
2.0
 43
2.0
 50
180.0
  0
ENDBLK
  5
30D
330
223
100
AcDbEntity
  8
0
  6
ByBlock
 62
     0
100
AcDbBlockEnd
  0
BLOCK
  5
30E
330
224
100
AcDbEntity
  8
0
  6
Continuous
 62
     7
100
AcDbBlockBegin
  2
*D3
 70
     1
 10
0.0
 20
0.0
 30
0.0
  3
*D3
  1

  0
MTEXT
  5
30F
330
224
100
AcDbEntity
  8
0
  6
Continuous
 62
     7
100
AcDbMText
 10
14.9230504837
 20
27.7286599427
 30
0.0
 40
1.333333333299999
 41
4.266666666699999
 46
0.0
 71
     2
 72
     1
  1
10\P[25]
 73
     1
 44
0.9
  0
LINE
  5
310
330
224
100
AcDbEntity
  8
0
  6
Continuous
 62
     7
100
AcDbLine
 10
36.1315044046
 20
22.061993276
 30
0.0
 11
14.656383817
 21
22.061993276
 31
0.0
  0
LINE
  5
311
330
224
100
AcDbEntity
  8
0
  6
Continuous
 62
     7
100
AcDbLine
 10
21.0485044046
 20
32.061993276
 30
0.0
 11
14.656383817
 21
32.061993276
 31
0.0
  0
LINE
  5
312
330
224
100
AcDbEntity
  8
0
  6
Continuous
 62
     7
100
AcDbLine
 10
15.9897171503
 20
22.061993276
 30
0.0
 11
15.9897171503
 21
16.7286599427
 31
0.0
  0
LINE
  5
313
330
224
100
AcDbEntity
  8
0
  6
Continuous
 62
     7
100
AcDbLine
 10
15.9897171503
 20
32.061993276
 30
0.0
 11
15.9897171503
 21
37.3953266094
 31
0.0
  0
INSERT
  5
314
330
224
100
AcDbEntity
  8
0
  6
Continuous
 62
     7
100
AcDbBlockReference
  2
_FILLED
 10
15.9897171503
 20
22.061993276
 30
0.0
 41
2.0
 42
2.0
 43
2.0
 50
90.0
  0
INSERT
  5
315
330
224
100
AcDbEntity
  8
0
  6
Continuous
 62
     7
100
AcDbBlockReference
  2
_FILLED
 10
15.9897171503
 20
32.061993276
 30
0.0
 41
2.0
 42
2.0
 43
2.0
 50
270.0
  0
ENDBLK
  5
316
330
224
100
AcDbEntity
  8
0
  6
ByBlock
 62
     0
100
AcDbBlockEnd
  0
BLOCK
  5
317
330
225
100
AcDbEntity
  8
0
  6
Continuous
 62
     7
100
AcDbBlockBegin
  2
*D4
 70
     1
 10
0.0
 20
0.0
 30
0.0
  3
*D4
  1

  0
MTEXT
  5
318
330
225
100
AcDbEntity
  8
0
  6
Continuous
 62
     7
100
AcDbMText
 10
89.77364876059999
 20
83.25598452120001
 30
0.0
 40
1.333333333299999
 41
6.4
 46
0.0
 71
     2
 72
     1
  1
35-7/8\P[91]
 73
     1
 44
0.9
  0
LINE
  5
319
330
225
100
AcDbEntity
  8
0
  6
Continuous
 62
     7
100
AcDbLine
 10
50.3037541277
 20
64.6583697799
 30
0.0
 11
91.106982094
 21
64.6583697799
 31
0.0
  0
LINE
  5
31A
330
225
100
AcDbEntity
  8
0
  6
Continuous
 62
     7
100
AcDbLine
 10
50.3037541277
 20
100.5202659292
 30
0.0
 11
91.106982094
 21
100.5202659292
 31
0.0
  0
LINE
  5
31B
330
225
100
AcDbEntity
  8
0
  6
Continuous
 62
     7
100
AcDbLine
 10
89.77364876059999
 20
64.6583697799
 30
0.0
 11
89.77364876059999
 21
79.2559845212
 31
0.0
  0
LINE
  5
31C
330
225
100
AcDbEntity
  8
0
  6
Continuous
 62
     7
100
AcDbLine
 10
89.77364876059999
 20
100.5202659292
 30
0.0
 11
89.77364876059999
 21
83.9226511879
 31
0.0
  0
INSERT
  5
31D
330
225
100
AcDbEntity
  8
0
  6
Continuous
 62
     7
100
AcDbBlockReference
  2
_FILLED
 10
89.77364876059999
 20
64.6583697799
 30
0.0
 41
2.0
 42
2.0
 43
2.0
 50
270.0
  0
INSERT
  5
31E
330
225
100
AcDbEntity
  8
0
  6
Continuous
 62
     7
100
AcDbBlockReference
  2
_FILLED
 10
89.77364876059999
 20
100.5202659292
 30
0.0
 41
2.0
 42
2.0
 43
2.0
 50
90.0
  0
ENDBLK
  5
31F
330
225
100
AcDbEntity
  8
0
  6
ByBlock
 62
     0
100
AcDbBlockEnd
  0
BLOCK
  5
320
330
226
100
AcDbEntity
  8
0
  6
Continuous
 62
     7
100
AcDbBlockBegin
  2
*D5
 70
     1
 10
0.0
 20
0.0
 30
0.0
  3
*D5
  1

  0
MTEXT
  5
321
330
226
100
AcDbEntity
  8
0
  6
Continuous
 62
     7
100
AcDbMText
 10
48.03587688899999
 20
108.0735213872
 30
0.0
 40
1.333333333299999
 41
5.333333333299999
 46
0.0
 71
     2
 72
     1
  1
64\P[163]
 73
     1
 44
0.9
  0
LINE
  5
322
330
226
100
AcDbEntity
  8
0
  6
Continuous
 62
     7
100
AcDbLine
 10
81.6734672241
 20
83.25598452120001
 30
0.0
 11
81.6734672241
 21
108.7401880538
 31
0.0
  0
LINE
  5
323
330
226
100
AcDbEntity
  8
0
  6
Continuous
 62
     7
100
AcDbLine
 10
17.5982865539
 20
83.25598452120001
 30
0.0
 11
17.5982865539
 21
108.7401880538
 31
0.0
  0
LINE
  5
324
330
226
100
AcDbEntity
  8
0
  6
Continuous
 62
     7
100
AcDbLine
 10
81.6734672241
 20
107.4068547205
 30
0.0
 11
52.96921022229999
 21
107.4068547205
 31
0.0
  0
LINE
  5
325
330
226
100
AcDbEntity
  8
0
  6
Continuous
 62
     7
100
AcDbLine
 10
17.5982865539
 20
107.4068547205
 30
0.0
 11
46.3025435556
 21
107.4068547205
 31
0.0
  0
INSERT
  5
326
330
226
100
AcDbEntity
  8
0
  6
Continuous
 62
     7
100
AcDbBlockReference
  2
_FILLED
 10
81.6734672241
 20
107.4068547205
 30
0.0
 41
2.0
 42
2.0
 43
2.0
  0
INSERT
  5
327
330
226
100
AcDbEntity
  8
0
  6
Continuous
 62
     7
100
AcDbBlockReference
  2
_FILLED
 10
17.5982865539
 20
107.4068547205
 30
0.0
 41
2.0
 42
2.0
 43
2.0
 50
180.0
  0
ENDBLK
  5
328
330
226
100
AcDbEntity
  8
0
  6
ByBlock
 62
     0
100
AcDbBlockEnd
  0
BLOCK
  5
329
330
227
100
AcDbEntity
  8
0
  6
Continuous
 62
     7
100
AcDbBlockBegin
  2
*D6
 70
     1
 10
0.0
 20
0.0
 30
0.0
  3
*D6
  1

  0
MTEXT
  5
32A
330
227
100
AcDbEntity
  8
0
  6
Continuous
 62
     7
100
AcDbMText
 10
9.789612506399999
 20
35.08825204380001
 30
0.0
 40
1.333333333299999
 41
6.4
 46
0.0
 71
     2
 72
     1
  1
24-3/4\P[63]
 73
     1
 44
0.9
  0
LINE
  5
32B
330
227
100
AcDbEntity
  8
0
  6
Continuous
 62
     7
100
AcDbLine
 10
16.9941198872
 20
46.7811774783
 30
0.0
 11
8.456279172999998
 21
46.7811774783
 31
0.0
  0
LINE
  5
32C
330
227
100
AcDbEntity
  8
0
  6
Continuous
 62
     7
100
AcDbLine
 10
16.9941198872
 20
22.061993276
 30
0.0
 11
8.456279172999998
 21
22.061993276
 31
0.0
  0
LINE
  5
32D
330
227
100
AcDbEntity
  8
0
  6
Continuous
 62
     7
100
AcDbLine
 10
9.789612506399999
 20
46.7811774783
 30
0.0
 11
9.789612506399999
 21
35.7549187105
 31
0.0
  0
LINE
  5
32E
330
227
100
AcDbEntity
  8
0
  6
Continuous
 62
     7
100
AcDbLine
 10
9.789612506399999
 20
22.061993276
 30
0.0
 11
9.789612506399999
 21
31.0882520438
 31
0.0
  0
INSERT
  5
32F
330
227
100
AcDbEntity
  8
0
  6
Continuous
 62
     7
100
AcDbBlockReference
  2
_FILLED
 10
9.789612506399999
 20
46.7811774783
 30
0.0
 41
2.0
 42
2.0
 43
2.0
 50
90.0
  0
INSERT
  5
330
330
227
100
AcDbEntity
  8
0
  6
Continuous
 62
     7
100
AcDbBlockReference
  2
_FILLED
 10
9.789612506399999
 20
22.061993276
 30
0.0
 41
2.0
 42
2.0
 43
2.0
 50
270.0
  0
ENDBLK
  5
331
330
227
100
AcDbEntity
  8
0
  6
ByBlock
 62
     0
100
AcDbBlockEnd
  0
BLOCK
  5
22E
330
228
100
AcDbEntity
  8
0
  6
Continuous
 62
     7
100
AcDbBlockBegin
  2
SYMBOL_5_BL1
 70
     0
 10
122.2820165631
 20
54.6578054903
 30
0.0
  3
SYMBOL_5_BL1
  1

  0
TEXT
  5
22F
330
228
100
AcDbEntity
  8
0
  6
Continuous
 62
     7
100
AcDbText
 10
115.9679562613
 20
56.9028394761
 30
0.0
 40
1.1626666667
  1
INTERNAL USE 
 50
10.0
  7
TEXTSTYLE_3
100
AcDbText
  0
TEXT
  5
230
330
228
100
AcDbEntity
  8
0
  6
Continuous
 62
     7
100
AcDbText
 10
115.2242720573
 20
54.9013182984
 30
0.0
 40
1.1626666667
  1
DOCUMENT ONLY
 50
10.0
  7
TEXTSTYLE_3
100
AcDbText
  0
TEXT
  5
231
330
228
100
AcDbEntity
  8
0
  6
Continuous
 62
     7
100
AcDbText
 10
121.0089996206
 20
54.65289024789999
 30
0.0
 40
1.1626666667
  1
 
 50
10.0
  7
TEXTSTYLE_5
100
AcDbText
  0
TEXT
  5
232
330
228
100
AcDbEntity
  8
0
  6
Continuous
 62
     7
100
AcDbText
 10
112.5643517376
 20
50.4757958416
 30
0.0
 40
1.1626666667
  1
DOCUMENT POUR USAGE
 50
10.0
  7
TEXTSTYLE_3
100
AcDbText
  0
TEXT
  5
233
330
228
100
AcDbEntity
  8
0
  6
Continuous
 62
     7
100
AcDbText
 10
112.9934511836
 20
48.4590473812
 30
0.0
 40
1.1626666667
  1
A L'INTERNE SEULEMENT
 50
10.0
  7
TEXTSTYLE_3
100
AcDbText
  0
LINE
  5
234
330
228
100
AcDbEntity
  8
0
  6
Continuous
 62
     7
100
AcDbLine
 10
136.1385682864
 20
50.3142718723
 30
0.0
 11
136.1453272191
 21
50.321030805
 31
0.0
  0
LINE
  5
235
330
228
100
AcDbEntity
  8
0
  6
Continuous
 62
     7
100
AcDbLine
 10
135.40599872
 20
50.1851000925
 30
0.0
 11
136.0548801651
 21
50.83398153760001
 31
0.0
  0
LINE
  5
236
330
228
100
AcDbEntity
  8
0
  6
Continuous
 62
     7
100
AcDbLine
 10
134.6734291536
 20
50.0559283127
 30
0.0
 11
135.9644331112
 21
51.34693227029999
 31
0.0
  0
LINE
  5
237
330
228
100
AcDbEntity
  8
0
  6
Continuous
 62
     7
100
AcDbLine
 10
133.9408595872
 20
49.9267565329
 30
0.0
 11
135.8739860572
 21
51.859883003
 31
0.0
  0
LINE
  5
238
330
228
100
AcDbEntity
  8
0
  6
Continuous
 62
     7
100
AcDbLine
 10
133.2082900208
 20
49.7975847531
 30
0.0
 11
135.7835390033
 21
52.3728337356
 31
0.0
  0
LINE
  5
239
330
228
100
AcDbEntity
  8
0
  6
Continuous
 62
     7
100
AcDbLine
 10
132.4757204543
 20
49.6684129733
 30
0.0
 11
134.0167242691
 21
51.20941678810001
 31
0.0
  0
LINE
  5
23A
330
228
100
AcDbEntity
  8
0
  6
Continuous
 62
     7
100
AcDbLine
 10
134.6140694618
 20
51.8067619808
 30
0.0
 11
135.6930919494
 21
52.8857844683
 31
0.0
  0
LINE
  5
23B
330
228
100
AcDbEntity
  8
0
  6
Continuous
 62
     7
100
AcDbLine
 10
131.7431508879
 20
49.5392411935
 30
0.0
 11
133.2841547027
 21
51.0802450083
 31
0.0
  0
LINE
  5
23C
330
228
100
AcDbEntity
  8
0
  6
Continuous
 62
     7
100
AcDbLine
 10
134.5236224079
 20
52.3197127134
 30
0.0
 11
135.6026448954
 21
53.398735201
 31
0.0
  0
LINE
  5
23D
330
228
100
AcDbEntity
  8
0
  6
Continuous
 62
     7
100
AcDbLine
 10
131.0105813215
 20
49.4100694137
 30
0.0
 11
132.5515851363
 21
50.9510732284
 31
0.0
  0
LINE
  5
23E
330
228
100
AcDbEntity
  8
0
  6
Continuous
 62
     7
100
AcDbLine
 10
134.433175354
 20
52.8326634461
 30
0.0
 11
135.5121978415
 21
53.91168593359999
 31
0.0
  0
LINE
  5
23F
330
228
100
AcDbEntity
  8
0
  6
Continuous
 62
     7
100
AcDbLine
 10
130.2780117551
 20
49.2808976339
 30
0.0
 11
131.8190155699
 21
50.8219014486
 31
0.0
  0
LINE
  5
240
330
228
100
AcDbEntity
  8
0
  6
Continuous
 62
     7
100
AcDbLine
 10
134.3427283
 20
53.34561417879999
 30
0.0
 11
135.4217507875
 21
54.42463666630001
 31
0.0
  0
LINE
  5
241
330
228
100
AcDbEntity
  8
0
  6
Continuous
 62
     7
100
AcDbLine
 10
129.5454421887
 20
49.1517258541
 30
0.0
 11
131.0864460034
 21
50.69272966879999
 31
0.0
  0
LINE
  5
242
330
228
100
AcDbEntity
  8
0
  6
Continuous
 62
     7
100
AcDbLine
 10
134.2522812461
 20
53.8585649115
 30
0.0
 11
135.3313037336
 21
54.93758739899999
 31
0.0
  0
LINE
  5
243
330
228
100
AcDbEntity
  8
0
  6
Continuous
 62
     7
100
AcDbLine
 10
128.8128726222
 20
49.02255407430001
 30
0.0
 11
130.353876437
 21
50.56355788899999
 31
0.0
  0
LINE
  5
244
330
228
100
AcDbEntity
  8
0
  6
Continuous
 62
     7
100
AcDbLine
 10
134.1618341921
 20
54.3715156441
 30
0.0
 11
135.2408566796
 21
55.4505381316
 31
0.0
  0
LINE
  5
245
330
228
100
AcDbEntity
  8
0
  6
Continuous
 62
     7
100
AcDbLine
 10
128.0803030558
 20
48.89338229439999
 30
0.0
 11
129.6213068706
 21
50.4343861092
 31
0.0
  0
LINE
  5
246
330
228
100
AcDbEntity
  8
0
  6
Continuous
 62
     7
100
AcDbLine
 10
134.0713871382
 20
54.8844663768
 30
0.0
 11
135.1504096257
 21
55.9634888643
 31
0.0
  0
LINE
  5
247
330
228
100
AcDbEntity
  8
0
  6
Continuous
 62
     7
100
AcDbLine
 10
127.3477334894
 20
48.7642105146
 30
0.0
 11
128.8887373042
 21
50.30521432939999
 31
0.0
  0
LINE
  5
248
330
228
100
AcDbEntity
  8
0
  6
Continuous
 62
     7
100
AcDbLine
 10
133.9809400842
 20
55.3974171095
 30
0.0
 11
135.0599625717
 21
56.47643959699999
 31
0.0
  0
LINE
  5
249
330
228
100
AcDbEntity
  8
0
  6
Continuous
 62
     7
100
AcDbLine
 10
126.615163923
 20
48.6350387348
 30
0.0
 11
128.1561677378
 21
50.1760425496
 31
0.0
  0
LINE
  5
24A
330
228
100
AcDbEntity
  8
0
  6
Continuous
 62
     7
100
AcDbLine
 10
133.8904930303
 20
55.9103678421
 30
0.0
 11
134.9695155178
 21
56.9893903296
 31
0.0
  0
LINE
  5
24B
330
228
100
AcDbEntity
  8
0
  6
Continuous
 62
     7
100
AcDbLine
 10
125.8825943566
 20
48.505866955
 30
0.0
 11
127.4235981714
 21
50.04687076979999
 31
0.0
  0
LINE
  5
24C
330
228
100
AcDbEntity
  8
0
  6
Continuous
 62
     7
100
AcDbLine
 10
133.5876134305
 20
56.21088602890001
 30
0.0
 11
134.8790684639
 21
57.50234106229999
 31
0.0
  0
LINE
  5
24D
330
228
100
AcDbEntity
  8
0
  6
Continuous
 62
     7
100
AcDbLine
 10
125.1500247902
 20
48.37669517520001
 30
0.0
 11
126.6910286049
 21
49.91769899
 31
0.0
  0
LINE
  5
24E
330
228
100
AcDbEntity
  8
0
  6
Continuous
 62
     7
100
AcDbLine
 10
132.855043864
 20
56.0817142491
 30
0.0
 11
134.7886214099
 21
58.01529179500001
 31
0.0
  0
LINE
  5
24F
330
228
100
AcDbEntity
  8
0
  6
Continuous
 62
     7
100
AcDbLine
 10
124.4174552237
 20
48.2475233954
 30
0.0
 11
125.9584590385
 21
49.7885272102
 31
0.0
  0
LINE
  5
250
330
228
100
AcDbEntity
  8
0
  6
Continuous
 62
     7
100
AcDbLine
 10
132.1224742976
 20
55.9525424693
 30
0.0
 11
133.1498165959
 21
56.9798847676
 31
0.0
  0
LINE
  5
251
330
228
100
AcDbEntity
  8
0
  6
Continuous
 62
     7
100
AcDbLine
 10
133.6191518685
 20
57.4492200401
 30
0.0
 11
134.698174356
 21
58.5282425277
 31
0.0
  0
LINE
  5
252
330
228
100
AcDbEntity
  8
0
  6
Continuous
 62
     7
100
AcDbLine
 10
123.6848856573
 20
48.11835161560001
 30
0.0
 11
125.2258894721
 21
49.6593554304
 31
0.0
  0
LINE
  5
253
330
228
100
AcDbEntity
  8
0
  6
Continuous
 62
     7
100
AcDbLine
 10
131.3899047312
 20
55.8233706895
 30
0.0
 11
132.4172468199
 21
56.8507127782
 31
0.0
  0
LINE
  5
254
330
228
100
AcDbEntity
  8
0
  6
Continuous
 62
     7
100
AcDbLine
 10
133.5287048145
 20
57.9621707728
 30
0.0
 11
134.607727302
 21
59.0411932603
 31
0.0
  0
LINE
  5
255
330
228
100
AcDbEntity
  8
0
  6
Continuous
 62
     7
100
AcDbLine
 10
122.9523160909
 20
47.98917983579999
 30
0.0
 11
124.4933199057
 21
49.5301836506
 31
0.0
  0
LINE
  5
256
330
228
100
AcDbEntity
  8
0
  6
Continuous
 62
     7
100
AcDbLine
 10
130.6573351648
 20
55.6941989097
 30
0.0
 11
131.6846770438
 21
56.7215407887
 31
0.0
  0
LINE
  5
257
330
228
100
AcDbEntity
  8
0
  6
Continuous
 62
     7
100
AcDbLine
 10
133.4382577606
 20
58.4751215055
 30
0.0
 11
134.5172802481
 21
59.554143993
 31
0.0
  0
LINE
  5
258
330
228
100
AcDbEntity
  8
0
  6
Continuous
 62
     7
100
AcDbLine
 10
122.2197465245
 20
47.860008056
 30
0.0
 11
123.7607503393
 21
49.40101187079999
 31
0.0
  0
LINE
  5
259
330
228
100
AcDbEntity
  8
0
  6
Continuous
 62
     7
100
AcDbLine
 10
129.9247655984
 20
55.56502712989999
 30
0.0
 11
130.9521072678
 21
56.5923687993
 31
0.0
  0
LINE
  5
25A
330
228
100
AcDbEntity
  8
0
  6
Continuous
 62
     7
100
AcDbLine
 10
133.3478107066
 20
58.9880722381
 30
0.0
 11
134.4268331941
 21
60.06709472569999
 31
0.0
  0
LINE
  5
25B
330
228
100
AcDbEntity
  8
0
  6
Continuous
 62
     7
100
AcDbLine
 10
121.4871769581
 20
47.7308362762
 30
0.0
 11
123.0281807728
 21
49.271840091
 31
0.0
  0
LINE
  5
25C
330
228
100
AcDbEntity
  8
0
  6
Continuous
 62
     7
100
AcDbLine
 10
129.192196032
 20
55.4358553501
 30
0.0
 11
130.2195374918
 21
56.4631968099
 31
0.0
  0
LINE
  5
25D
330
228
100
AcDbEntity
  8
0
  6
Continuous
 62
     7
100
AcDbLine
 10
133.2573636527
 20
59.5010229708
 30
0.0
 11
134.3363861402
 21
60.5800454583
 31
0.0
  0
LINE
  5
25E
330
228
100
AcDbEntity
  8
0
  6
Continuous
 62
     7
100
AcDbLine
 10
120.7546073917
 20
47.6016644964
 30
0.0
 11
122.2956112064
 21
49.14266831119999
 31
0.0
  0
LINE
  5
25F
330
228
100
AcDbEntity
  8
0
  6
Continuous
 62
     7
100
AcDbLine
 10
128.4596264654999
 20
55.30668357029999
 30
0.0
 11
129.4869677157
 21
56.33402482050001
 31
0.0
  0
LINE
  5
260
330
228
100
AcDbEntity
  8
0
  6
Continuous
 62
     7
100
AcDbLine
 10
133.1669165987
 20
60.01397370350001
 30
0.0
 11
134.2459390863
 21
61.092996191
 31
0.0
  0
LINE
  5
261
330
228
100
AcDbEntity
  8
0
  6
Continuous
 62
     7
100
AcDbLine
 10
120.0220378252
 20
47.4724927166
 30
0.0
 11
121.56304164
 21
49.0134965314
 31
0.0
  0
LINE
  5
262
330
228
100
AcDbEntity
  8
0
  6
Continuous
 62
     7
100
AcDbLine
 10
127.7270568991
 20
55.1775117905
 30
0.0
 11
128.7543979397
 21
56.20485283109999
 31
0.0
  0
LINE
  5
263
330
228
100
AcDbEntity
  8
0
  6
Continuous
 62
     7
100
AcDbLine
 10
133.0764695448
 20
60.52692443619999
 30
0.0
 11
134.1554920323
 21
61.6059469237
 31
0.0
  0
LINE
  5
264
330
228
100
AcDbEntity
  8
0
  6
Continuous
 62
     7
100
AcDbLine
 10
119.2894682588
 20
47.3433209368
 30
0.0
 11
120.8304720736
 21
48.8843247516
 31
0.0
  0
LINE
  5
265
330
228
100
AcDbEntity
  8
0
  6
Continuous
 62
     7
100
AcDbLine
 10
126.9944873327
 20
55.04834001069999
 30
0.0
 11
128.0218281637
 21
56.0756808417
 31
0.0
  0
LINE
  5
266
330
228
100
AcDbEntity
  8
0
  6
Continuous
 62
     7
100
AcDbLine
 10
132.9860224909
 20
61.0398751688
 30
0.0
 11
134.0650449784
 21
62.1188976563
 31
0.0
  0
LINE
  5
267
330
228
100
AcDbEntity
  8
0
  6
Continuous
 62
     7
100
AcDbLine
 10
118.5568986924
 20
47.214149157
 30
0.0
 11
120.0979025072
 21
48.7551529718
 31
0.0
  0
LINE
  5
268
330
228
100
AcDbEntity
  8
0
  6
Continuous
 62
     7
100
AcDbLine
 10
126.2619177663
 20
54.9191682309
 30
0.0
 11
127.2892583877
 21
55.9465088522
 31
0.0
  0
LINE
  5
269
330
228
100
AcDbEntity
  8
0
  6
Continuous
 62
     7
100
AcDbLine
 10
132.8955754369
 20
61.55282590149999
 30
0.0
 11
133.9745979244
 21
62.63184838899999
 31
0.0
  0
LINE
  5
26A
330
228
100
AcDbEntity
  8
0
  6
Continuous
 62
     7
100
AcDbLine
 10
117.824329126
 20
47.08497737720001
 30
0.0
 11
119.3653329408
 21
48.6259811919
 31
0.0
  0
LINE
  5
26B
330
228
100
AcDbEntity
  8
0
  6
Continuous
 62
     7
100
AcDbLine
 10
125.5293481999
 20
54.7899964511
 30
0.0
 11
126.5566886116
 21
55.81733686279999
 31
0.0
  0
LINE
  5
26C
330
228
100
AcDbEntity
  8
0
  6
Continuous
 62
     7
100
AcDbLine
 10
132.7206993355
 20
61.98134758670001
 30
0.0
 11
133.8841508705
 21
63.1447991217
 31
0.0
  0
LINE
  5
26D
330
228
100
AcDbEntity
  8
0
  6
Continuous
 62
     7
100
AcDbLine
 10
117.0917595596
 20
46.9558055974
 30
0.0
 11
118.6327633743
 21
48.49680941209999
 31
0.0
  0
LINE
  5
26E
330
228
100
AcDbEntity
  8
0
  6
Continuous
 62
     7
100
AcDbLine
 10
124.7967786334
 20
54.6608246713
 30
0.0
 11
125.8241188356
 21
55.6881648734
 31
0.0
  0
LINE
  5
26F
330
228
100
AcDbEntity
  8
0
  6
Continuous
 62
     7
100
AcDbLine
 10
131.9881297691
 20
61.85217580689999
 30
0.0
 11
133.5291335838
 21
63.39317962169999
 31
0.0
  0
LINE
  5
270
330
228
100
AcDbEntity
  8
0
  6
Continuous
 62
     7
100
AcDbLine
 10
116.3591899931
 20
46.8266338176
 30
0.0
 11
117.9001938079
 21
48.36763763229999
 31
0.0
  0
LINE
  5
271
330
228
100
AcDbEntity
  8
0
  6
Continuous
 62
     7
100
AcDbLine
 10
124.064209067
 20
54.5316528914
 30
0.0
 11
125.0915490596
 21
55.558992884
 31
0.0
  0
LINE
  5
272
330
228
100
AcDbEntity
  8
0
  6
Continuous
 62
     7
100
AcDbLine
 10
131.2555602027
 20
61.7230040271
 30
0.0
 11
132.7965640174
 21
63.2640078418
 31
0.0
  0
LINE
  5
273
330
228
100
AcDbEntity
  8
0
  6
Continuous
 62
     7
100
AcDbLine
 10
115.6266204267
 20
46.69746203779999
 30
0.0
 11
117.1676242415
 21
48.2384658525
 31
0.0
  0
LINE
  5
274
330
228
100
AcDbEntity
  8
0
  6
Continuous
 62
     7
100
AcDbLine
 10
123.3316395006
 20
54.40248111159999
 30
0.0
 11
124.3589792835
 21
55.4298208946
 31
0.0
  0
LINE
  5
275
330
228
100
AcDbEntity
  8
0
  6
Continuous
 62
     7
100
AcDbLine
 10
130.5229906362
 20
61.59383224729999
 30
0.0
 11
132.063994451
 21
63.134836062
 31
0.0
  0
LINE
  5
276
330
228
100
AcDbEntity
  8
0
  6
Continuous
 62
     7
100
AcDbLine
 10
114.8940508603
 20
46.568290258
 30
0.0
 11
116.4350546751
 21
48.1092940727
 31
0.0
  0
LINE
  5
277
330
228
100
AcDbEntity
  8
0
  6
Continuous
 62
     7
100
AcDbLine
 10
122.5990699342
 20
54.2733093318
 30
0.0
 11
123.6264095075
 21
55.30064890520001
 31
0.0
  0
LINE
  5
278
330
228
100
AcDbEntity
  8
0
  6
Continuous
 62
     7
100
AcDbLine
 10
129.7904210698
 20
61.4646604675
 30
0.0
 11
131.3314248846
 21
63.0056642822
 31
0.0
  0
LINE
  5
279
330
228
100
AcDbEntity
  8
0
  6
Continuous
 62
     7
100
AcDbLine
 10
114.1614812939
 20
46.4391184781
 30
0.0
 11
115.7024851087
 21
47.9801222929
 31
0.0
  0
LINE
  5
27A
330
228
100
AcDbEntity
  8
0
  6
Continuous
 62
     7
100
AcDbLine
 10
121.8665003678
 20
54.144137552
 30
0.0
 11
122.8938397315
 21
55.17147691569999
 31
0.0
  0
LINE
  5
27B
330
228
100
AcDbEntity
  8
0
  6
Continuous
 62
     7
100
AcDbLine
 10
129.0578515034
 20
61.33548868770001
 30
0.0
 11
130.5988553182
 21
62.8764925024
 31
0.0
  0
LINE
  5
27C
330
228
100
AcDbEntity
  8
0
  6
Continuous
 62
     7
100
AcDbLine
 10
113.4289117275
 20
46.3099466983
 30
0.0
 11
114.9699155422
 21
47.8509505131
 31
0.0
  0
LINE
  5
27D
330
228
100
AcDbEntity
  8
0
  6
Continuous
 62
     7
100
AcDbLine
 10
121.1339308014
 20
54.0149657722
 30
0.0
 11
122.1612699555
 21
55.0423049263
 31
0.0
  0
LINE
  5
27E
330
228
100
AcDbEntity
  8
0
  6
Continuous
 62
     7
100
AcDbLine
 10
128.325281937
 20
61.20631690789999
 30
0.0
 11
129.8662857518
 21
62.7473207226
 31
0.0
  0
LINE
  5
27F
330
228
100
AcDbEntity
  8
0
  6
Continuous
 62
     7
100
AcDbLine
 10
112.6963421611
 20
46.18077491850001
 30
0.0
 11
114.2373459758
 21
47.7217787333
 31
0.0
  0
LINE
  5
280
330
228
100
AcDbEntity
  8
0
  6
Continuous
 62
     7
100
AcDbLine
 10
120.4013612349
 20
53.8857939924
 30
0.0
 11
121.4287001794
 21
54.9131329369
 31
0.0
  0
LINE
  5
281
330
228
100
AcDbEntity
  8
0
  6
Continuous
 62
     7
100
AcDbLine
 10
127.5927123706
 20
61.07714512800001
 30
0.0
 11
129.1337161853
 21
62.6181489428
 31
0.0
  0
LINE
  5
282
330
228
100
AcDbEntity
  8
0
  6
Continuous
 62
     7
100
AcDbLine
 10
111.9637725946
 20
46.05160313869999
 30
0.0
 11
113.5047764094
 21
47.5926069535
 31
0.0
  0
LINE
  5
283
330
228
100
AcDbEntity
  8
0
  6
Continuous
 62
     7
100
AcDbLine
 10
119.6687916685
 20
53.7566222126
 30
0.0
 11
120.6961304034
 21
54.78396094749999
 31
0.0
  0
LINE
  5
284
330
228
100
AcDbEntity
  8
0
  6
Continuous
 62
     7
100
AcDbLine
 10
126.8601428041
 20
60.94797334819999
 30
0.0
 11
128.4011466189
 21
62.488977163
 31
0.0
  0
LINE
  5
285
330
228
100
AcDbEntity
  8
0
  6
Continuous
 62
     7
100
AcDbLine
 10
111.2312030282
 20
45.9224313589
 30
0.0
 11
112.772206843
 21
47.46343517369999
 31
0.0
  0
LINE
  5
286
330
228
100
AcDbEntity
  8
0
  6
Continuous
 62
     7
100
AcDbLine
 10
118.9362221021
 20
53.6274504328
 30
0.0
 11
119.9635606274
 21
54.65478895810001
 31
0.0
  0
LINE
  5
287
330
228
100
AcDbEntity
  8
0
  6
Continuous
 62
     7
100
AcDbLine
 10
126.1275732377
 20
60.8188015684
 30
0.0
 11
127.6685770525
 21
62.35980538319999
 31
0.0
  0
LINE
  5
288
330
228
100
AcDbEntity
  8
0
  6
Continuous
 62
     7
100
AcDbLine
 10
110.6798822557
 20
45.974508373
 30
0.0
 11
112.0396372766
 21
47.3342633939
 31
0.0
  0
LINE
  5
289
330
228
100
AcDbEntity
  8
0
  6
Continuous
 62
     7
100
AcDbLine
 10
118.2036525357
 20
53.49827865299999
 30
0.0
 11
119.2309908513
 21
54.5256169687
 31
0.0
  0
LINE
  5
28A
330
228
100
AcDbEntity
  8
0
  6
Continuous
 62
     7
100
AcDbLine
 10
125.3950036713
 20
60.6896297886
 30
0.0
 11
126.9360074861
 21
62.2306336034
 31
0.0
  0
LINE
  5
28B
330
228
100
AcDbEntity
  8
0
  6
Continuous
 62
     7
100
AcDbLine
 10
110.5894352018
 20
46.48745910569999
 30
0.0
 11
111.6684576893
 21
47.5664815932
 31
0.0
  0
LINE
  5
28C
330
228
100
AcDbEntity
  8
0
  6
Continuous
 62
     7
100
AcDbLine
 10
117.4710829693
 20
53.36910687319999
 30
0.0
 11
118.4984210753
 21
54.39644497919999
 31
0.0
  0
LINE
  5
28D
330
228
100
AcDbEntity
  8
0
  6
Continuous
 62
     7
100
AcDbLine
 10
124.6624341049
 20
60.56045800879999
 30
0.0
 11
126.2034379197
 21
62.10146182359999
 31
0.0
  0
LINE
  5
28E
330
228
100
AcDbEntity
  8
0
  6
Continuous
 62
     7
100
AcDbLine
 10
110.4989881478
 20
47.0004098384
 30
0.0
 11
111.5780106353
 21
48.0794323259
 31
0.0
  0
LINE
  5
28F
330
228
100
AcDbEntity
  8
0
  6
Continuous
 62
     7
100
AcDbLine
 10
116.7385134028
 20
53.2399350934
 30
0.0
 11
117.7658512993
 21
54.2672729898
 31
0.0
  0
LINE
  5
290
330
228
100
AcDbEntity
  8
0
  6
Continuous
 62
     7
100
AcDbLine
 10
123.9298645385
 20
60.43128622899999
 30
0.0
 11
125.4708683533
 21
61.9722900438
 31
0.0
  0
LINE
  5
291
330
228
100
AcDbEntity
  8
0
  6
Continuous
 62
     7
100
AcDbLine
 10
110.4085410939
 20
47.513360571
 30
0.0
 11
111.4875635814
 21
48.5923830585
 31
0.0
  0
LINE
  5
292
330
228
100
AcDbEntity
  8
0
  6
Continuous
 62
     7
100
AcDbLine
 10
116.0059438364
 20
53.11076331359999
 30
0.0
 11
117.0332815233
 21
54.1381010004
 31
0.0
  0
LINE
  5
293
330
228
100
AcDbEntity
  8
0
  6
Continuous
 62
     7
100
AcDbLine
 10
123.1972949721
 20
60.30211444919999
 30
0.0
 11
124.7382987868
 21
61.843118264
 31
0.0
  0
LINE
  5
294
330
228
100
AcDbEntity
  8
0
  6
Continuous
 62
     7
100
AcDbLine
 10
110.3180940399
 20
48.0263113037
 30
0.0
 11
111.3971165274
 21
49.1053337912
 31
0.0
  0
LINE
  5
295
330
228
100
AcDbEntity
  8
0
  6
Continuous
 62
     7
100
AcDbLine
 10
115.27337427
 20
52.9815915338
 30
0.0
 11
116.3007117472
 21
54.008929011
 31
0.0
  0
LINE
  5
296
330
228
100
AcDbEntity
  8
0
  6
Continuous
 62
     7
100
AcDbLine
 10
122.4647254056
 20
60.17294266939999
 30
0.0
 11
124.0057292204
 21
61.7139464842
 31
0.0
  0
LINE
  5
297
330
228
100
AcDbEntity
  8
0
  6
Continuous
 62
     7
100
AcDbLine
 10
110.227646986
 20
48.5392620364
 30
0.0
 11
111.3066694735
 21
49.6182845239
 31
0.0
  0
LINE
  5
298
330
228
100
AcDbEntity
  8
0
  6
Continuous
 62
     7
100
AcDbLine
 10
114.5408047036
 20
52.85241975399999
 30
0.0
 11
115.5681419712
 21
53.8797570216
 31
0.0
  0
LINE
  5
299
330
228
100
AcDbEntity
  8
0
  6
Continuous
 62
     7
100
AcDbLine
 10
121.7321558392
 20
60.0437708896
 30
0.0
 11
123.273159654
 21
61.5847747044
 31
0.0
  0
LINE
  5
29A
330
228
100
AcDbEntity
  8
0
  6
Continuous
 62
     7
100
AcDbLine
 10
110.137199932
 20
49.05221276899999
 30
0.0
 11
111.2162224196
 21
50.1312352565
 31
0.0
  0
LINE
  5
29B
330
228
100
AcDbEntity
  8
0
  6
Continuous
 62
     7
100
AcDbLine
 10
113.8082351372
 20
52.7232479742
 30
0.0
 11
114.8355721952
 21
53.7505850322
 31
0.0
  0
LINE
  5
29C
330
228
100
AcDbEntity
  8
0
  6
Continuous
 62
     7
100
AcDbLine
 10
120.9995862728
 20
59.91459910979999
 30
0.0
 11
122.5405900876
 21
61.4556029246
 31
0.0
  0
LINE
  5
29D
330
228
100
AcDbEntity
  8
0
  6
Continuous
 62
     7
100
AcDbLine
 10
110.0467528781
 20
49.5651635017
 30
0.0
 11
111.1257753656
 21
50.6441859892
 31
0.0
  0
LINE
  5
29E
330
228
100
AcDbEntity
  8
0
  6
Continuous
 62
     7
100
AcDbLine
 10
113.0756655708
 20
52.5940761944
 30
0.0
 11
114.1030024191
 21
53.6214130428
 31
0.0
  0
LINE
  5
29F
330
228
100
AcDbEntity
  8
0
  6
Continuous
 62
     7
100
AcDbLine
 10
120.2670167064
 20
59.78542733
 30
0.0
 11
121.8080205212
 21
61.3264311448
 31
0.0
  0
LINE
  5
2A0
330
228
100
AcDbEntity
  8
0
  6
Continuous
 62
     7
100
AcDbLine
 10
109.9563058241
 20
50.07811423439999
 30
0.0
 11
111.0353283117
 21
51.1571367219
 31
0.0
  0
LINE
  5
2A1
330
228
100
AcDbEntity
  8
0
  6
Continuous
 62
     7
100
AcDbLine
 10
112.3430960043
 20
52.4649044146
 30
0.0
 11
113.3704326431
 21
53.4922410533
 31
0.0
  0
LINE
  5
2A2
330
228
100
AcDbEntity
  8
0
  6
Continuous
 62
     7
100
AcDbLine
 10
119.53444714
 20
59.6562555502
 30
0.0
 11
121.0754509547
 21
61.197259365
 31
0.0
  0
LINE
  5
2A3
330
228
100
AcDbEntity
  8
0
  6
Continuous
 62
     7
100
AcDbLine
 10
109.8658587702
 20
50.591064967
 30
0.0
 11
110.9448812577
 21
51.6700874546
 31
0.0
  0
LINE
  5
2A4
330
228
100
AcDbEntity
  8
0
  6
Continuous
 62
     7
100
AcDbLine
 10
111.6105264379
 20
52.3357326348
 30
0.0
 11
112.6378628671
 21
53.3630690639
 31
0.0
  0
LINE
  5
2A5
330
228
100
AcDbEntity
  8
0
  6
Continuous
 62
     7
100
AcDbLine
 10
118.8018775736
 20
59.5270837704
 30
0.0
 11
120.3428813883
 21
61.0680875852
 31
0.0
  0
LINE
  5
2A6
330
228
100
AcDbEntity
  8
0
  6
Continuous
 62
     7
100
AcDbLine
 10
109.7754117163
 20
51.1040156997
 30
0.0
 11
110.8544342038
 21
52.1830381872
 31
0.0
  0
LINE
  5
2A7
330
228
100
AcDbEntity
  8
0
  6
Continuous
 62
     7
100
AcDbLine
 10
110.8779568715
 20
52.20656085489999
 30
0.0
 11
111.9052930911
 21
53.2338970745
 31
0.0
  0
LINE
  5
2A8
330
228
100
AcDbEntity
  8
0
  6
Continuous
 62
     7
100
AcDbLine
 10
118.0693080071
 20
59.3979119906
 30
0.0
 11
119.6103118219
 21
60.9389158054
 31
0.0
  0
LINE
  5
2A9
330
228
100
AcDbEntity
  8
0
  6
Continuous
 62
     7
100
AcDbLine
 10
109.6849646623
 20
51.61696643239999
 30
0.0
 11
111.172723315
 21
53.1047250851
 31
0.0
  0
LINE
  5
2AA
330
228
100
AcDbEntity
  8
0
  6
Continuous
 62
     7
100
AcDbLine
 10
117.3367384407
 20
59.26874021079999
 30
0.0
 11
118.8777422555
 21
60.8097440255
 31
0.0
  0
LINE
  5
2AB
330
228
100
AcDbEntity
  8
0
  6
Continuous
 62
     7
100
AcDbLine
 10
109.5945176084
 20
52.129917165
 30
0.0
 11
110.6735400959
 21
53.2089396526
 31
0.0
  0
LINE
  5
2AC
330
228
100
AcDbEntity
  8
0
  6
Continuous
 62
     7
100
AcDbLine
 10
116.6041688743
 20
59.139568431
 30
0.0
 11
118.1451726891
 21
60.6805722457
 31
0.0
  0
LINE
  5
2AD
330
228
100
AcDbEntity
  8
0
  6
Continuous
 62
     7
100
AcDbLine
 10
109.5040705544
 20
52.6428678977
 30
0.0
 11
110.5830930419
 21
53.72189038520001
 31
0.0
  0
LINE
  5
2AE
330
228
100
AcDbEntity
  8
0
  6
Continuous
 62
     7
100
AcDbLine
 10
115.8715993079
 20
59.01039665119999
 30
0.0
 11
117.4126031227
 21
60.5514004659
 31
0.0
  0
LINE
  5
2AF
330
228
100
AcDbEntity
  8
0
  6
Continuous
 62
     7
100
AcDbLine
 10
109.4136235005
 20
53.1558186304
 30
0.0
 11
110.492645988
 21
54.23484111789999
 31
0.0
  0
LINE
  5
2B0
330
228
100
AcDbEntity
  8
0
  6
Continuous
 62
     7
100
AcDbLine
 10
115.1390297415
 20
58.8812248714
 30
0.0
 11
116.6800335562
 21
60.4222286861
 31
0.0
  0
LINE
  5
2B1
330
228
100
AcDbEntity
  8
0
  6
Continuous
 62
     7
100
AcDbLine
 10
109.3231764465
 20
53.668769363
 30
0.0
 11
110.4021989341
 21
54.7477918506
 31
0.0
  0
LINE
  5
2B2
330
228
100
AcDbEntity
  8
0
  6
Continuous
 62
     7
100
AcDbLine
 10
114.406460175
 20
58.7520530915
 30
0.0
 11
115.9474639898
 21
60.2930569063
 31
0.0
  0
LINE
  5
2B3
330
228
100
AcDbEntity
  8
0
  6
Continuous
 62
     7
100
AcDbLine
 10
109.2327293926
 20
54.1817200957
 30
0.0
 11
110.3117518801
 21
55.2607425832
 31
0.0
  0
LINE
  5
2B4
330
228
100
AcDbEntity
  8
0
  6
Continuous
 62
     7
100
AcDbLine
 10
113.6738906086
 20
58.6228813117
 30
0.0
 11
115.2148944234
 21
60.16388512649999
 31
0.0
  0
LINE
  5
2B5
330
228
100
AcDbEntity
  8
0
  6
Continuous
 62
     7
100
AcDbLine
 10
109.1422823387
 20
54.6946708284
 30
0.0
 11
110.2213048262
 21
55.7736933159
 31
0.0
  0
LINE
  5
2B6
330
228
100
AcDbEntity
  8
0
  6
Continuous
 62
     7
100
AcDbLine
 10
112.9413210422
 20
58.4937095319
 30
0.0
 11
114.482324857
 21
60.0347133467
 31
0.0
  0
LINE
  5
2B7
330
228
100
AcDbEntity
  8
0
  6
Continuous
 62
     7
100
AcDbLine
 10
109.0518352847
 20
55.20762156109999
 30
0.0
 11
110.1308577722
 21
56.2866440486
 31
0.0
  0
LINE
  5
2B8
330
228
100
AcDbEntity
  8
0
  6
Continuous
 62
     7
100
AcDbLine
 10
112.2087514758
 20
58.36453775209999
 30
0.0
 11
113.7497552906
 21
59.9055415669
 31
0.0
  0
LINE
  5
2B9
330
228
100
AcDbEntity
  8
0
  6
Continuous
 62
     7
100
AcDbLine
 10
108.9613882308
 20
55.7205722937
 30
0.0
 11
110.0404107183
 21
56.7995947812
 31
0.0
  0
LINE
  5
2BA
330
228
100
AcDbEntity
  8
0
  6
Continuous
 62
     7
100
AcDbLine
 10
111.4761819094
 20
58.23536597229999
 30
0.0
 11
113.0171857241
 21
59.7763697871
 31
0.0
  0
LINE
  5
2BB
330
228
100
AcDbEntity
  8
0
  6
Continuous
 62
     7
100
AcDbLine
 10
108.8709411768
 20
56.2335230264
 30
0.0
 11
109.9499636643
 21
57.31254551390001
 31
0.0
  0
LINE
  5
2BC
330
228
100
AcDbEntity
  8
0
  6
Continuous
 62
     7
100
AcDbLine
 10
110.743612343
 20
58.1061941925
 30
0.0
 11
112.2846161577
 21
59.6471980073
 31
0.0
  0
LINE
  5
2BD
330
228
100
AcDbEntity
  8
0
  6
Continuous
 62
     7
100
AcDbLine
 10
108.7804941229
 20
56.7464737591
 30
0.0
 11
109.8595166104
 21
57.82549624659999
 31
0.0
  0
LINE
  5
2BE
330
228
100
AcDbEntity
  8
0
  6
Continuous
 62
     7
100
AcDbLine
 10
110.0110427765
 20
57.9770224127
 30
0.0
 11
111.5520465913
 21
59.5180262275
 31
0.0
  0
LINE
  5
2BF
330
228
100
AcDbEntity
  8
0
  6
Continuous
 62
     7
100
AcDbLine
 10
108.6900470689
 20
57.2594244917
 30
0.0
 11
110.8194770249
 21
59.38885444770001
 31
0.0
  0
LINE
  5
2C0
330
228
100
AcDbEntity
  8
0
  6
Continuous
 62
     7
100
AcDbLine
 10
108.599600015
 20
57.7723752244
 30
0.0
 11
110.0869074585
 21
59.2596826679
 31
0.0
  0
LINE
  5
2C1
330
228
100
AcDbEntity
  8
0
  6
Continuous
 62
     7
100
AcDbLine
 10
108.509152961
 20
58.2853259571
 30
0.0
 11
109.3543378921
 21
59.1305108881
 31
0.0
  0
LINE
  5
2C2
330
228
100
AcDbEntity
  8
0
  6
Continuous
 62
     7
100
AcDbLine
 10
108.4187059071
 20
58.7982766897
 30
0.0
 11
108.6217683256
 21
59.0013391083
 31
0.0
  0
ENDBLK
  5
2C3
330
228
100
AcDbEntity
  8
0
  6
ByBlock
 62
     0
100
AcDbBlockEnd
  0
BLOCK
  5
2C4
330
229
100
AcDbEntity
  8
0
  6
Continuous
 62
     7
100
AcDbBlockBegin
  2
SYMBOL_2_BL0
 70
     0
 10
160.6671950593
 20
55.33513945180001
 30
0.0
  3
SYMBOL_2_BL0
  1

  0
TEXT
  5
2C5
330
229
100
AcDbEntity
  8
0
  6
Continuous
 62
     7
100
AcDbText
 10
144.4194099831
 20
63.1085728429
 30
0.0
 40
0.5
  1
Infomations Techniques/Technical Infomations
  7
TEXTSTYLE_2
100
AcDbText
  0
TEXT
  5
2C6
330
229
100
AcDbEntity
  8
0
  6
Continuous
 62
     7
100
AcDbText
 10
144.6671950593
 20
61.6684727852
 30
0.0
 40
0.6666666667
  1
NOMBRE DE JETS:     
  7
TEXTSTYLE_2
100
AcDbText
  0
TEXT
  5
2C7
330
229
100
AcDbEntity
  8
0
  6
Continuous
 62
     7
100
AcDbText
 10
154.5116395037
 20
61.6684727852
 30
0.0
 40
0.6666666667
  1
35
  7
TEXTSTYLE_2
100
AcDbText
  0
TEXT
  5
2C8
330
229
100
AcDbEntity
  8
0
  6
Continuous
 62
     7
100
AcDbText
 10
144.6671950593
 20
60.6684727852
 30
0.0
 40
0.6666666667
  1
 
  7
TEXTSTYLE_2
100
AcDbText
  0
TEXT
  5
2C9
330
229
100
AcDbEntity
  8
0
  6
Continuous
 62
     7
100
AcDbText
 10
144.6671950593
 20
59.6684727852
 30
0.0
 40
0.6666666667
  1
NIVEAU D'EAU              GALLONS(US)        LITRES        GALLONS(UK)
  7
TEXTSTYLE_2
100
AcDbText
  0
TEXT
  5
2CA
330
229
100
AcDbEntity
  8
0
  6
Continuous
 62
     7
100
AcDbText
 10
144.6671950593
 20
58.6684727852
 30
0.0
 40
0.6666666667
  1
PLEIN
  7
TEXTSTYLE_2
100
AcDbText
  0
TEXT
  5
2CB
330
229
100
AcDbEntity
  8
0
  6
Continuous
 62
     7
100
AcDbText
 10
144.6671950593
 20
57.6684727852
 30
0.0
 40
0.6666666667
  1
HAUT T.PLEIN
  7
TEXTSTYLE_2
100
AcDbText
  0
TEXT
  5
2CC
330
229
100
AcDbEntity
  8
0
  6
Continuous
 62
     7
100
AcDbText
 10
144.6671950593
 20
56.6684727852
 30
0.0
 40
0.6666666667
  1
MILIEU T.PLEIN
  7
TEXTSTYLE_2
100
AcDbText
  0
TEXT
  5
2CD
330
229
100
AcDbEntity
  8
0
  6
Continuous
 62
     7
100
AcDbText
 10
144.6671950593
 20
55.6684727852
 30
0.0
 40
0.6666666667
  1
BAS T.PLEIN
  7
TEXTSTYLE_2
100
AcDbText
  0
TEXT
  5
2CE
330
229
100
AcDbEntity
  8
0
  6
Continuous
 62
     7
100
AcDbText
 10
144.6671950593
 20
54.6684727852
 30
0.0
 40
0.6666666667
  1
3" EN BAS T.PLEIN
  7
TEXTSTYLE_2
100
AcDbText
  0
TEXT
  5
2CF
330
229
100
AcDbEntity
  8
0
  6
Continuous
 62
     7
100
AcDbText
 10
144.6671950593
 20
53.6684727852
 30
0.0
 40
0.6666666667
  1
 
  7
TEXTSTYLE_2
100
AcDbText
  0
TEXT
  5
2D0
330
229
100
AcDbEntity
  8
0
  6
Continuous
 62
     7
100
AcDbText
 10
144.4670335537
 20
53.1216858603
 30
0.0
 40
0.5
  1
Legende/Legend
  7
TEXTSTYLE_2
100
AcDbText
  0
TEXT
  5
2D1
330
229
100
AcDbEntity
  8
0
  6
Continuous
 62
     7
100
AcDbText
 10
150.9958684977
 20
51.6104208826
 30
0.0
 40
0.6666666667
  1
ZONE DE ROBINETTERIE
  7
TEXTSTYLE_2
100
AcDbText
  0
TEXT
  5
2D2
330
229
100
AcDbEntity
  8
0
  6
Continuous
 62
     7
100
AcDbText
 10
145.9161439308
 20
50.11517636819999
 30
0.0
 40
0.6666666667
  1
L   :  SYSTEME LED       DC   :  DOUBLE DOSSIER CHAUFFANT
  7
TEXTSTYLE_2
100
AcDbText
  0
TEXT
  5
2D3
330
229
100
AcDbEntity
  8
0
  6
Continuous
 62
     7
100
AcDbText
 10
145.9161439308
 20
48.7818430349
 30
0.0
 40
0.6666666667
  1
C   :  CONTROLE
  7
TEXTSTYLE_2
100
AcDbText
  0
TEXT
  5
2D4
330
229
100
AcDbEntity
  8
0
  6
Continuous
 62
     7
100
AcDbText
 10
145.9161439308
 20
47.44850970159999
 30
0.0
 40
0.6666666667
  1
T   :  MOTEUR
  7
TEXTSTYLE_2
100
AcDbText
  0
TEXT
  5
2D5
330
229
100
AcDbEntity
  8
0
  6
Continuous
 62
     7
100
AcDbText
 10
157.4998917586
 20
58.6684727852
 30
0.0
 40
0.6666666667
  1
90
  7
TEXTSTYLE_2
100
AcDbText
  0
TEXT
  5
2D6
330
229
100
AcDbEntity
  8
0
  6
Continuous
 62
     7
100
AcDbText
 10
157.4998917586
 20
57.6684727852
 30
0.0
 40
0.6666666667
  1
69
  7
TEXTSTYLE_2
100
AcDbText
  0
TEXT
  5
2D7
330
229
100
AcDbEntity
  8
0
  6
Continuous
 62
     7
100
AcDbText
 10
157.4998917586
 20
56.6684727852
 30
0.0
 40
0.6666666667
  1
68
  7
TEXTSTYLE_2
100
AcDbText
  0
TEXT
  5
2D8
330
229
100
AcDbEntity
  8
0
  6
Continuous
 62
     7
100
AcDbText
 10
157.4998917586
 20
55.6684727852
 30
0.0
 40
0.6666666667
  1
66
  7
TEXTSTYLE_2
100
AcDbText
  0
TEXT
  5
2D9
330
229
100
AcDbEntity
  8
0
  6
Continuous
 62
     7
100
AcDbText
 10
157.4998917586
 20
54.6684727852
 30
0.0
 40
0.6666666667
  1
51
  7
TEXTSTYLE_2
100
AcDbText
  0
TEXT
  5
2DA
330
229
100
AcDbEntity
  8
0
  6
Continuous
 62
     7
100
AcDbText
 10
164.4200977023
 20
58.6855521873
 30
0.0
 40
0.6666666667
  1
341
  7
TEXTSTYLE_2
100
AcDbText
  0
TEXT
  5
2DB
330
229
100
AcDbEntity
  8
0
  6
Continuous
 62
     7
100
AcDbText
 10
164.4200977023
 20
57.6855521873
 30
0.0
 40
0.6666666667
  1
260
  7
TEXTSTYLE_2
100
AcDbText
  0
TEXT
  5
2DC
330
229
100
AcDbEntity
  8
0
  6
Continuous
 62
     7
100
AcDbText
 10
164.4200977023
 20
56.68555218729999
 30
0.0
 40
0.6666666667
  1
256
  7
TEXTSTYLE_2
100
AcDbText
  0
TEXT
  5
2DD
330
229
100
AcDbEntity
  8
0
  6
Continuous
 62
     7
100
AcDbText
 10
164.4200977023
 20
55.6855521873
 30
0.0
 40
0.6666666667
  1
251
  7
TEXTSTYLE_2
100
AcDbText
  0
TEXT
  5
2DE
330
229
100
AcDbEntity
  8
0
  6
Continuous
 62
     7
100
AcDbText
 10
164.4200977023
 20
54.68555218729999
 30
0.0
 40
0.6666666667
  1
192
  7
TEXTSTYLE_2
100
AcDbText
  0
TEXT
  5
2DF
330
229
100
AcDbEntity
  8
0
  6
Continuous
 62
     7
100
AcDbText
 10
171.3647366398
 20
58.6684727852
 30
0.0
 40
0.6666666667
  1
75
  7
TEXTSTYLE_2
100
AcDbText
  0
TEXT
  5
2E0
330
229
100
AcDbEntity
  8
0
  6
Continuous
 62
     7
100
AcDbText
 10
171.3647366398
 20
57.6684727852
 30
0.0
 40
0.6666666667
  1
57
  7
TEXTSTYLE_2
100
AcDbText
  0
TEXT
  5
2E1
330
229
100
AcDbEntity
  8
0
  6
Continuous
 62
     7
100
AcDbText
 10
171.3647366398
 20
56.6684727852
 30
0.0
 40
0.6666666667
  1
56
  7
TEXTSTYLE_2
100
AcDbText
  0
TEXT
  5
2E2
330
229
100
AcDbEntity
  8
0
  6
Continuous
 62
     7
100
AcDbText
 10
171.3647366398
 20
55.6684727852
 30
0.0
 40
0.6666666667
  1
55
  7
TEXTSTYLE_2
100
AcDbText
  0
TEXT
  5
2E3
330
229
100
AcDbEntity
  8
0
  6
Continuous
 62
     7
100
AcDbText
 10
171.3647366398
 20
54.6684727852
 30
0.0
 40
0.6666666667
  1
42
  7
TEXTSTYLE_2
100
AcDbText
  0
LINE
  5
2E4
330
229
100
AcDbEntity
  8
0
  6
Continuous
 62
     7
100
AcDbLine
 10
144.0005283926
 20
64.0018061185
 30
0.0
 11
144.0005283926
 21
46.6684727852
 31
0.0
  0
LINE
  5
2E5
330
229
100
AcDbEntity
  8
0
  6
Continuous
 62
     7
100
AcDbLine
 10
144.0005283926
 20
64.0018061185
 30
0.0
 11
177.3338617259
 21
64.0018061185
 31
0.0
  0
LINE
  5
2E6
330
229
100
AcDbEntity
  8
0
  6
Continuous
 62
     7
100
AcDbLine
 10
177.3338617259
 20
64.0018061185
 30
0.0
 11
177.3338617259
 21
46.6684727852
 31
0.0
  0
LINE
  5
2E7
330
229
100
AcDbEntity
  8
0
  6
Continuous
 62
     7
100
AcDbLine
 10
144.0005283926
 20
46.6684727852
 30
0.0
 11
177.3338617259
 21
46.6684727852
 31
0.0
  0
LINE
  5
2E8
330
229
100
AcDbEntity
  8
0
  6
Continuous
 62
     7
100
AcDbLine
 10
145.3338617259
 20
54.0018061185
 30
0.0
 11
176.0005283926
 21
54.0018061185
 31
0.0
  0
LINE
  5
2E9
330
229
100
AcDbEntity
  8
0
  6
Continuous
 62
     7
100
AcDbLine
 10
145.3338617259
 20
61.0018061185
 30
0.0
 11
176.0005283926
 21
61.0018061185
 31
0.0
  0
LINE
  5
2EA
330
229
100
AcDbEntity
  8
0
  6
Continuous
 62
     7
100
AcDbLine
 10
144.8094349519
 20
52.37997062279999
 30
0.0
 11
144.4404142095
 21
52.0109498805
 31
0.0
  0
LINE
  5
2EB
330
229
100
AcDbEntity
  8
0
  6
Continuous
 62
     7
100
AcDbLine
 10
145.4761016185
 20
52.37997062279999
 30
0.0
 11
144.6780858281
 21
51.5819548324
 31
0.0
  0
LINE
  5
2EC
330
229
100
AcDbEntity
  8
0
  6
Continuous
 62
     7
100
AcDbLine
 10
146.1427682852
 20
52.37997062279999
 30
0.0
 11
145.3447524948
 21
51.5819548324
 31
0.0
  0
LINE
  5
2ED
330
229
100
AcDbEntity
  8
0
  6
Continuous
 62
     7
100
AcDbLine
 10
146.8094349519
 20
52.37997062279999
 30
0.0
 11
146.0114191614
 21
51.5819548324
 31
0.0
  0
LINE
  5
2EE
330
229
100
AcDbEntity
  8
0
  6
Continuous
 62
     7
100
AcDbLine
 10
147.4761016185
 20
52.37997062279999
 30
0.0
 11
146.6780858281
 21
51.5819548324
 31
0.0
  0
LINE
  5
2EF
330
229
100
AcDbEntity
  8
0
  6
Continuous
 62
     7
100
AcDbLine
 10
148.1427682852
 20
52.37997062279999
 30
0.0
 11
147.3447524948
 21
51.5819548324
 31
0.0
  0
LINE
  5
2F0
330
229
100
AcDbEntity
  8
0
  6
Continuous
 62
     7
100
AcDbLine
 10
148.8094349519
 20
52.37997062279999
 30
0.0
 11
148.0114191614
 21
51.5819548324
 31
0.0
  0
LINE
  5
2F1
330
229
100
AcDbEntity
  8
0
  6
Continuous
 62
     7
100
AcDbLine
 10
149.4761016185
 20
52.37997062279999
 30
0.0
 11
148.6780858281
 21
51.5819548324
 31
0.0
  0
LINE
  5
2F2
330
229
100
AcDbEntity
  8
0
  6
Continuous
 62
     7
100
AcDbLine
 10
150.1427682852
 20
52.37997062279999
 30
0.0
 11
149.3447524948
 21
51.5819548324
 31
0.0
  0
LINE
  5
2F3
330
229
100
AcDbEntity
  8
0
  6
Continuous
 62
     7
100
AcDbLine
 10
150.5862557194
 20
52.1567913903
 30
0.0
 11
150.0114191614
 21
51.5819548324
 31
0.0
  0
ELLIPSE
  5
2F4
330
229
100
AcDbEntity
  8
0
  6
Continuous
 62
     7
100
AcDbEllipse
 10
146.1459308748
 20
50.4327538254
 30
0.0
 11
1.0473539356
 21
0.0
 31
0.0
210
0.0
220
0.0
230
1.0
 40
0.4938647983
 41
0.0
 42
6.283185307179586
  0
ELLIPSE
  5
2F5
330
229
100
AcDbEntity
  8
0
  6
Continuous
 62
     7
100
AcDbEllipse
 10
146.1459308748
 20
49.0994204921
 30
0.0
 11
1.0473539356
 21
0.0
 31
0.0
210
0.0
220
0.0
230
1.0
 40
0.4938647983
 41
0.0
 42
6.283185307179586
  0
ELLIPSE
  5
2F6
330
229
100
AcDbEntity
  8
0
  6
Continuous
 62
     7
100
AcDbEllipse
 10
146.1459308748
 20
47.7660871588
 30
0.0
 11
1.0473539356
 21
0.0
 31
0.0
210
0.0
220
0.0
230
1.0
 40
0.4938647983
 41
0.0
 42
6.283185307179586
  0
ELLIPSE
  5
2F7
330
229
100
AcDbEntity
  8
0
  6
Continuous
 62
     7
100
AcDbEllipse
 10
157.1645664559
 20
50.4522751825
 30
0.0
 11
1.0473539356
 21
0.0
 31
0.0
210
0.0
220
0.0
230
1.0
 40
0.4938647983
 41
0.0
 42
6.283185307179586
  0
ENDBLK
  5
2F8
330
229
100
AcDbEntity
  8
0
  6
ByBlock
 62
     0
100
AcDbBlockEnd
  0
ENDSEC
  0
SECTION
  2
ENTITIES
  0
LINE
  5
3E0
330
21F
100
AcDbEntity
  8
0
  6
Continuous
 62
     7
100
AcDbLine
 10
59.20910111649999
 20
24.2701708871
 30
0.0
 11
59.6585287701
 21
22.6317999452
 31
0.0
  0
LINE
  5
3E1
330
21F
100
AcDbEntity
  8
0
  6
Continuous
 62
     7
100
AcDbLine
 10
59.5377880418
 20
22.5994475646
 30
0.0
 11
59.10288121819999
 21
24.1954284656
 31
0.0
  0
LWPOLYLINE
  5
44E
330
21F
100
AcDbEntity
  8
0
  6
Continuous
 62
     7
100
AcDbPolyline
 90
       14
 70
     0
 43
0.0
 10
56.6603650981
 20
25.3241548419
 10
55.901976291
 20
25.2849587027
 10
55.1142873181
 20
25.2467820175
 10
54.3142113861
 20
25.2113254913
 10
53.5175583492
 20
25.1802058187
 10
52.7246513753
 20
25.1542417642
 10
51.9312398553
 20
25.1338723054
 10
51.130775765
 20
25.1193366862
 10
50.723788855
 20
25.1143379567
 10
50.3167851372
 20
25.110978447
 10
49.90398093100001
 20
25.109260262
 10
49.4911729413
 20
25.1092528102
 10
49.0741448471
 20
25.1109884429
 10
48.65712844609999
 20
25.1144722311
  0
LINE
  5
140C
330
21F
100
AcDbEntity
  8
0
  6
Continuous
 62
     7
100
AcDbLine
 10
17.6007076979
 20
46.7014501435
 30
0.0
 11
21.7985044046
 21
32.061993276
 31
0.0
  0
LWPOLYLINE
  5
140D
330
21F
100
AcDbEntity
  8
0
  6
Continuous
 62
     7
100
AcDbPolyline
 90
        7
 70
     0
 43
0.0
 10
28.080706251
 20
30.2547102577
 10
28.0941100754
 20
30.2353660027
 10
28.1106195531
 20
30.2184924946
 10
28.126435486
 20
30.2064847213
 10
28.141182901
 20
30.1977399123
 10
28.1551469778
 20
30.1910496659
 10
28.1687828826
 20
30.1856390962
  0
LWPOLYLINE
  5
140E
330
21F
100
AcDbEntity
  8
0
  6
Continuous
 62
     7
100
AcDbPolyline
 90
       26
 70
     0
 43
0.0
 10
28.17717639300001
 20
30.192408748
 10
28.1775844661
 20
30.1917390181
 10
28.1780985707
 20
30.1910168586
 10
28.178741922
 20
30.1902354741
 10
28.1795414462
 20
30.1893895596
 10
28.1805285799
 20
30.1884744225
 10
28.1817414258
 20
30.1874842856
 10
28.1832239594
 20
30.1864138418
 10
28.1850219233
 20
30.185261337
 10
28.1871796912
 20
30.1840289489
 10
28.1897442789
 20
30.182719111
 10
28.1927661372
 20
30.1813339758
 10
28.196311504
 20
30.1798706101
 10
28.2004938652
 20
30.1783122936
 10
28.2054602308
 20
30.1766398356
 10
28.2113877181
 20
30.1748352294
 10
28.2184891905
 20
30.1728814684
 10
28.2270190721
 20
30.1707626988
 10
28.2372799649
 20
30.1684644042
 10
28.2496314052
 20
30.1659733648
 10
28.2645046611
 20
30.1632769635
 10
28.2824124529
 20
30.1603641709
 10
28.3039586854
 20
30.1572264013
 10
28.3298955636
 20
30.1538513475
 10
28.3612682212
 20
30.1502113298
 10
28.3948910613
 20
30.1467190942
  0
LWPOLYLINE
  5
140F
330
21F
100
AcDbEntity
  8
0
  6
Continuous
 62
     7
100
AcDbPolyline
 90
        3
 70
     0
 43
0.0
 10
28.0807056052
 20
30.2547113863
 10
27.8015601307
 20
30.7428264695
 10
27.5229040947
 20
31.2305239344
  0
LINE
  5
1410
330
21F
100
AcDbEntity
  8
0
  6
Continuous
 62
     7
100
AcDbLine
 10
27.9141288333
 20
32.061993276
 30
0.0
 11
27.9550055486
 21
31.9904458908
 31
0.0
  0
LINE
  5
1411
330
21F
100
AcDbEntity
  8
0
  6
Continuous
 62
     7
100
AcDbLine
 10
28.9998301346
 20
30.1616671647
 30
0.0
 11
29.4663297576
 21
29.3451429389
 31
0.0
  0
LINE
  5
1412
330
21F
100
AcDbEntity
  8
0
  6
Continuous
 62
     7
100
AcDbLine
 10
27.5228743742
 20
31.2305760266
 30
0.0
 11
27.5229041059
 21
31.2305239408
 31
0.0
  0
LWPOLYLINE
  5
1413
330
21F
100
AcDbEntity
  8
0
  6
Continuous
 62
     7
100
AcDbPolyline
 90
        6
 70
     0
 43
0.0
 10
27.5149462497
 20
31.3422514004
 10
27.5081540822
 20
31.3189840351
 10
27.5058394815
 20
31.2936448965
 10
27.5085365895
 20
31.2684223192
 10
27.5155985434
 20
31.2454508646
 10
27.522874374
 20
31.2305760265
  0
LINE
  5
1414
330
21F
100
AcDbEntity
  8
0
  6
Continuous
 62
     7
100
AcDbLine
 10
27.5196452766
 20
31.3527153113
 30
0.0
 11
27.5149462497
 21
31.3422514004
 31
0.0
  0
LWPOLYLINE
  5
1415
330
21F
100
AcDbEntity
  8
0
  6
Continuous
 62
     7
100
AcDbPolyline
 90
        8
 70
     0
 43
0.0
 10
28.8752245611
 20
30.1248136484
 10
28.8800527902
 20
30.1196066707
 10
28.8895575124
 20
30.1140199543
 10
28.9051662886
 20
30.1080250796
 10
28.9287426538
 20
30.1015987633
 10
28.9627738014
 20
30.0947139263
 10
29.0105297048
 20
30.0873616353
 10
29.0445939761
 20
30.0833160596
  0
LINE
  5
1416
330
21F
100
AcDbEntity
  8
0
  6
Continuous
 62
     7
100
AcDbLine
 10
33.637087461
 20
25.0684964103
 30
0.0
 11
33.637087461
 21
26.6421934874
 31
0.0
  0
LINE
  5
1417
330
21F
100
AcDbEntity
  8
0
  6
Continuous
 62
     7
100
AcDbLine
 10
33.6642657549
 20
27.833527064
 30
0.0
 11
33.6573582654
 21
27.6434352765
 31
0.0
  0
LINE
  5
1418
330
21F
100
AcDbEntity
  8
0
  6
Continuous
 62
     7
100
AcDbLine
 10
32.6032581359
 20
27.8684559129
 30
0.0
 11
32.6021114584
 21
27.8372269635
 31
0.0
  0
LINE
  5
1419
330
21F
100
AcDbEntity
  8
0
  6
Continuous
 62
     7
100
AcDbLine
 10
33.6424027223
 20
27.2361484689
 30
0.0
 11
33.6573582636
 21
27.6434352274
 31
0.0
  0
LINE
  5
141A
330
21F
100
AcDbEntity
  8
0
  6
Continuous
 62
     7
100
AcDbLine
 10
27.8265847559
 20
31.96269972690001
 30
0.0
 11
27.5196437753
 21
31.3527125426
 31
0.0
  0
LINE
  5
141B
330
21F
100
AcDbEntity
  8
0
  6
Continuous
 62
     7
100
AcDbLine
 10
33.3130728942
 20
27.3048773311
 30
0.0
 11
33.3261410984
 21
27.29583389510001
 31
0.0
  0
LINE
  5
141C
330
21F
100
AcDbEntity
  8
0
  6
Continuous
 62
     7
100
AcDbLine
 10
33.2927605503
 20
27.3190985143
 30
0.0
 11
33.3130728942
 21
27.3048773311
 31
0.0
  0
LWPOLYLINE
  5
141D
330
21F
100
AcDbEntity
  8
0
  6
Continuous
 62
     7
100
AcDbPolyline
 90
        3
 70
     0
 43
0.0
 10
33.2732286207
 20
27.332916852
 10
33.2836571519
 20
27.3255237431
 10
33.2927605503
 20
27.3190985143
  0
LINE
  5
141E
330
21F
100
AcDbEntity
  8
0
  6
Continuous
 62
     7
100
AcDbLine
 10
33.2607569018
 20
27.3417993002
 30
0.0
 11
33.2732286207
 21
27.332916852
 31
0.0
  0
LWPOLYLINE
  5
141F
330
21F
100
AcDbEntity
  8
0
  6
Continuous
 62
     7
100
AcDbPolyline
 90
        6
 70
     0
 43
0.0
 10
33.23541221510001
 20
27.3565688938
 10
33.2531262383
 20
27.3438909925
 10
33.2687521757
 20
27.332771053
 10
33.2819745742
 20
27.3234171981
 10
33.2925300656
 20
27.3159935879
 10
33.3064239546
 20
27.3062934957
  0
LWPOLYLINE
  5
1420
330
21F
100
AcDbEntity
  8
0
  6
Continuous
 62
     7
100
AcDbPolyline
 90
        3
 70
     0
 43
0.0
 10
33.23571037460001
 20
27.3563549748
 10
33.2533514617
 20
27.3437302959
 10
33.2592124453
 20
27.3395597014
  0
LINE
  5
1421
330
21F
100
AcDbEntity
  8
0
  6
Continuous
 62
     7
100
AcDbLine
 10
33.2159697478
 20
27.3705574184
 30
0.0
 11
33.23571037460001
 21
27.3563549748
 31
0.0
  0
LWPOLYLINE
  5
1422
330
21F
100
AcDbEntity
  8
0
  6
Continuous
 62
     7
100
AcDbPolyline
 90
        3
 70
     0
 43
0.0
 10
33.1734184878
 20
27.4013864191
 10
33.1951771565
 20
27.3855889944
 10
33.2163391447
 20
27.3702910059
  0
LINE
  5
1423
330
21F
100
AcDbEntity
  8
0
  6
Continuous
 62
     7
100
AcDbLine
 10
33.173905727
 20
27.4010319586
 30
0.0
 11
33.1956107887
 21
27.3852748172
 31
0.0
  0
LWPOLYLINE
  5
1424
330
21F
100
AcDbEntity
  8
0
  6
Continuous
 62
     7
100
AcDbPolyline
 90
        6
 70
     0
 43
0.0
 10
33.0641236601
 20
27.4815072328
 10
33.0847071569
 20
27.4663377128
 10
33.1063269494
 20
27.4504403604
 10
33.1285892761
 20
27.4341128849
 10
33.1510887703
 20
27.4176601922
 10
33.173905727
 20
27.4010319586
  0
LWPOLYLINE
  5
1425
330
21F
100
AcDbEntity
  8
0
  6
Continuous
 62
     7
100
AcDbPolyline
 90
        5
 70
     0
 43
0.0
 10
33.0646877969
 20
27.4810910033
 10
33.0852720061
 20
27.46592183320001
 10
33.1068891811
 20
27.4500274119
 10
33.1291408197
 20
27.4337089148
 10
33.1516160074
 20
27.4172752487
  0
LWPOLYLINE
  5
1426
330
21F
100
AcDbEntity
  8
0
  6
Continuous
 62
     7
100
AcDbPolyline
 90
       11
 70
     0
 43
0.0
 10
33.076864107
 20
27.4756760473
 10
33.0960164408
 20
27.4615632899
 10
33.1157390677
 20
27.4470611181
 10
33.1357880314
 20
27.4323540322
 10
33.155951741
 20
27.4176021814
 10
33.175979607
 20
27.4029934068
 10
33.1955945299
 20
27.3887334376
 10
33.2144097185
 20
27.3751052685
 10
33.2319000681
 20
27.3624874808
 10
33.2475508517
 20
27.3512446214
 10
33.2607569018
 20
27.3417993002
  0
LINE
  5
1427
330
21F
100
AcDbEntity
  8
0
  6
Continuous
 62
     7
100
AcDbLine
 10
33.04112263010001
 20
27.5020840866
 30
0.0
 11
33.076864107
 21
27.4756760473
 31
0.0
  0
LINE
  5
1428
330
21F
100
AcDbEntity
  8
0
  6
Continuous
 62
     7
100
AcDbLine
 10
33.0211679989
 20
27.5132619974
 30
0.0
 11
33.0646877969
 21
27.4810910033
 31
0.0
  0
LINE
  5
1429
330
21F
100
AcDbEntity
  8
0
  6
Continuous
 62
     7
100
AcDbLine
 10
33.0211683129
 20
27.5132617689
 30
0.0
 11
33.0455150697
 21
27.4952476179
 31
0.0
  0
LINE
  5
142A
330
21F
100
AcDbEntity
  8
0
  6
Continuous
 62
     7
100
AcDbLine
 10
33.0228837598
 20
27.5155935174
 30
0.0
 11
33.04112263010001
 21
27.5020840866
 31
0.0
  0
LINE
  5
142B
330
21F
100
AcDbEntity
  8
0
  6
Continuous
 62
     7
100
AcDbLine
 10
32.9756632939
 20
27.547021735
 30
0.0
 11
33.0211679989
 21
27.5132619974
 31
0.0
  0
LINE
  5
142C
330
21F
100
AcDbEntity
  8
0
  6
Continuous
 62
     7
100
AcDbLine
 10
32.9756632402
 20
27.5470216792
 30
0.0
 11
32.9756812236
 21
27.5470083165
 31
0.0
  0
LINE
  5
142D
330
21F
100
AcDbEntity
  8
0
  6
Continuous
 62
     7
100
AcDbLine
 10
32.9774042449
 20
27.5493629917
 30
0.0
 11
33.0228837598
 21
27.5155935174
 31
0.0
  0
LINE
  5
142E
330
21F
100
AcDbEntity
  8
0
  6
Continuous
 62
     7
100
AcDbLine
 10
32.9587394455
 20
27.56325453840001
 30
0.0
 11
32.9774042449
 21
27.5493629917
 31
0.0
  0
LINE
  5
142F
330
21F
100
AcDbEntity
  8
0
  6
Continuous
 62
     7
100
AcDbLine
 10
35.8760178761
 20
26.93523285
 30
0.0
 11
35.9980558674
 21
26.4797808658
 31
0.0
  0
LINE
  5
1430
330
21F
100
AcDbEntity
  8
0
  6
Continuous
 62
     7
100
AcDbLine
 10
37.0377880418
 20
22.5994475646
 30
0.0
 11
36.280396138
 21
25.4260726309
 31
0.0
  0
LINE
  5
1431
330
21F
100
AcDbEntity
  8
0
  6
Continuous
 62
     7
100
AcDbLine
 10
36.006713321
 20
26.9304337224
 30
0.0
 11
36.1274138345
 21
26.4799732733
 31
0.0
  0
LINE
  5
1432
330
21F
100
AcDbEntity
  8
0
  6
Continuous
 62
     7
100
AcDbLine
 10
37.1585287701
 20
22.6317999452
 30
0.0
 11
36.4044301787
 21
25.4461342021
 31
0.0
  0
LWPOLYLINE
  5
1433
330
21F
100
AcDbEntity
  8
0
  6
Continuous
 62
     7
100
AcDbPolyline
 90
        5
 70
     0
 43
0.0
 10
54.83515779020001
 20
25.0422480486
 10
54.8778909594
 20
25.0528009623
 10
54.9210206742
 20
25.0593787199
 10
54.9643622465
 20
25.0619531546
 10
54.9704949982
 20
25.061993276
  0
LWPOLYLINE
  5
1434
330
21F
100
AcDbEntity
  8
0
  6
Continuous
 62
     7
100
AcDbPolyline
 90
       12
 70
     0
 43
0.0
 10
53.9132016742
 20
25.0162913736
 10
53.8450388016
 20
25.0013920862
 10
53.6387329234
 20
24.923876639
 10
53.4417578431
 20
24.8154252087
 10
53.2552063947
 20
24.6749666698
 10
53.0835283326
 20
24.503329168
 10
52.9327534204
 20
24.3049660595
 10
52.8052177283
 20
24.0821647014
 10
52.7042282693
 20
23.840277942
 10
52.6320806538
 20
23.5866416483
 10
52.5889222571
 20
23.3258587498
 10
52.57458746100001
 20
23.061993276
  0
LWPOLYLINE
  5
1435
330
21F
100
AcDbEntity
  8
0
  6
Continuous
 62
     7
100
AcDbPolyline
 90
        3
 70
     0
 43
0.0
 10
59.5228648637
 20
24.399493276
 10
59.48782570279999
 20
24.3933163024
 10
59.46620372109999
 20
24.3905815533
  0
LWPOLYLINE
  5
1436
330
21F
100
AcDbEntity
  8
0
  6
Continuous
 62
     7
100
AcDbPolyline
 90
       15
 70
     0
 43
0.0
 10
54.9704953694
 20
23.186993276
 10
55.279447096
 20
23.1928557359
 10
55.5903988431
 20
23.210531792
 10
55.90116058159999
 20
23.2399086306
 10
56.21172238699999
 20
23.2808769913
 10
56.5220732503
 20
23.3333305761
 10
56.832193816
 20
23.3971635194
 10
57.1420949297
 20
23.4722782048
 10
57.4518062865
 20
23.5585866817
 10
57.7613019646
 20
23.655988554
 10
58.0705471136
 20
23.7643775276
 10
58.37953140789999
 20
23.8836527953
 10
58.68826123689999
 20
24.01371946
 10
58.9967641124
 20
24.1544930806
 10
59.1066551149
 20
24.2084575527
  0
LINE
  5
1437
330
21F
100
AcDbEntity
  8
0
  6
Continuous
 62
     7
100
AcDbLine
 10
39.6487048268
 20
22.4226658652
 30
0.0
 11
39.4681157829
 21
22.4213957834
 31
0.0
  0
LWPOLYLINE
  5
1438
330
21F
100
AcDbEntity
  8
0
  6
Continuous
 62
     7
100
AcDbPolyline
 90
        7
 70
     0
 43
0.0
 10
39.3796150945
 20
22.2450432791
 10
39.0380457942
 20
22.243106939
 10
38.70352575790001
 20
22.2413793329
 10
38.3759805618
 20
22.2398689552
 10
38.0551938622
 20
22.2385742691
 10
37.7409386337
 20
22.2374854163
 10
37.4331323529
 20
22.2365939913
  0
LINE
  5
1439
330
21F
100
AcDbEntity
  8
0
  6
Continuous
 62
     7
100
AcDbLine
 10
37.3218811481
 20
22.4109328839
 30
0.0
 11
37.1352067144
 21
22.4104930859
 31
0.0
  0
LINE
  5
143A
330
21F
100
AcDbEntity
  8
0
  6
Continuous
 62
     7
100
AcDbLine
 10
52.38709840649999
 20
22.061993276
 30
0.0
 11
54.6370765155
 21
22.061993276
 31
0.0
  0
LINE
  5
143B
330
21F
100
AcDbEntity
  8
0
  6
Continuous
 62
     7
100
AcDbLine
 10
61.75342396699999
 20
22.2288570871
 30
0.0
 11
60.020750955
 21
22.2288570871
 31
0.0
  0
LINE
  5
143C
330
21F
100
AcDbEntity
  8
0
  6
Continuous
 62
     7
100
AcDbLine
 10
39.25342396699999
 20
22.2288570871
 30
0.0
 11
37.520750955
 21
22.2288570871
 31
0.0
  0
LINE
  5
143D
330
21F
100
AcDbEntity
  8
0
  6
Continuous
 62
     7
100
AcDbLine
 10
39.25342396699999
 20
22.3538570871
 30
0.0
 11
37.520750955
 21
22.3538570871
 31
0.0
  0
LINE
  5
143E
330
21F
100
AcDbEntity
  8
0
  6
Continuous
 62
     7
100
AcDbLine
 10
60.020750955
 20
22.3538570871
 30
0.0
 11
61.75342396699999
 21
22.3538570871
 31
0.0
  0
LINE
  5
143F
330
21F
100
AcDbEntity
  8
0
  6
Continuous
 62
     7
100
AcDbLine
 10
48.51208746100001
 20
22.844493276
 30
0.0
 11
50.762087461
 21
22.844493276
 31
0.0
  0
LINE
  5
1440
330
21F
100
AcDbEntity
  8
0
  6
Continuous
 62
     7
100
AcDbLine
 10
52.38708746100001
 20
22.874493276
 30
0.0
 11
54.637087461
 21
22.874493276
 31
0.0
  0
LINE
  5
1441
330
21F
100
AcDbEntity
  8
0
  6
Continuous
 62
     7
100
AcDbLine
 10
54.9704951972
 20
22.999493276
 30
0.0
 11
54.3959709375
 21
22.999493276
 31
0.0
  0
LINE
  5
1442
330
21F
100
AcDbEntity
  8
0
  6
Continuous
 62
     7
100
AcDbLine
 10
52.57458746100001
 20
23.061993276
 30
0.0
 11
54.13745097189999
 21
23.061993276
 31
0.0
  0
LINE
  5
1443
330
21F
100
AcDbEntity
  8
0
  6
Continuous
 62
     7
100
AcDbLine
 10
48.51208746100001
 20
23.624493276
 30
0.0
 11
50.762087461
 21
23.624493276
 31
0.0
  0
LINE
  5
1444
330
21F
100
AcDbEntity
  8
0
  6
Continuous
 62
     7
100
AcDbLine
 10
50.62208746100001
 20
23.764493276
 30
0.0
 11
48.652087461
 21
23.764493276
 31
0.0
  0
LINE
  5
1445
330
21F
100
AcDbEntity
  8
0
  6
Continuous
 62
     7
100
AcDbLine
 10
62.1389682076
 20
22.4104930859
 30
0.0
 11
61.9522937738
 21
22.4109328839
 31
0.0
  0
LWPOLYLINE
  5
1446
330
21F
100
AcDbEntity
  8
0
  6
Continuous
 62
     7
100
AcDbPolyline
 90
        7
 70
     0
 43
0.0
 10
61.8410425691
 20
22.2365939913
 10
61.53323628829999
 20
22.2374854163
 10
61.2189810597
 20
22.2385742691
 10
60.8981943602
 20
22.2398689552
 10
60.57064916409999
 20
22.2413793329
 10
60.23612912779999
 20
22.243106939
 10
59.8945598275
 20
22.2450432791
  0
LINE
  5
1447
330
21F
100
AcDbEntity
  8
0
  6
Continuous
 62
     7
100
AcDbLine
 10
59.8060591391
 20
22.4213957834
 30
0.0
 11
59.62547009520001
 21
22.4226658652
 31
0.0
  0
LWPOLYLINE
  5
1448
330
21F
100
AcDbEntity
  8
0
  6
Continuous
 62
     7
100
AcDbPolyline
 90
        3
 70
     0
 43
0.0
 10
54.9704951972
 20
23.186993276
 10
54.93326031329999
 20
23.18847331
 10
54.8900519242
 20
23.1939214037
  0
LWPOLYLINE
  5
1449
330
21F
100
AcDbEntity
  8
0
  6
Continuous
 62
     7
100
AcDbPolyline
 90
        5
 70
     0
 43
0.0
 10
41.4250087355
 20
25.2536662105
 10
41.46070752139999
 20
25.2473212444
 10
41.49270376869999
 20
25.2409993068
 10
41.52034646579999
 20
25.235053194
 10
41.5431277349
 20
25.2298147069
  0
LINE
  5
144A
330
21F
100
AcDbEntity
  8
0
  6
Continuous
 62
     7
100
AcDbLine
 10
41.5607352901
 20
25.2255562871
 30
0.0
 11
41.5730631169
 21
25.222465867
 31
0.0
  0
LWPOLYLINE
  5
144B
330
21F
100
AcDbEntity
  8
0
  6
Continuous
 62
     7
100
AcDbPolyline
 90
       22
 70
     0
 43
0.0
 10
41.5793240332
 20
25.2304121685
 10
41.5514221212
 20
25.2374071647
 10
41.5192994905
 20
25.2448883424
 10
41.4833622101
 20
25.2525344268
 10
41.444072994
 20
25.2600220061
 10
41.40192287949999
 20
25.2670455378
 10
41.35737881929999
 20
25.2733360038
 10
41.3108841049
 20
25.2786647179
 10
41.2628806378
 20
25.2828437859
 10
41.21380787649999
 20
25.2857298912
 10
41.164088201
 20
25.2872269817
 10
41.11412044899999
 20
25.2872854863
 10
41.06430249119999
 20
25.285900717
 10
41.0150551544
 20
25.2831145241
 10
40.9668179394
 20
25.27901748070001
 10
40.9200355785
 20
25.2737481952
 10
40.87515750449999
 20
25.2674912698
 10
40.83266243679999
 20
25.26047844
 10
40.7930620655
 20
25.2529876457
 10
40.7568461448
 20
25.2453274163
 10
40.72445458159999
 20
25.2378188431
 10
40.6962876616
 20
25.2307836649
  0
LINE
  5
144C
330
21F
100
AcDbEntity
  8
0
  6
Continuous
 62
     7
100
AcDbLine
 10
41.5730631169
 20
25.222465867
 30
0.0
 11
41.5819374384
 21
25.2201864769
 31
0.0
  0
LINE
  5
144D
330
21F
100
AcDbEntity
  8
0
  6
Continuous
 62
     7
100
AcDbLine
 10
41.58026419979999
 20
25.2206191435
 30
0.0
 11
41.5819235685
 21
25.2201901184
 31
0.0
  0
LINE
  5
144E
330
21F
100
AcDbEntity
  8
0
  6
Continuous
 62
     7
100
AcDbLine
 10
41.60265805349999
 20
25.2242068235
 30
0.0
 11
41.5793240332
 21
25.2304121685
 31
0.0
  0
LWPOLYLINE
  5
144F
330
21F
100
AcDbEntity
  8
0
  6
Continuous
 62
     7
100
AcDbPolyline
 90
        3
 70
     0
 43
0.0
 10
41.6345321959
 20
25.2152057242
 10
41.62113452199999
 20
25.2190630425
 10
41.60265805349999
 20
25.2242068235
  0
LINE
  5
1450
330
21F
100
AcDbEntity
  8
0
  6
Continuous
 62
     7
100
AcDbLine
 10
38.3379456938
 20
26.228086767
 30
0.0
 11
38.3864803937
 21
26.21372403820001
 31
0.0
  0
LINE
  5
1451
330
21F
100
AcDbEntity
  8
0
  6
Continuous
 62
     7
100
AcDbLine
 10
41.6454155598
 20
25.211993276
 30
0.0
 11
41.6345321959
 21
25.2152057242
 31
0.0
  0
LWPOLYLINE
  5
1452
330
21F
100
AcDbEntity
  8
0
  6
Continuous
 62
     7
100
AcDbPolyline
 90
        6
 70
     0
 43
0.0
 10
38.3379457068
 20
26.2280867627
 10
38.3505538673
 20
26.2240879227
 10
38.4206332388
 20
26.2052469249
 10
38.4922126982
 20
26.1916581068
 10
38.5646042759
 20
26.1834700681
 10
38.637087461
 20
26.180743276
  0
LWPOLYLINE
  5
1453
330
21F
100
AcDbEntity
  8
0
  6
Continuous
 62
     7
100
AcDbPolyline
 90
       13
 70
     0
 43
0.0
 10
28.1687828826
 20
30.1856390962
 10
28.1825461584
 20
30.1810289629
 10
28.1967968698
 20
30.176936778
 10
28.2118151194
 20
30.1731915393
 10
28.227848746
 20
30.1696810652
 10
28.2451308865
 20
30.1663288735
 10
28.2638582942
 20
30.16308671
 10
28.2841984996
 20
30.1599243536
 10
28.3062936002
 20
30.1568230424
 10
28.3302703009
 20
30.1537700921
 10
28.3562447692
 20
30.15075658
 10
28.3843156375
 20
30.1477776134
 10
28.3948859744
 20
30.1467195992
  0
LINE
  5
1454
330
21F
100
AcDbEntity
  8
0
  6
Continuous
 62
     7
100
AcDbLine
 10
38.2821005956
 20
26.2481401196
 30
0.0
 11
38.3379456938
 21
26.228086767
 31
0.0
  0
LINE
  5
1455
330
21F
100
AcDbEntity
  8
0
  6
Continuous
 62
     7
100
AcDbLine
 10
37.2684034472
 20
27.74750308530001
 30
0.0
 11
37.2837480108
 21
27.7410518817
 31
0.0
  0
LINE
  5
1456
330
21F
100
AcDbEntity
  8
0
  6
Continuous
 62
     7
100
AcDbLine
 10
37.28331578880001
 20
27.7412469071
 30
0.0
 11
37.3007473754
 21
27.7327523017
 31
0.0
  0
LWPOLYLINE
  5
1457
330
21F
100
AcDbEntity
  8
0
  6
Continuous
 62
     7
100
AcDbPolyline
 90
        6
 70
     0
 43
0.0
 10
37.21950393530001
 20
25.86409349030001
 10
37.2115882782
 20
25.8681405587
 10
37.20399190150001
 20
25.8711720143
 10
37.1964487113
 20
25.8731427036
 10
37.1887233028
 20
25.874021182
 10
37.1864737633
 20
25.8740684632
  0
LINE
  5
1458
330
21F
100
AcDbEntity
  8
0
  6
Continuous
 62
     7
100
AcDbLine
 10
37.3003057504
 20
27.7329837498
 30
0.0
 11
37.319383165
 21
27.7221755004
 31
0.0
  0
LINE
  5
1459
330
21F
100
AcDbEntity
  8
0
  6
Continuous
 62
     7
100
AcDbLine
 10
37.31896503250001
 20
27.7224307208
 30
0.0
 11
37.3391946966
 21
27.7090677782
 31
0.0
  0
LINE
  5
145A
330
21F
100
AcDbEntity
  8
0
  6
Continuous
 62
     7
100
AcDbLine
 10
38.2821005956
 20
26.2481401196
 30
0.0
 11
38.26003265510001
 21
26.263342993
 31
0.0
  0
LINE
  5
145B
330
21F
100
AcDbEntity
  8
0
  6
Continuous
 62
     7
100
AcDbLine
 10
38.2496442771
 20
26.2675597721
 30
0.0
 11
38.2632341123
 21
26.2581916017
 31
0.0
  0
LINE
  5
145C
330
21F
100
AcDbEntity
  8
0
  6
Continuous
 62
     7
100
AcDbLine
 10
38.26003265510001
 20
26.263342993
 30
0.0
 11
38.2504110436
 21
26.2700023268
 31
0.0
  0
LINE
  5
145D
330
21F
100
AcDbEntity
  8
0
  6
Continuous
 62
     7
100
AcDbLine
 10
38.2504110436
 20
26.2700023268
 30
0.0
 11
38.2096386884
 21
26.2983638036
 31
0.0
  0
LWPOLYLINE
  5
145E
330
21F
100
AcDbEntity
  8
0
  6
Continuous
 62
     7
100
AcDbPolyline
 90
        3
 70
     0
 43
0.0
 10
38.2096386884
 20
26.2983638036
 10
38.1707093134
 20
26.3255628808
 10
38.1481410419
 20
26.3413713472
  0
LWPOLYLINE
  5
145F
330
21F
100
AcDbEntity
  8
0
  6
Continuous
 62
     7
100
AcDbPolyline
 90
        7
 70
     0
 43
0.0
 10
38.12936281920001
 20
26.3514160776
 10
38.15148642590001
 20
26.3359120299
 10
38.1725854944
 20
26.3211523324
 10
38.1922689263
 20
26.3074087257
 10
38.2101509157
 20
26.2949484925
 10
38.2258729594
 20
26.2840193258
 10
38.2496442771
 20
26.2675597721
  0
LINE
  5
1460
330
21F
100
AcDbEntity
  8
0
  6
Continuous
 62
     7
100
AcDbLine
 10
37.9280836843
 20
26.4928638689
 30
0.0
 11
37.9415435803
 21
26.4834356035
 31
0.0
  0
LINE
  5
1461
330
21F
100
AcDbEntity
  8
0
  6
Continuous
 62
     7
100
AcDbLine
 10
37.9367974213
 20
26.4899009099
 30
0.0
 11
37.9115052026
 21
26.5076338105
 31
0.0
  0
LINE
  5
1462
330
21F
100
AcDbEntity
  8
0
  6
Continuous
 62
     7
100
AcDbLine
 10
38.1481410419
 20
26.3413713472
 30
0.0
 11
38.0998084094
 21
26.3753009534
 31
0.0
  0
LINE
  5
1463
330
21F
100
AcDbEntity
  8
0
  6
Continuous
 62
     7
100
AcDbLine
 10
38.0836882423
 20
26.3834854824
 30
0.0
 11
38.12936281920001
 21
26.3514160776
 31
0.0
  0
LWPOLYLINE
  5
1464
330
21F
100
AcDbEntity
  8
0
  6
Continuous
 62
     7
100
AcDbPolyline
 90
        5
 70
     0
 43
0.0
 10
38.0998084094
 20
26.3753009534
 10
38.0279517957
 20
26.4258007571
 10
38.0058516573
 20
26.4413412018
 10
37.9853509051
 20
26.4557600918
 10
37.9367974213
 20
26.4899009099
  0
LINE
  5
1465
330
21F
100
AcDbEntity
  8
0
  6
Continuous
 62
     7
100
AcDbLine
 10
37.9415435803
 20
26.4834356035
 30
0.0
 11
37.9805949949
 21
26.4559868342
 31
0.0
  0
LINE
  5
1466
330
21F
100
AcDbEntity
  8
0
  6
Continuous
 62
     7
100
AcDbLine
 10
37.9805949949
 20
26.4559868342
 30
0.0
 11
38.0836882423
 21
26.3834854824
 31
0.0
  0
LWPOLYLINE
  5
1467
330
21F
100
AcDbEntity
  8
0
  6
Continuous
 62
     7
100
AcDbPolyline
 90
        8
 70
     0
 43
0.0
 10
37.3388199094
 20
27.7093350166
 10
37.359677329
 20
27.6932134015
 10
37.3802591922
 20
27.6744796933
 10
37.4003465351
 20
27.6528163536
 10
37.41933385300001
 20
27.62827757530001
 10
37.4366875619
 20
27.6009292344
 10
37.4518976518
 20
27.5708806758
 10
37.4608835467
 20
27.548651554
  0
LWPOLYLINE
  5
1468
330
21F
100
AcDbEntity
  8
0
  6
Continuous
 62
     7
100
AcDbPolyline
 90
        6
 70
     0
 43
0.0
 10
37.4240797734
 20
27.6214410543
 10
37.3994604541
 20
27.6540475439
 10
37.3711414513
 20
27.6835006786
 10
37.3395232731
 20
27.7093839101
 10
37.3050530874
 20
27.7313311788
 10
37.268218397
 20
27.74903209
  0
LINE
  5
1469
330
21F
100
AcDbEntity
  8
0
  6
Continuous
 62
     7
100
AcDbLine
 10
37.4446512243
 20
27.5861423549
 30
0.0
 11
37.4240797734
 21
27.6214410543
 31
0.0
  0
LINE
  5
146A
330
21F
100
AcDbEntity
  8
0
  6
Continuous
 62
     7
100
AcDbLine
 10
37.4608838703
 20
27.5486506659
 30
0.0
 11
37.4446512243
 21
27.5861423549
 31
0.0
  0
LWPOLYLINE
  5
146B
330
21F
100
AcDbEntity
  8
0
  6
Continuous
 62
     7
100
AcDbPolyline
 90
        5
 70
     0
 43
0.0
 10
37.7267602346
 20
26.8181612622
 10
37.7617501905
 20
26.7344845459
 10
37.8045744897
 20
26.6541515496
 10
37.8545987292
 20
26.5783669552
 10
37.9115052026
 20
26.5076338105
  0
LINE
  5
146C
330
21F
100
AcDbEntity
  8
0
  6
Continuous
 62
     7
100
AcDbLine
 10
37.7267602346
 20
26.8181612622
 30
0.0
 11
37.460883839
 21
27.5486506554
 31
0.0
  0
LINE
  5
146D
330
21F
100
AcDbEntity
  8
0
  6
Continuous
 62
     7
100
AcDbLine
 10
37.1488593619
 20
27.774473904
 30
0.0
 11
37.1487458735
 21
27.7751276729
 31
0.0
  0
LINE
  5
146E
330
21F
100
AcDbEntity
  8
0
  6
Continuous
 62
     7
100
AcDbLine
 10
36.920947461
 20
25.529677084
 30
0.0
 11
36.920947461
 21
25.7215283108
 31
0.0
  0
LINE
  5
146F
330
21F
100
AcDbEntity
  8
0
  6
Continuous
 62
     7
100
AcDbLine
 10
37.108987461
 20
25.542435291
 30
0.0
 11
37.108987461
 21
25.7334447258
 31
0.0
  0
LINE
  5
1470
330
21F
100
AcDbEntity
  8
0
  6
Continuous
 62
     7
100
AcDbLine
 10
37.76172481010001
 20
25.6925635498
 30
0.0
 11
37.76172481010001
 21
25.5014587629
 31
0.0
  0
LINE
  5
1471
330
21F
100
AcDbEntity
  8
0
  6
Continuous
 62
     7
100
AcDbLine
 10
38.6480795863
 20
27.8130612899
 30
0.0
 11
38.6471635758
 21
27.7818478027
 31
0.0
  0
LINE
  5
1472
330
21F
100
AcDbEntity
  8
0
  6
Continuous
 62
     7
100
AcDbLine
 10
37.1497448876
 20
27.8063469412
 30
0.0
 11
37.148746042
 21
27.7751276675
 31
0.0
  0
LWPOLYLINE
  5
1473
330
21F
100
AcDbEntity
  8
0
  6
Continuous
 62
     7
100
AcDbPolyline
 90
       15
 70
     0
 43
0.0
 10
27.8265847559
 20
31.96269972690001
 10
27.83178664
 20
31.9672179567
 10
27.8561847765
 20
31.9753697879
 10
27.8992890939
 20
31.983352479
 10
27.9607075976
 20
31.991171834
 10
28.0405359456
 20
31.9988864647
 10
28.1388192251
 20
32.0065110154
 10
28.2552440296
 20
32.01402105
 10
28.3900147379
 20
32.0214378325
 10
28.5443174129
 20
32.0287993045
 10
28.7187590104
 20
32.0361226339
 10
28.9135448335
 20
32.0433906433
 10
29.1298822765
 20
32.05062408110001
 10
29.3695288047
 20
32.057845214
 10
29.52134995010001
 20
32.061993276
  0
LWPOLYLINE
  5
1474
330
21F
100
AcDbEntity
  8
0
  6
Continuous
 62
     7
100
AcDbPolyline
 90
        5
 70
     0
 43
0.0
 10
49.19628766159999
 20
25.2307836649
 10
49.17266882709999
 20
25.224520782
 10
49.1539276297
 20
25.2193146989
 10
49.14013609739999
 20
25.2153496714
 10
49.1287593622
 20
25.211993276
  0
LINE
  5
1475
330
21F
100
AcDbEntity
  8
0
  6
Continuous
 62
     7
100
AcDbLine
 10
49.1922525271
 20
25.2201904266
 30
0.0
 11
49.20113409409999
 21
25.2224715284
 31
0.0
  0
LINE
  5
1476
330
21F
100
AcDbEntity
  8
0
  6
Continuous
 62
     7
100
AcDbLine
 10
49.2011111802
 20
25.22246571010001
 30
0.0
 11
49.21347657850001
 21
25.2255654063
 31
0.0
  0
LINE
  5
1477
330
21F
100
AcDbEntity
  8
0
  6
Continuous
 62
     7
100
AcDbLine
 10
49.21343984529999
 20
25.2255563419
 30
0.0
 11
49.2311049006
 21
25.2298283814
 31
0.0
  0
LINE
  5
1478
330
21F
100
AcDbEntity
  8
0
  6
Continuous
 62
     7
100
AcDbLine
 10
49.2311049006
 20
25.2298283814
 30
0.0
 11
49.2539124297
 21
25.2350719624
 31
0.0
  0
LINE
  5
1479
330
21F
100
AcDbEntity
  8
0
  6
Continuous
 62
     7
100
AcDbLine
 10
49.2310492502
 20
25.2298151952
 30
0.0
 11
49.25383277199999
 21
25.2350541579
 31
0.0
  0
LWPOLYLINE
  5
147A
330
21F
100
AcDbEntity
  8
0
  6
Continuous
 62
     7
100
AcDbPolyline
 90
        3
 70
     0
 43
0.0
 10
49.25383277199999
 20
25.2350541579
 10
49.2815818759
 20
25.2410222405
 10
49.3135998106
 20
25.2473461718
  0
LINE
  5
147B
330
21F
100
AcDbEntity
  8
0
  6
Continuous
 62
     7
100
AcDbLine
 10
49.2814784467
 20
25.2410008151
 30
0.0
 11
49.3134783328
 21
25.2473233009
 31
0.0
  0
LWPOLYLINE
  5
147C
330
21F
100
AcDbEntity
  8
0
  6
Continuous
 62
     7
100
AcDbPolyline
 90
        3
 70
     0
 43
0.0
 10
49.3134783328
 20
25.2473233009
 10
49.349312298
 20
25.2536906539
 10
49.3881727841
 20
25.2597466952
  0
LWPOLYLINE
  5
147D
330
21F
100
AcDbEntity
  8
0
  6
Continuous
 62
     7
100
AcDbPolyline
 90
        3
 70
     0
 43
0.0
 10
49.3491812
 20
25.2536687219
 10
49.3880363298
 20
25.2597269683
 10
49.4297115751
 20
25.2652455246
  0
LWPOLYLINE
  5
147E
330
21F
100
AcDbEntity
  8
0
  6
Continuous
 62
     7
100
AcDbPolyline
 90
        4
 70
     0
 43
0.0
 10
40.8491830383
 20
25.2536690294
 10
40.8880382835
 20
25.2597272507
 10
40.9295744916
 20
25.2652290238
 10
40.9733343434
 20
25.2699386134
  0
LWPOLYLINE
  5
147F
330
21F
100
AcDbEntity
  8
0
  6
Continuous
 62
     7
100
AcDbPolyline
 90
       21
 70
     0
 43
0.0
 10
54.9704951972
 20
25.061993276
 10
54.8667928181
 20
25.0504510953
 10
54.7656439357
 20
25.0161087601
 10
54.6695391713
 20
24.9598118925
 10
54.580844943
 20
24.8829467083
 10
54.5017451972
 20
24.7874058834
 10
54.434187632
 20
24.6755419501
 10
54.37983573909999
 20
24.5501093695
 10
54.3400278422
 20
24.4141967083
 10
54.3157441441
 20
24.271150587
 10
54.30758258979999
 20
24.124493276
 10
54.3157441441
 20
23.9778359651
 10
54.3400278422
 20
23.8347898438
 10
54.37983573909999
 20
23.6988771825
 10
54.434187632
 20
23.573444602
 10
54.5017451972
 20
23.4615806687
 10
54.580844943
 20
23.3660398438
 10
54.6695391713
 20
23.2891746596
 10
54.7656439357
 20
23.232877792
 10
54.8667928181
 20
23.1985354567
 10
54.9704951972
 20
23.186993276
  0
LWPOLYLINE
  5
1480
330
21F
100
AcDbEntity
  8
0
  6
Continuous
 62
     7
100
AcDbPolyline
 90
        4
 70
     0
 43
0.0
 10
54.9704951972
 20
25.249493276
 10
54.8460523423
 20
25.2356426592
 10
54.7246736834
 20
25.1944318569
 10
54.6093479661
 20
25.1268756157
  0
LINE
  5
1481
330
21F
100
AcDbEntity
  8
0
  6
Continuous
 62
     7
100
AcDbLine
 10
49.42957243319999
 20
25.26522877610001
 30
0.0
 11
49.4734734026
 21
25.2699518178
 31
0.0
  0
LINE
  5
1482
330
21F
100
AcDbEntity
  8
0
  6
Continuous
 62
     7
100
AcDbLine
 10
49.4733322032
 20
25.2699384102
 30
0.0
 11
49.51899105609999
 21
25.27366632050001
 31
0.0
  0
LWPOLYLINE
  5
1483
330
21F
100
AcDbEntity
  8
0
  6
Continuous
 62
     7
100
AcDbPolyline
 90
        3
 70
     0
 43
0.0
 10
40.9733343434
 20
25.2699386134
 10
41.0189937261
 20
25.2736665031
 10
41.0657660151
 20
25.2762315041
  0
LINE
  5
1484
330
21F
100
AcDbEntity
  8
0
  6
Continuous
 62
     7
100
AcDbLine
 10
61.70297044939999
 20
25.8414473693
 30
0.0
 11
62.0546709867
 21
25.86409349030001
 31
0.0
  0
LWPOLYLINE
  5
1485
330
21F
100
AcDbEntity
  8
0
  6
Continuous
 62
     7
100
AcDbPolyline
 90
        4
 70
     0
 43
0.0
 10
62.1651838435
 20
25.5424350611
 10
61.9493483472
 20
25.5287895916
 10
61.7317659327
 20
25.5151285127
 10
61.5124501134
 20
25.5014583365
  0
LWPOLYLINE
  5
1486
330
21F
100
AcDbEntity
  8
0
  6
Continuous
 62
     7
100
AcDbPolyline
 90
        3
 70
     0
 43
0.0
 10
61.51245011189999
 20
25.6925635498
 10
61.8352492759
 20
25.7126840544
 10
62.1543543773
 20
25.7327949871
  0
LINE
  5
1487
330
21F
100
AcDbEntity
  8
0
  6
Continuous
 62
     7
100
AcDbLine
 10
62.154354105
 20
25.7327997722
 30
0.0
 11
62.165187461
 21
25.7334447258
 31
0.0
  0
LINE
  5
1488
330
21F
100
AcDbEntity
  8
0
  6
Continuous
 62
     7
100
AcDbLine
 10
49.51884796569999
 20
25.2736565087
 30
0.0
 11
49.56576349310001
 21
25.2762314
 31
0.0
  0
LINE
  5
1489
330
21F
100
AcDbEntity
  8
0
  6
Continuous
 62
     7
100
AcDbLine
 10
41.018850153
 20
25.2736566585
 30
0.0
 11
41.0656216194
 21
25.276225517
 31
0.0
  0
LINE
  5
148A
330
21F
100
AcDbEntity
  8
0
  6
Continuous
 62
     7
100
AcDbLine
 10
62.547975744
 20
26.5287615208
 30
0.0
 11
63.1659137982
 21
26.5514521631
 31
0.0
  0
LINE
  5
148B
330
21F
100
AcDbEntity
  8
0
  6
Continuous
 62
     7
100
AcDbLine
 10
63.29660924319999
 20
26.5562512907
 30
0.0
 11
65.63708746100001
 21
26.6421934874
 31
0.0
  0
LINE
  5
148C
330
21F
100
AcDbEntity
  8
0
  6
Continuous
 62
     7
100
AcDbLine
 10
63.3304585107
 20
26.6825784771
 30
0.0
 11
63.1997630658
 21
26.6777793495
 31
0.0
  0
LINE
  5
148D
330
21F
100
AcDbEntity
  8
0
  6
Continuous
 62
     7
100
AcDbLine
 10
63.3981570459
 20
26.93523285
 30
0.0
 11
63.267461601
 21
26.9304337224
 31
0.0
  0
LINE
  5
148E
330
21F
100
AcDbEntity
  8
0
  6
Continuous
 62
     7
100
AcDbLine
 10
63.2431212752
 20
27.1484373738
 30
0.0
 11
65.6630007064
 21
27.2372951775
 31
0.0
  0
LINE
  5
148F
330
21F
100
AcDbEntity
  8
0
  6
Continuous
 62
     7
100
AcDbLine
 10
49.5656194173
 20
25.2762254259
 30
0.0
 11
49.6132894115
 21
25.2775398212
 31
0.0
  0
LINE
  5
1490
330
21F
100
AcDbEntity
  8
0
  6
Continuous
 62
     7
100
AcDbLine
 10
41.0656216194
 20
25.276225517
 30
0.0
 11
41.11329174539999
 21
25.2775398533
 31
0.0
  0
LWPOLYLINE
  5
1491
330
21F
100
AcDbEntity
  8
0
  6
Continuous
 62
     7
100
AcDbPolyline
 90
        5
 70
     0
 43
0.0
 10
62.165187461
 20
25.7334447258
 10
62.2048861775
 20
25.734308882
 10
62.2494085262
 20
25.73276020010001
 10
62.2987300199
 20
25.7286466333
 10
62.353227461
 20
25.7215283108
  0
LWPOLYLINE
  5
1492
330
21F
100
AcDbEntity
  8
0
  6
Continuous
 62
     7
100
AcDbPolyline
 90
       13
 70
     0
 43
0.0
 10
38.7217793195
 20
25.6469946547
 10
38.6194958107
 20
25.6458891544
 10
38.5212185787
 20
25.6426371593
 10
38.4271385353
 20
25.6373352986
 10
38.3374516778
 20
25.630083255
 10
38.252465621
 20
25.6210006417
 10
38.1729690746
 20
25.6103019919
 10
38.0993767326
 20
25.598223907
 10
38.02970800780001
 20
25.5845530561
 10
37.9614469052
 20
25.5686622911
 10
37.8937035503
 20
25.5499213823
 10
37.826859802
 20
25.5277572279
 10
37.76172481010001
 20
25.5014587629
  0
LWPOLYLINE
  5
1493
330
21F
100
AcDbEntity
  8
0
  6
Continuous
 62
     7
100
AcDbPolyline
 90
        4
 70
     0
 43
0.0
 10
37.1867152948
 20
25.8740334837
 10
37.1664987904
 20
25.8738673773
 10
37.0535886299
 20
25.867439363
 10
36.9405263075
 20
25.8525400031
  0
LWPOLYLINE
  5
1494
330
21F
100
AcDbEntity
  8
0
  6
Continuous
 62
     7
100
AcDbPolyline
 90
       11
 70
     0
 43
0.0
 10
38.0760695736
 20
26.3888402365
 10
37.9842394162
 20
26.3884119665
 10
37.7105229604
 20
26.3872093104
 10
37.4002170725
 20
26.3859257166
 10
37.0473379572
 20
26.3845531476
 10
36.64714776949999
 20
26.3830916281
 10
36.1959596087
 20
26.3815468667
 10
35.6849299319
 20
26.3799097151
 10
35.0923608352
 20
26.3781393546
 10
34.4018449435
 20
26.37622507030001
 10
33.637087461
 20
26.3742658293
  0
LINE
  5
1495
330
21F
100
AcDbEntity
  8
0
  6
Continuous
 62
     7
100
AcDbLine
 10
36.1274138345
 20
26.4799732733
 30
0.0
 11
35.9980558674
 21
26.4797808658
 31
0.0
  0
LINE
  5
1496
330
21F
100
AcDbEntity
  8
0
  6
Continuous
 62
     7
100
AcDbLine
 10
39.9187783035
 20
24.836993276
 30
0.0
 11
36.8553966185
 21
24.836993276
 31
0.0
  0
LINE
  5
1497
330
21F
100
AcDbEntity
  8
0
  6
Continuous
 62
     7
100
AcDbLine
 10
60.25126630819999
 20
24.836993276
 30
0.0
 11
62.4187783035
 21
24.836993276
 31
0.0
  0
LINE
  5
1498
330
21F
100
AcDbEntity
  8
0
  6
Continuous
 62
     7
100
AcDbLine
 10
34.8447444963
 20
25.211993276
 30
0.0
 11
36.3377585283
 21
25.211993276
 31
0.0
  0
LINE
  5
1499
330
21F
100
AcDbEntity
  8
0
  6
Continuous
 62
     7
100
AcDbLine
 10
36.4671680508
 20
25.211993276
 30
0.0
 11
40.3070068712
 21
25.211993276
 31
0.0
  0
LINE
  5
149A
330
21F
100
AcDbEntity
  8
0
  6
Continuous
 62
     7
100
AcDbLine
 10
40.4364163937
 20
25.211993276
 30
0.0
 11
40.6287593622
 21
25.211993276
 31
0.0
  0
LINE
  5
149B
330
21F
100
AcDbEntity
  8
0
  6
Continuous
 62
     7
100
AcDbLine
 10
41.6454155598
 20
25.211993276
 30
0.0
 11
49.1287593622
 21
25.211993276
 31
0.0
  0
LINE
  5
149C
330
21F
100
AcDbEntity
  8
0
  6
Continuous
 62
     7
100
AcDbLine
 10
50.14541555979999
 20
25.211993276
 30
0.0
 11
56.35081023369999
 21
25.211993276
 31
0.0
  0
LINE
  5
149D
330
21F
100
AcDbEntity
  8
0
  6
Continuous
 62
     7
100
AcDbLine
 10
60.8330556755
 20
25.211993276
 30
0.0
 11
62.8070068712
 21
25.211993276
 31
0.0
  0
LINE
  5
149E
330
21F
100
AcDbEntity
  8
0
  6
Continuous
 62
     7
100
AcDbLine
 10
62.9364163937
 20
25.211993276
 30
0.0
 11
64.4294328296
 21
25.211993276
 31
0.0
  0
LINE
  5
149F
330
21F
100
AcDbEntity
  8
0
  6
Continuous
 62
     7
100
AcDbLine
 10
57.7156387661
 20
25.6388992472
 30
0.0
 11
40.5508055039
 21
25.6388992472
 31
0.0
  0
LINE
  5
14A0
330
21F
100
AcDbEntity
  8
0
  6
Continuous
 62
     7
100
AcDbLine
 10
40.42139598139999
 20
25.6388992472
 30
0.0
 11
38.4548903683
 21
25.6388992472
 31
0.0
  0
LINE
  5
14A1
330
21F
100
AcDbEntity
  8
0
  6
Continuous
 62
     7
100
AcDbLine
 10
57.7352934468
 20
25.6469946547
 30
0.0
 11
38.7217793195
 21
25.6469946547
 31
0.0
  0
LINE
  5
14A2
330
21F
100
AcDbEntity
  8
0
  6
Continuous
 62
     7
100
AcDbLine
 10
58.0304593326
 20
25.7743540117
 30
0.0
 11
38.6445115305
 21
25.7743540117
 31
0.0
  0
LINE
  5
14A3
330
21F
100
AcDbEntity
  8
0
  6
Continuous
 62
     7
100
AcDbLine
 10
62.0546709867
 20
25.86409349030001
 30
0.0
 11
61.7327716089
 21
25.86409349030001
 31
0.0
  0
LINE
  5
14A4
330
21F
100
AcDbEntity
  8
0
  6
Continuous
 62
     7
100
AcDbLine
 10
58.2236089674
 20
25.86409349030001
 30
0.0
 11
37.21950393530001
 21
25.86409349030001
 31
0.0
  0
LINE
  5
14A5
330
21F
100
AcDbEntity
  8
0
  6
Continuous
 62
     7
100
AcDbLine
 10
37.1863324313
 20
25.8740685301
 30
0.0
 11
58.24428057399999
 21
25.8740685301
 31
0.0
  0
LINE
  5
14A6
330
21F
100
AcDbEntity
  8
0
  6
Continuous
 62
     7
100
AcDbLine
 10
61.745898261
 20
25.8740685301
 30
0.0
 11
62.08784249069999
 21
25.8740685301
 31
0.0
  0
LINE
  5
14A7
330
21F
100
AcDbEntity
  8
0
  6
Continuous
 62
     7
100
AcDbLine
 10
38.637087461
 20
26.180743276
 30
0.0
 11
58.8350768984
 21
26.180743276
 31
0.0
  0
LINE
  5
14A8
330
21F
100
AcDbEntity
  8
0
  6
Continuous
 62
     7
100
AcDbLine
 10
33.637087461
 20
26.3245806926
 30
0.0
 11
38.1676846347
 21
26.3245806926
 31
0.0
  0
LINE
  5
14A9
330
21F
100
AcDbEntity
  8
0
  6
Continuous
 62
     7
100
AcDbLine
 10
62.30640480159999
 20
26.3245806926
 30
0.0
 11
65.63708746100001
 21
26.3245806926
 31
0.0
  0
LINE
  5
14AA
330
21F
100
AcDbEntity
  8
0
  6
Continuous
 62
     7
100
AcDbLine
 10
41.1131482866
 20
25.2775378621
 30
0.0
 11
41.1610704348
 21
25.2775372549
 31
0.0
  0
LINE
  5
14AB
330
21F
100
AcDbEntity
  8
0
  6
Continuous
 62
     7
100
AcDbLine
 10
49.6131460962
 20
25.2775378318
 30
0.0
 11
49.6610683144
 21
25.2775372843
 31
0.0
  0
LINE
  5
14AC
330
21F
100
AcDbEntity
  8
0
  6
Continuous
 62
     7
100
AcDbLine
 10
63.2761190546
 20
26.4797808658
 30
0.0
 11
63.1467610875
 21
26.4799732733
 31
0.0
  0
LWPOLYLINE
  5
14AD
330
21F
100
AcDbEntity
  8
0
  6
Continuous
 62
     7
100
AcDbPolyline
 90
        7
 70
     0
 43
0.0
 10
62.3784716092
 20
26.3839993684
 10
62.6270271525
 20
26.3830916281
 10
63.0782153132
 20
26.3815468667
 10
63.5892449901
 20
26.3799097151
 10
64.1818140868
 20
26.3781393546
 10
64.8723299784
 20
26.37622507030001
 10
65.63708746100001
 20
26.3742658293
  0
LWPOLYLINE
  5
14AE
330
21F
100
AcDbEntity
  8
0
  6
Continuous
 62
     7
100
AcDbPolyline
 90
        5
 70
     0
 43
0.0
 10
37.1089910968
 20
25.5424353816
 10
37.0698399503
 20
25.5434167124
 10
37.02528834050001
 20
25.5417632455
 10
36.97563054190001
 20
25.5373208823
 10
36.920948469
 20
25.5296772509
  0
LINE
  5
14AF
330
21F
100
AcDbEntity
  8
0
  6
Continuous
 62
     7
100
AcDbLine
 10
41.1609307551
 20
25.2775391974
 30
0.0
 11
41.2085929969
 21
25.2762238745
 31
0.0
  0
LINE
  5
14B0
330
21F
100
AcDbEntity
  8
0
  6
Continuous
 62
     7
100
AcDbLine
 10
49.66092859689999
 20
25.2775392272
 30
0.0
 11
49.7085911049
 21
25.2762239528
 31
0.0
  0
LINE
  5
14B1
330
21F
100
AcDbEntity
  8
0
  6
Continuous
 62
     7
100
AcDbLine
 10
37.940492293
 20
26.4841727624
 30
0.0
 11
36.1082611237
 21
26.5514521631
 31
0.0
  0
LINE
  5
14B2
330
21F
100
AcDbEntity
  8
0
  6
Continuous
 62
     7
100
AcDbLine
 10
35.9775656788
 20
26.5562512907
 30
0.0
 11
33.637087461
 21
26.6421934874
 31
0.0
  0
LINE
  5
14B3
330
21F
100
AcDbEntity
  8
0
  6
Continuous
 62
     7
100
AcDbLine
 10
36.0744118561
 20
26.6777793495
 30
0.0
 11
35.9437164112
 21
26.6825784771
 31
0.0
  0
LINE
  5
14B4
330
21F
100
AcDbEntity
  8
0
  6
Continuous
 62
     7
100
AcDbLine
 10
36.006713321
 20
26.9304337224
 30
0.0
 11
35.8760178761
 21
26.93523285
 31
0.0
  0
LINE
  5
14B5
330
21F
100
AcDbEntity
  8
0
  6
Continuous
 62
     7
100
AcDbLine
 10
38.5529393793
 20
26.1844178007
 30
0.0
 11
38.6367479191
 21
26.1807433359
 31
0.0
  0
LINE
  5
14B6
330
21F
100
AcDbEntity
  8
0
  6
Continuous
 62
     7
100
AcDbLine
 10
40.5254460624
 20
25.5442565227
 30
0.0
 11
40.3978704977
 21
25.5511009464
 31
0.0
  0
LINE
  5
14B7
330
21F
100
AcDbEntity
  8
0
  6
Continuous
 62
     7
100
AcDbLine
 10
40.4717252171
 20
25.3437675909
 30
0.0
 11
40.3441564236
 21
25.3506373054
 31
0.0
  0
LWPOLYLINE
  5
14B8
330
21F
100
AcDbEntity
  8
0
  6
Continuous
 62
     7
100
AcDbPolyline
 90
        3
 70
     0
 43
0.0
 10
41.2084597851
 20
25.27622940260001
 10
41.2553600979
 20
25.2736542389
 10
41.3008713367
 20
25.2699356942
  0
LWPOLYLINE
  5
14B9
330
21F
100
AcDbEntity
  8
0
  6
Continuous
 62
     7
100
AcDbPolyline
 90
        6
 70
     0
 43
0.0
 10
41.2085530639
 20
25.2762255269
 10
41.2553245357
 20
25.2736566745
 10
41.3008403538
 20
25.2699386347
 10
41.34460021729999
 20
25.2652290494
 10
41.3861364391
 20
25.2597272795
 10
41.424991699
 20
25.2536690603
  0
LWPOLYLINE
  5
14BA
330
21F
100
AcDbEntity
  8
0
  6
Continuous
 62
     7
100
AcDbPolyline
 90
        3
 70
     0
 43
0.0
 10
49.7084576782
 20
25.2762294897
 10
49.7553584435
 20
25.2736543523
 10
49.8008699242
 20
25.2699358283
  0
LINE
  5
14BB
330
21F
100
AcDbEntity
  8
0
  6
Continuous
 62
     7
100
AcDbLine
 10
37.108987461
 20
25.7334447258
 30
0.0
 11
37.1198208169
 21
25.7327997722
 31
0.0
  0
LWPOLYLINE
  5
14BC
330
21F
100
AcDbEntity
  8
0
  6
Continuous
 62
     7
100
AcDbPolyline
 90
        4
 70
     0
 43
0.0
 10
38.6445235124
 20
25.7743540117
 10
38.1633198067
 20
25.8039661816
 10
37.6881683839
 20
25.833916022
 10
37.21950393530001
 20
25.86409349030001
  0
LWPOLYLINE
  5
14BD
330
21F
100
AcDbEntity
  8
0
  6
Continuous
 62
     7
100
AcDbPolyline
 90
        4
 70
     0
 43
0.0
 10
37.7617242148
 20
25.5014583733
 10
37.5424014239
 20
25.5151289861
 10
37.3248190481
 20
25.5287900658
 10
37.1089910785
 20
25.5424350611
  0
LWPOLYLINE
  5
14BE
330
21F
100
AcDbEntity
  8
0
  6
Continuous
 62
     7
100
AcDbPolyline
 90
        3
 70
     0
 43
0.0
 10
37.1198205447
 20
25.7327949871
 10
37.438925646
 20
25.7126840544
 10
37.76172481010001
 20
25.6925635498
  0
LWPOLYLINE
  5
14BF
330
21F
100
AcDbEntity
  8
0
  6
Continuous
 62
     7
100
AcDbPolyline
 90
        8
 70
     0
 43
0.0
 10
49.637087461
 20
24.3708994636
 10
49.5214363149
 20
24.3795137077
 10
49.405074868
 20
24.4060573576
 10
49.2933464743
 20
24.4499369543
 10
49.1918828464
 20
24.5079268153
 10
49.10016555270001
 20
24.5788695891
 10
49.0161860672
 20
24.6647451017
 10
48.9422808299
 20
24.7654627205
  0
LINE
  5
14C0
330
21F
100
AcDbEntity
  8
0
  6
Continuous
 62
     7
100
AcDbLine
 10
41.2552346606
 20
25.2736628453
 30
0.0
 11
41.3007538473
 21
25.2699468552
 31
0.0
  0
LINE
  5
14C1
330
21F
100
AcDbEntity
  8
0
  6
Continuous
 62
     7
100
AcDbLine
 10
49.7552326267
 20
25.2736629845
 30
0.0
 11
49.8007519111
 21
25.2699470388
 31
0.0
  0
LINE
  5
14C2
330
21F
100
AcDbEntity
  8
0
  6
Continuous
 62
     7
100
AcDbLine
 10
41.3007538473
 20
25.2699468552
 30
0.0
 11
41.3446264826
 21
25.2652258883
 31
0.0
  0
LINE
  5
14C3
330
21F
100
AcDbEntity
  8
0
  6
Continuous
 62
     7
100
AcDbLine
 10
49.8007519111
 20
25.2699470388
 30
0.0
 11
49.8446253113
 21
25.2652260293
 31
0.0
  0
LINE
  5
14C4
330
21F
100
AcDbEntity
  8
0
  6
Continuous
 62
     7
100
AcDbLine
 10
37.2459843391
 20
27.7551789356
 30
0.0
 11
37.2352144178
 21
27.7563532829
 31
0.0
  0
LINE
  5
14C5
330
21F
100
AcDbEntity
  8
0
  6
Continuous
 62
     7
100
AcDbLine
 10
38.4692742989
 20
26.1954080785
 30
0.0
 11
38.5529393793
 21
26.1844178007
 31
0.0
  0
LINE
  5
14C6
330
21F
100
AcDbEntity
  8
0
  6
Continuous
 62
     7
100
AcDbLine
 10
41.34451615429999
 20
25.2652391723
 30
0.0
 11
41.386158008
 21
25.2597241614
 31
0.0
  0
LWPOLYLINE
  5
14C7
330
21F
100
AcDbEntity
  8
0
  6
Continuous
 62
     7
100
AcDbPolyline
 90
        7
 70
     0
 43
0.0
 10
49.84451434109999
 20
25.2652393904
 10
49.8861570731
 20
25.2597242966
 10
49.9250080298
 20
25.2536663286
 10
49.9607070333
 20
25.2473213363
 10
49.9927034784
 20
25.2409993668
 10
50.0203463342
 20
25.2350532234
 10
50.0431277096
 20
25.2298147129
  0
LWPOLYLINE
  5
14C8
330
21F
100
AcDbEntity
  8
0
  6
Continuous
 62
     7
100
AcDbPolyline
 90
        5
 70
     0
 43
0.0
 10
37.2352144178
 20
27.7563532829
 10
37.1988289435
 20
27.7611979493
 10
37.1721689302
 20
27.7658550932
 10
37.1554613013
 20
27.7702924633
 10
37.148859362
 20
27.7744739063
  0
LWPOLYLINE
  5
14C9
330
21F
100
AcDbEntity
  8
0
  6
Continuous
 62
     7
100
AcDbPolyline
 90
        7
 70
     0
 43
0.0
 10
41.3860545909
 20
25.2597391153
 10
41.42491411179999
 20
25.2536820441
 10
41.4606250988
 20
25.247336767
 10
41.4926402648
 20
25.241012469
 10
41.52030444389999
 20
25.2350625984
 10
41.54310397879999
 20
25.2298203444
 10
41.5607225569
 20
25.2255594243
  0
LWPOLYLINE
  5
14CA
330
21F
100
AcDbEntity
  8
0
  6
Continuous
 62
     7
100
AcDbPolyline
 90
        8
 70
     0
 43
0.0
 10
49.8860529163
 20
25.2597393573
 10
49.9249125819
 20
25.2536822999
 10
49.9606237138
 20
25.24733702760001
 10
49.9926390379
 20
25.2410127229
 10
50.0203034109
 20
25.235062829
 10
50.0431031793
 20
25.2298205336
 10
50.0607220172
 20
25.2255595577
 10
50.0730553629
 20
25.222467831
  0
LWPOLYLINE
  5
14CB
330
21F
100
AcDbEntity
  8
0
  6
Continuous
 62
     7
100
AcDbPolyline
 90
        6
 70
     0
 43
0.0
 10
37.2321348129
 20
27.7588044417
 10
37.2313001137
 20
27.7589565283
 10
37.2317349345
 20
27.7588666031
 10
37.2342995443
 20
27.758295982
 10
37.2391208624
 20
27.7570991961
 10
37.2463933352
 20
27.7550645069
  0
LWPOLYLINE
  5
14CC
330
21F
100
AcDbEntity
  8
0
  6
Continuous
 62
     7
100
AcDbPolyline
 90
        3
 70
     0
 43
0.0
 10
37.2295401455
 20
27.7622363044
 10
37.1895653494
 20
27.7707570781
 10
37.1488593619
 20
27.774473904
  0
LWPOLYLINE
  5
14CD
330
21F
100
AcDbEntity
  8
0
  6
Continuous
 62
     7
100
AcDbPolyline
 90
        3
 70
     0
 43
0.0
 10
54.8900519242
 20
23.1939214037
 10
54.8471880056
 20
23.2033543489
 10
54.80485210729999
 20
23.2167317525
  0
LINE
  5
14CE
330
21F
100
AcDbEntity
  8
0
  6
Continuous
 62
     7
100
AcDbLine
 10
38.3864803937
 20
26.21372403820001
 30
0.0
 11
38.4692742989
 21
26.1954080785
 31
0.0
  0
LWPOLYLINE
  5
14CF
330
21F
100
AcDbEntity
  8
0
  6
Continuous
 62
     7
100
AcDbPolyline
 90
       22
 70
     0
 43
0.0
 10
50.07932403319999
 20
25.2304121685
 10
50.05142212119999
 20
25.2374071647
 10
50.0192994905
 20
25.2448883424
 10
49.9833622101
 20
25.2525344268
 10
49.94407299399999
 20
25.2600220061
 10
49.9019228795
 20
25.2670455378
 10
49.8573788193
 20
25.2733360038
 10
49.81088410489999
 20
25.2786647179
 10
49.7628806378
 20
25.2828437859
 10
49.7138078765
 20
25.2857298912
 10
49.664088201
 20
25.2872269817
 10
49.614120449
 20
25.2872854863
 10
49.5643024912
 20
25.285900717
 10
49.5150551544
 20
25.2831145241
 10
49.46681793939999
 20
25.27901748070001
 10
49.4200355785
 20
25.2737481952
 10
49.3751575045
 20
25.2674912698
 10
49.3326624368
 20
25.26047844
 10
49.2930620655
 20
25.2529876457
 10
49.25684614479999
 20
25.2453274163
 10
49.2244545816
 20
25.2378188431
 10
49.19628766159999
 20
25.2307836649
  0
LINE
  5
14D0
330
21F
100
AcDbEntity
  8
0
  6
Continuous
 62
     7
100
AcDbLine
 10
50.0730553629
 20
25.222467831
 30
0.0
 11
50.08192548220001
 21
25.2201896159
 31
0.0
  0
LINE
  5
14D1
330
21F
100
AcDbEntity
  8
0
  6
Continuous
 62
     7
100
AcDbLine
 10
50.1026580535
 20
25.2242068235
 30
0.0
 11
50.07932403319999
 21
25.2304121685
 31
0.0
  0
LWPOLYLINE
  5
14D2
330
21F
100
AcDbEntity
  8
0
  6
Continuous
 62
     7
100
AcDbPolyline
 90
        3
 70
     0
 43
0.0
 10
50.1345321959
 20
25.2152057242
 10
50.121134522
 20
25.2190630425
 10
50.1026580535
 20
25.2242068235
  0
LINE
  5
14D3
330
21F
100
AcDbEntity
  8
0
  6
Continuous
 62
     7
100
AcDbLine
 10
50.14541555979999
 20
25.211993276
 30
0.0
 11
50.1345321959
 21
25.2152057242
 31
0.0
  0
LINE
  5
14D4
330
21F
100
AcDbEntity
  8
0
  6
Continuous
 62
     7
100
AcDbLine
 10
37.2461686301
 20
27.755131079
 30
0.0
 11
37.2562769192
 21
27.7519191291
 31
0.0
  0
LINE
  5
14D5
330
21F
100
AcDbEntity
  8
0
  6
Continuous
 62
     7
100
AcDbLine
 10
37.268218397
 20
27.74903209
 30
0.0
 11
37.2295401455
 21
27.7622363044
 31
0.0
  0
LINE
  5
14D6
330
21F
100
AcDbEntity
  8
0
  6
Continuous
 62
     7
100
AcDbLine
 10
37.255971547
 20
27.7520225156
 30
0.0
 11
37.2687861567
 21
27.7473539226
 31
0.0
  0
LWPOLYLINE
  5
14D7
330
21F
100
AcDbEntity
  8
0
  6
Continuous
 62
     7
100
AcDbPolyline
 90
        4
 70
     0
 43
0.0
 10
54.80485210729999
 20
23.2167317525
 10
54.7632255182
 20
23.2339963303
 10
54.7224864896
 20
23.2550741527
 10
54.6828094724
 20
23.2798749613
  0
LWPOLYLINE
  5
14D8
330
21F
100
AcDbEntity
  8
0
  6
Continuous
 62
     7
100
AcDbPolyline
 90
       36
 70
     0
 43
0.0
 10
27.5196451104
 20
31.3527151941
 10
27.5267254828
 20
31.3583114708
 10
27.5583102026
 20
31.3677292903
 10
27.6138047361
 20
31.3768994624
 10
27.6928046253
 20
31.3858322494
 10
27.7954906492
 20
31.3945977404
 10
27.9217039494
 20
31.4031965364
 10
28.0712900534
 20
31.4116025114
 10
28.245536079
 20
31.4198826681
 10
28.4453005431
 20
31.4280566301
 10
28.6709006543
 20
31.4361064992
 10
28.9236307705
 20
31.4440498034
 10
29.2061699092
 20
31.4519389197
 10
29.5197866233
 20
31.4597672405
 10
29.8660958482
 20
31.4675315484
 10
30.2475627542
 20
31.4752451349
 10
30.6674661454
 20
31.4829299829
 10
31.128432666
 20
31.4905825149
 10
31.6338229285
 20
31.4982037088
 10
32.1875586197
 20
31.5058043849
 10
32.79229234800001
 20
31.5133520335
 10
33.45308039880001
 20
31.5208459084
 10
34.1757650515
 20
31.5282943209
 10
34.96224944820001
 20
31.5356312203
 10
35.8177789717
 20
31.5428342051
 10
36.7455237821
 20
31.5498424905
 10
37.7436745633
 20
31.5565591615
 10
38.8140100318
 20
31.5629107582
 10
39.9501719867
 20
31.5687685316
 10
41.1464209529
 20
31.5740292069
 10
42.3995617986
 20
31.5786101794
 10
43.721777995
 20
31.5825024871
 10
45.11694628709999
 20
31.585647799
 10
46.5775901254
 20
31.5879633628
 10
48.0859445555
 20
31.5893741968
 10
49.6370874612
 20
31.5898503135
  0
LWPOLYLINE
  5
14D9
330
21F
100
AcDbEntity
  8
0
  6
Continuous
 62
     7
100
AcDbPolyline
 90
        5
 70
     0
 43
0.0
 10
40.6962876616
 20
25.2307836649
 10
40.6726688271
 20
25.224520782
 10
40.6539276297
 20
25.2193146989
 10
40.64013609739999
 20
25.2153496714
 10
40.6287593622
 20
25.211993276
  0
LWPOLYLINE
  5
14DA
330
21F
100
AcDbEntity
  8
0
  6
Continuous
 62
     7
100
AcDbPolyline
 90
        5
 70
     0
 43
0.0
 10
40.6922374836
 20
25.2201864769
 10
40.7011348331
 20
25.2224717164
 10
40.7134779245
 20
25.2255657388
 10
40.7311068058
 20
25.2298288322
 10
40.753914755
 20
25.2350724814
  0
LINE
  5
14DB
330
21F
100
AcDbEntity
  8
0
  6
Continuous
 62
     7
100
AcDbLine
 10
40.6939163103
 20
25.2206205735
 30
0.0
 11
40.70111613649999
 21
25.222466954
 31
0.0
  0
LWPOLYLINE
  5
14DC
330
21F
100
AcDbEntity
  8
0
  6
Continuous
 62
     7
100
AcDbPolyline
 90
        4
 70
     0
 43
0.0
 10
40.70111923449999
 20
25.22246774840001
 10
40.7134522919
 20
25.2255594062
 10
40.7310708362
 20
25.2298203191
 10
40.75387034219999
 20
25.2350625681
  0
LWPOLYLINE
  5
14DD
330
21F
100
AcDbEntity
  8
0
  6
Continuous
 62
     7
100
AcDbPolyline
 90
        4
 70
     0
 43
0.0
 10
40.7011115796
 20
25.2224658116
 10
40.713440591
 20
25.2255565261
 10
40.7310503334
 20
25.2298154515
 10
40.7538341361
 20
25.2350544624
  0
LWPOLYLINE
  5
14DE
330
21F
100
AcDbEntity
  8
0
  6
Continuous
 62
     7
100
AcDbPolyline
 90
        3
 70
     0
 43
0.0
 10
40.7538341361
 20
25.2350544624
 10
40.7815844536
 20
25.2410227739
 10
40.8136025011
 20
25.2473466779
  0
LWPOLYLINE
  5
14DF
330
21F
100
AcDbEntity
  8
0
  6
Continuous
 62
     7
100
AcDbPolyline
 90
       10
 70
     0
 43
0.0
 10
37.76172481010001
 20
25.6925635498
 10
37.8408875999
 20
25.7087892568
 10
37.9232010919
 20
25.7231567444
 10
38.0112462871
 20
25.7360516082
 10
38.10540818510001
 20
25.7473686281
 10
38.2045680525
 20
25.7568497725
 10
38.3081390835
 20
25.7643669545
 10
38.4160208945
 20
25.7698474173
 10
38.5281669292
 20
25.7732091429
 10
38.6445115305
 20
25.7743540117
  0
LWPOLYLINE
  5
14E0
330
21F
100
AcDbEntity
  8
0
  6
Continuous
 62
     7
100
AcDbPolyline
 90
        8
 70
     0
 43
0.0
 10
40.7815344989
 20
25.2410124363
 10
40.8135496481
 20
25.2473367341
 10
40.8492606205
 20
25.2536820124
 10
40.8881201272
 20
25.2597390859
 10
40.9296585505
 20
25.2652391462
 10
40.9734208465
 20
25.2699468335
 10
41.0189400256
 20
25.2736628292
 10
41.0657148967
 20
25.2762293927
  0
LINE
  5
14E1
330
21F
100
AcDbEntity
  8
0
  6
Continuous
 62
     7
100
AcDbLine
 10
40.78148001939999
 20
25.2410011406
 30
0.0
 11
40.8134800513
 21
25.2473236243
 31
0.0
  0
LWPOLYLINE
  5
14E2
330
21F
100
AcDbEntity
  8
0
  6
Continuous
 62
     7
100
AcDbPolyline
 90
        5
 70
     0
 43
0.0
 10
40.8134800513
 20
25.2473236243
 10
40.8493150425
 20
25.2536911128
 10
40.8881755663
 20
25.2597470972
 10
40.9297143703
 20
25.2652458608
 10
40.9734761665
 20
25.2699520799
  0
LWPOLYLINE
  5
14E3
330
21F
100
AcDbEntity
  8
0
  6
Continuous
 62
     7
100
AcDbPolyline
 90
        6
 70
     0
 43
0.0
 10
36.9405242342
 20
25.8525424853
 10
36.1137849922
 20
25.7176220099
 10
35.3680813151
 20
25.6035591232
 10
34.7036968356
 20
25.510975748
 10
34.1106248373
 20
25.4386323659
 10
33.637087461
 20
25.39074197170001
  0
LWPOLYLINE
  5
14E4
330
21F
100
AcDbEntity
  8
0
  6
Continuous
 62
     7
100
AcDbPolyline
 90
        3
 70
     0
 43
0.0
 10
36.890962081
 20
25.71672656760001
 10
36.9059947298
 20
25.7191741155
 10
36.920947461
 20
25.7215283108
  0
LWPOLYLINE
  5
14E5
330
21F
100
AcDbEntity
  8
0
  6
Continuous
 62
     7
100
AcDbPolyline
 90
        6
 70
     0
 43
0.0
 10
36.9209484858
 20
25.529677145
 10
36.0940025724
 20
25.3959248766
 10
35.3583806749
 20
25.2839092308
 10
34.7077054895
 20
25.1928059769
 10
34.135873162
 20
25.1215058473
 10
33.6370873023
 20
25.0684963949
  0
LINE
  5
14E6
330
21F
100
AcDbEntity
  8
0
  6
Continuous
 62
     7
100
AcDbLine
 10
36.0654080932
 20
25.5834741334
 30
0.0
 11
36.8909545949
 21
25.7167732698
 31
0.0
  0
LWPOLYLINE
  5
14E7
330
21F
100
AcDbEntity
  8
0
  6
Continuous
 62
     7
100
AcDbPolyline
 90
        3
 70
     0
 43
0.0
 10
36.4046410507
 20
25.4453472159
 10
36.3422427218
 20
25.4353325998
 10
36.280556675
 20
25.4254734959
  0
LWPOLYLINE
  5
14E8
330
21F
100
AcDbEntity
  8
0
  6
Continuous
 62
     7
100
AcDbPolyline
 90
        9
 70
     0
 43
0.0
 10
70.0805532894
 20
30.4810898325
 10
70.1002876167
 20
30.4841371616
 10
70.11905820329999
 20
30.4901293508
 10
70.13636775329999
 20
30.498907647
 10
70.15175767869999
 20
30.51023948360001
 10
70.1648202487
 20
30.5238246423
 10
70.175209392
 20
30.5393032066
 10
70.18264986529999
 20
30.5562650975
 10
70.183773774
 20
30.5598250008
  0
LWPOLYLINE
  5
14E9
330
21F
100
AcDbEntity
  8
0
  6
Continuous
 62
     7
100
AcDbPolyline
 90
        5
 70
     0
 43
0.0
 10
36.920947461
 20
25.7215283108
 10
36.975411967
 20
25.7286431297
 10
37.0247331316
 20
25.7327582222
 10
37.0692547194
 20
25.7343086082
 10
37.108987461
 20
25.7334447258
  0
LWPOLYLINE
  5
14EA
330
21F
100
AcDbEntity
  8
0
  6
Continuous
 62
     7
100
AcDbPolyline
 90
       19
 70
     0
 43
0.0
 10
37.4933292432
 20
27.559645856
 10
37.5200404173
 20
27.5626386195
 10
37.554238821
 20
27.5652525188
 10
37.5958407681
 20
27.5674721306
 10
37.6446741638
 20
27.5692936166
 10
37.7002471411
 20
27.5707018782
 10
37.76180660460001
 20
27.5716772702
 10
37.8290284529
 20
27.57220634
 10
37.90141908440001
 20
27.572281796
 10
37.9770395964
 20
27.571922316
 10
38.0536094172
 20
27.5711748824
 10
38.1294566425
 20
27.5700982726
 10
38.2040755238
 20
27.5687367401
 10
38.2777013647
 20
27.5671280007
 10
38.3505316117
 20
27.5653008724
 10
38.4227533667
 20
27.5632741731
 10
38.4945984758
 20
27.5610549876
 10
38.5660674434
 20
27.5586511107
 10
38.6370889413
 20
27.5560688311
  0
LWPOLYLINE
  5
14EB
330
21F
100
AcDbEntity
  8
0
  6
Continuous
 62
     7
100
AcDbPolyline
 90
        8
 70
     0
 43
0.0
 10
70.2294805252
 20
30.0831402912
 10
70.2377825091
 20
30.0840469571
 10
70.2961104628
 20
30.0921402472
 10
70.3369356636
 20
30.0996864992
 10
70.3647306289
 20
30.1066942092
 10
70.38281758450001
 20
30.1131971479
 10
70.39361992499999
 20
30.1192257826
 10
70.3989503608
 20
30.1248136484
  0
LWPOLYLINE
  5
14EC
330
21F
100
AcDbEntity
  8
0
  6
Continuous
 62
     7
100
AcDbPolyline
 90
        5
 70
     0
 43
0.0
 10
33.637087461
 20
25.2613635374
 10
34.1326085049
 20
25.3136471538
 10
34.6963444499
 20
25.3835734794
 10
35.3371642474
 20
25.4728980046
 10
36.0654080932
 20
25.5834741334
  0
LWPOLYLINE
  5
14ED
330
21F
100
AcDbEntity
  8
0
  6
Continuous
 62
     7
100
AcDbPolyline
 90
       13
 70
     0
 43
0.0
 10
70.8792826199
 20
30.14671897
 10
70.88896392329999
 20
30.1476867274
 10
70.91717769209999
 20
30.1506732227
 10
70.9432763275
 20
30.1536938462
 10
70.9673599038
 20
30.1567534499
 10
70.9895464878
 20
30.159860943
 10
71.00996535680001
 20
30.163029174
 10
71.02875940199999
 20
30.1662768083
 10
71.04609808640001
 20
30.1696341562
 10
71.06217940899999
 20
30.1731494883
 10
71.07723767729999
 20
30.17689932070001
 10
71.0915192776
 20
30.1809951245
 10
71.10530396609999
 20
30.1856071283
  0
LINE
  5
14EE
330
21F
100
AcDbEntity
  8
0
  6
Continuous
 62
     7
100
AcDbLine
 10
70.22915278380001
 20
30.0825666383
 30
0.0
 11
70.8791252777
 21
30.1467034638
 31
0.0
  0
LINE
  5
14EF
330
21F
100
AcDbEntity
  8
0
  6
Continuous
 62
     7
100
AcDbLine
 10
64.0179364817
 20
27.8961229353
 30
0.0
 11
67.62754715079999
 21
28.028667587
 31
0.0
  0
LINE
  5
14F0
330
21F
100
AcDbEntity
  8
0
  6
Continuous
 62
     7
100
AcDbLine
 10
63.8592461851
 20
27.7383439734
 30
0.0
 11
65.61104980999999
 21
27.8022988292
 31
0.0
  0
LINE
  5
14F1
330
21F
100
AcDbEntity
  8
0
  6
Continuous
 62
     7
100
AcDbLine
 10
63.89234946770001
 20
27.7708248602
 30
0.0
 11
65.60990916439999
 21
27.8335271353
 31
0.0
  0
LWPOLYLINE
  5
14F2
330
21F
100
AcDbEntity
  8
0
  6
Continuous
 62
     7
100
AcDbPolyline
 90
        5
 70
     0
 43
0.0
 10
60.63708598369999
 20
27.5560688312
 10
60.708116665
 20
27.5586514322
 10
60.7796160366
 20
27.56105626510001
 10
60.8514853988
 20
27.5632760561
 10
60.8605823419
 20
27.5635313124
  0
LWPOLYLINE
  5
14F3
330
21F
100
AcDbEntity
  8
0
  6
Continuous
 62
     7
100
AcDbPolyline
 90
       11
 70
     0
 43
0.0
 10
65.6110498126
 20
27.8022987583
 10
65.7034539213
 20
27.8056441303
 10
65.79517183819999
 20
27.8089059452
 10
65.8855360902
 20
27.8120632792
 10
65.9737727351
 20
27.8150926927
 10
66.0592567666
 20
27.8179775689
 10
66.141267184
 20
27.820699202
 10
66.21931523020001
 20
27.8232476769
 10
66.29277754010001
 20
27.8256094064
 10
66.3611592526
 20
27.8277755763
 10
66.42380561420001
 20
27.8297327227
  0
LWPOLYLINE
  5
14F4
330
21F
100
AcDbEntity
  8
0
  6
Continuous
 62
     7
100
AcDbPolyline
 90
       12
 70
     0
 43
0.0
 10
65.6099091672
 20
27.8335270592
 10
65.6960272342
 20
27.8366467664
 10
65.7807155611
 20
27.8396643465
 10
65.8636902361
 20
27.8425731634
 10
65.9446339891
 20
27.8453655866
 10
66.02324247029999
 20
27.8480350892
 10
66.0993507738
 20
27.8505801549
 10
66.1730369135
 20
27.8530073518
 10
66.24423242270001
 20
27.8553181685
 10
66.31236172840001
 20
27.8574979216
 10
66.37659550779999
 20
27.8595247872
 10
66.43596648569999
 20
27.8613737744
  0
LINE
  5
14F5
330
21F
100
AcDbEntity
  8
0
  6
Continuous
 62
     7
100
AcDbLine
 10
66.42380561420001
 20
27.8297327227
 30
0.0
 11
66.52998816510001
 21
27.8329900239
 31
0.0
  0
LINE
  5
14F6
330
21F
100
AcDbEntity
  8
0
  6
Continuous
 62
     7
100
AcDbLine
 10
66.43596648569999
 20
27.8613737744
 30
0.0
 11
66.5364727578
 21
27.8644499749
 31
0.0
  0
LINE
  5
14F7
330
21F
100
AcDbEntity
  8
0
  6
Continuous
 62
     7
100
AcDbLine
 10
66.5364727578
 20
27.8644499749
 30
0.0
 11
66.61042347680001
 21
27.8666694483
 31
0.0
  0
LINE
  5
14F8
330
21F
100
AcDbEntity
  8
0
  6
Continuous
 62
     7
100
AcDbLine
 10
66.52998816510001
 20
27.8329900239
 30
0.0
 11
66.672063502
 21
27.8372269634
 31
0.0
  0
LWPOLYLINE
  5
14F9
330
21F
100
AcDbEntity
  8
0
  6
Continuous
 62
     7
100
AcDbPolyline
 90
        3
 70
     0
 43
0.0
 10
66.61042347680001
 20
27.8666694483
 10
66.6671046679
 20
27.8683442448
 10
66.67091678600001
 20
27.8684559153
  0
LWPOLYLINE
  5
14FA
330
21F
100
AcDbEntity
  8
0
  6
Continuous
 62
     7
100
AcDbPolyline
 90
        8
 70
     0
 43
0.0
 10
60.6260953356
 20
27.8130612898
 10
60.7119707522
 20
27.8155274983
 10
60.7983656218
 20
27.8178248612
 10
60.8852187295
 20
27.8199477419
 10
60.97253625
 20
27.8218899491
 10
61.06063674579999
 20
27.823648678
 10
61.1498344118
 20
27.8252135896
 10
61.17901820130001
 20
27.8256498827
  0
LWPOLYLINE
  5
14FB
330
21F
100
AcDbEntity
  8
0
  6
Continuous
 62
     7
100
AcDbPolyline
 90
        6
 70
     0
 43
0.0
 10
60.6270113461
 20
27.7818478044
 10
60.7467614419
 20
27.7852366398
 10
60.86577333640001
 20
27.7882531072
 10
60.98291874800001
 20
27.79087463530001
 10
61.09701500359999
 20
27.7930841121
 10
61.14156767819999
 20
27.7938061144
  0
LWPOLYLINE
  5
14FC
330
21F
100
AcDbEntity
  8
0
  6
Continuous
 62
     7
100
AcDbPolyline
 90
        9
 70
     0
 43
0.0
 10
57.85207307029999
 20
27.9222946517
 10
58.17141914949999
 20
27.9268109934
 10
58.5275374271
 20
27.9318571845
 10
58.9240151025
 20
27.9374783252
 10
59.36048619979999
 20
27.9436579353
 10
59.8414740667
 20
27.9504406982
 10
60.37770094729999
 20
27.9579445778
 10
60.9738418438
 20
27.9661829705
 10
61.35030045669999
 20
27.9712893029
  0
LWPOLYLINE
  5
14FD
330
21F
100
AcDbEntity
  8
0
  6
Continuous
 62
     7
100
AcDbPolyline
 90
       21
 70
     0
 43
0.0
 10
64.1266481742
 20
28.0061021197
 10
64.1947376757
 20
28.006873762
 10
64.58581322
 20
28.0110843947
 10
64.94247701759999
 20
28.0147110174
 10
65.26808704850001
 20
28.0178151916
 10
65.56437186930001
 20
28.0204422504
 10
65.8282771009
 20
28.0225991971
 10
66.05558725369999
 20
28.0242974621
 10
66.2477245332
 20
28.0256012615
 10
66.4103047328
 20
28.0265987798
 10
66.5485852492
 20
28.0273621896
 10
66.6668363556
 20
28.0279455914
 10
66.7684603023
 20
28.0283894906
 10
66.855807449
 20
28.0287238578
 10
66.93099286369999
 20
28.0289742138
 10
66.9965191364
 20
28.0291621908
 10
67.0565922815
 20
28.029307967
 10
67.11534692489999
 20
28.0294239379
 10
67.172668626
 20
28.0295092851
 10
67.22572420199999
 20
28.029561063
 10
67.2729506286
 20
28.029582454
  0
LINE
  5
14FE
330
21F
100
AcDbEntity
  8
0
  6
Continuous
 62
     7
100
AcDbLine
 10
31.6466277712
 20
28.028667587
 30
0.0
 11
31.6702657083
 21
28.0288319288
 31
0.0
  0
LINE
  5
14FF
330
21F
100
AcDbEntity
  8
0
  6
Continuous
 62
     7
100
AcDbLine
 10
31.6702657083
 20
28.0288319288
 30
0.0
 11
31.7032542408
 21
28.0290157376
 31
0.0
  0
LINE
  5
1500
330
21F
100
AcDbEntity
  8
0
  6
Continuous
 62
     7
100
AcDbLine
 10
31.7032542408
 20
28.0290157376
 30
0.0
 11
31.7442885192
 21
28.0291938549
 31
0.0
  0
LINE
  5
1501
330
21F
100
AcDbEntity
  8
0
  6
Continuous
 62
     7
100
AcDbLine
 10
31.7442885192
 20
28.0291938549
 30
0.0
 11
31.7780774087
 21
28.0293067605
 31
0.0
  0
LWPOLYLINE
  5
1502
330
21F
100
AcDbEntity
  8
0
  6
Continuous
 62
     7
100
AcDbPolyline
 90
       14
 70
     0
 43
0.0
 10
49.637087461
 20
27.3257280173
 10
50.2607174153
 20
27.3273102285
 10
50.9381483722
 20
27.3321628396
 10
51.6678021909
 20
27.340355659
 10
52.4398975193
 20
27.3517289537
 10
53.2455588774
 20
27.365982036
 10
54.07732758699999
 20
27.3827555376
 10
54.9315751222
 20
27.4017428198
 10
55.8068036673
 20
27.4227016421
 10
56.70532053189999
 20
27.4455169989
 10
57.6306480272
 20
27.4701489536
 10
58.5843570693
 20
27.4965392549
 10
59.5800328288
 20
27.5249997588
 10
60.6370860196
 20
27.5560688466
  0
LINE
  5
1503
330
21F
100
AcDbEntity
  8
0
  6
Continuous
 62
     7
100
AcDbLine
 10
31.7780774087
 20
28.0293067605
 30
0.0
 11
31.8168245898
 21
28.0294073376
 31
0.0
  0
LWPOLYLINE
  5
1504
330
21F
100
AcDbEntity
  8
0
  6
Continuous
 62
     7
100
AcDbPolyline
 90
       19
 70
     0
 43
0.0
 10
49.637087461
 20
27.5826140433
 10
50.0809425345
 20
27.5834353312
 10
50.5523058386
 20
27.58593991510001
 10
51.05263761789999
 20
27.5901843638
 10
51.57986608379999
 20
27.5961740311
 10
52.12959878109999
 20
27.6038376746
 10
52.69882053069999
 20
27.6130758854
 10
53.2840796378
 20
27.6237545409
 10
53.8828344861
 20
27.6357382277
 10
54.4935997838
 20
27.6489077234
 10
55.1156221809
 20
27.6631634291
 10
55.7485294707
 20
27.6784224256
 10
56.3933763934
 20
27.6946467958
 10
57.0522370116
 20
27.7118380893
 10
57.7250911295
 20
27.7299539783
 10
58.41256292789999
 20
27.7489750841
 10
59.12050992890001
 20
27.7690379301
 10
59.8559764172
 20
27.790330881
 10
60.62609533569999
 20
27.81306128800001
  0
LWPOLYLINE
  5
1505
330
21F
100
AcDbEntity
  8
0
  6
Continuous
 62
     7
100
AcDbPolyline
 90
       19
 70
     0
 43
0.0
 10
49.637087461
 20
27.8393029765
 10
50.425978634
 20
27.8407495584
 10
51.22120986439999
 20
27.84468582400001
 10
51.93644722520001
 20
27.8498879216
 10
52.5668934031
 20
27.855511462
 10
53.1320293002
 20
27.8612255094
 10
53.6428210844
 20
27.8668442614
 10
54.106275894
 20
27.872255891
 10
54.52540548039999
 20
27.8773679893
 10
54.901624892
 20
27.8821076689
 10
55.2391661788
 20
27.8864648994
 10
55.54764343319999
 20
27.8905222166
 10
55.83906637510001
 20
27.89441275010001
 10
56.1252153506
 20
27.8982802576
 10
56.4131551534
 20
27.902212936
 10
56.7027208968
 20
27.9062032395
 10
56.9908489141
 20
27.9102037989
 10
57.2749378502
 20
27.9141731435
 10
57.85207307029999
 20
27.9222946517
  0
LWPOLYLINE
  5
1506
330
21F
100
AcDbEntity
  8
0
  6
Continuous
 62
     7
100
AcDbPolyline
 90
       27
 70
     0
 43
0.0
 10
49.637087461
 20
27.5514094223
 10
50.02924190369999
 20
27.5520537179
 10
50.4235337093
 20
27.5538964839
 10
50.8173091523
 20
27.5567926897
 10
51.2079160341
 20
27.5605888077
 10
51.5991469228
 20
27.565209712
 10
52.0031045839
 20
27.5707457854
 10
52.4276801565
 20
27.5773093575
 10
52.8724642947
 20
27.5849120915
 10
53.33753860499999
 20
27.5935657852
 10
53.8242997406
 20
27.6033042187
 10
54.3344444097
 20
27.6141699667
 10
54.8690612251
 20
27.6261946777
 10
55.4196317689
 20
27.639178501
 10
55.9720089981
 20
27.6527444374
 10
56.5124631029
 20
27.66648060760001
 10
57.0320478545
 20
27.6800712978
 10
57.53192082109999
 20
27.6934663785
 10
58.00637282029999
 20
27.7064432868
 10
58.4340227066
 20
27.7183408535
 10
58.80074848479999
 20
27.7286835648
 10
59.122568608
 20
27.7378595551
 10
59.4220048616
 20
27.7464762729
 10
59.72027526449999
 20
27.7551313141
 10
60.0232265224
 20
27.76399196
 10
60.3268511187
 20
27.7729394393
 10
60.6270113461
 20
27.7818478027
  0
LINE
  5
1507
330
21F
100
AcDbEntity
  8
0
  6
Continuous
 62
     7
100
AcDbLine
 10
31.8168245898
 20
28.0294073376
 30
0.0
 11
31.8664798397
 21
28.0294996027
 31
0.0
  0
LWPOLYLINE
  5
1508
330
21F
100
AcDbEntity
  8
0
  6
Continuous
 62
     7
100
AcDbPolyline
 90
       62
 70
     0
 43
0.0
 10
31.8664798397
 20
28.0294996027
 10
31.9324084486
 20
28.0295682874
 10
31.9725266247
 20
28.029583286
 10
32.0182507433
 20
28.0295775668
 10
32.0688777044
 20
28.0295444308
 10
32.1222091385
 20
28.0294818061
 10
32.1767144556
 20
28.0293915595
 10
32.2340241199
 20
28.0292707068
 10
32.2983280797
 20
28.0291060508
 10
32.373577306
 20
28.0288773272
 10
32.4622802654
 20
28.0285614216
 10
32.566804298
 20
28.0281293945
 10
32.6905320355
 20
28.0275421772
 10
32.8384267397
 20
28.0267453931
 10
33.0162062798
 20
28.0256670812
 10
33.230520122
 20
28.0242123619
 10
33.4804677354
 20
28.0223274166
 10
33.7593626858
 20
28.0200171389
 10
34.0672467002
 20
28.0172485524
 10
34.4062425011
 20
28.0139715048
 10
34.779556723
 20
28.0101230669
 10
35.1908740134
 20
28.0056339239
 10
35.6430028767
 20
28.0004398433
 10
36.1392732441
 20
27.9944706396
 10
36.6857466357
 20
27.9876266428
 10
37.2881047923
 20
27.97981146130001
 10
37.9284790745
 20
27.9712502706
 10
38.54746745030001
 20
27.962783093
 10
39.1038882502
 20
27.9550509922
 10
39.60421972320001
 20
27.9480264327
 10
40.0584822331
 20
27.9416097748
 10
40.4731033619
 20
27.9357355049
 10
40.8496294611
 20
27.9303971605
 10
41.18801745809999
 20
27.9256041113
 10
41.49386785999999
 20
27.9212814674
 10
41.77849748049999
 20
27.9172715746
 10
42.05481010719999
 20
27.9133949356
 10
42.33303360589999
 20
27.9095116864
 10
42.6150674433
 20
27.9056001774
 10
42.89805035519999
 20
27.9017050904
 10
43.1797181763
 20
27.8978624741
 10
43.46061034829999
 20
27.894070256
 10
43.74680080850001
 20
27.8902536075
 10
44.04834054760001
 20
27.8862910949
 10
44.3748225712
 20
27.8820786527
 10
44.7319171064
 20
27.8775774106
 10
45.105083689
 20
27.8730096832
 10
45.4729568903
 20
27.8686628097
 10
45.8147722362
 20
27.8647818057
 10
46.1262518229
 20
27.8613942573
 10
46.4147994299
 20
27.8583970166
 10
46.689350673
 20
27.8556836698
 10
46.958618418
 20
27.8531661313
 10
47.2276189257
 20
27.8508060708
 10
47.49779002399999
 20
27.8486057696
 10
47.7676969145
 20
27.8465930885
 10
48.0352756185
 20
27.8447971336
 10
48.3041974179
 20
27.8432100609
 10
48.586350694
 20
27.8418011273
 10
48.89424719109999
 20
27.8405917453
 10
49.2403519646
 20
27.8396842019
 10
49.637087461
 20
27.8393029765
  0
LINE
  5
1509
330
21F
100
AcDbEntity
  8
0
  6
Continuous
 62
     7
100
AcDbLine
 10
67.2729506286
 20
28.029582454
 30
0.0
 11
67.35171329749999
 21
28.0295615371
 31
0.0
  0
LINE
  5
150A
330
21F
100
AcDbEntity
  8
0
  6
Continuous
 62
     7
100
AcDbLine
 10
67.35171329749999
 20
28.0295615371
 30
0.0
 11
67.41266293390001
 21
28.0294920393
 31
0.0
  0
LINE
  5
150B
330
21F
100
AcDbEntity
  8
0
  6
Continuous
 62
     7
100
AcDbLine
 10
67.41266293390001
 20
28.0294920393
 30
0.0
 11
67.4589906122
 21
28.0294036238
 31
0.0
  0
LINE
  5
150C
330
21F
100
AcDbEntity
  8
0
  6
Continuous
 62
     7
100
AcDbLine
 10
67.4589906122
 20
28.0294036238
 30
0.0
 11
67.49788611149999
 21
28.0293014237
 31
0.0
  0
LINE
  5
150D
330
21F
100
AcDbEntity
  8
0
  6
Continuous
 62
     7
100
AcDbLine
 10
67.49788611149999
 20
28.0293014237
 30
0.0
 11
67.5317753935
 21
28.0291867179
 31
0.0
  0
LINE
  5
150E
330
21F
100
AcDbEntity
  8
0
  6
Continuous
 62
     7
100
AcDbLine
 10
67.5317753935
 20
28.0291867179
 30
0.0
 11
67.57358719239999
 21
28.0290023653
 31
0.0
  0
LINE
  5
150F
330
21F
100
AcDbEntity
  8
0
  6
Continuous
 62
     7
100
AcDbLine
 10
67.57358719239999
 20
28.0290023653
 30
0.0
 11
67.60976000959999
 21
28.0287945474
 31
0.0
  0
LINE
  5
1510
330
21F
100
AcDbEntity
  8
0
  6
Continuous
 62
     7
100
AcDbLine
 10
67.60976000959999
 20
28.0287945474
 30
0.0
 11
67.62754715079999
 21
28.028667587
 31
0.0
  0
LWPOLYLINE
  5
1511
330
21F
100
AcDbEntity
  8
0
  6
Continuous
 62
     7
100
AcDbPolyline
 90
       14
 70
     0
 43
0.0
 10
38.63708890530001
 20
27.5560688465
 10
39.6939103549
 20
27.5250064791
 10
40.6895261582
 20
27.4965474646
 10
41.64329045139999
 20
27.4701553774
 10
42.5686599125
 20
27.4455220623
 10
43.4671840017
 20
27.4227062688
 10
44.3424362292
 20
27.4017466035
 10
45.19670073229999
 20
27.3827586547
 10
46.0284866854
 20
27.3659844925
 10
46.8341649494
 20
27.3517307851
 10
47.60627851659999
 20
27.3403568915
 10
48.3359494235
 20
27.33216355150001
 10
49.013402229
 20
27.3273105015
 10
49.637087461
 20
27.3257280173
  0
LWPOLYLINE
  5
1512
330
21F
100
AcDbEntity
  8
0
  6
Continuous
 62
     7
100
AcDbPolyline
 90
       19
 70
     0
 43
0.0
 10
38.6480795863
 20
27.81306128800001
 10
39.4180119142
 20
27.7903363367
 10
40.1533886607
 20
27.7690458477
 10
40.8613230292
 20
27.748983179
 10
41.5488402412
 20
27.7299606292
 10
42.2217381726
 20
27.7118433869
 10
42.8806048883
 20
27.6946517612
 10
43.52545924010001
 20
27.6784270165
 10
44.1583847684
 20
27.6631673827
 10
44.7804205213
 20
27.6489111664
 10
45.3911976009
 20
27.6357412016
 10
45.9899650939
 20
27.6237570361
 10
46.57523680149999
 20
27.6130779171
 10
47.1444701725
 20
27.6038392776
 10
47.69421690589999
 20
27.5961751982
 10
48.22145824859999
 20
27.5901851514
 10
48.72179964979999
 20
27.5859403969
 10
49.1931894078
 20
27.5834354871
 10
49.637087461
 20
27.5826140439
  0
LINE
  5
1513
330
21F
100
AcDbEntity
  8
0
  6
Continuous
 62
     7
100
AcDbLine
 10
32.6021114584
 20
27.8372269635
 30
0.0
 11
32.6661338949
 21
27.83533551670001
 31
0.0
  0
LWPOLYLINE
  5
1514
330
21F
100
AcDbEntity
  8
0
  6
Continuous
 62
     7
100
AcDbPolyline
 90
       27
 70
     0
 43
0.0
 10
38.6471635758
 20
27.7818478027
 10
38.9468116363
 20
27.7729545874
 10
39.249380152
 20
27.7640380045
 10
39.55140073320001
 20
27.7552041194
 10
39.8495098377
 20
27.7465531541
 10
40.14923133319999
 20
27.7379276049
 10
40.4702688782
 20
27.72877315260001
 10
40.8335660012
 20
27.7185254928
 10
41.2541985159
 20
27.7068189067
 10
41.71865220549999
 20
27.6941060762
 10
42.20618363789999
 20
27.6810243932
 10
42.7146479176
 20
27.6676967333
 10
43.25174258039999
 20
27.6540074596
 10
43.8093717901
 20
27.6402684939
 10
44.3698438556
 20
27.6270089904
 10
44.91490503899999
 20
27.614714536
 10
45.4328848793
 20
27.6036557027
 10
45.9250964885
 20
27.5937889272
 10
46.3940063508
 20
27.5850498187
 10
46.84176376399999
 20
27.5773864679
 10
47.269040022
 20
27.570775425
 10
47.67574899199999
 20
27.5652005006
 10
48.0691131863
 20
27.5605579937
 10
48.4600748323
 20
27.5567651581
 10
48.8526036162
 20
27.5538845808
 10
49.2453726445
 20
27.5520523019
 10
49.637087461
 20
27.55140942300001
  0
LINE
  5
1515
330
21F
100
AcDbEntity
  8
0
  6
Continuous
 62
     7
100
AcDbLine
 10
32.6032582239
 20
27.8684559138
 30
0.0
 11
32.688220853
 21
27.865939216
 31
0.0
  0
LINE
  5
1516
330
21F
100
AcDbEntity
  8
0
  6
Continuous
 62
     7
100
AcDbLine
 10
32.9613576784
 20
27.6666147198
 30
0.0
 11
32.8852666653
 21
27.6688787818
 31
0.0
  0
LINE
  5
1517
330
21F
100
AcDbEntity
  8
0
  6
Continuous
 62
     7
100
AcDbLine
 10
32.6661338949
 20
27.83533551670001
 30
0.0
 11
32.7443568243
 21
27.8329848616
 31
0.0
  0
LINE
  5
1518
330
21F
100
AcDbEntity
  8
0
  6
Continuous
 62
     7
100
AcDbLine
 10
32.688220853
 20
27.865939216
 30
0.0
 11
32.7675756637
 21
27.8635426915
 31
0.0
  0
LINE
  5
1519
330
21F
100
AcDbEntity
  8
0
  6
Continuous
 62
     7
100
AcDbLine
 10
33.0319694045
 20
27.6644645848
 30
0.0
 11
32.9613576784
 21
27.6666147198
 31
0.0
  0
LWPOLYLINE
  5
151A
330
21F
100
AcDbEntity
  8
0
  6
Continuous
 62
     7
100
AcDbPolyline
 90
       12
 70
     0
 43
0.0
 10
32.7443568243
 20
27.8329848616
 10
32.8505036675
 20
27.8297285457
 10
32.91305386760001
 20
27.8277743634
 10
32.9813305733
 20
27.8256115389
 10
33.0547439322
 20
27.823251426
 10
33.1327925463
 20
27.8207029932
 10
33.2148123516
 20
27.8179811067
 10
33.3003054878
 20
27.8150959825
 10
33.3885647694
 20
27.8120658456
 10
33.4789609941
 20
27.8089074298
 10
33.5707072757
 20
27.8056446249
 10
33.6631251095
 20
27.8022987627
  0
LWPOLYLINE
  5
151B
330
21F
100
AcDbEntity
  8
0
  6
Continuous
 62
     7
100
AcDbPolyline
 90
       13
 70
     0
 43
0.0
 10
32.7675756637
 20
27.8635426915
 10
32.8702211163
 20
27.8603796329
 10
32.9291781691
 20
27.8585310689
 10
32.9920524557
 20
27.8565341836
 10
33.0580890381
 20
27.8544085965
 10
33.1266401174
 20
27.8521714012
 10
33.1973813474
 20
27.8498298814
 10
33.2703462457
 20
27.8473796802
 10
33.3455552499
 20
27.8448166615
 10
33.4228161742
 20
27.8421438592
 10
33.5018627858
 20
27.8393671501
 10
33.5824236311
 20
27.8364930944
 10
33.6642657549
 20
27.833527064
  0
LWPOLYLINE
  5
151C
330
21F
100
AcDbEntity
  8
0
  6
Continuous
 62
     7
100
AcDbPolyline
 90
       11
 70
     0
 43
0.0
 10
33.6573582636
 20
27.6434352274
 10
33.5912442719
 20
27.6458293856
 10
33.5263009839
 20
27.6481408879
 10
33.4627730986
 20
27.6503639402
 10
33.4009298494
 20
27.65249212
 10
33.3410165264
 20
27.6545203886
 10
33.283124487
 20
27.6564490964
 10
33.22719949670001
 20
27.658283354
 10
33.1734431873
 20
27.6600197785
 10
33.1224495623
 20
27.6616428012
 10
33.0319694045
 20
27.6644645848
  0
LWPOLYLINE
  5
151D
330
21F
100
AcDbEntity
  8
0
  6
Continuous
 62
     7
100
AcDbPolyline
 90
        3
 70
     0
 43
0.0
 10
37.4771933401
 20
27.5038406694
 10
36.4768804887
 20
27.5403584376
 10
33.6573582636
 20
27.6434352274
  0
LWPOLYLINE
  5
151E
330
21F
100
AcDbEntity
  8
0
  6
Continuous
 62
     7
100
AcDbPolyline
 90
        7
 70
     0
 43
0.0
 10
33.6631251119
 20
27.8022988292
 10
34.3030203355
 20
27.7789298727
 10
34.9442112711
 20
27.7555218587
 10
35.580819957
 20
27.7322901022
 10
36.20690172110001
 20
27.7094520392
 10
36.8187186645
 20
27.687144432
 10
37.3877444154
 20
27.6664072004
  0
LWPOLYLINE
  5
151F
330
21F
100
AcDbEntity
  8
0
  6
Continuous
 62
     7
100
AcDbPolyline
 90
        4
 70
     0
 43
0.0
 10
33.6642657575
 20
27.8335271353
 10
35.4162755346
 20
27.7695636846
 10
36.98965626550001
 20
27.7121832846
 10
37.3522317027
 20
27.6989766141
  0
LINE
  5
1520
330
21F
100
AcDbEntity
  8
0
  6
Continuous
 62
     7
100
AcDbLine
 10
37.6278912339
 20
27.089801609
 30
0.0
 11
33.61117376900001
 21
27.2372951939
 31
0.0
  0
LINE
  5
1521
330
21F
100
AcDbEntity
  8
0
  6
Continuous
 62
     7
100
AcDbLine
 10
37.27035776040001
 20
27.8221646145
 30
0.0
 11
31.6466277712
 21
28.028667587
 31
0.0
  0
LWPOLYLINE
  5
1522
330
21F
100
AcDbEntity
  8
0
  6
Continuous
 62
     7
100
AcDbPolyline
 90
        4
 70
     0
 43
0.0
 10
28.3950496495
 20
30.1467034633
 10
28.6270520067
 20
30.1238319717
 10
28.8694181305
 20
30.0999163771
 10
29.0450191649
 20
30.0825718426
  0
LINE
  5
1523
330
21F
100
AcDbEntity
  8
0
  6
Continuous
 62
     7
100
AcDbLine
 10
28.3948910613
 20
30.1467190942
 30
0.0
 11
28.3950496403
 21
30.1467034642
 31
0.0
  0
LWPOLYLINE
  5
1524
330
21F
100
AcDbEntity
  8
0
  6
Continuous
 62
     7
100
AcDbPolyline
 90
        6
 70
     0
 43
0.0
 10
65.63708746100001
 20
25.390761781
 10
65.16349940180001
 20
25.4386494625
 10
64.5700237413
 20
25.5110286052
 10
63.90525447689999
 20
25.603683799
 10
63.15957625220001
 20
25.7177507851
 10
62.3336506907
 20
25.8525424848
  0
LWPOLYLINE
  5
1525
330
21F
100
AcDbEntity
  8
0
  6
Continuous
 62
     7
100
AcDbPolyline
 90
        5
 70
     0
 43
0.0
 10
65.6370876196
 20
25.0684963949
 10
65.13838242910001
 20
25.1214965052
 10
64.5665290908
 20
25.1927980614
 10
63.9158006204
 20
25.2839082969
 10
63.18014295930001
 20
25.3959295005
  0
LWPOLYLINE
  5
1526
330
21F
100
AcDbEntity
  8
0
  6
Continuous
 62
     7
100
AcDbPolyline
 90
        4
 70
     0
 43
0.0
 10
62.3336486144
 20
25.8525400031
 10
62.2205862921
 20
25.867439363
 10
62.1076761316
 20
25.8738673773
 10
62.08745962720001
 20
25.8740334837
  0
LWPOLYLINE
  5
1527
330
21F
100
AcDbEntity
  8
0
  6
Continuous
 62
     7
100
AcDbPolyline
 90
        5
 70
     0
 43
0.0
 10
62.35322645300001
 20
25.5296772509
 10
62.2985945277
 20
25.5373151639
 10
62.2489629031
 20
25.541758379
 10
62.20437858989999
 20
25.5434163689
 10
62.1651838252
 20
25.5424353816
  0
LWPOLYLINE
  5
1528
330
21F
100
AcDbEntity
  8
0
  6
Continuous
 62
     7
100
AcDbPolyline
 90
        3
 70
     0
 43
0.0
 10
62.353227461
 20
25.7215283108
 10
62.3681802017
 20
25.7191741139
 10
62.383212841
 20
25.71672656760001
  0
LWPOLYLINE
  5
1529
330
21F
100
AcDbEntity
  8
0
  6
Continuous
 62
     7
100
AcDbPolyline
 90
        3
 70
     0
 43
0.0
 10
62.9936182469
 20
25.4254734959
 10
62.9319322002
 20
25.4353325998
 10
62.8695338713
 20
25.4453472159
  0
LWPOLYLINE
  5
152A
330
21F
100
AcDbEntity
  8
0
  6
Continuous
 62
     7
100
AcDbPolyline
 90
        6
 70
     0
 43
0.0
 10
62.3832203271
 20
25.7167732698
 10
63.2087957653
 20
25.5834695571
 10
63.9370625358
 20
25.4728907404
 10
64.577864312
 20
25.3835679568
 10
65.1415947854
 20
25.3136445662
 10
65.63708746100001
 20
25.2613677875
  0
LINE
  5
152B
330
21F
100
AcDbEntity
  8
0
  6
Continuous
 62
     7
100
AcDbLine
 10
63.18014295930001
 20
25.3959295005
 30
0.0
 11
62.35322643619999
 21
25.529677145
 31
0.0
  0
LWPOLYLINE
  5
152C
330
21F
100
AcDbEntity
  8
0
  6
Continuous
 62
     7
100
AcDbPolyline
 90
        7
 70
     0
 43
0.0
 10
28.1771763938
 20
30.1924087557
 10
28.1576119395
 20
30.1958779985
 10
28.13884598260001
 20
30.20240355
 10
28.1213528758
 20
30.2118204617
 10
28.1055747979
 20
30.2238906997
 10
28.091910576
 20
30.2383091612
 10
28.0807056051
 20
30.2547113862
  0
LINE
  5
152D
330
21F
100
AcDbEntity
  8
0
  6
Continuous
 62
     7
100
AcDbLine
 10
61.5081949617
 20
25.6934360391
 30
0.0
 11
61.51245011189999
 21
25.6925635498
 31
0.0
  0
LWPOLYLINE
  5
152E
330
21F
100
AcDbEntity
  8
0
  6
Continuous
 62
     7
100
AcDbPolyline
 90
        4
 70
     0
 43
0.0
 10
55.16459285739999
 20
25.211993276
 10
55.2163167109
 20
25.1944318569
 10
55.3316424283
 20
25.1268756157
 10
55.3888606702
 20
25.0772885029
  0
LINE
  5
152F
330
21F
100
AcDbEntity
  8
0
  6
Continuous
 62
     7
100
AcDbLine
 10
50.762087461
 20
23.624493276
 30
0.0
 11
50.62208746100001
 21
23.764493276
 31
0.0
  0
LINE
  5
1530
330
21F
100
AcDbEntity
  8
0
  6
Continuous
 62
     7
100
AcDbLine
 10
39.6156461519
 20
22.6317999452
 30
0.0
 11
40.42356513929999
 21
25.6469946547
 31
0.0
  0
LINE
  5
1531
330
21F
100
AcDbEntity
  8
0
  6
Continuous
 62
     7
100
AcDbLine
 10
39.7363868801
 20
22.5994475646
 30
0.0
 11
40.55297466179999
 21
25.6469946547
 31
0.0
  0
LWPOLYLINE
  5
1532
330
21F
100
AcDbEntity
  8
0
  6
Continuous
 62
     7
100
AcDbPolyline
 90
       12
 70
     0
 43
0.0
 10
67.96865438640001
 20
30.3170134459
 10
68.19397245270001
 20
30.3267852968
 10
68.4403362367
 20
30.3379114172
 10
68.68909583779999
 20
30.3495961899
 10
68.92231399509999
 20
30.3609458846
 10
69.1326881085
 20
30.3714988016
 10
69.32161175970001
 20
30.3812205263
 10
69.4931666287
 20
30.3902417878
 10
69.6501598273
 20
30.3986528149
 10
69.7939377418
 20
30.4064816494
 10
69.92580867609999
 20
30.4137642545
 10
70.04719700649999
 20
30.4205512975
  0
LINE
  5
1533
330
21F
100
AcDbEntity
  8
0
  6
Continuous
 62
     7
100
AcDbLine
 10
67.88679199100001
 20
32.061993276
 30
0.0
 11
67.5785129504
 21
32.0492041944
 31
0.0
  0
LINE
  5
1534
330
21F
100
AcDbEntity
  8
0
  6
Continuous
 62
     7
100
AcDbLine
 10
33.8649548529
 20
30.2499370337
 30
0.0
 11
33.7653768412
 21
30.2479301018
 31
0.0
  0
LINE
  5
1535
330
21F
100
AcDbEntity
  8
0
  6
Continuous
 62
     7
100
AcDbLine
 10
33.9996758123
 20
30.2526402846
 30
0.0
 11
33.8649548529
 21
30.2499370337
 31
0.0
  0
LINE
  5
1536
330
21F
100
AcDbEntity
  8
0
  6
Continuous
 62
     7
100
AcDbLine
 10
34.1004320884
 20
30.2546061741
 30
0.0
 11
33.9996758123
 21
30.2526402846
 31
0.0
  0
LINE
  5
1537
330
21F
100
AcDbEntity
  8
0
  6
Continuous
 62
     7
100
AcDbLine
 10
33.7653768412
 20
30.2479301018
 30
0.0
 11
33.6875261145
 21
30.2464013677
 31
0.0
  0
LINE
  5
1538
330
21F
100
AcDbEntity
  8
0
  6
Continuous
 62
     7
100
AcDbLine
 10
34.1835130138
 20
30.2561918458
 30
0.0
 11
34.1004320884
 21
30.2546061741
 31
0.0
  0
LINE
  5
1539
330
21F
100
AcDbEntity
  8
0
  6
Continuous
 62
     7
100
AcDbLine
 10
33.6875261145
 20
30.2464013677
 30
0.0
 11
33.6212619905
 21
30.2451275966
 31
0.0
  0
LINE
  5
153A
330
21F
100
AcDbEntity
  8
0
  6
Continuous
 62
     7
100
AcDbLine
 10
33.6212619905
 20
30.2451275966
 30
0.0
 11
33.54009173530001
 21
30.2436010507
 31
0.0
  0
LWPOLYLINE
  5
153B
330
21F
100
AcDbEntity
  8
0
  6
Continuous
 62
     7
100
AcDbPolyline
 90
        5
 70
     0
 43
0.0
 10
33.5317381449
 20
30.3083607352
 10
33.5282870072
 20
30.3082962457
 10
33.5248420957
 20
30.3082315256
 10
33.5213947462
 20
30.3081669975
 10
33.5179657091
 20
30.3081029363
  0
LINE
  5
153C
330
21F
100
AcDbEntity
  8
0
  6
Continuous
 62
     7
100
AcDbLine
 10
34.2808733171
 20
30.2580099711
 30
0.0
 11
34.1835130138
 21
30.2561918458
 31
0.0
  0
LINE
  5
153D
330
21F
100
AcDbEntity
  8
0
  6
Continuous
 62
     7
100
AcDbLine
 10
33.54009173530001
 20
30.2436010507
 30
0.0
 11
33.4412070052
 21
30.24179053260001
 31
0.0
  0
LINE
  5
153E
330
21F
100
AcDbEntity
  8
0
  6
Continuous
 62
     7
100
AcDbLine
 10
33.6513664144
 20
30.3105707095
 30
0.0
 11
33.5317381449
 21
30.3083607352
 31
0.0
  0
LINE
  5
153F
330
21F
100
AcDbEntity
  8
0
  6
Continuous
 62
     7
100
AcDbLine
 10
33.5179657091
 20
30.3081029363
 30
0.0
 11
33.4374269674
 21
30.3066156451
 31
0.0
  0
LINE
  5
1540
330
21F
100
AcDbEntity
  8
0
  6
Continuous
 62
     7
100
AcDbLine
 10
33.7500347952
 20
30.3123502185
 30
0.0
 11
33.6513664144
 21
30.3105707095
 31
0.0
  0
LINE
  5
1541
330
21F
100
AcDbEntity
  8
0
  6
Continuous
 62
     7
100
AcDbLine
 10
33.4374269674
 20
30.3066156451
 30
0.0
 11
33.343334343
 21
30.3049250534
 31
0.0
  0
LINE
  5
1542
330
21F
100
AcDbEntity
  8
0
  6
Continuous
 62
     7
100
AcDbLine
 10
70.2371117901
 20
30.8256718065
 30
0.0
 11
70.38070766779999
 21
30.8281933614
 31
0.0
  0
LWPOLYLINE
  5
1543
330
21F
100
AcDbEntity
  8
0
  6
Continuous
 62
     7
100
AcDbPolyline
 90
       37
 70
     0
 43
0.0
 10
33.4412070052
 20
30.24179053260001
 10
33.3239815059
 20
30.2397123298
 10
33.2590751361
 20
30.2385925984
 10
33.1899905575
 20
30.2374243918
 10
33.11656934510001
 20
30.2362089646
 10
33.0382011999
 20
30.2349406536
 10
32.954035591
 20
30.23361100260001
 10
32.8632377358
 20
30.2322132496
 10
32.7650561248
 20
30.230743305
 10
32.6588848727
 20
30.2292004243
 10
32.544223691
 20
30.227586247
 10
32.4203834296
 20
30.2259004213
 10
32.2865093144
 20
30.2241410479
 10
32.1416870509
 20
30.2223057838
 10
31.9849375638
 20
30.2203911559
 10
31.8152129047
 20
30.2183917636
 10
31.6313545166
 20
30.2162979751
 10
31.4321082998
 20
30.2140934441
 10
31.2162612862
 20
30.2117520111
 10
30.982449479
 20
30.2092260217
 10
30.7296670284
 20
30.2064368016
 10
30.4600808825
 20
30.2032811167
 10
30.2022302372
 20
30.1999348652
 10
29.970131298
 20
30.1964539307
 10
29.7627354477
 20
30.1927371248
 10
29.5782110032
 20
30.1886770021
 10
29.4169016361
 20
30.1842084839
 10
29.2774712545
 20
30.1792314979
 10
29.158254639
 20
30.1735838351
 10
29.0608637089
 20
30.1672601287
 10
28.9889266585
 20
30.1606679975
 10
28.9402780833
 20
30.1542090075
 10
28.9083248049
 20
30.1479077578
 10
28.8886783021
 20
30.1417978158
 10
28.8780867941
 20
30.1359022387
 10
28.8741880679
 20
30.1302349062
 10
28.8752245611
 20
30.1248136484
  0
LINE
  5
1544
330
21F
100
AcDbEntity
  8
0
  6
Continuous
 62
     7
100
AcDbLine
 10
33.343334343
 20
30.3049250534
 30
0.0
 11
33.2631814103
 21
30.3035240451
 31
0.0
  0
LINE
  5
1545
330
21F
100
AcDbEntity
  8
0
  6
Continuous
 62
     7
100
AcDbLine
 10
33.8776947265
 20
30.3145955163
 30
0.0
 11
33.7500347952
 21
30.3123502185
 31
0.0
  0
LINE
  5
1546
330
21F
100
AcDbEntity
  8
0
  6
Continuous
 62
     7
100
AcDbLine
 10
33.2631814103
 20
30.3035240451
 30
0.0
 11
33.1556636733
 21
30.3017000124
 31
0.0
  0
LINE
  5
1547
330
21F
100
AcDbEntity
  8
0
  6
Continuous
 62
     7
100
AcDbLine
 10
34.0256404722
 20
30.3171183096
 30
0.0
 11
33.8776947265
 21
30.3145955163
 31
0.0
  0
LWPOLYLINE
  5
1548
330
21F
100
AcDbEntity
  8
0
  6
Continuous
 62
     7
100
AcDbPolyline
 90
       36
 70
     0
 43
0.0
 10
49.637087461
 20
30.3607142989
 10
48.2170131287
 20
30.337585772
 10
46.8638042202
 20
30.322253539
 10
45.5679204208
 20
30.3128390629
 10
44.33944650279999
 20
30.3078251295
 10
43.2444822217
 20
30.3058315991
 10
42.2851547634
 20
30.3054092945
 10
41.441902278
 20
30.3055505417
 10
40.69759369599999
 20
30.3056285391
 10
40.0388720954
 20
30.3053238271
 10
39.4531370836
 20
30.30456178260001
 10
38.9299504784
 20
30.3033648565
 10
38.4609106295
 20
30.3017922235
 10
38.0392907044
 20
30.2999263638
 10
37.6594715943
 20
30.2978427429
 10
37.3165896298
 20
30.2956071026
 10
37.0064269065
 20
30.2932753863
 10
36.7253171636
 20
30.2908943718
 10
36.4701115979
 20
30.2885040374
 10
36.238037964
 20
30.2861356951
 10
36.0266695232
 20
30.2838128054
 10
35.8338901483
 20
30.2815534931
 10
35.6578227641
 20
30.2793703753
 10
35.496794977
 20
30.2772712117
 10
35.3493749391
 20
30.275261406
 10
35.21422741510001
 20
30.2733431787
 10
35.0901889723
 20
30.2715174818
 10
34.9762877526
 20
30.2697851077
 10
34.8715717567
 20
30.2681445654
 10
34.7751785967
 20
30.2665935295
 10
34.686415888
 20
30.2651303081
 10
34.6046431704
 20
30.2637523808
 10
34.5292216574
 20
30.2624558158
 10
34.4595460389
 20
30.2612359812
 10
34.3951686656
 20
30.2600899496
 10
34.2808733171
 20
30.2580099711
  0
LINE
  5
1549
330
21F
100
AcDbEntity
  8
0
  6
Continuous
 62
     7
100
AcDbLine
 10
33.1556636733
 20
30.3017000124
 30
0.0
 11
33.054681205
 21
30.3000431895
 31
0.0
  0
LINE
  5
154A
330
21F
100
AcDbEntity
  8
0
  6
Continuous
 62
     7
100
AcDbLine
 10
34.1607550177
 20
30.3193489817
 30
0.0
 11
34.0256404722
 21
30.3171183096
 31
0.0
  0
LWPOLYLINE
  5
154B
330
21F
100
AcDbEntity
  8
0
  6
Continuous
 62
     7
100
AcDbPolyline
 90
       31
 70
     0
 43
0.0
 10
49.6370903084
 20
30.4157219248
 10
48.09760353369999
 20
30.3912505618
 10
46.58009747859999
 20
30.3751701439
 10
45.13708261989999
 20
30.3661026782
 10
43.8406376809
 20
30.3620715289
 10
42.71605705249999
 20
30.3608888469
 10
41.7400363236
 20
30.3609440387
 10
40.8900881953
 20
30.3612456006
 10
40.1462626586
 20
30.3612393769
 10
39.492538187
 20
30.3607474396
 10
38.9154869719
 20
30.3597713238
 10
38.40357148440001
 20
30.3583758386
 10
37.947765477
 20
30.3566551808
 10
37.5404125137
 20
30.3546976097
 10
37.1761951538
 20
30.352582894
 10
36.8494628039
 20
30.3503732234
 10
36.5554490591
 20
30.348119402
 10
36.291052616
 20
30.3458703552
 10
36.053123028
 20
30.3436615881
 10
35.8379040098
 20
30.3415094297
 10
35.6421067431
 20
30.339421964
 10
35.4647820835
 20
30.337423268
 10
35.3053759844
 20
30.3355371086
 10
35.16171469360001
 20
30.3337632001
 10
35.0309782152
 20
30.3320866271
 10
34.9102872023
 20
30.3304851634
 10
34.79787384340001
 20
30.328946414
 10
34.6947729537
 20
30.3274947347
 10
34.6020232825
 20
30.3261556048
 10
34.518900875
 20
30.3249286925
 10
34.3770553355
 20
30.3227761346
  0
LINE
  5
154C
330
21F
100
AcDbEntity
  8
0
  6
Continuous
 62
     7
100
AcDbLine
 10
33.054681205
 20
30.3000431895
 30
0.0
 11
32.9764076326
 21
30.2987955784
 31
0.0
  0
LINE
  5
154D
330
21F
100
AcDbEntity
  8
0
  6
Continuous
 62
     7
100
AcDbLine
 10
34.2604969444
 20
30.320951205
 30
0.0
 11
34.1607550177
 21
30.3193489817
 31
0.0
  0
LINE
  5
154E
330
21F
100
AcDbEntity
  8
0
  6
Continuous
 62
     7
100
AcDbLine
 10
34.3770553355
 20
30.3227761346
 30
0.0
 11
34.2604969444
 21
30.320951205
 31
0.0
  0
LINE
  5
154F
330
21F
100
AcDbEntity
  8
0
  6
Continuous
 62
     7
100
AcDbLine
 10
32.9764076326
 20
30.2987955784
 30
0.0
 11
32.8863048018
 21
30.2973980588
 31
0.0
  0
LINE
  5
1550
330
21F
100
AcDbEntity
  8
0
  6
Continuous
 62
     7
100
AcDbLine
 10
32.8863048018
 20
30.2973980588
 30
0.0
 11
32.7817310525
 21
30.2958266001
 31
0.0
  0
LWPOLYLINE
  5
1551
330
21F
100
AcDbEntity
  8
0
  6
Continuous
 62
     7
100
AcDbPolyline
 90
       44
 70
     0
 43
0.0
 10
32.7817310525
 20
30.2958266001
 10
32.6596709262
 20
30.2940591504
 10
32.5909410174
 20
30.2930948513
 10
32.5164730209
 20
30.2920746091
 10
32.4359748786
 20
30.2909998054
 10
32.3494852347
 20
30.2898766065
 10
32.257220783
 20
30.2887133748
 10
32.1589482155
 20
30.2875126854
 10
32.0536509672
 20
30.2862682565
 10
31.9399732194
 20
30.2849714542
 10
31.8166286971
 20
30.2836162439
 10
31.682535549
 20
30.28220011050001
 10
31.5372295296
 20
30.2807273883
 10
31.3807671443
 20
30.2792066408
 10
31.2124939366
 20
30.2776374881
 10
31.0306470749
 20
30.2760068957
 10
30.8336893263
 20
30.2742997706
 10
30.6210662148
 20
30.2725005236
 10
30.3923236783
 20
30.2705783583
 10
30.1462049442
 20
30.2684676736
 10
29.8825986633
 20
30.2660703424
 10
29.6113596114
 20
30.2633244716
 10
29.3539604172
 20
30.2602611249
 10
29.1232603625
 20
30.2568858431
 10
28.9192547349
 20
30.2531066001
 10
28.7445569946
 20
30.2489215285
 10
28.6050055165
 20
30.2445508847
 10
28.4987125597
 20
30.2402180777
 10
28.4179452437
 20
30.2359943691
 10
28.3561587839
 20
30.2318951176
 10
28.3088803864
 20
30.2279386217
 10
28.2728419425
 20
30.2241413413
 10
28.245500183
 20
30.2205206169
 10
28.22485685010001
 20
30.2170809434
 10
28.2093679098
 20
30.2138123933
 10
28.1978849858
 20
30.2107069665
 10
28.1895580671
 20
30.2077643559
 10
28.1837210586
 20
30.2049826761
 10
28.1798465377
 20
30.2023587267
 10
28.1775342243
 20
30.1999192596
 10
28.1764261554
 20
30.1977143328
 10
28.1761679986
 20
30.1957448016
 10
28.1764821056
 20
30.1939848028
 10
28.17717639300001
 20
30.192408748
  0
LWPOLYLINE
  5
1552
330
21F
100
AcDbEntity
  8
0
  6
Continuous
 62
     7
100
AcDbPolyline
 90
        6
 70
     0
 43
0.0
 10
66.8265646616
 20
30.2944087508
 10
67.0166645287
 20
30.2961811141
 10
67.2341822201
 20
30.2995021274
 10
67.47955047259999
 20
30.3044416838
 10
67.7332732519
 20
30.3105718696
 10
67.96865438640001
 20
30.3170134459
  0
LWPOLYLINE
  5
1553
330
21F
100
AcDbEntity
  8
0
  6
Continuous
 62
     7
100
AcDbPolyline
 90
       16
 70
     0
 43
0.0
 10
49.6370874612
 20
31.5898503135
 10
51.0203186241
 20
31.5894722405
 10
52.369990561
 20
31.5883510324
 10
53.6839623003
 20
31.5865040622
 10
54.9496560116
 20
31.5839762648
 10
56.1588530314
 20
31.5808316948
 10
57.31055968399999
 20
31.5771212342
 10
58.41205430390001
 20
31.5728566746
 10
59.4677041159
 20
31.56807612090001
 10
60.475524881
 20
31.5628254097
 10
61.43073649699999
 20
31.5571864619
 10
62.32969994979999
 20
31.5512489951
 10
63.1718641802
 20
31.5450621492
 10
63.9574906386
 20
31.5387097095
 10
64.6868260553
 20
31.5322252966
 10
64.7781563849
 20
31.5313372404
  0
LWPOLYLINE
  5
1554
330
21F
100
AcDbEntity
  8
0
  6
Continuous
 62
     7
100
AcDbPolyline
 90
        4
 70
     0
 43
0.0
 10
66.510328586
 20
30.2955631499
 10
66.60630311760001
 20
30.2945168736
 10
66.71201233259999
 20
30.2941065585
 10
66.8265646616
 20
30.2944087508
  0
LWPOLYLINE
  5
1555
330
21F
100
AcDbEntity
  8
0
  6
Continuous
 62
     7
100
AcDbPolyline
 90
       24
 70
     0
 43
0.0
 10
63.74854341069999
 20
30.3381110642
 10
63.6943221567
 20
30.3387320785
 10
63.5160065943
 20
30.3406743466
 10
63.31986183459999
 20
30.3426918684
 10
63.1051436126
 20
30.34475972820001
 10
62.8714739808
 20
30.3468461787
 10
62.6156877047
 20
30.3489384568
 10
62.3334093387
 20
30.3510214623
 10
62.0226602921
 20
30.3530496735
 10
61.6806174059
 20
30.3549767605
 10
61.30154232529999
 20
30.3567614614
 10
60.8811642947
 20
30.3583412284
 10
60.4145035538
 20
30.3596450333
 10
59.89519647419999
 20
30.3605997825
 10
59.3163025841
 20
30.3611544681
 10
58.6694972712
 20
30.3612950912
 10
57.9452929216
 20
30.3610971064
 10
57.13155243640001
 20
30.3608443073
 10
56.2128290989
 20
30.3610722021
 10
55.17279596199999
 20
30.3626207571
 10
53.9899714195
 20
30.3667858201
 10
52.6496753609
 20
30.3755389039
 10
51.17772851819999
 20
30.3912353427
 10
49.63709030850001
 20
30.4157218177
  0
LWPOLYLINE
  5
1556
330
21F
100
AcDbEntity
  8
0
  6
Continuous
 62
     7
100
AcDbPolyline
 90
       23
 70
     0
 43
0.0
 10
63.6941153977
 20
30.2783581806
 10
63.5613644316
 20
30.2800646243
 10
63.3688088289
 20
30.2824069899
 10
63.15751934939999
 20
30.2848212838
 10
62.92530012979999
 20
30.2872902922
 10
62.6696944521
 20
30.2897901344
 10
62.3878796383
 20
30.2922896262
 10
62.0765994251
 20
30.29474816
 10
61.7321215412
 20
30.2971162867
 10
61.3501185415
 20
30.2993360994
 10
60.9255678861
 20
30.3013389069
 10
60.4526722694
 20
30.3030456422
 10
59.9245595002
 20
30.3043671983
 10
59.3326526068
 20
30.3052339227
 10
58.6662213302
 20
30.3056136219
 10
57.9119615318
 20
30.305569285
 10
57.0560655289
 20
30.3054100502
 10
56.0796025343
 20
30.3057842957
 10
54.96505690060001
 20
30.3077419576
 10
53.72197550460001
 20
30.312752851
 10
52.4224194418
 20
30.3221437124
 10
51.0646834896
 20
30.3374832879
 10
49.637087461
 20
30.3607142989
  0
LWPOLYLINE
  5
1557
330
21F
100
AcDbEntity
  8
0
  6
Continuous
 62
     7
100
AcDbPolyline
 90
       22
 70
     0
 43
0.0
 10
69.9194537117
 20
30.2602710643
 10
70.14779054899999
 20
30.2569370331
 10
70.3499387025
 20
30.2532110875
 10
70.5214854363
 20
30.2491424083
 10
70.65755723390001
 20
30.2449631904
 10
70.76167340479999
 20
30.2408464763
 10
70.8422738429
 20
30.2368011644
 10
70.9049991529
 20
30.2328421438
 10
70.95361802159999
 20
30.22900416780001
 10
70.9911835998
 20
30.2253020623
 10
71.0201197579
 20
30.2217449231
 10
71.04229846459999
 20
30.2183425468
 10
71.0591910235
 20
30.2150907652
 10
71.07192169760001
 20
30.211984177
 10
71.08132829919999
 20
30.2090272882
 10
71.0880883248
 20
30.2062198276
 10
71.0927414418
 20
30.20355970780001
 10
71.0957177204
 20
30.2010483896
 10
71.0973712963
 20
30.1986846482
 10
71.09798970389999
 20
30.1964622625
 10
71.0978048663
 20
30.1943739448
 10
71.09699852899999
 20
30.1924087479
  0
LINE
  5
1558
330
21F
100
AcDbEntity
  8
0
  6
Continuous
 62
     7
100
AcDbLine
 10
66.510328586
 20
30.2955631499
 30
0.0
 11
66.4117199889
 21
30.2970349357
 31
0.0
  0
LINE
  5
1559
330
21F
100
AcDbEntity
  8
0
  6
Continuous
 62
     7
100
AcDbLine
 10
66.4117199889
 20
30.2970349357
 30
0.0
 11
66.32858131119999
 21
30.2983130395
 31
0.0
  0
LINE
  5
155A
330
21F
100
AcDbEntity
  8
0
  6
Continuous
 62
     7
100
AcDbLine
 10
66.32858131119999
 20
30.2983130395
 30
0.0
 11
66.2544742526
 21
30.2994817257
 31
0.0
  0
LINE
  5
155B
330
21F
100
AcDbEntity
  8
0
  6
Continuous
 62
     7
100
AcDbLine
 10
66.2544742526
 20
30.2994817257
 30
0.0
 11
66.1936101995
 21
30.3004634314
 31
0.0
  0
LINE
  5
155C
330
21F
100
AcDbEntity
  8
0
  6
Continuous
 62
     7
100
AcDbLine
 10
66.24984399829999
 20
30.2347192414
 30
0.0
 11
66.14043791810001
 21
30.2364933273
 31
0.0
  0
LWPOLYLINE
  5
155D
330
21F
100
AcDbEntity
  8
0
  6
Continuous
 62
     7
100
AcDbPolyline
 90
        3
 70
     0
 43
0.0
 10
28.8748403683
 20
30.1164634431
 10
28.8944317959
 20
30.1155620416
 10
29.0291779259
 20
30.1102991005
  0
LWPOLYLINE
  5
155E
330
21F
100
AcDbEntity
  8
0
  6
Continuous
 62
     7
100
AcDbPolyline
 90
        5
 70
     0
 43
0.0
 10
61.51245011189999
 20
25.5014583372
 10
61.45584473899999
 20
25.5246106692
 10
61.39758553930001
 20
25.5446330359
 10
61.3385665828
 20
25.5618987782
 10
61.33171921079999
 20
25.5636186613
  0
LWPOLYLINE
  5
155F
330
21F
100
AcDbEntity
  8
0
  6
Continuous
 62
     7
100
AcDbPolyline
 90
        3
 70
     0
 43
0.0
 10
54.6828094724
 20
23.2798749613
 10
54.64436436959999
 20
23.3082925552
 10
54.6073158092
 20
23.3402052459
  0
LWPOLYLINE
  5
1560
330
21F
100
AcDbEntity
  8
0
  6
Continuous
 62
     7
100
AcDbPolyline
 90
        5
 70
     0
 43
0.0
 10
54.5029148922
 20
23.2143491574
 10
54.6093479661
 20
23.1221109363
 10
54.7246736834
 20
23.0545546952
 10
54.8460523423
 20
23.0133438929
 10
54.9704951972
 20
22.999493276
  0
LWPOLYLINE
  5
1561
330
21F
100
AcDbEntity
  8
0
  6
Continuous
 62
     7
100
AcDbPolyline
 90
        4
 70
     0
 43
0.0
 10
54.6073158092
 20
23.3402052459
 10
54.5718224386
 20
23.3754763783
 10
54.5380362459
 20
23.4139549161
 10
54.5061019089
 20
23.4554760882
  0
LINE
  5
1562
330
21F
100
AcDbEntity
  8
0
  6
Continuous
 62
     7
100
AcDbLine
 10
54.637087461
 20
22.874493276
 30
0.0
 11
54.512087461
 21
22.999493276
 31
0.0
  0
LWPOLYLINE
  5
1563
330
21F
100
AcDbEntity
  8
0
  6
Continuous
 62
     7
100
AcDbPolyline
 90
        4
 70
     0
 43
0.0
 10
37.460883839
 20
27.5486506554
 10
37.4635123238
 20
27.5526177241
 10
37.47437921199999
 20
27.5562945922
 10
37.4933292432
 20
27.559645856
  0
LINE
  5
1564
330
21F
100
AcDbEntity
  8
0
  6
Continuous
 62
     7
100
AcDbLine
 10
21.7985044046
 20
32.061993276
 30
0.0
 11
77.47567051729999
 21
32.061993276
 31
0.0
  0
LWPOLYLINE
  5
1565
330
21F
100
AcDbEntity
  8
0
  6
Continuous
 62
     7
100
AcDbPolyline
 90
       14
 70
     0
 43
0.0
 10
70.51085232529999
 20
32.0378452546
 10
70.64341797229999
 20
32.0325401569
 10
70.7745447333
 20
32.0267667927
 10
70.89455744189999
 20
32.0209024488
 10
71.0031380389
 20
32.0149497089
 10
71.1000903553
 20
32.0089259946
 10
71.1852803913
 20
32.0028277728
 10
71.2585838723
 20
31.9966689739
 10
71.3198828747
 20
31.9904566922
 10
71.36911015489999
 20
31.9842068543
 10
71.4063318155
 20
31.9779181532
 10
71.4316961091
 20
31.9716002869
 10
71.4453551358
 20
31.9652666481
 10
71.4475901146
 20
31.9626998291
  0
LWPOLYLINE
  5
1566
330
21F
100
AcDbEntity
  8
0
  6
Continuous
 62
     7
100
AcDbPolyline
 90
        6
 70
     0
 43
0.0
 10
66.86775111760001
 20
30.3448369421
 10
67.0486845933
 20
30.3313589746
 10
67.2576576043
 20
30.3211227986
 10
67.494649723
 20
30.3150457205
 10
67.7403959495
 20
30.3139174465
 10
67.9686558005
 20
30.3170134495
  0
LWPOLYLINE
  5
1567
330
21F
100
AcDbEntity
  8
0
  6
Continuous
 62
     7
100
AcDbPolyline
 90
        4
 70
     0
 43
0.0
 10
66.5725170611
 20
30.3763086158
 10
66.661627163
 20
30.3653790798
 10
66.76032317659999
 20
30.3547718596
 10
66.8677512741
 20
30.3448370144
  0
LWPOLYLINE
  5
1568
330
21F
100
AcDbEntity
  8
0
  6
Continuous
 62
     7
100
AcDbPolyline
 90
        8
 70
     0
 43
0.0
 10
62.3336506907
 20
25.8525424848
 10
62.3435091504
 20
25.8484884277
 10
62.3530765067
 20
25.8389827119
 10
62.3615553819
 20
25.8242279107
 10
62.3688761777
 20
25.8044216897
 10
62.3749702877
 20
25.7797656485
 10
62.37976950170001
 20
25.7504615021
 10
62.3832203271
 20
25.7167732698
  0
LWPOLYLINE
  5
1569
330
21F
100
AcDbEntity
  8
0
  6
Continuous
 62
     7
100
AcDbPolyline
 90
       34
 70
     0
 43
0.0
 10
54.5061019089
 20
23.4554760882
 10
54.4761561752
 20
23.4998620946
 10
54.4483272772
 20
23.5469228677
 10
54.42273438229999
 20
23.5964568858
 10
54.3994870833
 20
23.6482520369
 10
54.37868492879999
 20
23.7020865261
 10
54.3604169966
 20
23.7577298258
 10
54.344761513
 20
23.814943663
 10
54.3317855171
 20
23.8734830391
 10
54.32154457399999
 20
23.9330972795
 10
54.3140825372
 20
23.9935311071
 10
54.3094313602
 20
24.0545257347
 10
54.30761096
 20
24.1158199741
 10
54.3086291319
 20
24.1771513538
 10
54.3124815158
 20
24.2382572437
 10
54.3191516154
 20
24.2988759787
 10
54.3286108682
 20
24.3587479802
 10
54.34081876819999
 20
24.4176168672
 10
54.35572303939999
 20
24.4752305539
 10
54.37325985930001
 20
24.5313423297
 10
54.39335413270001
 20
24.5857119154
 10
54.41591981270001
 20
24.6381064922
 10
54.4408602696
 20
24.6883016982
 10
54.4680687046
 20
24.7360825901
 10
54.49742860689999
 20
24.7812445626
 10
54.5288142531
 20
24.8235942253
 10
54.56209124479999
 20
24.8629502303
 10
54.597117085
 20
24.8991440494
 10
54.6337417875
 20
24.9320206949
 10
54.6718085199
 20
24.961439384
 10
54.7111542745
 20
24.9872741414
 10
54.7516105667
 20
25.0094143386
 10
54.7930041565
 20
25.0277651681
 10
54.83515779020001
 20
25.0422480486
  0
LINE
  5
156A
330
21F
100
AcDbEntity
  8
0
  6
Continuous
 62
     7
100
AcDbLine
 10
48.51208746100001
 20
23.624493276
 30
0.0
 11
48.51208746100001
 21
22.844493276
 31
0.0
  0
LINE
  5
156B
330
21F
100
AcDbEntity
  8
0
  6
Continuous
 62
     7
100
AcDbLine
 10
48.652087461
 20
23.764493276
 30
0.0
 11
48.652087461
 21
24.6787341666
 31
0.0
  0
LWPOLYLINE
  5
156C
330
21F
100
AcDbEntity
  8
0
  6
Continuous
 62
     7
100
AcDbPolyline
 90
       21
 70
     0
 43
0.0
 10
37.1487458735
 20
27.7751276729
 10
37.1521332986
 20
27.7782571832
 10
37.164861877
 20
27.7817715612
 10
37.1869073487
 20
27.7849883529
 10
37.2181144625
 20
27.7878875581
 10
37.2581950343
 20
27.7904434513
 10
37.3070091241
 20
27.7926457739
 10
37.3641999946
 20
27.7944814717
 10
37.42950242940001
 20
27.795942615
 10
37.5021642484
 20
27.7970104346
 10
37.5816298784
 20
27.7976769463
 10
37.6676473515
 20
27.7979371175
 10
37.7596221022
 20
27.7977885329
 10
37.8571512323
 20
27.7972305989
 10
37.959664183
 20
27.7962612516
 10
38.0665114431
 20
27.7948772448
 10
38.1771603285
 20
27.7930841055
 10
38.2912582494
 20
27.7908745914
 10
38.4084069214
 20
27.7882529805
 10
38.5274179006
 20
27.7852365231
 10
38.6471635759
 20
27.7818478044
  0
LWPOLYLINE
  5
156D
330
21F
100
AcDbEntity
  8
0
  6
Continuous
 62
     7
100
AcDbPolyline
 90
       23
 70
     0
 43
0.0
 10
37.1497446949
 20
27.8063469474
 10
37.1531434321
 20
27.8094813139
 10
37.1659278577
 20
27.8130031585
 10
37.1880499788
 20
27.81622312260001
 10
37.21920212630001
 20
27.8191121997
 10
37.2591216363
 20
27.8216570494
 10
37.3076452495
 20
27.8238489877
 10
37.3645352065
 20
27.8256802416
 10
37.4294379049
 20
27.8271392615
 10
37.5016574759
 20
27.8282090164
 10
37.580575937
 20
27.8288807479
 10
37.66611061400001
 20
27.8291501624
 10
37.7564525608
 20
27.829018282
 10
37.8492098264
 20
27.8285113465
 10
37.9421409117
 20
27.827676714
 10
38.03392034010001
 20
27.8265654491
 10
38.1244075589
 20
27.8252124975
 10
38.2136140989
 20
27.8236472519
 10
38.3017236589
 20
27.8218881539
 10
38.3890347275
 20
27.8199459077
 10
38.47585613
 20
27.8178236659
 10
38.5622146232
 20
27.8155272092
 10
38.6480795863
 20
27.8130612899
  0
LWPOLYLINE
  5
156E
330
21F
100
AcDbEntity
  8
0
  6
Continuous
 62
     7
100
AcDbPolyline
 90
        9
 70
     0
 43
0.0
 10
66.9782931189
 20
30.4384536715
 10
67.064031513
 20
30.41296544
 10
67.16200066769999
 20
30.3891151938
 10
67.2726914068
 20
30.3674686324
 10
67.3956721048
 20
30.348774643
 10
67.5296888742
 20
30.3338066543
 10
67.6722530999
 20
30.323275906
 10
67.8196768263
 20
30.3176517273
 10
67.9686548463
 20
30.3170134665
  0
LWPOLYLINE
  5
156F
330
21F
100
AcDbEntity
  8
0
  6
Continuous
 62
     7
100
AcDbPolyline
 90
        7
 70
     0
 43
0.0
 10
62.0546714155
 20
25.86409290280001
 10
62.0721323795
 20
25.8531037086
 10
62.0894471166
 20
25.83753171190001
 10
62.1064704399
 20
25.8175433252
 10
62.1230575081
 20
25.7933045316
 10
62.13906381060001
 20
25.7649818496
 10
62.154354105
 20
25.7327997722
  0
LINE
  5
1570
330
21F
100
AcDbEntity
  8
0
  6
Continuous
 62
     7
100
AcDbLine
 10
49.637087461
 20
27.5826140439
 30
0.0
 11
49.637087461
 21
27.5514094223
 31
0.0
  0
LINE
  5
1571
330
21F
100
AcDbEntity
  8
0
  6
Continuous
 62
     7
100
AcDbLine
 10
50.62208746100001
 20
23.764493276
 30
0.0
 11
50.62208746100001
 21
24.6787341666
 31
0.0
  0
LINE
  5
1572
330
21F
100
AcDbEntity
  8
0
  6
Continuous
 62
     7
100
AcDbLine
 10
50.762087461
 20
23.624493276
 30
0.0
 11
50.762087461
 21
22.844493276
 31
0.0
  0
LINE
  5
1573
330
21F
100
AcDbEntity
  8
0
  6
Continuous
 62
     7
100
AcDbLine
 10
49.637087461
 20
30.3607142989
 30
0.0
 11
49.63709030850001
 21
30.4157218177
 31
0.0
  0
LWPOLYLINE
  5
1574
330
21F
100
AcDbEntity
  8
0
  6
Continuous
 62
     7
100
AcDbPolyline
 90
        7
 70
     0
 43
0.0
 10
37.2195035064
 20
25.86409290280001
 10
37.2020425425
 20
25.8531037086
 10
37.1847278054
 20
25.83753171190001
 10
37.1677044821
 20
25.8175433252
 10
37.1511174138
 20
25.7933045316
 10
37.1351111113
 20
25.7649818496
 10
37.1198208169
 20
25.7327997722
  0
LINE
  5
1575
330
21F
100
AcDbEntity
  8
0
  6
Continuous
 62
     7
100
AcDbLine
 10
52.38708746100001
 20
22.061993276
 30
0.0
 11
52.38708746100001
 21
22.874493276
 31
0.0
  0
LWPOLYLINE
  5
1576
330
21F
100
AcDbEntity
  8
0
  6
Continuous
 62
     7
100
AcDbPolyline
 90
        8
 70
     0
 43
0.0
 10
36.9405242342
 20
25.8525424853
 10
36.9306657678
 20
25.8484884252
 10
36.92109841150001
 20
25.8389827068
 10
36.9126195364
 20
25.8242279028
 10
36.9052987409
 20
25.8044216785
 10
36.8992046312
 20
25.7797656337
 10
36.8944054179
 20
25.7504614833
 10
36.8909545949
 20
25.7167732698
  0
LINE
  5
1577
330
21F
100
AcDbEntity
  8
0
  6
Continuous
 62
     7
100
AcDbLine
 10
54.637087461
 20
22.061993276
 30
0.0
 11
54.637087461
 21
22.874493276
 31
0.0
  0
LINE
  5
1578
330
21F
100
AcDbEntity
  8
0
  6
Continuous
 62
     7
100
AcDbLine
 10
59.5228648637
 20
24.399493276
 30
0.0
 11
59.51621473220001
 21
24.4168662691
 31
0.0
  0
LWPOLYLINE
  5
1579
330
21F
100
AcDbEntity
  8
0
  6
Continuous
 62
     7
100
AcDbPolyline
 90
        8
 70
     0
 43
0.0
 10
50.3318940921
 20
24.7654627205
 10
50.257983354
 20
24.6647386332
 10
50.173081864
 20
24.5780462966
 10
50.0831206022
 20
24.5084817885
 10
49.98088588499999
 20
24.4499645814
 10
49.8692086411
 20
24.4060909049
 10
49.7526748067
 20
24.3795041632
 10
49.637087461
 20
24.3708994636
  0
LINE
  5
157A
330
21F
100
AcDbEntity
  8
0
  6
Continuous
 62
     7
100
AcDbLine
 10
48.652087461
 20
23.764493276
 30
0.0
 11
48.51208746100001
 21
23.624493276
 31
0.0
  0
LWPOLYLINE
  5
157B
330
21F
100
AcDbEntity
  8
0
  6
Continuous
 62
     7
100
AcDbPolyline
 90
        7
 70
     0
 43
0.0
 10
66.5455404584
 20
30.7299796014
 10
66.591630931
 20
30.6812605794
 10
66.6515233179
 20
30.628726019
 10
66.7178932236
 20
30.5794855448
 10
66.7919583542
 20
30.5323871175
 10
66.8778267683
 20
30.4854363796
 10
66.9782931157
 20
30.4384536719
  0
LWPOLYLINE
  5
157C
330
21F
100
AcDbEntity
  8
0
  6
Continuous
 62
     7
100
AcDbPolyline
 90
       11
 70
     0
 43
0.0
 10
60.63708746069999
 20
27.5560688921
 10
60.6358025914
 20
27.5933661739
 10
60.6345356965
 20
27.6284969707
 10
60.633304499
 20
27.6609698256
 10
60.6321262227
 20
27.6903304645
 10
60.6310173509
 20
27.716168151
 10
60.62999339600001
 20
27.73812143280001
 10
60.62906868249999
 20
27.7558831975
 10
60.62825614649999
 20
27.7692049697
 10
60.62756715479999
 20
27.7779003864
 10
60.6270113461
 20
27.7818478044
  0
LINE
  5
157D
330
21F
100
AcDbEntity
  8
0
  6
Continuous
 62
     7
100
AcDbLine
 10
60.62609533569999
 20
27.81306128800001
 30
0.0
 11
60.6270113461
 21
27.7818478044
 31
0.0
  0
LINE
  5
157E
330
21F
100
AcDbEntity
  8
0
  6
Continuous
 62
     7
100
AcDbLine
 10
60.63708634899999
 20
27.3874400846
 30
0.0
 11
60.6370860196
 21
27.5560688466
 31
0.0
  0
LINE
  5
157F
330
21F
100
AcDbEntity
  8
0
  6
Continuous
 62
     7
100
AcDbLine
 10
52.38708746100001
 20
22.874493276
 30
0.0
 11
52.57458746100001
 21
23.061993276
 31
0.0
  0
LWPOLYLINE
  5
1580
330
21F
100
AcDbEntity
  8
0
  6
Continuous
 62
     7
100
AcDbPolyline
 90
       14
 70
     0
 43
0.0
 10
54.6093479661
 20
25.1268756157
 10
54.5029148922
 20
25.0346373947
 10
54.4079951972
 20
24.9199884049
 10
54.326926119
 20
24.7857516849
 10
54.2617038474
 20
24.6352325882
 10
54.21393437119999
 20
24.4721373947
 10
54.1847939334
 20
24.3004820492
 10
54.1750000683
 20
24.124493276
 10
54.1847939334
 20
23.9485045029
 10
54.21393437119999
 20
23.7768491574
 10
54.2617038474
 20
23.6137539638
 10
54.326926119
 20
23.4632348672
 10
54.4079951972
 20
23.3289981472
 10
54.5029148922
 20
23.2143491574
  0
LWPOLYLINE
  5
1581
330
21F
100
AcDbEntity
  8
0
  6
Continuous
 62
     7
100
AcDbPolyline
 90
       20
 70
     0
 43
0.0
 10
54.20187327729999
 20
25.211993276
 10
54.1501494237
 20
25.1944318569
 10
54.0348237064
 20
25.1268756157
 10
53.9283906325
 20
25.0346373947
 10
53.8334709375
 20
24.9199884049
 10
53.7524018593
 20
24.7857516849
 10
53.6871795877
 20
24.6352325882
 10
53.6394101115
 20
24.4721373947
 10
53.61026967369999
 20
24.3004820492
 10
53.60047580859999
 20
24.124493276
 10
53.61026967369999
 20
23.9485045029
 10
53.6394101115
 20
23.7768491574
 10
53.6871795877
 20
23.6137539638
 10
53.7524018593
 20
23.4632348672
 10
53.8334709375
 20
23.3289981472
 10
53.9283906325
 20
23.2143491574
 10
54.0348237064
 20
23.1221109363
 10
54.1501494237
 20
23.0545546952
 10
54.27152808249999
 20
23.0133438929
 10
54.3959709375
 20
22.999493276
  0
LWPOLYLINE
  5
1582
330
21F
100
AcDbEntity
  8
0
  6
Continuous
 62
     7
100
AcDbPolyline
 90
        8
 70
     0
 43
0.0
 10
66.51032860089999
 20
30.2955628306
 10
66.5218292651
 20
30.299052591
 10
66.5328897007
 20
30.30561933
 10
66.54322847430001
 20
30.3150959545
 10
66.55258251550001
 20
30.3272413288
 10
66.5607138108
 20
30.3417464097
 10
66.56741546000001
 20
30.3582421105
 10
66.5725169407
 20
30.3763086926
  0
LWPOLYLINE
  5
1583
330
21F
100
AcDbEntity
  8
0
  6
Continuous
 62
     7
100
AcDbPolyline
 90
        3
 70
     0
 43
0.0
 10
81.2081761281
 20
46.70138336479999
 10
81.34761211770001
 20
46.70140321609999
 10
81.5332516541
 20
46.7014303988
  0
LWPOLYLINE
  5
1584
330
21F
100
AcDbEntity
  8
0
  6
Continuous
 62
     7
100
AcDbPolyline
 90
        3
 70
     0
 43
0.0
 10
81.5332516541
 20
46.7014303988
 10
81.6257454023
 20
46.7014435528
 10
81.6506945909
 20
46.70144712499999
  0
LWPOLYLINE
  5
1585
330
21F
100
AcDbEntity
  8
0
  6
Continuous
 62
     7
100
AcDbPolyline
 90
       11
 70
     0
 43
0.0
 10
21.2941425916
 20
46.70143605079999
 10
21.5101584958
 20
46.70147770699999
 10
21.7232873951
 20
46.70152244239999
 10
21.93978616989999
 20
46.7015708442
 10
22.1600204619
 20
46.7016225763
 10
22.38361935
 20
46.70167834509999
 10
22.6134004522
 20
46.7017386842
 10
22.8526174734
 20
46.7018036566
 10
23.1033363996
 20
46.70187425569999
 10
23.3673076912
 20
46.7019513418
 10
25.8022607689
 20
46.7027503072
  0
LINE
  5
1586
330
21F
100
AcDbEntity
  8
0
  6
Continuous
 62
     7
100
AcDbLine
 10
25.8022607689
 20
46.7027503072
 30
0.0
 11
30.8486140987
 21
46.7043955139
 31
0.0
  0
LINE
  5
1587
330
21F
100
AcDbEntity
  8
0
  6
Continuous
 62
     7
100
AcDbLine
 10
81.6506945909
 20
46.70144712499999
 30
0.0
 11
81.6734672241
 21
46.7014501435
 31
0.0
  0
LWPOLYLINE
  5
1588
330
21F
100
AcDbEntity
  8
0
  6
Continuous
 62
     7
100
AcDbPolyline
 90
        6
 70
     0
 43
0.0
 10
79.7357076957
 20
46.7012673018
 10
80.05926877049999
 20
46.70127240270001
 10
80.3499085129
 20
46.7012890439
 10
80.608730188
 20
46.7013099665
 10
80.83704169239998
 20
46.7013345492
 10
81.2081761281
 20
46.70138336479999
  0
LWPOLYLINE
  5
1589
330
21F
100
AcDbEntity
  8
0
  6
Continuous
 62
     7
100
AcDbPolyline
 90
        4
 70
     0
 43
0.0
 10
19.9401955413
 20
46.7012758584
 10
20.2556859984
 20
46.7012964759
 10
20.5497007052
 20
46.70132677949999
 10
21.2941425916
 20
46.70143605079999
  0
LINE
  5
158A
330
21F
100
AcDbEntity
  8
0
  6
Continuous
 62
     7
100
AcDbLine
 10
46.42558811109999
 20
46.7066976297
 30
0.0
 11
50.7642034302
 21
46.7067453683
 31
0.0
  0
LINE
  5
158B
330
21F
100
AcDbEntity
  8
0
  6
Continuous
 62
     7
100
AcDbLine
 10
50.7642034302
 20
46.7067453683
 30
0.0
 11
52.6638265482
 21
46.70670378909999
 31
0.0
  0
LINE
  5
158C
330
21F
100
AcDbEntity
  8
0
  6
Continuous
 62
     7
100
AcDbLine
 10
44.0848293424
 20
46.70658515279999
 30
0.0
 11
46.42558811109999
 21
46.7066976297
 31
0.0
  0
LWPOLYLINE
  5
158D
330
21F
100
AcDbEntity
  8
0
  6
Continuous
 62
     7
100
AcDbPolyline
 90
       18
 70
     0
 43
0.0
 10
52.6638265482
 20
46.70670378909999
 10
54.1974128844
 20
46.7066407593
 10
54.9080259788
 20
46.70660212979999
 10
55.61914533060001
 20
46.70655732229999
 10
56.3290254443
 20
46.70650620109999
 10
57.02703738020001
 20
46.70644947
 10
57.7122691737
 20
46.70638738850001
 10
58.3897547697
 20
46.7063195578
 10
59.0649166705
 20
46.7062453729
 10
59.7391498308
 20
46.7061645525
 10
60.4077299403
 20
46.70607739779999
 10
61.06202850869999
 20
46.7059850508
 10
61.6946549917
 20
46.70588911
 10
62.30635435079999
 20
46.7057898119
 10
62.9051050858
 20
46.7056860887
 10
63.499719688
 20
46.7055765647
 10
64.0940337856
 20
46.7054603683
 10
64.68124730140001
 20
46.7053387483
  0
LWPOLYLINE
  5
158E
330
21F
100
AcDbEntity
  8
0
  6
Continuous
 62
     7
100
AcDbPolyline
 90
        7
 70
     0
 43
0.0
 10
30.8486140987
 20
46.7043955139
 10
39.9681561223
 20
46.70621726279999
 10
40.6429389348
 20
46.7062937835
 10
41.31702665339999
 20
46.70636362369999
 10
41.99583409739999
 20
46.7064274489
 10
42.6858119368
 20
46.7064858772
 10
44.0848293424
 20
46.70658515279999
  0
LINE
  5
158F
330
21F
100
AcDbEntity
  8
0
  6
Continuous
 62
     7
100
AcDbLine
 10
81.61338836810001
 20
46.7811774783
 30
0.0
 11
17.6607865539
 21
46.7811774783
 31
0.0
  0
LWPOLYLINE
  5
1590
330
21F
100
AcDbEntity
  8
0
  6
Continuous
 62
     7
100
AcDbPolyline
 90
        8
 70
     0
 43
0.0
 10
17.7335414029
 20
46.7014314686
 10
17.9367233137
 20
46.7014017554
 10
18.0849242223
 20
46.7013807064
 10
18.2622517174
 20
46.7013565353
 10
18.4690970509
 20
46.7013306993
 10
18.7070191165
 20
46.70130616729999
 10
18.977861866
 20
46.7012854072
 10
19.9401955413
 20
46.7012758584
  0
LWPOLYLINE
  5
1591
330
21F
100
AcDbEntity
  8
0
  6
Continuous
 62
     7
100
AcDbPolyline
 90
        4
 70
     0
 43
0.0
 10
17.6007076979
 20
46.7014501435
 10
17.6043622677
 20
46.70144968449999
 10
17.6156789116
 20
46.7014482002
 10
17.7335414029
 20
46.7014314686
  0
LWPOLYLINE
  5
1592
330
21F
100
AcDbEntity
  8
0
  6
Continuous
 62
     7
100
AcDbPolyline
 90
        7
 70
     0
 43
0.0
 10
77.6543080596
 20
46.70150033539999
 10
77.88050853979999
 20
46.7014547234
 10
78.12619047830001
 20
46.7014103742
 10
78.3993651599
 20
46.7013685992
 10
78.703168293
 20
46.7013292929
 10
79.03540056229999
 20
46.7012950197
 10
79.7357076957
 20
46.7012673018
  0
LWPOLYLINE
  5
1593
330
21F
100
AcDbEntity
  8
0
  6
Continuous
 62
     7
100
AcDbPolyline
 90
       17
 70
     0
 43
0.0
 10
64.68124730140001
 20
46.7053387483
 10
65.86485653060001
 20
46.705072256
 10
66.50052929180001
 20
46.70491650379999
 10
67.1218798689
 20
46.7047572505
 10
67.6829296808
 20
46.70460606329999
 10
68.178409104
 20
46.7044666595
 10
68.63366899289999
 20
46.70433475189999
 10
69.08076497519999
 20
46.70420147909999
 10
69.525645615
 20
46.7040652368
 10
69.95654106189999
 20
46.703930244
 10
70.3724834895
 20
46.703797088
 10
70.77790354850001
 20
46.7036646948
 10
71.172525343
 20
46.703534011
 10
71.5544733193
 20
46.7034061891
 10
71.9251178088
 20
46.70328110819999
 10
72.28639258609999
 20
46.7031575776
 10
73.6303186592
 20
46.70269637239999
  0
LWPOLYLINE
  5
1594
330
21F
100
AcDbEntity
  8
0
  6
Continuous
 62
     7
100
AcDbPolyline
 90
       12
 70
     0
 43
0.0
 10
74.5761723772
 20
46.70237746869999
 10
74.8900837683
 20
46.7022723843
 10
75.1987570574
 20
46.702170898
 10
75.4965824724
 20
46.70207589239999
 10
75.7797073337
 20
46.7019892981
 10
76.04739821229999
 20
46.70190999079999
 10
76.3006904189
 20
46.7018373341
 10
76.5409403439
 20
46.7017710161
 10
76.77113165029999
 20
46.7017093908
 10
76.99616661520001
 20
46.7016515763
 10
77.2183528351
 20
46.7015978067
 10
77.6543080596
 20
46.70150033539999
  0
LINE
  5
1595
330
21F
100
AcDbEntity
  8
0
  6
Continuous
 62
     7
100
AcDbLine
 10
73.6303186592
 20
46.70269637239999
 30
0.0
 11
74.5761723772
 21
46.70237746869999
 31
0.0
  0
LWPOLYLINE
  5
1596
330
21F
100
AcDbEntity
  8
0
  6
Continuous
 62
     7
100
AcDbPolyline
 90
       12
 70
     0
 43
0.0
 10
71.75452984409999
 20
31.3527151296
 10
71.7475216076
 20
31.3582758725
 10
71.71619105159999
 20
31.3676596716
 10
71.6611273772
 20
31.3767973663
 10
71.5827348209
 20
31.3856991632
 10
71.48083165439999
 20
31.39443448130001
 10
71.3555751124
 20
31.4030046381
 10
71.2071353944
 20
31.4113829463
 10
71.0342510014
 20
31.4196350412
 10
70.8360545702
 20
31.4277820225
 10
70.61224371999999
 20
31.4358055278
 10
70.49741206749999
 20
31.4394323354
  0
LWPOLYLINE
  5
1597
330
21F
100
AcDbEntity
  8
0
  6
Continuous
 62
     7
100
AcDbPolyline
 90
        4
 70
     0
 43
0.0
 10
66.4059069777
 20
30.5585302933
 10
66.44906270859999
 20
30.5021540744
 10
66.5076755772
 20
30.4375758765
 10
66.57251717859999
 20
30.3763085655
  0
LINE
  5
1598
330
21F
100
AcDbEntity
  8
0
  6
Continuous
 62
     7
100
AcDbLine
 10
61.51245011189999
 20
25.6925635498
 30
0.0
 11
61.51245011189999
 21
25.5014583372
 31
0.0
  0
LINE
  5
1599
330
21F
100
AcDbEntity
  8
0
  6
Continuous
 62
     7
100
AcDbLine
 10
62.165187461
 20
25.5424356124
 30
0.0
 11
62.165187461
 21
25.7334447258
 31
0.0
  0
LINE
  5
159A
330
21F
100
AcDbEntity
  8
0
  6
Continuous
 62
     7
100
AcDbLine
 10
62.353227461
 20
25.5296769765
 30
0.0
 11
62.353227461
 21
25.7215283108
 31
0.0
  0
LWPOLYLINE
  5
159B
330
21F
100
AcDbEntity
  8
0
  6
Continuous
 62
     7
100
AcDbPolyline
 90
        5
 70
     0
 43
0.0
 10
55.4226687342
 20
23.2009971718
 10
55.3316424283
 20
23.1221109363
 10
55.2163167109
 20
23.0545546952
 10
55.09493805209999
 20
23.0133438929
 10
54.9704951972
 20
22.999493276
  0
LWPOLYLINE
  5
159C
330
21F
100
AcDbEntity
  8
0
  6
Continuous
 62
     7
100
AcDbPolyline
 90
        4
 70
     0
 43
0.0
 10
69.8590618903
 20
30.2968447066
 10
69.8445553599
 20
30.2901192458
 10
69.82701630920001
 20
30.2848058897
 10
69.80886828189999
 20
30.2821588224
  0
LWPOLYLINE
  5
159D
330
21F
100
AcDbEntity
  8
0
  6
Continuous
 62
     7
100
AcDbPolyline
 90
        7
 70
     0
 43
0.0
 10
71.10530396609999
 20
30.1856071283
 10
71.1189518227
 20
30.1910166719
 10
71.13292179910001
 20
30.1977027832
 10
71.14767389029999
 20
30.2064412334
 10
71.1634997557
 20
30.2184442637
 10
71.180030845
 20
30.2353249288
 10
71.1934686472
 20
30.2547102163
  0
LINE
  5
159E
330
21F
100
AcDbEntity
  8
0
  6
Continuous
 62
     7
100
AcDbLine
 10
65.60990916439999
 20
27.8335271353
 30
0.0
 11
65.6110498126
 21
27.8022987583
 31
0.0
  0
LINE
  5
159F
330
21F
100
AcDbEntity
  8
0
  6
Continuous
 62
     7
100
AcDbLine
 10
65.63708746100001
 20
25.0684964103
 30
0.0
 11
65.63708746100001
 21
26.6421934874
 31
0.0
  0
LINE
  5
15A0
330
21F
100
AcDbEntity
  8
0
  6
Continuous
 62
     7
100
AcDbLine
 10
63.267461601
 20
26.9304337224
 30
0.0
 11
63.14676108739999
 21
26.4799732733
 31
0.0
  0
LINE
  5
15A1
330
21F
100
AcDbEntity
  8
0
  6
Continuous
 62
     7
100
AcDbLine
 10
62.11564615189999
 20
22.6317999452
 30
0.0
 11
62.8697447224
 21
25.4461341244
 31
0.0
  0
LINE
  5
15A2
330
21F
100
AcDbEntity
  8
0
  6
Continuous
 62
     7
100
AcDbLine
 10
62.99377875810001
 20
25.4260725345
 30
0.0
 11
62.2363868801
 21
22.5994475646
 31
0.0
  0
LINE
  5
15A3
330
21F
100
AcDbEntity
  8
0
  6
Continuous
 62
     7
100
AcDbLine
 10
63.2761190546
 20
26.4797808658
 30
0.0
 11
63.3981570459
 21
26.93523285
 31
0.0
  0
LWPOLYLINE
  5
15A4
330
21F
100
AcDbEntity
  8
0
  6
Continuous
 62
     7
100
AcDbPolyline
 90
       38
 70
     0
 43
0.0
 10
65.2107084684
 20
32.061993276
 10
65.01414013919999
 20
31.8178293756
 10
64.7034250937
 20
31.4406109647
 10
64.3944174712
 20
31.0742719918
 10
64.08723789399999
 20
30.7189713068
 10
63.7819834141
 20
30.3748226125
 10
63.478706965
 20
30.0418756363
 10
63.1774483206
 20
29.720155365
 10
62.8782503314
 20
29.4096807884
 10
62.5811946827
 20
29.1105000728
 10
62.28635997979999
 20
28.82264444070001
 10
61.9937870017
 20
28.546096408
 10
61.70343127729999
 20
28.2807532173
 10
61.4152095875
 20
28.0264808237
 10
61.1290340927
 20
27.7831489444
 10
60.8449502488
 20
27.5507428569
 10
60.5630472238
 20
27.3292732051
 10
60.2833915534
 20
27.1187200333
 10
60.00605704529999
 20
26.9190575134
 10
59.7311237512
 20
26.730252034
 10
59.4586466874
 20
26.5522411983
 10
59.1886162806
 20
26.3849141238
 10
58.9208796375
 20
26.228077575
 10
58.6552393542
 20
26.0815333419
 10
58.3914679446
 20
25.945093483
 10
58.1291558404
 20
25.8185153346
 10
57.8677692277
 20
25.7015590323
 10
57.60677943840001
 20
25.5940620594
 10
57.3457615946
 20
25.4959757903
 10
57.0844974833
 20
25.4073817899
 10
56.822810216
 20
25.3284082517
 10
56.5605457509
 20
25.2592183691
 10
56.29758469229999
 20
25.2000087482
 10
56.0338248055
 20
25.1509997826
 10
55.76918261229999
 20
25.1124321387
 10
55.5035631736
 20
25.0845598201
 10
55.2368128756
 20
25.0676497616
 10
54.9704949982
 20
25.061993276
  0
LINE
  5
15A5
330
21F
100
AcDbEntity
  8
0
  6
Continuous
 62
     7
100
AcDbLine
 10
66.31543547639999
 20
27.56325453840001
 30
0.0
 11
66.28852429220001
 21
27.5432309632
 31
0.0
  0
LINE
  5
15A6
330
21F
100
AcDbEntity
  8
0
  6
Continuous
 62
     7
100
AcDbLine
 10
66.28852429220001
 20
27.5432309632
 30
0.0
 11
66.24920221
 21
27.5140444894
 31
0.0
  0
LINE
  5
15A7
330
21F
100
AcDbEntity
  8
0
  6
Continuous
 62
     7
100
AcDbLine
 10
66.2460704584
 20
27.5081245755
 30
0.0
 11
66.29851162760001
 21
27.5470217346
 31
0.0
  0
LWPOLYLINE
  5
15A8
330
21F
100
AcDbEntity
  8
0
  6
Continuous
 62
     7
100
AcDbPolyline
 90
       12
 70
     0
 43
0.0
 10
66.24920221
 20
27.5140444894
 10
66.215683696
 20
27.4892400451
 10
66.19731081499999
 20
27.4756760473
 10
66.1781584812
 20
27.4615632899
 10
66.15843585420001
 20
27.4470611181
 10
66.1383868905
 20
27.4323540322
 10
66.1182231809
 20
27.4176021814
 10
66.0981953149
 20
27.4029934068
 10
66.07858039199999
 20
27.3887334376
 10
66.05976520350001
 20
27.3751052685
 10
66.0422748539
 20
27.3624874808
 10
66.0266240703
 20
27.3512446214
  0
LWPOLYLINE
  5
15A9
330
21F
100
AcDbEntity
  8
0
  6
Continuous
 62
     7
100
AcDbPolyline
 90
        4
 70
     0
 43
0.0
 10
66.1889008478
 20
27.4659203108
 10
66.209485341
 20
27.4810896871
 10
66.2286583588
 20
27.4952465142
 10
66.25300692669999
 20
27.5132619991
  0
LWPOLYLINE
  5
15AA
330
21F
100
AcDbEntity
  8
0
  6
Continuous
 62
     7
100
AcDbPolyline
 90
        3
 70
     0
 43
0.0
 10
66.18948041189999
 20
27.4663470232
 10
66.21006168450001
 20
27.4815149219
 10
66.22923034109999
 20
27.4956692903
  0
LINE
  5
15AB
330
21F
100
AcDbEntity
  8
0
  6
Continuous
 62
     7
100
AcDbLine
 10
66.0266240703
 20
27.3512446214
 30
0.0
 11
66.0128982943
 21
27.3414275783
 31
0.0
  0
LWPOLYLINE
  5
15AC
330
21F
100
AcDbEntity
  8
0
  6
Continuous
 62
     7
100
AcDbPolyline
 90
        4
 70
     0
 43
0.0
 10
66.0128982943
 20
27.3414275783
 10
66.0009463013
 20
27.332916852
 10
65.9905177701
 20
27.3255237431
 10
65.98141437169999
 20
27.3190985143
  0
LWPOLYLINE
  5
15AD
330
21F
100
AcDbEntity
  8
0
  6
Continuous
 62
     7
100
AcDbPolyline
 90
       10
 70
     0
 43
0.0
 10
66.0149624698
 20
27.33955969510001
 10
66.02082066060001
 20
27.343728298
 10
66.03846167569999
 20
27.3563529143
 10
66.0578329139
 20
27.3702889409
 10
66.0785612978
 20
27.3852727631
 10
66.1002664114
 20
27.4010299339
 10
66.1225562226
 20
27.4172732837
 10
66.14503156159999
 20
27.4337070542
 10
66.16728341409999
 20
27.4500257033
 10
66.18948041189999
 20
27.4663470232
  0
LWPOLYLINE
  5
15AE
330
21F
100
AcDbEntity
  8
0
  6
Continuous
 62
     7
100
AcDbPolyline
 90
       11
 70
     0
 43
0.0
 10
65.9816562787
 20
27.3160015977
 10
65.99221621899999
 20
27.3234283913
 10
66.00544168049999
 20
27.3327844864
 10
66.02106916130001
 20
27.3439056066
 10
66.0387834548
 20
27.3565837831
 10
66.058225546
 20
27.3705721117
 10
66.0790175755
 20
27.3856033474
 10
66.1007754913
 20
27.4014002825
 10
66.1231041739
 20
27.4176733497
 10
66.14560223399999
 20
27.4341250337
 10
66.16786272359999
 20
27.4504511937
  0
LINE
  5
15AF
330
21F
100
AcDbEntity
  8
0
  6
Continuous
 62
     7
100
AcDbLine
 10
65.98141437169999
 20
27.3190985143
 30
0.0
 11
65.96110202770001
 21
27.3048773311
 31
0.0
  0
LINE
  5
15B0
330
21F
100
AcDbEntity
  8
0
  6
Continuous
 62
     7
100
AcDbLine
 10
65.9677523654
 20
27.3062944667
 30
0.0
 11
65.9816562787
 21
27.3160015977
 31
0.0
  0
LINE
  5
15B1
330
21F
100
AcDbEntity
  8
0
  6
Continuous
 62
     7
100
AcDbLine
 10
65.96110202770001
 20
27.3048773311
 30
0.0
 11
65.9480338236
 21
27.29583389510001
 31
0.0
  0
LWPOLYLINE
  5
15B2
330
21F
100
AcDbEntity
  8
0
  6
Continuous
 62
     7
100
AcDbPolyline
 90
        3
 70
     0
 43
0.0
 10
69.86154404140001
 20
30.298280959
 10
69.86110141160001
 20
30.2979825534
 10
69.8590794423
 20
30.2968542827
  0
LWPOLYLINE
  5
15B3
330
21F
100
AcDbEntity
  8
0
  6
Continuous
 62
     7
100
AcDbPolyline
 90
        8
 70
     0
 43
0.0
 10
70.1034289982
 20
30.4382007593
 10
70.10917606560001
 20
30.4418932198
 10
70.125111429
 20
30.4544164862
 10
70.138765615
 20
30.46849308360001
 10
70.15004125899999
 20
30.4833163062
 10
70.1592716903
 20
30.4984254723
 10
70.1669658423
 20
30.5137752622
 10
70.17361485100001
 20
30.529638841
  0
LINE
  5
15B4
330
21F
100
AcDbEntity
  8
0
  6
Continuous
 62
     7
100
AcDbLine
 10
70.1034289982
 20
30.4382007593
 30
0.0
 11
70.1033667435
 21
30.4381628872
 31
0.0
  0
LWPOLYLINE
  5
15B5
330
21F
100
AcDbEntity
  8
0
  6
Continuous
 62
     7
100
AcDbPolyline
 90
        5
 70
     0
 43
0.0
 10
70.04719700649999
 20
30.4205512975
 10
70.0082844058
 20
30.39697981
 10
69.9684744704
 20
30.3732301069
 10
69.9281146025
 20
30.3495505441
 10
69.88755581560001
 20
30.3261813486
  0
LINE
  5
15B6
330
21F
100
AcDbEntity
  8
0
  6
Continuous
 62
     7
100
AcDbLine
 10
70.0179671842
 20
30.3870650434
 30
0.0
 11
70.1033667568
 21
30.4381628653
 31
0.0
  0
LWPOLYLINE
  5
15B7
330
21F
100
AcDbEntity
  8
0
  6
Continuous
 62
     7
100
AcDbPolyline
 90
        5
 70
     0
 43
0.0
 10
70.1033667435
 20
30.4381628872
 10
70.0998116697
 20
30.4360826905
 10
70.08313264
 20
30.42828376340001
 10
70.06546403109999
 20
30.4230681534
 10
70.0471969956
 20
30.42055132510001
  0
LWPOLYLINE
  5
15B8
330
21F
100
AcDbEntity
  8
0
  6
Continuous
 62
     7
100
AcDbPolyline
 90
        3
 70
     0
 43
0.0
 10
69.88755581560001
 20
30.3261813486
 10
69.8475036427
 20
30.3035486468
 10
69.80886828189999
 20
30.2821588222
  0
LWPOLYLINE
  5
15B9
330
21F
100
AcDbEntity
  8
0
  6
Continuous
 62
     7
100
AcDbPolyline
 90
        3
 70
     0
 43
0.0
 10
69.86110141160001
 20
30.2979825534
 10
69.9356669414
 20
30.3394902511
 10
70.0179671842
 20
30.3870650434
  0
LINE
  5
15BA
330
21F
100
AcDbEntity
  8
0
  6
Continuous
 62
     7
100
AcDbLine
 10
69.8590794423
 20
30.2968542827
 30
0.0
 11
69.8590618903
 21
30.2968447066
 31
0.0
  0
LWPOLYLINE
  5
15BB
330
21F
100
AcDbEntity
  8
0
  6
Continuous
 62
     7
100
AcDbPolyline
 90
        6
 70
     0
 43
0.0
 10
62.0546709867
 20
25.86409349030001
 10
62.0625866438
 20
25.8681405587
 10
62.0701830205
 20
25.8711720143
 10
62.07772621060001
 20
25.8731427036
 10
62.0854516191
 20
25.874021182
 10
62.0877011587
 20
25.8740684632
  0
LWPOLYLINE
  5
15BC
330
21F
100
AcDbEntity
  8
0
  6
Continuous
 62
     7
100
AcDbPolyline
 90
       28
 70
     0
 43
0.0
 10
59.221016656
 20
24.2646173842
 10
59.30508636729999
 20
24.3059017249
 10
59.61328332569999
 20
24.4678834417
 10
59.9214053613
 20
24.640379338
 10
60.22950643419999
 20
24.8233375701
 10
60.5376404158
 20
25.0167112552
 10
60.8458630388
 20
25.2204594866
 10
61.154251858
 20
25.4345615739
 10
61.4628803752
 20
25.65900115050001
 10
61.77181280479999
 20
25.8937611831
 10
62.08114861310001
 20
26.1388582371
 10
62.3909980134
 20
26.394327318
 10
62.70144902729999
 20
26.6601945491
 10
63.01255489779999
 20
26.93646197590001
 10
63.32433337600001
 20
27.2231011975
 10
63.6367804312
 20
27.5200609391
 10
63.94990480149999
 20
27.8272980597
 10
64.263775549
 20
28.1448282907
 10
64.5784507717
 20
28.4726598749
 10
64.8939629061
 20
28.8107756981
 10
65.21031377229999
 20
29.159123737
 10
65.5274859999
 20
29.5176255082
 10
65.8454502905
 20
29.8861817434
 10
66.1641773212
 20
30.2646849772
 10
66.4836286956
 20
30.6530084103
 10
66.80376138699999
 20
31.051010235
 10
67.12454865249999
 20
31.458559882
 10
67.4440460365
 20
31.8730058599
  0
LINE
  5
15BD
330
21F
100
AcDbEntity
  8
0
  6
Continuous
 62
     7
100
AcDbLine
 10
66.67091678600001
 20
27.8684559153
 30
0.0
 11
66.67206350269999
 21
27.83722694510001
 31
0.0
  0
LWPOLYLINE
  5
15BE
330
21F
100
AcDbEntity
  8
0
  6
Continuous
 62
     7
100
AcDbPolyline
 90
       12
 70
     0
 43
0.0
 10
67.44404604020001
 20
31.8730058648
 10
67.44763727999999
 20
31.87985384820001
 10
67.4492062822
 20
31.8905337263
 10
67.44756183859999
 20
31.9035740463
 10
67.44271099089999
 20
31.9189189675
 10
67.4346745112
 20
31.93650278050001
 10
67.423486813
 20
31.9562501888
 10
67.40919580359999
 20
31.978076631
 10
67.3918626795
 20
32.00188864280001
 10
67.37156166350001
 20
32.02758425760001
 10
67.348379688
 20
32.05505344280001
 10
67.3421931568
 20
32.061993276
  0
LINE
  5
15BF
330
21F
100
AcDbEntity
  8
0
  6
Continuous
 62
     7
100
AcDbLine
 10
67.44404604020001
 20
31.8730058648
 30
0.0
 11
67.58827302180001
 21
32.061993276
 31
0.0
  0
LWPOLYLINE
  5
15C0
330
21F
100
AcDbEntity
  8
0
  6
Continuous
 62
     7
100
AcDbPolyline
 90
        5
 70
     0
 43
0.0
 10
70.04719699769999
 20
30.420551294
 10
70.0557190684
 20
30.4279213334
 10
70.0641585612
 20
30.440538393
 10
70.0724556175
 20
30.4583044061
 10
70.0805533085
 20
30.4810896523
  0
LWPOLYLINE
  5
15C1
330
21F
100
AcDbEntity
  8
0
  6
Continuous
 62
     7
100
AcDbPolyline
 90
        9
 70
     0
 43
0.0
 10
69.80886828189999
 20
30.2821588222
 10
69.80320050829999
 20
30.2777047637
 10
69.8032032074
 20
30.2736334455
 10
69.8090019333
 20
30.2700059569
 10
69.82060432729999
 20
30.2668851736
 10
69.83782212920001
 20
30.2643279141
 10
69.8603212679
 20
30.2623669516
 10
69.8876811525
 20
30.2610152691
 10
69.9194537117
 20
30.2602710643
  0
LINE
  5
15C2
330
21F
100
AcDbEntity
  8
0
  6
Continuous
 62
     7
100
AcDbLine
 10
71.75453114719999
 20
31.3527125415
 30
0.0
 11
71.4475901146
 21
31.9626998291
 31
0.0
  0
LINE
  5
15C3
330
21F
100
AcDbEntity
  8
0
  6
Continuous
 62
     7
100
AcDbLine
 10
71.75890071649999
 20
31.3430694658
 30
0.0
 11
71.7545296749
 21
31.3527152484
 31
0.0
  0
LWPOLYLINE
  5
15C4
330
21F
100
AcDbEntity
  8
0
  6
Continuous
 62
     7
100
AcDbPolyline
 90
        8
 70
     0
 43
0.0
 10
70.1625014521
 20
30.5424960799
 10
70.1609287155
 20
30.5240305783
 10
70.1566441283
 20
30.5060287238
 10
70.1497425438
 20
30.4888890466
 10
70.14037675119999
 20
30.4729909895
 10
70.128754093
 20
30.4586865083
 10
70.115131875
 20
30.4462922797
 10
70.1034289982
 20
30.4382007593
  0
LWPOLYLINE
  5
15C5
330
21F
100
AcDbEntity
  8
0
  6
Continuous
 62
     7
100
AcDbPolyline
 90
       13
 70
     0
 43
0.0
 10
70.1409612502
 20
30.8048187689
 10
70.1512257512
 20
30.8904618996
 10
70.1607140275
 20
30.9818423544
 10
70.16936253729999
 20
31.0783505153
 10
70.1771133542
 20
31.1793424296
 10
70.1839145262
 20
31.2841437145
 10
70.18972043949999
 20
31.3920540282
 10
70.1944921524
 20
31.5023520474
 10
70.1981976555
 20
31.6143001912
 10
70.2008120972
 20
31.7271496883
 10
70.2023179529
 20
31.8401455417
 10
70.20270514999999
 20
31.9525318316
 10
70.20198146979999
 20
32.061993276
  0
LWPOLYLINE
  5
15C6
330
21F
100
AcDbEntity
  8
0
  6
Continuous
 62
     7
100
AcDbPolyline
 90
        6
 70
     0
 43
0.0
 10
70.0805533158
 20
30.4810896532
 10
70.0935822935
 20
30.5303809938
 10
70.1062202301
 20
30.5878063797
 10
70.1183830855
 20
30.6529859062
 10
70.1299892618
 20
30.7254841414
 10
70.1409612502
 20
30.8048187689
  0
LWPOLYLINE
  5
15C7
330
21F
100
AcDbEntity
  8
0
  6
Continuous
 62
     7
100
AcDbPolyline
 90
       18
 70
     0
 43
0.0
 10
70.183773774
 20
30.5598250008
 10
70.1984156539
 20
30.614944725
 10
70.21272400029999
 20
30.6806707767
 10
70.2257081315
 20
30.7520248384
 10
70.23757528979999
 20
30.8286651749
 10
70.24845117739999
 20
30.9103698852
 10
70.2584142859
 20
30.997051396
 10
70.2675015801
 20
31.0886621382
 10
70.2756823568
 20
31.184710182
 10
70.2829096473
 20
31.2845009585
 10
70.28914188119999
 20
31.3873095181
 10
70.29434662399999
 20
31.4924504561
 10
70.29849729449999
 20
31.5992631744
 10
70.3015708406
 20
31.7070795089
 10
70.3035475216
 20
31.8151902026
 10
70.30441287790001
 20
31.9228458523
 10
70.3041594933
 20
32.0292987507
 10
70.30373009059999
 20
32.061993276
  0
LWPOLYLINE
  5
15C8
330
21F
100
AcDbEntity
  8
0
  6
Continuous
 62
     7
100
AcDbPolyline
 90
       19
 70
     0
 43
0.0
 10
70.1879796522
 20
30.5928139562
 10
70.19997314840001
 20
30.6376581898
 10
70.2116410748
 20
30.689925167
 10
70.22290020159999
 20
30.7492492387
 10
70.2336749414
 20
30.8152338671
 10
70.24389334979999
 20
30.8874395112
 10
70.25348716270001
 20
30.965385256
 10
70.2623921524
 20
31.0485507633
 10
70.27054870829999
 20
31.1363807452
 10
70.2779022332
 20
31.228288703
 10
70.2844034803
 20
31.3236604985
 10
70.29000889569999
 20
31.4218584353
 10
70.2946809365
 20
31.5222257997
 10
70.29838831949999
 20
31.6240911699
 10
70.30110623979999
 20
31.7267730341
 10
70.302816538
 20
31.8295843131
 10
70.30350782800001
 20
31.9318371887
 10
70.3031755696
 20
32.032847628
 10
70.3027774791
 20
32.061993276
  0
LINE
  5
15C9
330
21F
100
AcDbEntity
  8
0
  6
Continuous
 62
     7
100
AcDbLine
 10
70.183773774
 20
30.5598250008
 30
0.0
 11
70.18378718450001
 21
30.5598703514
 31
0.0
  0
LINE
  5
15CA
330
21F
100
AcDbEntity
  8
0
  6
Continuous
 62
     7
100
AcDbLine
 10
70.183773774
 20
30.5598250008
 30
0.0
 11
70.1837872113
 21
30.5598703434
 31
0.0
  0
LINE
  5
15CB
330
21F
100
AcDbEntity
  8
0
  6
Continuous
 62
     7
100
AcDbLine
 10
70.1817096613
 20
30.57386028510001
 30
0.0
 11
70.1879796522
 21
30.5928139562
 31
0.0
  0
LWPOLYLINE
  5
15CC
330
21F
100
AcDbEntity
  8
0
  6
Continuous
 62
     7
100
AcDbPolyline
 90
        3
 70
     0
 43
0.0
 10
70.17361485100001
 20
30.529638841
 10
70.1796013071
 20
30.5464528611
 10
70.18264986529999
 20
30.5562650975
  0
LINE
  5
15CD
330
21F
100
AcDbEntity
  8
0
  6
Continuous
 62
     7
100
AcDbLine
 10
71.3600460886
 20
32.061993276
 30
0.0
 11
71.31921425759999
 21
31.9905244525
 31
0.0
  0
LINE
  5
15CE
330
21F
100
AcDbEntity
  8
0
  6
Continuous
 62
     7
100
AcDbLine
 10
70.27435908930001
 20
30.1616921978
 30
0.0
 11
69.80784516439999
 21
29.3451429389
 31
0.0
  0
LWPOLYLINE
  5
15CF
330
21F
100
AcDbEntity
  8
0
  6
Continuous
 62
     7
100
AcDbPolyline
 90
        7
 70
     0
 43
0.0
 10
71.1934693166
 20
30.2547113863
 10
71.1822643477
 20
30.2383091596
 10
71.1686001273
 20
30.2238906959
 10
71.15282204989999
 20
30.21182045530001
 10
71.135328943
 20
30.202403541
 10
71.11656298529999
 20
30.1958779871
 10
71.0969985295
 20
30.1924087423
  0
LINE
  5
15D0
330
21F
100
AcDbEntity
  8
0
  6
Continuous
 62
     7
100
AcDbLine
 10
71.7543743496
 20
31.3486794633
 30
0.0
 11
71.7545311041
 21
31.3527126271
 31
0.0
  0
LWPOLYLINE
  5
15D1
330
21F
100
AcDbEntity
  8
0
  6
Continuous
 62
     7
100
AcDbPolyline
 90
       30
 70
     0
 43
0.0
 10
70.3989503608
 20
30.1248136484
 10
70.3999802809
 20
30.1302655625
 10
70.39601107119999
 20
30.1359664085
 10
70.3852492601
 20
30.1418986018
 10
70.3652805178
 20
30.1480476766
 10
70.33276297329999
 20
30.1543912767
 10
70.2832343808
 20
30.1608899972
 10
70.20974269879999
 20
30.1675326037
 10
70.11067557
 20
30.173871673
 10
69.98986976399999
 20
30.1795088025
 10
69.8484934068
 20
30.1844816116
 10
69.68492912479999
 20
30.1889464622
 10
69.4978907425
 20
30.1930032283
 10
69.2876079913
 20
30.1967203719
 10
69.0523873801
 20
30.2002045744
 10
68.79032142060001
 20
30.2035701748
 10
68.50826178270001
 20
30.2068441439
 10
68.23847823520001
 20
30.2098032021
 10
67.98974277000001
 20
30.2124883749
 10
67.7604531383
 20
30.214989769
 10
67.54912073109998
 20
30.2173566779
 10
67.354408804
 20
30.2196149771
 10
67.1749027978
 20
30.2217807005
 10
67.0093426011
 20
30.223862003
 10
66.8565419768
 20
30.2258636347
 10
66.7154319659
 20
30.2277877512
 10
66.58502386729999
 20
30.2296354299
 10
66.4644777028
 20
30.2314064136
 10
66.3530165887
 20
30.2331005506
 10
66.24984399829999
 20
30.2347192414
  0
LWPOLYLINE
  5
15D2
330
21F
100
AcDbEntity
  8
0
  6
Continuous
 62
     7
100
AcDbPolyline
 90
        6
 70
     0
 43
0.0
 10
71.7513009482
 20
31.2305767252
 10
71.7586434265
 20
31.2456137264
 10
71.76571259399999
 20
31.26878184780001
 10
71.7683386622
 20
31.2942129062
 10
71.7658773829
 20
31.3197184049
 10
71.75890071649999
 20
31.3430694658
  0
LINE
  5
15D3
330
21F
100
AcDbEntity
  8
0
  6
Continuous
 62
     7
100
AcDbLine
 10
71.7512708175
 20
31.23052394
 30
0.0
 11
71.7513009483
 21
31.2305767253
 31
0.0
  0
LWPOLYLINE
  5
15D4
330
21F
100
AcDbEntity
  8
0
  6
Continuous
 62
     7
100
AcDbPolyline
 90
        3
 70
     0
 43
0.0
 10
71.1934693167
 20
30.2547113863
 10
71.4726155401
 20
30.7428277795
 10
71.75127082729999
 20
31.2305239344
  0
LINE
  5
15D5
330
21F
100
AcDbEntity
  8
0
  6
Continuous
 62
     7
100
AcDbLine
 10
81.6734672241
 20
46.7014501435
 30
0.0
 11
77.47567051729999
 21
32.061993276
 31
0.0
  0
ARC
  5
194B
330
21F
100
AcDbEntity
  8
0
  6
Continuous
 62
     7
100
AcDbCircle
 10
31.7429526698
 20
30.651899661
 30
0.0
 40
2.625
100
AcDbArc
 50
209.8553539304
 51
267.8970478109
  0
ARC
  5
194C
330
21F
100
AcDbEntity
  8
0
  6
Continuous
 62
     7
100
AcDbCircle
 10
33.6435114135
 20
28.1179516759
 30
0.0
 40
0.88125
100
AcDbArc
 50
210.636274846
 51
219.009081344
  0
ARC
  5
194D
330
21F
100
AcDbEntity
  8
0
  6
Continuous
 62
     7
100
AcDbCircle
 10
33.6435114135
 20
28.1179516759
 30
0.0
 40
0.88125
100
AcDbArc
 50
248.8914190993
 51
267.897047811
  0
ARC
  5
194E
330
21F
100
AcDbEntity
  8
0
  6
Continuous
 62
     7
100
AcDbCircle
 10
37.520750955
 20
22.7288570871
 30
0.0
 40
0.5
100
AcDbArc
 50
195.0
 51
270.0
  0
ARC
  5
194F
330
21F
100
AcDbEntity
  8
0
  6
Continuous
 62
     7
100
AcDbCircle
 10
39.25342396699999
 20
22.7288570871
 30
0.0
 40
0.5
100
AcDbArc
 50
270.0
 51
345.0
  0
ARC
  5
1950
330
21F
100
AcDbEntity
  8
0
  6
Continuous
 62
     7
100
AcDbCircle
 10
36.8553966185
 20
25.211993276
 30
0.0
 40
0.375
100
AcDbArc
 50
195.0
 51
270.0
  0
ARC
  5
1951
330
21F
100
AcDbEntity
  8
0
  6
Continuous
 62
     7
100
AcDbCircle
 10
39.9187783035
 20
25.211993276
 30
0.0
 40
0.375
100
AcDbArc
 50
270.0
 51
345.0
  0
ARC
  5
1952
330
21F
100
AcDbEntity
  8
0
  6
Continuous
 62
     7
100
AcDbCircle
 10
39.25342396699999
 20
22.7288570871
 30
0.0
 40
0.375
100
AcDbArc
 50
270.0
 51
345.0
  0
ARC
  5
1953
330
21F
100
AcDbEntity
  8
0
  6
Continuous
 62
     7
100
AcDbCircle
 10
37.520750955
 20
22.7288570871
 30
0.0
 40
0.375
100
AcDbArc
 50
195.0
 51
270.0
  0
ARC
  5
1954
330
21F
100
AcDbEntity
  8
0
  6
Continuous
 62
     7
100
AcDbCircle
 10
32.58949752639999
 20
27.4937085019
 30
0.0
 40
0.3437499786
100
AcDbArc
 50
30.6362820547
 51
87.8970547976
  0
ARC
  5
1955
330
21F
100
AcDbEntity
  8
0
  6
Continuous
 62
     7
100
AcDbCircle
 10
49.1287593622
 20
25.461993276
 30
0.0
 40
0.25
100
AcDbArc
 50
270.0
 51
284.7091567505
  0
ARC
  5
1956
330
21F
100
AcDbEntity
  8
0
  6
Continuous
 62
     7
100
AcDbCircle
 10
41.6454155598
 20
25.461993276
 30
0.0
 40
0.25
100
AcDbArc
 50
255.2908432497
 51
270.0
  0
ARC
  5
1957
330
21F
100
AcDbEntity
  8
0
  6
Continuous
 62
     7
100
AcDbCircle
 10
40.6287593622
 20
25.461993276
 30
0.0
 40
0.25
100
AcDbArc
 50
270.0
 51
284.711989869
  0
ARC
  5
1958
330
21F
100
AcDbEntity
  8
0
  6
Continuous
 62
     7
100
AcDbCircle
 10
33.0315875048
 20
27.6222648887
 30
0.0
 40
0.0937500043
100
AcDbArc
 50
219.0091060498
 51
233.3785461758
  0
ARC
  5
1959
330
21F
100
AcDbEntity
  8
0
  6
Continuous
 62
     7
100
AcDbCircle
 10
33.3599038921
 20
27.3832932296
 30
0.0
 40
0.093749998
100
AcDbArc
 50
235.2182030589
 51
248.8914227612
  0
ARC
  5
195A
330
21F
100
AcDbEntity
  8
0
  6
Continuous
 62
     7
100
AcDbCircle
 10
38.3164653304
 20
26.335363481
 30
0.0
 40
0.0937499954
100
AcDbArc
 50
235.4031848131
 51
248.4900583606
  0
ARC
  5
195B
330
21F
100
AcDbEntity
  8
0
  6
Continuous
 62
     7
100
AcDbCircle
 10
37.9817150482
 20
26.5697581535
 30
0.0
 40
0.0937499729
100
AcDbArc
 50
221.5098110174
 51
235.1058545197
  0
ARC
  5
195C
330
21F
100
AcDbEntity
  8
0
  6
Continuous
 62
     7
100
AcDbCircle
 10
17.6607865539
 20
46.7186774783
 30
0.0
 40
0.0625
100
AcDbArc
 50
90.0
 51
196.0
  0
ARC
  5
195D
330
21F
100
AcDbEntity
  8
0
  6
Continuous
 62
     7
100
AcDbCircle
 10
67.5312222522
 20
30.651899661
 30
0.0
 40
2.625
100
AcDbArc
 50
272.1029521891
 51
330.1446460696
  0
ARC
  5
195E
330
21F
100
AcDbEntity
  8
0
  6
Continuous
 62
     7
100
AcDbCircle
 10
49.637087461
 20
25.219493276
 30
0.0
 40
1.125
100
AcDbArc
 50
180.3850769427
 51
359.6149230573
  0
ARC
  5
195F
330
21F
100
AcDbEntity
  8
0
  6
Continuous
 62
     7
100
AcDbCircle
 10
49.637087461
 20
25.219493276
 30
0.0
 40
0.9375
100
AcDbArc
 50
180.4623917047999
 51
359.5376082952
  0
ARC
  5
1960
330
21F
100
AcDbEntity
  8
0
  6
Continuous
 62
     7
100
AcDbCircle
 10
65.6306635084
 20
28.1179516759
 30
0.0
 40
0.88125
100
AcDbArc
 50
272.102952189
 51
291.1085809007
  0
ARC
  5
1961
330
21F
100
AcDbEntity
  8
0
  6
Continuous
 62
     7
100
AcDbCircle
 10
65.6306635084
 20
28.1179516759
 30
0.0
 40
0.88125
100
AcDbArc
 50
320.990918656
 51
329.363725154
  0
ARC
  5
1962
330
21F
100
AcDbEntity
  8
0
  6
Continuous
 62
     7
100
AcDbCircle
 10
49.637087461
 20
25.219493276
 30
0.0
 40
0.8299999999999998
100
AcDbArc
 50
218.6549073451
 51
321.3046747447001
  0
ARC
  5
1963
330
21F
100
AcDbEntity
  8
0
  6
Continuous
 62
     7
100
AcDbCircle
 10
49.637087461
 20
25.219493276
 30
0.0
 40
0.8299999999999998
100
AcDbArc
 50
323.3242438856
 51
359.4767208952
  0
ARC
  5
1964
330
21F
100
AcDbEntity
  8
0
  6
Continuous
 62
     7
100
AcDbCircle
 10
49.637087461
 20
25.219493276
 30
0.0
 40
0.8299999999999998
100
AcDbArc
 50
180.5238333658
 51
216.5940069501
  0
ARC
  5
1965
330
21F
100
AcDbEntity
  8
0
  6
Continuous
 62
     7
100
AcDbCircle
 10
60.020750955
 20
22.7288570871
 30
0.0
 40
0.5
100
AcDbArc
 50
195.0
 51
270.0
  0
ARC
  5
1966
330
21F
100
AcDbEntity
  8
0
  6
Continuous
 62
     7
100
AcDbCircle
 10
61.75342396699999
 20
22.7288570871
 30
0.0
 40
0.5
100
AcDbArc
 50
270.0
 51
345.0
  0
ARC
  5
1967
330
21F
100
AcDbEntity
  8
0
  6
Continuous
 62
     7
100
AcDbCircle
 10
60.020750955
 20
22.7288570871
 30
0.0
 40
0.375
100
AcDbArc
 50
195.0
 51
270.0
  0
ARC
  5
1968
330
21F
100
AcDbEntity
  8
0
  6
Continuous
 62
     7
100
AcDbCircle
 10
62.4187783035
 20
25.211993276
 30
0.0
 40
0.375
100
AcDbArc
 50
270.0
 51
345.0
  0
ARC
  5
1969
330
21F
100
AcDbEntity
  8
0
  6
Continuous
 62
     7
100
AcDbCircle
 10
61.75342396699999
 20
22.7288570871
 30
0.0
 40
0.375
100
AcDbArc
 50
270.0
 51
345.0
  0
ARC
  5
196A
330
21F
100
AcDbEntity
  8
0
  6
Continuous
 62
     7
100
AcDbCircle
 10
66.68467735330001
 20
27.4937085011
 30
0.0
 40
0.3437499686
100
AcDbArc
 50
92.1029317616
 51
149.3637145412
  0
ARC
  5
196B
330
21F
100
AcDbEntity
  8
0
  6
Continuous
 62
     7
100
AcDbCircle
 10
50.14541555979999
 20
25.461993276
 30
0.0
 40
0.25
100
AcDbArc
 50
255.2880101312
 51
270.0
  0
ARC
  5
196C
330
21F
100
AcDbEntity
  8
0
  6
Continuous
 62
     7
100
AcDbCircle
 10
66.2425874172
 20
27.6222648887
 30
0.0
 40
0.0937500043
100
AcDbArc
 50
306.6214534445
 51
320.9908939502
  0
ARC
  5
196D
330
21F
100
AcDbEntity
  8
0
  6
Continuous
 62
     7
100
AcDbCircle
 10
65.9142710299
 20
27.3832932296
 30
0.0
 40
0.093749998
100
AcDbArc
 50
291.1085772388
 51
304.7828372913
  0
ARC
  5
196E
330
21F
100
AcDbEntity
  8
0
  6
Continuous
 62
     7
100
AcDbCircle
 10
81.61338836810001
 20
46.7186774783
 30
0.0
 40
0.0625
100
AcDbArc
 50
344.0
 51
90.0
  0
ELLIPSE
  5
199C
330
21F
100
AcDbEntity
  8
0
  6
Continuous
 62
     7
100
AcDbEllipse
 10
70.3987460883
 20
31.7586534921
 30
0.0
 11
0.0185782065
 21
0.9304601508999999
 31
0.0
210
0.0
220
0.0
230
1.0
 40
0.1201330594
 41
3.1461081547
 42
5.047066338899999
  0
ENDSEC
  0
SECTION
  2
OBJECTS
  0
DICTIONARY
  5
C
330
0
100
AcDbDictionary
281
     1
  3
ACAD_COLOR
350
19D8
  3
ACAD_GROUP
350
D
  3
ACAD_LAYOUT
350
1A
  3
ACAD_MATERIAL
350
19AB
  3
ACAD_MLEADERSTYLE
350
19FD
  3
ACAD_MLINESTYLE
350
17
  3
ACAD_PLOTSETTINGS
350
19
  3
ACAD_PLOTSTYLENAME
350
E
  3
ACAD_SCALELIST
350
19DB
  3
ACAD_TABLESTYLE
350
19D9
  3
ACAD_VISUALSTYLE
350
19C4
  3
ACDB_RECOMPOSE_DATA
350
1A01
  3
AcDbVariableDictionary
350
1A33
  0
DICTIONARY
  5
1A02
330
8
100
AcDbDictionary
280
     1
281
     1
  0
DICTIONARY
  5
1A42
330
10
100
AcDbDictionary
280
     1
281
     1
  3
ADSK_XREC_LAYER_RECONCILED
360
1A43
  0
DICTIONARY
  5
1A44
330
1FA
100
AcDbDictionary
280
     1
281
     1
  3
ADSK_XREC_LAYER_RECONCILED
360
1A45
  0
DICTIONARY
  5
1A46
330
1FB
100
AcDbDictionary
280
     1
281
     1
  3
ADSK_XREC_LAYER_RECONCILED
360
1A47
  0
DICTIONARY
  5
1A48
330
1FC
100
AcDbDictionary
280
     1
281
     1
  3
ADSK_XREC_LAYER_RECONCILED
360
1A49
  0
DICTIONARY
  5
1A4A
330
1FD
100
AcDbDictionary
280
     1
281
     1
  3
ADSK_XREC_LAYER_RECONCILED
360
1A4B
  0
DICTIONARY
  5
1A4C
330
1FE
100
AcDbDictionary
280
     1
281
     1
  3
ADSK_XREC_LAYER_RECONCILED
360
1A4D
  0
DICTIONARY
  5
1A4E
330
1FF
100
AcDbDictionary
280
     1
281
     1
  3
ADSK_XREC_LAYER_RECONCILED
360
1A4F
  0
DICTIONARY
  5
1A50
330
200
100
AcDbDictionary
280
     1
281
     1
  3
ADSK_XREC_LAYER_RECONCILED
360
1A51
  0
DICTIONARY
  5
1A52
330
201
100
AcDbDictionary
280
     1
281
     1
  3
ADSK_XREC_LAYER_RECONCILED
360
1A53
  0
DICTIONARY
  5
1A54
330
202
100
AcDbDictionary
280
     1
281
     1
  3
ADSK_XREC_LAYER_RECONCILED
360
1A55
  0
DICTIONARY
  5
1A56
330
203
100
AcDbDictionary
280
     1
281
     1
  3
ADSK_XREC_LAYER_RECONCILED
360
1A57
  0
DICTIONARY
  5
1A58
330
204
100
AcDbDictionary
280
     1
281
     1
  3
ADSK_XREC_LAYER_RECONCILED
360
1A59
  0
DICTIONARY
  5
1A5A
330
205
100
AcDbDictionary
280
     1
281
     1
  3
ADSK_XREC_LAYER_RECONCILED
360
1A5B
  0
DICTIONARY
  5
1A5C
330
206
100
AcDbDictionary
280
     1
281
     1
  3
ADSK_XREC_LAYER_RECONCILED
360
1A5D
  0
DICTIONARY
  5
1A5E
330
207
100
AcDbDictionary
280
     1
281
     1
  3
ADSK_XREC_LAYER_RECONCILED
360
1A5F
  0
DICTIONARY
  5
1A60
330
208
100
AcDbDictionary
280
     1
281
     1
  3
ADSK_XREC_LAYER_RECONCILED
360
1A61
  0
DICTIONARY
  5
1A62
330
209
100
AcDbDictionary
280
     1
281
     1
  3
ADSK_XREC_LAYER_RECONCILED
360
1A63
  0
DICTIONARY
  5
1A64
330
20A
100
AcDbDictionary
280
     1
281
     1
  3
ADSK_XREC_LAYER_RECONCILED
360
1A65
  0
DICTIONARY
  5
1A66
330
20B
100
AcDbDictionary
280
     1
281
     1
  3
ADSK_XREC_LAYER_RECONCILED
360
1A67
  0
DICTIONARY
  5
1A68
330
20C
100
AcDbDictionary
280
     1
281
     1
  3
ADSK_XREC_LAYER_RECONCILED
360
1A69
  0
DICTIONARY
  5
1A6A
330
20D
100
AcDbDictionary
280
     1
281
     1
  3
ADSK_XREC_LAYER_RECONCILED
360
1A6B
  0
DICTIONARY
  5
1A6C
330
20E
100
AcDbDictionary
280
     1
281
     1
  3
ADSK_XREC_LAYER_RECONCILED
360
1A6D
  0
DICTIONARY
  5
1A6E
330
20F
100
AcDbDictionary
280
     1
281
     1
  3
ADSK_XREC_LAYER_RECONCILED
360
1A6F
  0
DICTIONARY
  5
1A70
330
210
100
AcDbDictionary
280
     1
281
     1
  3
ADSK_XREC_LAYER_RECONCILED
360
1A71
  0
DICTIONARY
  5
1A72
330
211
100
AcDbDictionary
280
     1
281
     1
  3
ADSK_XREC_LAYER_RECONCILED
360
1A73
  0
DICTIONARY
  5
1A74
330
212
100
AcDbDictionary
280
     1
281
     1
  3
ADSK_XREC_LAYER_RECONCILED
360
1A75
  0
DICTIONARY
  5
1A76
330
213
100
AcDbDictionary
280
     1
281
     1
  3
ADSK_XREC_LAYER_RECONCILED
360
1A77
  0
DICTIONARY
  5
1A78
330
214
100
AcDbDictionary
280
     1
281
     1
  3
ADSK_XREC_LAYER_RECONCILED
360
1A79
  0
DICTIONARY
  5
1A7A
330
215
100
AcDbDictionary
280
     1
281
     1
  3
ADSK_XREC_LAYER_RECONCILED
360
1A7B
  0
DICTIONARY
  5
1A7C
330
216
100
AcDbDictionary
280
     1
281
     1
  3
ADSK_XREC_LAYER_RECONCILED
360
1A7D
  0
DICTIONARY
  5
19D8
102
{ACAD_REACTORS
330
C
102
}
330
C
100
AcDbDictionary
281
     1
  0
DICTIONARY
  5
D
102
{ACAD_REACTORS
330
C
102
}
330
C
100
AcDbDictionary
281
     1
  0
DICTIONARY
  5
1A
102
{ACAD_REACTORS
330
C
102
}
330
C
100
AcDbDictionary
281
     1
  3
Layout1
350
19A8
  3
Model
350
19A7
  0
DICTIONARY
  5
19AB
102
{ACAD_REACTORS
330
C
102
}
330
C
100
AcDbDictionary
281
     1
  3
ByBlock
350
19B4
  3
ByLayer
350
19AC
  3
Global
350
19BC
  0
DICTIONARY
  5
19FD
102
{ACAD_REACTORS
330
C
102
}
330
C
100
AcDbDictionary
281
     1
  3
Standard
350
19FE
  0
DICTIONARY
  5
17
102
{ACAD_REACTORS
330
C
102
}
330
C
100
AcDbDictionary
281
     1
  3
Standard
350
18
  0
DICTIONARY
  5
19
102
{ACAD_REACTORS
330
C
102
}
330
C
100
AcDbDictionary
281
     1
  0
ACDBDICTIONARYWDFLT
  5
E
102
{ACAD_REACTORS
330
C
102
}
330
C
100
AcDbDictionary
281
     1
  3
Normal
350
F
100
AcDbDictionaryWithDefault
340
F
  0
DICTIONARY
  5
19DB
102
{ACAD_REACTORS
330
C
102
}
330
C
100
AcDbDictionary
281
     1
  3
A0
350
19DC
  3
A1
350
19DD
  3
A2
350
19DE
  3
A3
350
19DF
  3
A4
350
19E0
  3
A5
350
19E1
  3
A6
350
19E2
  3
A7
350
19E3
  3
A8
350
19E4
  3
A9
350
19E5
  3
B0
350
19E6
  3
B1
350
19E7
  3
B2
350
19E8
  3
B3
350
19E9
  3
B4
350
19EA
  3
B5
350
19EB
  3
B6
350
19EC
  3
B7
350
19ED
  3
B8
350
19EE
  3
B9
350
19EF
  3
C0
350
19F0
  3
C1
350
19F1
  3
C2
350
19F2
  3
C3
350
19F3
  3
C4
350
19F4
  3
C5
350
19F5
  3
C6
350
19F6
  3
C7
350
19F7
  3
C8
350
19F8
  3
C9
350
19F9
  3
D0
350
19FA
  3
D1
350
19FB
  3
D2
350
19FC
  0
DICTIONARY
  5
19D9
102
{ACAD_REACTORS
330
C
102
}
330
C
100
AcDbDictionary
281
     1
  3
Standard
350
19DA
  0
DICTIONARY
  5
19C4
102
{ACAD_REACTORS
330
C
102
}
330
C
100
AcDbDictionary
281
     1
  3
2dWireframe
350
19CA
  3
3D Hidden
350
19CC
  3
3dWireframe
350
19CB
  3
Basic
350
19C9
  3
Brighten
350
19D0
  3
ColorChange
350
19D4
  3
Conceptual
350
19CD
  3
Dim
350
19CF
  3
EdgeColorOff
350
19D7
  3
Facepattern
350
19D3
  3
Flat
350
19C5
  3
FlatWithEdges
350
19C6
  3
Gouraud
350
19C7
  3
GouraudWithEdges
350
19C8
  3
JitterOff
350
19D5
  3
Linepattern
350
19D2
  3
OverhangOff
350
19D6
  3
Realistic
350
19CE
  3
Thicken
350
19D1
  0
XRECORD
  5
1A01
102
{ACAD_REACTORS
330
C
102
}
330
C
100
AcDbXrecord
280
     1
 90
        1
330
19DA
  0
DICTIONARY
  5
1A33
102
{ACAD_REACTORS
330
C
102
}
330
C
100
AcDbDictionary
281
     1
  3
CANNOSCALE
350
1A36
  3
CMLEADERSTYLE
350
1A35
  3
CTABLESTYLE
350
1A34
  3
DIMASSOC
350
1A39
  3
INDEXCTL
350
1A38
  3
LAYEREVAL
350
1A85
  3
LAYERNOTIFY
350
1A86
  3
LIGHTINGUNITS
350
1A84
  3
MSLTSCALE
350
1A83
  3
SORTENTS
350
1A37
  3
XCLIPFRAME
350
1A3A
  0
XRECORD
  5
1A43
102
{ACAD_REACTORS
330
1A42
102
}
330
1A42
100
AcDbXrecord
280
     1
290
     1
  0
XRECORD
  5
1A45
102
{ACAD_REACTORS
330
1A44
102
}
330
1A44
100
AcDbXrecord
280
     1
290
     1
  0
XRECORD
  5
1A47
102
{ACAD_REACTORS
330
1A46
102
}
330
1A46
100
AcDbXrecord
280
     1
290
     1
  0
XRECORD
  5
1A49
102
{ACAD_REACTORS
330
1A48
102
}
330
1A48
100
AcDbXrecord
280
     1
290
     1
  0
XRECORD
  5
1A4B
102
{ACAD_REACTORS
330
1A4A
102
}
330
1A4A
100
AcDbXrecord
280
     1
290
     1
  0
XRECORD
  5
1A4D
102
{ACAD_REACTORS
330
1A4C
102
}
330
1A4C
100
AcDbXrecord
280
     1
290
     1
  0
XRECORD
  5
1A4F
102
{ACAD_REACTORS
330
1A4E
102
}
330
1A4E
100
AcDbXrecord
280
     1
290
     1
  0
XRECORD
  5
1A51
102
{ACAD_REACTORS
330
1A50
102
}
330
1A50
100
AcDbXrecord
280
     1
290
     1
  0
XRECORD
  5
1A53
102
{ACAD_REACTORS
330
1A52
102
}
330
1A52
100
AcDbXrecord
280
     1
290
     1
  0
XRECORD
  5
1A55
102
{ACAD_REACTORS
330
1A54
102
}
330
1A54
100
AcDbXrecord
280
     1
290
     1
  0
XRECORD
  5
1A57
102
{ACAD_REACTORS
330
1A56
102
}
330
1A56
100
AcDbXrecord
280
     1
290
     1
  0
XRECORD
  5
1A59
102
{ACAD_REACTORS
330
1A58
102
}
330
1A58
100
AcDbXrecord
280
     1
290
     1
  0
XRECORD
  5
1A5B
102
{ACAD_REACTORS
330
1A5A
102
}
330
1A5A
100
AcDbXrecord
280
     1
290
     1
  0
XRECORD
  5
1A5D
102
{ACAD_REACTORS
330
1A5C
102
}
330
1A5C
100
AcDbXrecord
280
     1
290
     1
  0
XRECORD
  5
1A5F
102
{ACAD_REACTORS
330
1A5E
102
}
330
1A5E
100
AcDbXrecord
280
     1
290
     1
  0
XRECORD
  5
1A61
102
{ACAD_REACTORS
330
1A60
102
}
330
1A60
100
AcDbXrecord
280
     1
290
     1
  0
XRECORD
  5
1A63
102
{ACAD_REACTORS
330
1A62
102
}
330
1A62
100
AcDbXrecord
280
     1
290
     1
  0
XRECORD
  5
1A65
102
{ACAD_REACTORS
330
1A64
102
}
330
1A64
100
AcDbXrecord
280
     1
290
     1
  0
XRECORD
  5
1A67
102
{ACAD_REACTORS
330
1A66
102
}
330
1A66
100
AcDbXrecord
280
     1
290
     1
  0
XRECORD
  5
1A69
102
{ACAD_REACTORS
330
1A68
102
}
330
1A68
100
AcDbXrecord
280
     1
290
     1
  0
XRECORD
  5
1A6B
102
{ACAD_REACTORS
330
1A6A
102
}
330
1A6A
100
AcDbXrecord
280
     1
290
     1
  0
XRECORD
  5
1A6D
102
{ACAD_REACTORS
330
1A6C
102
}
330
1A6C
100
AcDbXrecord
280
     1
290
     1
  0
XRECORD
  5
1A6F
102
{ACAD_REACTORS
330
1A6E
102
}
330
1A6E
100
AcDbXrecord
280
     1
290
     1
  0
XRECORD
  5
1A71
102
{ACAD_REACTORS
330
1A70
102
}
330
1A70
100
AcDbXrecord
280
     1
290
     1
  0
XRECORD
  5
1A73
102
{ACAD_REACTORS
330
1A72
102
}
330
1A72
100
AcDbXrecord
280
     1
290
     1
  0
XRECORD
  5
1A75
102
{ACAD_REACTORS
330
1A74
102
}
330
1A74
100
AcDbXrecord
280
     1
290
     1
  0
XRECORD
  5
1A77
102
{ACAD_REACTORS
330
1A76
102
}
330
1A76
100
AcDbXrecord
280
     1
290
     1
  0
XRECORD
  5
1A79
102
{ACAD_REACTORS
330
1A78
102
}
330
1A78
100
AcDbXrecord
280
     1
290
     1
  0
XRECORD
  5
1A7B
102
{ACAD_REACTORS
330
1A7A
102
}
330
1A7A
100
AcDbXrecord
280
     1
290
     1
  0
XRECORD
  5
1A7D
102
{ACAD_REACTORS
330
1A7C
102
}
330
1A7C
100
AcDbXrecord
280
     1
290
     1
  0
LAYOUT
  5
19A8
102
{ACAD_REACTORS
330
1A
102
}
330
1A
100
AcDbPlotSettings
  1

  2
none_device
  4
ANSI_B_(17.00_x_11.00_Inches)
  6

 40
0.0
 41
0.0
 42
0.0
 43
0.0
 44
431.8
 45
279.4
 46
0.0
 47
0.0
 48
0.0
 49
0.0
140
0.0
141
0.0
142
1.0
143
1.0
 70
     0
 72
     0
 73
     0
 74
     0
  7

 75
     0
147
1.0
 76
     0
 77
     2
 78
   300
148
0.0
149
0.0
100
AcDbLayout
  1
Layout1
 70
     1
 71
     1
 10
0.0
 20
0.0
 11
12.0
 21
9.0
 12
0.0
 22
0.0
 32
0.0
 14
1.000000000000000E+20
 24
1.000000000000000E+20
 34
1.000000000000000E+20
 15
-1.000000000000000E+20
 25
-1.000000000000000E+20
 35
-1.000000000000000E+20
146
0.0
 13
0.0
 23
0.0
 33
0.0
 16
1.0
 26
0.0
 36
0.0
 17
0.0
 27
1.0
 37
0.0
 76
     0
330
220
  0
LAYOUT
  5
19A7
102
{ACAD_REACTORS
330
1A
102
}
330
1A
100
AcDbPlotSettings
  1

  2
none_device
  4
ANSI_B_(17.00_x_11.00_Inches)
  6

 40
0.0
 41
0.0
 42
0.0
 43
0.0
 44
431.8
 45
279.4
 46
0.0
 47
0.0
 48
0.0
 49
0.0
140
0.0
141
0.0
142
1.0
143
1.0
 70
  1024
 72
     0
 73
     0
 74
     0
  7

 75
     0
147
1.0
 76
     0
 77
     2
 78
   300
148
0.0
149
0.0
100
AcDbLayout
  1
Model
 70
     0
 71
     0
 10
0.0
 20
0.0
 11
17.0
 21
11.0
 12
0.0
 22
0.0
 32
0.0
 14
0.0
 24
0.0
 34
0.0
 15
0.0
 25
0.0
 35
0.0
146
0.0
 13
0.0
 23
0.0
 33
0.0
 16
1.0
 26
0.0
 36
0.0
 17
0.0
 27
1.0
 37
0.0
 76
     0
330
21F
331
1F4
  0
MATERIAL
  5
19B4
102
{ACAD_XDICTIONARY
360
19B5
102
}
102
{ACAD_REACTORS
330
19AB
102
}
330
19AB
100
AcDbMaterial
  1
ByBlock
 72
     0
 43
0.0208333333333333
 43
0.0
 43
0.0
 43
0.0
 43
0.0
 43
0.0208333333333333
 43
0.0
 43
0.0
 43
0.0
 43
0.0
 43
1.0
 43
0.0
 43
0.0
 43
0.0
 43
0.0
 43
1.0
 77
     0
 47
0.0208333333333333
 47
0.0
 47
0.0
 47
0.0
 47
0.0
 47
0.0208333333333333
 47
0.0
 47
0.0
 47
0.0
 47
0.0
 47
1.0
 47
0.0
 47
0.0
 47
0.0
 47
0.0
 47
1.0
171
     0
 49
0.0208333333333333
 49
0.0
 49
0.0
 49
0.0
 49
0.0
 49
0.0208333333333333
 49
0.0
 49
0.0
 49
0.0
 49
0.0
 49
1.0
 49
0.0
 49
0.0
 49
0.0
 49
0.0
 49
1.0
175
     0
142
0.0208333333333333
142
0.0
142
0.0
142
0.0
142
0.0
142
0.0208333333333333
142
0.0
142
0.0
142
0.0
142
0.0
142
1.0
142
0.0
142
0.0
142
0.0
142
0.0
142
1.0
179
     0
144
0.0208333333333333
144
0.0
144
0.0
144
0.0
144
0.0
144
0.0208333333333333
144
0.0
144
0.0
144
0.0
144
0.0
144
1.0
144
0.0
144
0.0
144
0.0
144
0.0
144
1.0
147
0.0208333333333333
147
0.0
147
0.0
147
0.0
147
0.0
147
0.0208333333333333
147
0.0
147
0.0
147
0.0
147
0.0
147
1.0
147
0.0
147
0.0
147
0.0
147
0.0
147
1.0
  0
MATERIAL
  5
19AC
102
{ACAD_XDICTIONARY
360
19AD
102
}
102
{ACAD_REACTORS
330
19AB
102
}
330
19AB
100
AcDbMaterial
  1
ByLayer
 72
     0
 43
0.0208333333333333
 43
0.0
 43
0.0
 43
0.0
 43
0.0
 43
0.0208333333333333
 43
0.0
 43
0.0
 43
0.0
 43
0.0
 43
1.0
 43
0.0
 43
0.0
 43
0.0
 43
0.0
 43
1.0
 77
     0
 47
0.0208333333333333
 47
0.0
 47
0.0
 47
0.0
 47
0.0
 47
0.0208333333333333
 47
0.0
 47
0.0
 47
0.0
 47
0.0
 47
1.0
 47
0.0
 47
0.0
 47
0.0
 47
0.0
 47
1.0
171
     0
 49
0.0208333333333333
 49
0.0
 49
0.0
 49
0.0
 49
0.0
 49
0.0208333333333333
 49
0.0
 49
0.0
 49
0.0
 49
0.0
 49
1.0
 49
0.0
 49
0.0
 49
0.0
 49
0.0
 49
1.0
175
     0
142
0.0208333333333333
142
0.0
142
0.0
142
0.0
142
0.0
142
0.0208333333333333
142
0.0
142
0.0
142
0.0
142
0.0
142
1.0
142
0.0
142
0.0
142
0.0
142
0.0
142
1.0
179
     0
144
0.0208333333333333
144
0.0
144
0.0
144
0.0
144
0.0
144
0.0208333333333333
144
0.0
144
0.0
144
0.0
144
0.0
144
1.0
144
0.0
144
0.0
144
0.0
144
0.0
144
1.0
147
0.0208333333333333
147
0.0
147
0.0
147
0.0
147
0.0
147
0.0208333333333333
147
0.0
147
0.0
147
0.0
147
0.0
147
1.0
147
0.0
147
0.0
147
0.0
147
0.0
147
1.0
  0
MATERIAL
  5
19BC
102
{ACAD_XDICTIONARY
360
19BD
102
}
102
{ACAD_REACTORS
330
19AB
102
}
330
19AB
100
AcDbMaterial
  1
Global
 72
     0
 43
0.0208333333333333
 43
0.0
 43
0.0
 43
0.0
 43
0.0
 43
0.0208333333333333
 43
0.0
 43
0.0
 43
0.0
 43
0.0
 43
1.0
 43
0.0
 43
0.0
 43
0.0
 43
0.0
 43
1.0
 77
     0
 47
0.0208333333333333
 47
0.0
 47
0.0
 47
0.0
 47
0.0
 47
0.0208333333333333
 47
0.0
 47
0.0
 47
0.0
 47
0.0
 47
1.0
 47
0.0
 47
0.0
 47
0.0
 47
0.0
 47
1.0
171
     0
 49
0.0208333333333333
 49
0.0
 49
0.0
 49
0.0
 49
0.0
 49
0.0208333333333333
 49
0.0
 49
0.0
 49
0.0
 49
0.0
 49
1.0
 49
0.0
 49
0.0
 49
0.0
 49
0.0
 49
1.0
175
     0
142
0.0208333333333333
142
0.0
142
0.0
142
0.0
142
0.0
142
0.0208333333333333
142
0.0
142
0.0
142
0.0
142
0.0
142
1.0
142
0.0
142
0.0
142
0.0
142
0.0
142
1.0
179
     0
144
0.0208333333333333
144
0.0
144
0.0
144
0.0
144
0.0
144
0.0208333333333333
144
0.0
144
0.0
144
0.0
144
0.0
144
1.0
144
0.0
144
0.0
144
0.0
144
0.0
144
1.0
147
0.0208333333333333
147
0.0
147
0.0
147
0.0
147
0.0
147
0.0208333333333333
147
0.0
147
0.0
147
0.0
147
0.0
147
1.0
147
0.0
147
0.0
147
0.0
147
0.0
147
1.0
  0
MLEADERSTYLE
  5
19FE
102
{ACAD_REACTORS
330
19FD
102
}
330
19FD
100
AcDbMLeaderStyle
170
     2
171
     1
172
     0
 90
        2
 40
0.0
 41
0.0
173
     1
 91
-1056964608
340
14
 92
       -2
290
     1
 42
0.09
291
     1
 43
0.36
  3
Standard
 44
0.18
300

342
11
174
     1
178
     6
175
     1
176
     0
 93
-1056964608
 45
0.18
292
     0
297
     0
 46
0.18
 94
-1056964608
 47
1.0
 49
1.0
140
1.0
293
     1
141
0.0
294
     1
177
     0
142
1.0
295
     0
296
     0
143
0.125
1001
ACAD_MLEADERVER
1070
     2
  0
MLINESTYLE
  5
18
102
{ACAD_REACTORS
330
17
102
}
330
17
100
AcDbMlineStyle
  2
STANDARD
 70
     0
  3

 62
   256
 51
90.0
 52
90.0
 71
     2
 49
0.5
 62
   256
  6
BYLAYER
 49
-0.5
 62
   256
  6
BYLAYER
  0
ACDBPLACEHOLDER
  5
F
102
{ACAD_REACTORS
330
E
102
}
330
E
  0
SCALE
  5
19DC
102
{ACAD_REACTORS
330
19DB
102
}
330
19DB
100
AcDbScale
 70
     0
300
1:1
140
1.0
141
1.0
290
     1
  0
SCALE
  5
19DD
102
{ACAD_REACTORS
330
19DB
102
}
330
19DB
100
AcDbScale
 70
     0
300
1:2
140
1.0
141
2.0
290
     0
  0
SCALE
  5
19DE
102
{ACAD_REACTORS
330
19DB
102
}
330
19DB
100
AcDbScale
 70
     0
300
1:4
140
1.0
141
4.0
290
     0
  0
SCALE
  5
19DF
102
{ACAD_REACTORS
330
19DB
102
}
330
19DB
100
AcDbScale
 70
     0
300
1:5
140
1.0
141
5.0
290
     0
  0
SCALE
  5
19E0
102
{ACAD_REACTORS
330
19DB
102
}
330
19DB
100
AcDbScale
 70
     0
300
1:8
140
1.0
141
8.0
290
     0
  0
SCALE
  5
19E1
102
{ACAD_REACTORS
330
19DB
102
}
330
19DB
100
AcDbScale
 70
     0
300
1:10
140
1.0
141
10.0
290
     0
  0
SCALE
  5
19E2
102
{ACAD_REACTORS
330
19DB
102
}
330
19DB
100
AcDbScale
 70
     0
300
1:16
140
1.0
141
16.0
290
     0
  0
SCALE
  5
19E3
102
{ACAD_REACTORS
330
19DB
102
}
330
19DB
100
AcDbScale
 70
     0
300
1:20
140
1.0
141
20.0
290
     0
  0
SCALE
  5
19E4
102
{ACAD_REACTORS
330
19DB
102
}
330
19DB
100
AcDbScale
 70
     0
300
1:30
140
1.0
141
30.0
290
     0
  0
SCALE
  5
19E5
102
{ACAD_REACTORS
330
19DB
102
}
330
19DB
100
AcDbScale
 70
     0
300
1:40
140
1.0
141
40.0
290
     0
  0
SCALE
  5
19E6
102
{ACAD_REACTORS
330
19DB
102
}
330
19DB
100
AcDbScale
 70
     0
300
1:50
140
1.0
141
50.0
290
     0
  0
SCALE
  5
19E7
102
{ACAD_REACTORS
330
19DB
102
}
330
19DB
100
AcDbScale
 70
     0
300
1:100
140
1.0
141
100.0
290
     0
  0
SCALE
  5
19E8
102
{ACAD_REACTORS
330
19DB
102
}
330
19DB
100
AcDbScale
 70
     0
300
2:1
140
2.0
141
1.0
290
     0
  0
SCALE
  5
19E9
102
{ACAD_REACTORS
330
19DB
102
}
330
19DB
100
AcDbScale
 70
     0
300
4:1
140
4.0
141
1.0
290
     0
  0
SCALE
  5
19EA
102
{ACAD_REACTORS
330
19DB
102
}
330
19DB
100
AcDbScale
 70
     0
300
8:1
140
8.0
141
1.0
290
     0
  0
SCALE
  5
19EB
102
{ACAD_REACTORS
330
19DB
102
}
330
19DB
100
AcDbScale
 70
     0
300
10:1
140
10.0
141
1.0
290
     0
  0
SCALE
  5
19EC
102
{ACAD_REACTORS
330
19DB
102
}
330
19DB
100
AcDbScale
 70
     0
300
100:1
140
100.0
141
1.0
290
     0
  0
SCALE
  5
19ED
102
{ACAD_REACTORS
330
19DB
102
}
330
19DB
100
AcDbScale
 70
     0
300
1/128" = 1'-0"
140
0.0078125
141
12.0
290
     0
  0
SCALE
  5
19EE
102
{ACAD_REACTORS
330
19DB
102
}
330
19DB
100
AcDbScale
 70
     0
300
1/64" = 1'-0"
140
0.015625
141
12.0
290
     0
  0
SCALE
  5
19EF
102
{ACAD_REACTORS
330
19DB
102
}
330
19DB
100
AcDbScale
 70
     0
300
1/32" = 1'-0"
140
0.03125
141
12.0
290
     0
  0
SCALE
  5
19F0
102
{ACAD_REACTORS
330
19DB
102
}
330
19DB
100
AcDbScale
 70
     0
300
1/16" = 1'-0"
140
0.0625
141
12.0
290
     0
  0
SCALE
  5
19F1
102
{ACAD_REACTORS
330
19DB
102
}
330
19DB
100
AcDbScale
 70
     0
300
3/32" = 1'-0"
140
0.09375
141
12.0
290
     0
  0
SCALE
  5
19F2
102
{ACAD_REACTORS
330
19DB
102
}
330
19DB
100
AcDbScale
 70
     0
300
1/8" = 1'-0"
140
0.125
141
12.0
290
     0
  0
SCALE
  5
19F3
102
{ACAD_REACTORS
330
19DB
102
}
330
19DB
100
AcDbScale
 70
     0
300
3/16" = 1'-0"
140
0.1875
141
12.0
290
     0
  0
SCALE
  5
19F4
102
{ACAD_REACTORS
330
19DB
102
}
330
19DB
100
AcDbScale
 70
     0
300
1/4" = 1'-0"
140
0.25
141
12.0
290
     0
  0
SCALE
  5
19F5
102
{ACAD_REACTORS
330
19DB
102
}
330
19DB
100
AcDbScale
 70
     0
300
3/8" = 1'-0"
140
0.375
141
12.0
290
     0
  0
SCALE
  5
19F6
102
{ACAD_REACTORS
330
19DB
102
}
330
19DB
100
AcDbScale
 70
     0
300
1/2" = 1'-0"
140
0.5
141
12.0
290
     0
  0
SCALE
  5
19F7
102
{ACAD_REACTORS
330
19DB
102
}
330
19DB
100
AcDbScale
 70
     0
300
3/4" = 1'-0"
140
0.75
141
12.0
290
     0
  0
SCALE
  5
19F8
102
{ACAD_REACTORS
330
19DB
102
}
330
19DB
100
AcDbScale
 70
     0
300
1" = 1'-0"
140
1.0
141
12.0
290
     0
  0
SCALE
  5
19F9
102
{ACAD_REACTORS
330
19DB
102
}
330
19DB
100
AcDbScale
 70
     0
300
1-1/2" = 1'-0"
140
1.5
141
12.0
290
     0
  0
SCALE
  5
19FA
102
{ACAD_REACTORS
330
19DB
102
}
330
19DB
100
AcDbScale
 70
     0
300
3" = 1'-0"
140
3.0
141
12.0
290
     0
  0
SCALE
  5
19FB
102
{ACAD_REACTORS
330
19DB
102
}
330
19DB
100
AcDbScale
 70
     0
300
6" = 1'-0"
140
6.0
141
12.0
290
     0
  0
SCALE
  5
19FC
102
{ACAD_REACTORS
330
19DB
102
}
330
19DB
100
AcDbScale
 70
     0
300
1'-0" = 1'-0"
140
12.0
141
12.0
290
     0
  0
TABLESTYLE
  5
19DA
102
{ACAD_XDICTIONARY
360
19FF
102
}
102
{ACAD_REACTORS
330
19D9
102
}
330
19D9
100
AcDbTableStyle
  3
Standard
 70
     0
 71
     0
 40
0.06
 41
0.06
280
     0
281
     0
  7
STANDARD
140
0.18
170
     2
 62
     0
 63
     7
283
     0
 90
      512
 91
        0
  1

274
    -2
284
     1
 64
     0
275
    -2
285
     1
 65
     0
276
    -2
286
     1
 66
     0
277
    -2
287
     1
 67
     0
278
    -2
288
     1
 68
     0
279
    -2
289
     1
 69
     0
  7
STANDARD
140
0.25
170
     5
 62
     0
 63
     7
283
     0
 90
      512
 91
        0
  1

274
    -2
284
     1
 64
     0
275
    -2
285
     1
 65
     0
276
    -2
286
     1
 66
     0
277
    -2
287
     1
 67
     0
278
    -2
288
     1
 68
     0
279
    -2
289
     1
 69
     0
  7
STANDARD
140
0.18
170
     5
 62
     0
 63
     7
283
     0
 90
      512
 91
        0
  1

274
    -2
284
     1
 64
     0
275
    -2
285
     1
 65
     0
276
    -2
286
     1
 66
     0
277
    -2
287
     1
 67
     0
278
    -2
288
     1
 68
     0
279
    -2
289
     1
 69
     0
  0
VISUALSTYLE
  5
19CA
102
{ACAD_XDICTIONARY
360
1A15
102
}
102
{ACAD_REACTORS
330
19C4
102
}
330
19C4
100
AcDbVisualStyle
  2
2dWireframe
 70
     4
 71
     0
 72
     2
 73
     0
 90
        0
 40
-0.6
 41
-30.0
 62
     5
 63
     7
 74
     1
 91
        4
 64
     7
 65
   257
 75
     1
175
     1
 42
1.0
 92
        0
 66
   257
 43
1.0
 76
     1
 77
     6
 78
     2
 67
     7
 79
     5
170
     0
171
     0
290
     0
174
     0
 93
        1
 44
0.0
173
     0
291
     0
 45
0.0
  0
VISUALSTYLE
  5
19CC
102
{ACAD_XDICTIONARY
360
1A19
102
}
102
{ACAD_REACTORS
330
19C4
102
}
330
19C4
100
AcDbVisualStyle
  2
3D Hidden
 70
     6
 71
     1
 72
     2
 73
     2
 90
        0
 40
-0.6
 41
-30.0
 62
     5
 63
     7
 74
     2
 91
        2
 64
     7
 65
   257
 75
     2
175
     1
 42
179.0
 92
        0
 66
   257
 43
1.0
 76
     1
 77
     6
 78
     2
 67
     7
 79
     3
170
     0
171
     0
290
     0
174
     0
 93
        1
 44
0.0
173
     0
291
     0
 45
0.0
  0
VISUALSTYLE
  5
19CB
102
{ACAD_XDICTIONARY
360
1A17
102
}
102
{ACAD_REACTORS
330
19C4
102
}
330
19C4
100
AcDbVisualStyle
  2
3dWireframe
 70
     5
 71
     0
 72
     2
 73
     0
 90
        0
 40
-0.6
 41
-30.0
 62
     5
 63
     7
 74
     1
 91
        4
 64
     7
 65
   257
 75
     1
175
     1
 42
1.0
 92
        0
 66
   257
 43
1.0
 76
     1
 77
     6
 78
     2
 67
     7
 79
     5
170
     0
171
     0
290
     0
174
     0
 93
        1
 44
0.0
173
     0
291
     0
 45
0.0
  0
VISUALSTYLE
  5
19C9
102
{ACAD_XDICTIONARY
360
1A13
102
}
102
{ACAD_REACTORS
330
19C4
102
}
330
19C4
100
AcDbVisualStyle
  2
Basic
 70
     7
 71
     1
 72
     0
 73
     1
 90
        0
 40
-0.6
 41
-30.0
 62
     5
 63
     7
 74
     0
 91
        4
 64
     7
 65
   257
 75
     1
175
     1
 42
1.0
 92
        8
 66
     7
 43
1.0
 76
     1
 77
     6
 78
     2
 67
     7
 79
     5
170
     0
171
     0
290
     0
174
     0
 93
        1
 44
0.0
173
     0
291
     1
 45
0.0
  0
VISUALSTYLE
  5
19D0
102
{ACAD_XDICTIONARY
360
1A21
102
}
102
{ACAD_REACTORS
330
19C4
102
}
330
19C4
100
AcDbVisualStyle
  2
Brighten
 70
    12
 71
     2
 72
     2
 73
     0
 90
        0
 40
-0.6
 41
-30.0
 62
     5
 63
     7
 74
     1
 91
        4
 64
     7
 65
   257
 75
     1
175
     1
 42
1.0
 92
        8
 66
     7
 43
1.0
 76
     1
 77
     6
 78
     2
 67
     7
 79
     5
170
     0
171
     0
290
     0
174
     0
 93
        1
 44
50.0
173
     0
291
     1
 45
0.0
  0
VISUALSTYLE
  5
19D4
102
{ACAD_XDICTIONARY
360
1A29
102
}
102
{ACAD_REACTORS
330
19C4
102
}
330
19C4
100
AcDbVisualStyle
  2
ColorChange
 70
    16
 71
     2
 72
     2
 73
     3
 90
        0
 40
-0.6
 41
-30.0
 62
     5
 63
     8
 74
     1
 91
        4
 64
     7
 65
   257
 75
     1
175
     1
 42
1.0
 92
        8
 66
     8
 43
1.0
 76
     1
 77
     6
 78
     2
 67
     7
 79
     5
170
     0
171
     0
290
     0
174
     0
 93
        1
 44
0.0
173
     0
291
     1
 45
0.0
  0
VISUALSTYLE
  5
19CD
102
{ACAD_XDICTIONARY
360
1A1B
102
}
102
{ACAD_REACTORS
330
19C4
102
}
330
19C4
100
AcDbVisualStyle
  2
Conceptual
 70
     9
 71
     3
 72
     2
 73
     0
 90
        0
 40
-0.6
 41
-30.0
 62
     5
 63
     7
 74
     2
 91
        2
 64
     7
 65
   257
 75
     1
175
     1
 42
179.0
 92
        8
 66
     7
 43
1.0
 76
     1
 77
     6
 78
     2
 67
     7
 79
     3
170
     0
171
     0
290
     0
174
     0
 93
        1
 44
0.0
173
     0
291
     0
 45
0.0
  0
VISUALSTYLE
  5
19CF
102
{ACAD_XDICTIONARY
360
1A1F
102
}
102
{ACAD_REACTORS
330
19C4
102
}
330
19C4
100
AcDbVisualStyle
  2
Dim
 70
    11
 71
     2
 72
     2
 73
     0
 90
        0
 40
-0.6
 41
-30.0
 62
     5
 63
     7
 74
     1
 91
        4
 64
     7
 65
   257
 75
     1
175
     1
 42
1.0
 92
        8
 66
     7
 43
1.0
 76
     1
 77
     6
 78
     2
 67
     7
 79
     5
170
     0
171
     0
290
     0
174
     0
 93
        1
 44
-50.0
173
     0
291
     1
 45
0.0
  0
VISUALSTYLE
  5
19D7
102
{ACAD_XDICTIONARY
360
1A2F
102
}
102
{ACAD_REACTORS
330
19C4
102
}
330
19C4
100
AcDbVisualStyle
  2
EdgeColorOff
 70
    22
 71
     2
 72
     2
 73
     0
 90
        0
 40
-0.6
 41
-30.0
 62
     5
 63
     7
 74
     1
 91
        4
 64
     7
 65
   257
 75
     1
175
     1
 42
1.0
 92
        8
 66
     7
 43
1.0
 76
     1
 77
     6
 78
     2
 67
     7
 79
     5
170
     0
171
     0
290
     0
174
     0
 93
        1
 44
0.0
173
     0
291
     1
 45
0.0
  0
VISUALSTYLE
  5
19D3
102
{ACAD_XDICTIONARY
360
1A27
102
}
102
{ACAD_REACTORS
330
19C4
102
}
330
19C4
100
AcDbVisualStyle
  2
Facepattern
 70
    15
 71
     2
 72
     2
 73
     0
 90
        0
 40
-0.6
 41
-30.0
 62
     5
 63
     7
 74
     1
 91
        4
 64
     7
 65
   257
 75
     1
175
     1
 42
1.0
 92
        8
 66
     7
 43
1.0
 76
     1
 77
     6
 78
     2
 67
     7
 79
     5
170
     0
171
     0
290
     0
174
     0
 93
        1
 44
0.0
173
     0
291
     1
 45
0.0
  0
VISUALSTYLE
  5
19C5
102
{ACAD_XDICTIONARY
360
1A0B
102
}
102
{ACAD_REACTORS
330
19C4
102
}
330
19C4
100
AcDbVisualStyle
  2
Flat
 70
     0
 71
     2
 72
     1
 73
     1
 90
        2
 40
-0.6
 41
30.0
 62
     5
 63
     7
 74
     0
 91
        4
 64
     7
 65
   257
 75
     1
175
     1
 42
1.0
 92
        8
 66
     7
 43
1.0
 76
     1
 77
     6
 78
     2
 67
     7
 79
     5
170
     0
171
     0
290
     0
174
     0
 93
       13
 44
0.0
173
     0
291
     1
 45
0.0
  0
VISUALSTYLE
  5
19C6
102
{ACAD_XDICTIONARY
360
1A0D
102
}
102
{ACAD_REACTORS
330
19C4
102
}
330
19C4
100
AcDbVisualStyle
  2
FlatWithEdges
 70
     1
 71
     2
 72
     1
 73
     1
 90
        2
 40
-0.6
 41
30.0
 62
     5
 63
     7
 74
     1
 91
        4
 64
     7
 65
   257
 75
     1
175
     1
 42
1.0
 92
        0
 66
   257
 43
1.0
 76
     1
 77
     6
 78
     2
 67
     7
 79
     5
170
     0
171
     0
290
     0
174
     0
 93
       13
 44
0.0
173
     0
291
     1
 45
0.0
  0
VISUALSTYLE
  5
19C7
102
{ACAD_XDICTIONARY
360
1A0F
102
}
102
{ACAD_REACTORS
330
19C4
102
}
330
19C4
100
AcDbVisualStyle
  2
Gouraud
 70
     2
 71
     2
 72
     2
 73
     1
 90
        2
 40
-0.6
 41
30.0
 62
     5
 63
     7
 74
     0
 91
        4
 64
     7
 65
   257
 75
     1
175
     1
 42
1.0
 92
        0
 66
     7
 43
1.0
 76
     1
 77
     6
 78
     2
 67
     7
 79
     5
170
     0
171
     0
290
     0
174
     0
 93
       13
 44
0.0
173
     0
291
     1
 45
0.0
  0
VISUALSTYLE
  5
19C8
102
{ACAD_XDICTIONARY
360
1A11
102
}
102
{ACAD_REACTORS
330
19C4
102
}
330
19C4
100
AcDbVisualStyle
  2
GouraudWithEdges
 70
     3
 71
     2
 72
     2
 73
     1
 90
        2
 40
-0.6
 41
30.0
 62
     5
 63
     7
 74
     1
 91
        4
 64
     7
 65
   257
 75
     1
175
     1
 42
1.0
 92
        0
 66
   257
 43
1.0
 76
     1
 77
     6
 78
     2
 67
     7
 79
     5
170
     0
171
     0
290
     0
174
     0
 93
       13
 44
0.0
173
     0
291
     1
 45
0.0
  0
VISUALSTYLE
  5
19D5
102
{ACAD_XDICTIONARY
360
1A2B
102
}
102
{ACAD_REACTORS
330
19C4
102
}
330
19C4
100
AcDbVisualStyle
  2
JitterOff
 70
    20
 71
     2
 72
     2
 73
     0
 90
        0
 40
-0.6
 41
-30.0
 62
     5
 63
     7
 74
     1
 91
        4
 64
     7
 65
   257
 75
     1
175
     1
 42
1.0
 92
       10
 66
     7
 43
1.0
 76
     1
 77
     6
 78
     2
 67
     7
 79
     5
170
     0
171
     0
290
     0
174
     0
 93
        1
 44
0.0
173
     0
291
     1
 45
0.0
  0
VISUALSTYLE
  5
19D2
102
{ACAD_XDICTIONARY
360
1A25
102
}
102
{ACAD_REACTORS
330
19C4
102
}
330
19C4
100
AcDbVisualStyle
  2
Linepattern
 70
    14
 71
     2
 72
     2
 73
     0
 90
        0
 40
-0.6
 41
-30.0
 62
     5
 63
     7
 74
     1
 91
        4
 64
     7
 65
   257
 75
     7
175
     7
 42
1.0
 92
        8
 66
     7
 43
1.0
 76
     1
 77
     6
 78
     2
 67
     7
 79
     5
170
     0
171
     0
290
     0
174
     0
 93
        1
 44
0.0
173
     0
291
     1
 45
0.0
  0
VISUALSTYLE
  5
19D6
102
{ACAD_XDICTIONARY
360
1A2D
102
}
102
{ACAD_REACTORS
330
19C4
102
}
330
19C4
100
AcDbVisualStyle
  2
OverhangOff
 70
    21
 71
     2
 72
     2
 73
     0
 90
        0
 40
-0.6
 41
-30.0
 62
     5
 63
     7
 74
     1
 91
        4
 64
     7
 65
   257
 75
     1
175
     1
 42
1.0
 92
        9
 66
     7
 43
1.0
 76
     1
 77
     6
 78
     2
 67
     7
 79
     5
170
     0
171
     0
290
     0
174
     0
 93
        1
 44
0.0
173
     0
291
     1
 45
0.0
  0
VISUALSTYLE
  5
19CE
102
{ACAD_XDICTIONARY
360
1A1D
102
}
102
{ACAD_REACTORS
330
19C4
102
}
330
19C4
100
AcDbVisualStyle
  2
Realistic
 70
     8
 71
     2
 72
     2
 73
     0
 90
        0
 40
-0.6
 41
-30.0
 62
     5
 63
     7
 74
     1
 91
        0
 64
     7
 65
   257
 75
     1
175
     1
 42
1.0
 92
        8
 66
     8
 43
1.0
 76
     1
 77
     6
 78
     2
 67
     7
 79
     5
170
     0
171
     0
290
     0
174
     0
 93
       13
 44
0.0
173
     0
291
     0
 45
0.0
  0
VISUALSTYLE
  5
19D1
102
{ACAD_XDICTIONARY
360
1A23
102
}
102
{ACAD_REACTORS
330
19C4
102
}
330
19C4
100
AcDbVisualStyle
  2
Thicken
 70
    13
 71
     2
 72
     2
 73
     0
 90
        0
 40
-0.6
 41
-30.0
 62
     5
 63
     7
 74
     1
 91
        4
 64
     7
 65
   257
 75
     1
175
     1
 42
1.0
 92
       12
 66
     7
 43
1.0
 76
     1
 77
     6
 78
     2
 67
     7
 79
     5
170
     0
171
     0
290
     0
174
     0
 93
        1
 44
0.0
173
     0
291
     1
 45
0.0
  0
DICTIONARYVAR
  5
1A36
102
{ACAD_REACTORS
330
1A33
102
}
330
1A33
100
DictionaryVariables
280
     0
  1
1:1
  0
DICTIONARYVAR
  5
1A35
102
{ACAD_REACTORS
330
1A33
102
}
330
1A33
100
DictionaryVariables
280
     0
  1
STANDARD
  0
DICTIONARYVAR
  5
1A34
102
{ACAD_REACTORS
330
1A33
102
}
330
1A33
100
DictionaryVariables
280
     0
  1
STANDARD
  0
DICTIONARYVAR
  5
1A39
102
{ACAD_REACTORS
330
1A33
102
}
330
1A33
100
DictionaryVariables
280
     0
  1
1
  0
DICTIONARYVAR
  5
1A38
102
{ACAD_REACTORS
330
1A33
102
}
330
1A33
100
DictionaryVariables
280
     0
  1
0
  0
DICTIONARYVAR
  5
1A85
102
{ACAD_REACTORS
330
1A33
102
}
330
1A33
100
DictionaryVariables
280
     0
  1
1
  0
DICTIONARYVAR
  5
1A86
102
{ACAD_REACTORS
330
1A33
102
}
330
1A33
100
DictionaryVariables
280
     0
  1
15
  0
DICTIONARYVAR
  5
1A84
102
{ACAD_REACTORS
330
1A33
102
}
330
1A33
100
DictionaryVariables
280
     0
  1
0
  0
DICTIONARYVAR
  5
1A83
102
{ACAD_REACTORS
330
1A33
102
}
330
1A33
100
DictionaryVariables
280
     0
  1
0
  0
DICTIONARYVAR
  5
1A37
102
{ACAD_REACTORS
330
1A33
102
}
330
1A33
100
DictionaryVariables
280
     0
  1
127
  0
DICTIONARYVAR
  5
1A3A
102
{ACAD_REACTORS
330
1A33
102
}
330
1A33
100
DictionaryVariables
280
     0
  1
2
  0
DICTIONARY
  5
19B5
330
19B4
100
AcDbDictionary
280
     1
281
     1
  3
BUMPTILE
360
19B7
  3
DIFFUSETILE
360
19B6
  3
OPACITYTILE
360
19BA
  3
REFLECTIONTILE
360
19B9
  3
REFRACTIONTILE
360
19BB
  3
SPECULARTILE
360
19B8
  0
DICTIONARY
  5
19AD
330
19AC
100
AcDbDictionary
280
     1
281
     1
  3
BUMPTILE
360
19AF
  3
DIFFUSETILE
360
19AE
  3
OPACITYTILE
360
19B2
  3
REFLECTIONTILE
360
19B1
  3
REFRACTIONTILE
360
19B3
  3
SPECULARTILE
360
19B0
  0
DICTIONARY
  5
19BD
330
19BC
100
AcDbDictionary
280
     1
281
     1
  3
BUMPTILE
360
19BF
  3
DIFFUSETILE
360
19BE
  3
OPACITYTILE
360
19C2
  3
REFLECTIONTILE
360
19C1
  3
REFRACTIONTILE
360
19C3
  3
SPECULARTILE
360
19C0
  0
DICTIONARY
  5
19FF
330
19DA
100
AcDbDictionary
280
     1
281
     1
  3
ACAD_ROUNDTRIP_2008_TABLESTYLE_CELLSTYLEMAP
360
1A87
  0
DICTIONARY
  5
1A15
330
19CA
100
AcDbDictionary
280
     1
281
     1
  3
ACAD_XREC_ROUNDTRIP
360
1A16
  0
DICTIONARY
  5
1A19
330
19CC
100
AcDbDictionary
280
     1
281
     1
  3
ACAD_XREC_ROUNDTRIP
360
1A1A
  0
DICTIONARY
  5
1A17
330
19CB
100
AcDbDictionary
280
     1
281
     1
  3
ACAD_XREC_ROUNDTRIP
360
1A18
  0
DICTIONARY
  5
1A13
330
19C9
100
AcDbDictionary
280
     1
281
     1
  3
ACAD_XREC_ROUNDTRIP
360
1A14
  0
DICTIONARY
  5
1A21
330
19D0
100
AcDbDictionary
280
     1
281
     1
  3
ACAD_XREC_ROUNDTRIP
360
1A22
  0
DICTIONARY
  5
1A29
330
19D4
100
AcDbDictionary
280
     1
281
     1
  3
ACAD_XREC_ROUNDTRIP
360
1A2A
  0
DICTIONARY
  5
1A1B
330
19CD
100
AcDbDictionary
280
     1
281
     1
  3
ACAD_XREC_ROUNDTRIP
360
1A1C
  0
DICTIONARY
  5
1A1F
330
19CF
100
AcDbDictionary
280
     1
281
     1
  3
ACAD_XREC_ROUNDTRIP
360
1A20
  0
DICTIONARY
  5
1A2F
330
19D7
100
AcDbDictionary
280
     1
281
     1
  3
ACAD_XREC_ROUNDTRIP
360
1A30
  0
DICTIONARY
  5
1A27
330
19D3
100
AcDbDictionary
280
     1
281
     1
  3
ACAD_XREC_ROUNDTRIP
360
1A28
  0
DICTIONARY
  5
1A0B
330
19C5
100
AcDbDictionary
280
     1
281
     1
  3
ACAD_XREC_ROUNDTRIP
360
1A0C
  0
DICTIONARY
  5
1A0D
330
19C6
100
AcDbDictionary
280
     1
281
     1
  3
ACAD_XREC_ROUNDTRIP
360
1A0E
  0
DICTIONARY
  5
1A0F
330
19C7
100
AcDbDictionary
280
     1
281
     1
  3
ACAD_XREC_ROUNDTRIP
360
1A10
  0
DICTIONARY
  5
1A11
330
19C8
100
AcDbDictionary
280
     1
281
     1
  3
ACAD_XREC_ROUNDTRIP
360
1A12
  0
DICTIONARY
  5
1A2B
330
19D5
100
AcDbDictionary
280
     1
281
     1
  3
ACAD_XREC_ROUNDTRIP
360
1A2C
  0
DICTIONARY
  5
1A25
330
19D2
100
AcDbDictionary
280
     1
281
     1
  3
ACAD_XREC_ROUNDTRIP
360
1A26
  0
DICTIONARY
  5
1A2D
330
19D6
100
AcDbDictionary
280
     1
281
     1
  3
ACAD_XREC_ROUNDTRIP
360
1A2E
  0
DICTIONARY
  5
1A1D
330
19CE
100
AcDbDictionary
280
     1
281
     1
  3
ACAD_XREC_ROUNDTRIP
360
1A1E
  0
DICTIONARY
  5
1A23
330
19D1
100
AcDbDictionary
280
     1
281
     1
  3
ACAD_XREC_ROUNDTRIP
360
1A24
  0
XRECORD
  5
19B7
102
{ACAD_REACTORS
330
19B5
102
}
330
19B5
100
AcDbXrecord
280
     1
270
     1
271
     1
  0
XRECORD
  5
19B6
102
{ACAD_REACTORS
330
19B5
102
}
330
19B5
100
AcDbXrecord
280
     1
270
     1
271
     1
  0
XRECORD
  5
19BA
102
{ACAD_REACTORS
330
19B5
102
}
330
19B5
100
AcDbXrecord
280
     1
270
     1
271
     1
  0
XRECORD
  5
19B9
102
{ACAD_REACTORS
330
19B5
102
}
330
19B5
100
AcDbXrecord
280
     1
270
     1
271
     1
  0
XRECORD
  5
19BB
102
{ACAD_REACTORS
330
19B5
102
}
330
19B5
100
AcDbXrecord
280
     1
270
     1
271
     1
  0
XRECORD
  5
19B8
102
{ACAD_REACTORS
330
19B5
102
}
330
19B5
100
AcDbXrecord
280
     1
270
     1
271
     1
  0
XRECORD
  5
19AF
102
{ACAD_REACTORS
330
19AD
102
}
330
19AD
100
AcDbXrecord
280
     1
270
     1
271
     1
  0
XRECORD
  5
19AE
102
{ACAD_REACTORS
330
19AD
102
}
330
19AD
100
AcDbXrecord
280
     1
270
     1
271
     1
  0
XRECORD
  5
19B2
102
{ACAD_REACTORS
330
19AD
102
}
330
19AD
100
AcDbXrecord
280
     1
270
     1
271
     1
  0
XRECORD
  5
19B1
102
{ACAD_REACTORS
330
19AD
102
}
330
19AD
100
AcDbXrecord
280
     1
270
     1
271
     1
  0
XRECORD
  5
19B3
102
{ACAD_REACTORS
330
19AD
102
}
330
19AD
100
AcDbXrecord
280
     1
270
     1
271
     1
  0
XRECORD
  5
19B0
102
{ACAD_REACTORS
330
19AD
102
}
330
19AD
100
AcDbXrecord
280
     1
270
     1
271
     1
  0
XRECORD
  5
19BF
102
{ACAD_REACTORS
330
19BD
102
}
330
19BD
100
AcDbXrecord
280
     1
270
     1
271
     1
  0
XRECORD
  5
19BE
102
{ACAD_REACTORS
330
19BD
102
}
330
19BD
100
AcDbXrecord
280
     1
270
     1
271
     1
  0
XRECORD
  5
19C2
102
{ACAD_REACTORS
330
19BD
102
}
330
19BD
100
AcDbXrecord
280
     1
270
     1
271
     1
  0
XRECORD
  5
19C1
102
{ACAD_REACTORS
330
19BD
102
}
330
19BD
100
AcDbXrecord
280
     1
270
     1
271
     1
  0
XRECORD
  5
19C3
102
{ACAD_REACTORS
330
19BD
102
}
330
19BD
100
AcDbXrecord
280
     1
270
     1
271
     1
  0
XRECORD
  5
19C0
102
{ACAD_REACTORS
330
19BD
102
}
330
19BD
100
AcDbXrecord
280
     1
270
     1
271
     1
  0
CELLSTYLEMAP
  5
1A87
102
{ACAD_REACTORS
330
19FF
102
}
330
19FF
100
AcDbCellStyleMap
 90
        3
300
CELLSTYLE
  1
TABLEFORMAT_BEGIN
 90
        5
170
     1
 91
        0
 92
    32768
 62
   257
 93
        1
300
CONTENTFORMAT
  1
CONTENTFORMAT_BEGIN
 90
        0
 91
        0
 92
      512
 93
        0
300

 40
0.0
140
1.0
 94
        5
 62
     0
340
11
144
0.25
309
CONTENTFORMAT_END
171
     0
 94
        0
309
TABLEFORMAT_END
  1
CELLSTYLE_BEGIN
 90
        1
 91
        1
300
_TITLE
309
CELLSTYLE_END
300
CELLSTYLE
  1
TABLEFORMAT_BEGIN
 90
        5
170
     1
 91
        0
 92
        0
 62
   257
 93
        1
300
CONTENTFORMAT
  1
CONTENTFORMAT_BEGIN
 90
        0
 91
        0
 92
      512
 93
        0
300

 40
0.0
140
1.0
 94
        5
 62
     0
340
11
144
0.18
309
CONTENTFORMAT_END
171
     0
 94
        0
309
TABLEFORMAT_END
  1
CELLSTYLE_BEGIN
 90
        2
 91
        1
300
_HEADER
309
CELLSTYLE_END
300
CELLSTYLE
  1
TABLEFORMAT_BEGIN
 90
        5
170
     1
 91
        0
 92
        0
 62
   257
 93
        1
300
CONTENTFORMAT
  1
CONTENTFORMAT_BEGIN
 90
        0
 91
        0
 92
      512
 93
        0
300

 40
0.0
140
1.0
 94
        2
 62
     0
340
11
144
0.18
309
CONTENTFORMAT_END
171
     0
 94
        0
309
TABLEFORMAT_END
  1
CELLSTYLE_BEGIN
 90
        3
 91
        2
300
_DATA
309
CELLSTYLE_END
  0
XRECORD
  5
1A16
102
{ACAD_REACTORS
330
1A15
102
}
330
1A15
100
AcDbXrecord
280
     1
102
RTVSPropertyOp0
 70
     1
102
RTVSPropertyOp1
 70
     1
102
RTVSPropertyOp2
 70
     1
102
RTVSPropertyOp3
 70
     1
102
RTVSPropertyOp4
 70
     1
102
RTVSPropertyOp5
 70
     1
102
RTVSPropertyOp6
 70
     1
102
RTVSPropertyOp7
 70
     1
102
RTVSPropertyOp8
 70
     1
102
RTVSPropertyOp9
 70
     1
102
RTVSPropertyOp10
 70
     1
102
RTVSPropertyOp11
 70
     1
102
RTVSPropertyOp12
 70
     1
102
RTVSPropertyOp13
 70
     1
102
RTVSPropertyOp14
 70
     1
102
RTVSPropertyOp15
 70
     1
102
RTVSPropertyOp16
 70
     1
102
RTVSPropertyOp17
 70
     1
102
RTVSPropertyOp18
 70
     1
102
RTVSPropertyOp19
 70
     1
102
RTVSPropertyOp20
 70
     1
102
RTVSPropertyOp21
 70
     1
102
RTVSPropertyOp22
 70
     1
102
RTVSPropertyOp23
 70
     1
102
RTVSPropertyOp24
 70
     1
102
RTVSPropertyOp25
 70
     1
102
RTVSPropertyOp26
 70
     1
102
RTVSPropertyOp27
 70
     1
  0
XRECORD
  5
1A1A
102
{ACAD_REACTORS
330
1A19
102
}
330
1A19
100
AcDbXrecord
280
     1
102
RTVSPropertyOp0
 70
     1
102
RTVSPropertyOp1
 70
     1
102
RTVSPropertyOp2
 70
     1
102
RTVSPropertyOp3
 70
     1
102
RTVSPropertyOp4
 70
     1
102
RTVSPropertyOp5
 70
     1
102
RTVSPropertyOp6
 70
     1
102
RTVSPropertyOp7
 70
     1
102
RTVSPropertyOp8
 70
     1
102
RTVSPropertyOp9
 70
     1
102
RTVSPropertyOp10
 70
     1
102
RTVSPropertyOp11
 70
     1
102
RTVSPropertyOp12
 70
     1
102
RTVSPropertyOp13
 70
     1
102
RTVSPropertyOp14
 70
     1
102
RTVSPropertyOp15
 70
     1
102
RTVSPropertyOp16
 70
     1
102
RTVSPropertyOp17
 70
     1
102
RTVSPropertyOp18
 70
     1
102
RTVSPropertyOp19
 70
     1
102
RTVSPropertyOp20
 70
     1
102
RTVSPropertyOp21
 70
     1
102
RTVSPropertyOp22
 70
     1
102
RTVSPropertyOp23
 70
     1
102
RTVSPropertyOp24
 70
     1
102
RTVSPropertyOp25
 70
     1
102
RTVSPropertyOp26
 70
     1
102
RTVSPropertyOp27
 70
     1
  0
XRECORD
  5
1A18
102
{ACAD_REACTORS
330
1A17
102
}
330
1A17
100
AcDbXrecord
280
     1
102
RTVSPropertyOp0
 70
     1
102
RTVSPropertyOp1
 70
     1
102
RTVSPropertyOp2
 70
     1
102
RTVSPropertyOp3
 70
     1
102
RTVSPropertyOp4
 70
     1
102
RTVSPropertyOp5
 70
     1
102
RTVSPropertyOp6
 70
     1
102
RTVSPropertyOp7
 70
     1
102
RTVSPropertyOp8
 70
     1
102
RTVSPropertyOp9
 70
     1
102
RTVSPropertyOp10
 70
     1
102
RTVSPropertyOp11
 70
     1
102
RTVSPropertyOp12
 70
     1
102
RTVSPropertyOp13
 70
     1
102
RTVSPropertyOp14
 70
     1
102
RTVSPropertyOp15
 70
     1
102
RTVSPropertyOp16
 70
     1
102
RTVSPropertyOp17
 70
     1
102
RTVSPropertyOp18
 70
     1
102
RTVSPropertyOp19
 70
     1
102
RTVSPropertyOp20
 70
     1
102
RTVSPropertyOp21
 70
     1
102
RTVSPropertyOp22
 70
     1
102
RTVSPropertyOp23
 70
     1
102
RTVSPropertyOp24
 70
     1
102
RTVSPropertyOp25
 70
     1
102
RTVSPropertyOp26
 70
     1
102
RTVSPropertyOp27
 70
     1
  0
XRECORD
  5
1A14
102
{ACAD_REACTORS
330
1A13
102
}
330
1A13
100
AcDbXrecord
280
     1
102
RTVSPropertyOp0
 70
     1
102
RTVSPropertyOp1
 70
     1
102
RTVSPropertyOp2
 70
     1
102
RTVSPropertyOp3
 70
     1
102
RTVSPropertyOp4
 70
     1
102
RTVSPropertyOp5
 70
     1
102
RTVSPropertyOp6
 70
     1
102
RTVSPropertyOp7
 70
     1
102
RTVSPropertyOp8
 70
     1
102
RTVSPropertyOp9
 70
     1
102
RTVSPropertyOp10
 70
     1
102
RTVSPropertyOp11
 70
     1
102
RTVSPropertyOp12
 70
     1
102
RTVSPropertyOp13
 70
     1
102
RTVSPropertyOp14
 70
     1
102
RTVSPropertyOp15
 70
     1
102
RTVSPropertyOp16
 70
     1
102
RTVSPropertyOp17
 70
     1
102
RTVSPropertyOp18
 70
     1
102
RTVSPropertyOp19
 70
     1
102
RTVSPropertyOp20
 70
     1
102
RTVSPropertyOp21
 70
     1
102
RTVSPropertyOp22
 70
     1
102
RTVSPropertyOp23
 70
     1
102
RTVSPropertyOp24
 70
     1
102
RTVSPropertyOp25
 70
     1
102
RTVSPropertyOp26
 70
     1
102
RTVSPropertyOp27
 70
     1
  0
XRECORD
  5
1A22
102
{ACAD_REACTORS
330
1A21
102
}
330
1A21
100
AcDbXrecord
280
     1
102
RTVSPropertyOp0
 70
     1
102
RTVSPropertyOp1
 70
     1
102
RTVSPropertyOp2
 70
     1
102
RTVSPropertyOp3
 70
     1
102
RTVSPropertyOp4
 70
     1
102
RTVSPropertyOp5
 70
     1
102
RTVSPropertyOp6
 70
     1
102
RTVSPropertyOp7
 70
     1
102
RTVSPropertyOp8
 70
     1
102
RTVSPropertyOp9
 70
     1
102
RTVSPropertyOp10
 70
     1
102
RTVSPropertyOp11
 70
     1
102
RTVSPropertyOp12
 70
     1
102
RTVSPropertyOp13
 70
     1
102
RTVSPropertyOp14
 70
     1
102
RTVSPropertyOp15
 70
     1
102
RTVSPropertyOp16
 70
     1
102
RTVSPropertyOp17
 70
     1
102
RTVSPropertyOp18
 70
     1
102
RTVSPropertyOp19
 70
     1
102
RTVSPropertyOp20
 70
     1
102
RTVSPropertyOp21
 70
     1
102
RTVSPropertyOp22
 70
     1
102
RTVSPropertyOp23
 70
     1
102
RTVSPropertyOp24
 70
     1
102
RTVSPropertyOp25
 70
     1
102
RTVSPropertyOp26
 70
     1
102
RTVSPropertyOp27
 70
     1
  0
XRECORD
  5
1A2A
102
{ACAD_REACTORS
330
1A29
102
}
330
1A29
100
AcDbXrecord
280
     1
102
RTVSPropertyOp0
 70
     1
102
RTVSPropertyOp1
 70
     1
102
RTVSPropertyOp2
 70
     1
102
RTVSPropertyOp3
 70
     1
102
RTVSPropertyOp4
 70
     1
102
RTVSPropertyOp5
 70
     1
102
RTVSPropertyOp6
 70
     1
102
RTVSPropertyOp7
 70
     1
102
RTVSPropertyOp8
 70
     1
102
RTVSPropertyOp9
 70
     1
102
RTVSPropertyOp10
 70
     1
102
RTVSPropertyOp11
 70
     1
102
RTVSPropertyOp12
 70
     1
102
RTVSPropertyOp13
 70
     1
102
RTVSPropertyOp14
 70
     1
102
RTVSPropertyOp15
 70
     1
102
RTVSPropertyOp16
 70
     1
102
RTVSPropertyOp17
 70
     1
102
RTVSPropertyOp18
 70
     1
102
RTVSPropertyOp19
 70
     1
102
RTVSPropertyOp20
 70
     1
102
RTVSPropertyOp21
 70
     1
102
RTVSPropertyOp22
 70
     1
102
RTVSPropertyOp23
 70
     1
102
RTVSPropertyOp24
 70
     1
102
RTVSPropertyOp25
 70
     1
102
RTVSPropertyOp26
 70
     1
102
RTVSPropertyOp27
 70
     1
  0
XRECORD
  5
1A1C
102
{ACAD_REACTORS
330
1A1B
102
}
330
1A1B
100
AcDbXrecord
280
     1
102
RTVSPropertyOp0
 70
     1
102
RTVSPropertyOp1
 70
     1
102
RTVSPropertyOp2
 70
     1
102
RTVSPropertyOp3
 70
     1
102
RTVSPropertyOp4
 70
     1
102
RTVSPropertyOp5
 70
     1
102
RTVSPropertyOp6
 70
     1
102
RTVSPropertyOp7
 70
     1
102
RTVSPropertyOp8
 70
     1
102
RTVSPropertyOp9
 70
     1
102
RTVSPropertyOp10
 70
     1
102
RTVSPropertyOp11
 70
     1
102
RTVSPropertyOp12
 70
     1
102
RTVSPropertyOp13
 70
     1
102
RTVSPropertyOp14
 70
     1
102
RTVSPropertyOp15
 70
     1
102
RTVSPropertyOp16
 70
     1
102
RTVSPropertyOp17
 70
     1
102
RTVSPropertyOp18
 70
     1
102
RTVSPropertyOp19
 70
     1
102
RTVSPropertyOp20
 70
     1
102
RTVSPropertyOp21
 70
     1
102
RTVSPropertyOp22
 70
     1
102
RTVSPropertyOp23
 70
     1
102
RTVSPropertyOp24
 70
     1
102
RTVSPropertyOp25
 70
     1
102
RTVSPropertyOp26
 70
     1
102
RTVSPropertyOp27
 70
     1
  0
XRECORD
  5
1A20
102
{ACAD_REACTORS
330
1A1F
102
}
330
1A1F
100
AcDbXrecord
280
     1
102
RTVSPropertyOp0
 70
     1
102
RTVSPropertyOp1
 70
     1
102
RTVSPropertyOp2
 70
     1
102
RTVSPropertyOp3
 70
     1
102
RTVSPropertyOp4
 70
     1
102
RTVSPropertyOp5
 70
     1
102
RTVSPropertyOp6
 70
     1
102
RTVSPropertyOp7
 70
     1
102
RTVSPropertyOp8
 70
     1
102
RTVSPropertyOp9
 70
     1
102
RTVSPropertyOp10
 70
     1
102
RTVSPropertyOp11
 70
     1
102
RTVSPropertyOp12
 70
     1
102
RTVSPropertyOp13
 70
     1
102
RTVSPropertyOp14
 70
     1
102
RTVSPropertyOp15
 70
     1
102
RTVSPropertyOp16
 70
     1
102
RTVSPropertyOp17
 70
     1
102
RTVSPropertyOp18
 70
     1
102
RTVSPropertyOp19
 70
     1
102
RTVSPropertyOp20
 70
     1
102
RTVSPropertyOp21
 70
     1
102
RTVSPropertyOp22
 70
     1
102
RTVSPropertyOp23
 70
     1
102
RTVSPropertyOp24
 70
     1
102
RTVSPropertyOp25
 70
     1
102
RTVSPropertyOp26
 70
     1
102
RTVSPropertyOp27
 70
     1
  0
XRECORD
  5
1A30
102
{ACAD_REACTORS
330
1A2F
102
}
330
1A2F
100
AcDbXrecord
280
     1
102
RTVSPropertyOp0
 70
     0
102
RTVSPropertyOp1
 70
     0
102
RTVSPropertyOp2
 70
     0
102
RTVSPropertyOp3
 70
     0
102
RTVSPropertyOp4
 70
     0
102
RTVSPropertyOp5
 70
     0
102
RTVSPropertyOp6
 70
     0
102
RTVSPropertyOp7
 70
     0
102
RTVSPropertyOp8
 70
     0
102
RTVSPropertyOp9
 70
     0
102
RTVSPropertyOp10
 70
     0
102
RTVSPropertyOp11
 70
     0
102
RTVSPropertyOp12
 70
     0
102
RTVSPropertyOp13
 70
     0
102
RTVSPropertyOp14
 70
     2
102
RTVSPropertyOp15
 70
     0
102
RTVSPropertyOp16
 70
     0
102
RTVSPropertyOp17
 70
     0
102
RTVSPropertyOp18
 70
     0
102
RTVSPropertyOp19
 70
     0
102
RTVSPropertyOp20
 70
     0
102
RTVSPropertyOp21
 70
     0
102
RTVSPropertyOp22
 70
     0
102
RTVSPropertyOp23
 70
     0
102
RTVSPropertyOp24
 70
     0
102
RTVSPropertyOp25
 70
     0
102
RTVSPropertyOp26
 70
     0
102
RTVSPropertyOp27
 70
     0
  0
XRECORD
  5
1A28
102
{ACAD_REACTORS
330
1A27
102
}
330
1A27
100
AcDbXrecord
280
     1
102
RTVSPropertyOp0
 70
     1
102
RTVSPropertyOp1
 70
     1
102
RTVSPropertyOp2
 70
     1
102
RTVSPropertyOp3
 70
     1
102
RTVSPropertyOp4
 70
     1
102
RTVSPropertyOp5
 70
     1
102
RTVSPropertyOp6
 70
     1
102
RTVSPropertyOp7
 70
     1
102
RTVSPropertyOp8
 70
     1
102
RTVSPropertyOp9
 70
     1
102
RTVSPropertyOp10
 70
     1
102
RTVSPropertyOp11
 70
     1
102
RTVSPropertyOp12
 70
     1
102
RTVSPropertyOp13
 70
     1
102
RTVSPropertyOp14
 70
     1
102
RTVSPropertyOp15
 70
     1
102
RTVSPropertyOp16
 70
     1
102
RTVSPropertyOp17
 70
     1
102
RTVSPropertyOp18
 70
     1
102
RTVSPropertyOp19
 70
     1
102
RTVSPropertyOp20
 70
     1
102
RTVSPropertyOp21
 70
     1
102
RTVSPropertyOp22
 70
     1
102
RTVSPropertyOp23
 70
     1
102
RTVSPropertyOp24
 70
     1
102
RTVSPropertyOp25
 70
     1
102
RTVSPropertyOp26
 70
     1
102
RTVSPropertyOp27
 70
     1
  0
XRECORD
  5
1A0C
102
{ACAD_REACTORS
330
1A0B
102
}
330
1A0B
100
AcDbXrecord
280
     1
102
RTVSPropertyOp0
 70
     1
102
RTVSPropertyOp1
 70
     1
102
RTVSPropertyOp2
 70
     1
102
RTVSPropertyOp3
 70
     1
102
RTVSPropertyOp4
 70
     1
102
RTVSPropertyOp5
 70
     1
102
RTVSPropertyOp6
 70
     1
102
RTVSPropertyOp7
 70
     1
102
RTVSPropertyOp8
 70
     1
102
RTVSPropertyOp9
 70
     1
102
RTVSPropertyOp10
 70
     1
102
RTVSPropertyOp11
 70
     1
102
RTVSPropertyOp12
 70
     1
102
RTVSPropertyOp13
 70
     1
102
RTVSPropertyOp14
 70
     1
102
RTVSPropertyOp15
 70
     1
102
RTVSPropertyOp16
 70
     1
102
RTVSPropertyOp17
 70
     1
102
RTVSPropertyOp18
 70
     1
102
RTVSPropertyOp19
 70
     1
102
RTVSPropertyOp20
 70
     1
102
RTVSPropertyOp21
 70
     1
102
RTVSPropertyOp22
 70
     1
102
RTVSPropertyOp23
 70
     1
102
RTVSPropertyOp24
 70
     1
102
RTVSPropertyOp25
 70
     1
102
RTVSPropertyOp26
 70
     1
102
RTVSPropertyOp27
 70
     1
  0
XRECORD
  5
1A0E
102
{ACAD_REACTORS
330
1A0D
102
}
330
1A0D
100
AcDbXrecord
280
     1
102
RTVSPropertyOp0
 70
     1
102
RTVSPropertyOp1
 70
     1
102
RTVSPropertyOp2
 70
     1
102
RTVSPropertyOp3
 70
     1
102
RTVSPropertyOp4
 70
     1
102
RTVSPropertyOp5
 70
     1
102
RTVSPropertyOp6
 70
     1
102
RTVSPropertyOp7
 70
     1
102
RTVSPropertyOp8
 70
     1
102
RTVSPropertyOp9
 70
     1
102
RTVSPropertyOp10
 70
     1
102
RTVSPropertyOp11
 70
     1
102
RTVSPropertyOp12
 70
     1
102
RTVSPropertyOp13
 70
     1
102
RTVSPropertyOp14
 70
     1
102
RTVSPropertyOp15
 70
     1
102
RTVSPropertyOp16
 70
     1
102
RTVSPropertyOp17
 70
     1
102
RTVSPropertyOp18
 70
     1
102
RTVSPropertyOp19
 70
     1
102
RTVSPropertyOp20
 70
     1
102
RTVSPropertyOp21
 70
     1
102
RTVSPropertyOp22
 70
     1
102
RTVSPropertyOp23
 70
     1
102
RTVSPropertyOp24
 70
     1
102
RTVSPropertyOp25
 70
     1
102
RTVSPropertyOp26
 70
     1
102
RTVSPropertyOp27
 70
     1
  0
XRECORD
  5
1A10
102
{ACAD_REACTORS
330
1A0F
102
}
330
1A0F
100
AcDbXrecord
280
     1
102
RTVSPropertyOp0
 70
     1
102
RTVSPropertyOp1
 70
     1
102
RTVSPropertyOp2
 70
     1
102
RTVSPropertyOp3
 70
     1
102
RTVSPropertyOp4
 70
     1
102
RTVSPropertyOp5
 70
     1
102
RTVSPropertyOp6
 70
     1
102
RTVSPropertyOp7
 70
     1
102
RTVSPropertyOp8
 70
     1
102
RTVSPropertyOp9
 70
     1
102
RTVSPropertyOp10
 70
     1
102
RTVSPropertyOp11
 70
     1
102
RTVSPropertyOp12
 70
     1
102
RTVSPropertyOp13
 70
     1
102
RTVSPropertyOp14
 70
     1
102
RTVSPropertyOp15
 70
     1
102
RTVSPropertyOp16
 70
     1
102
RTVSPropertyOp17
 70
     1
102
RTVSPropertyOp18
 70
     1
102
RTVSPropertyOp19
 70
     1
102
RTVSPropertyOp20
 70
     1
102
RTVSPropertyOp21
 70
     1
102
RTVSPropertyOp22
 70
     1
102
RTVSPropertyOp23
 70
     1
102
RTVSPropertyOp24
 70
     1
102
RTVSPropertyOp25
 70
     1
102
RTVSPropertyOp26
 70
     1
102
RTVSPropertyOp27
 70
     1
  0
XRECORD
  5
1A12
102
{ACAD_REACTORS
330
1A11
102
}
330
1A11
100
AcDbXrecord
280
     1
102
RTVSPropertyOp0
 70
     1
102
RTVSPropertyOp1
 70
     1
102
RTVSPropertyOp2
 70
     1
102
RTVSPropertyOp3
 70
     1
102
RTVSPropertyOp4
 70
     1
102
RTVSPropertyOp5
 70
     1
102
RTVSPropertyOp6
 70
     1
102
RTVSPropertyOp7
 70
     1
102
RTVSPropertyOp8
 70
     1
102
RTVSPropertyOp9
 70
     1
102
RTVSPropertyOp10
 70
     1
102
RTVSPropertyOp11
 70
     1
102
RTVSPropertyOp12
 70
     1
102
RTVSPropertyOp13
 70
     1
102
RTVSPropertyOp14
 70
     1
102
RTVSPropertyOp15
 70
     1
102
RTVSPropertyOp16
 70
     1
102
RTVSPropertyOp17
 70
     1
102
RTVSPropertyOp18
 70
     1
102
RTVSPropertyOp19
 70
     1
102
RTVSPropertyOp20
 70
     1
102
RTVSPropertyOp21
 70
     1
102
RTVSPropertyOp22
 70
     1
102
RTVSPropertyOp23
 70
     1
102
RTVSPropertyOp24
 70
     1
102
RTVSPropertyOp25
 70
     1
102
RTVSPropertyOp26
 70
     1
102
RTVSPropertyOp27
 70
     1
  0
XRECORD
  5
1A2C
102
{ACAD_REACTORS
330
1A2B
102
}
330
1A2B
100
AcDbXrecord
280
     1
102
RTVSPropertyOp0
 70
     0
102
RTVSPropertyOp1
 70
     0
102
RTVSPropertyOp2
 70
     0
102
RTVSPropertyOp3
 70
     0
102
RTVSPropertyOp4
 70
     0
102
RTVSPropertyOp5
 70
     0
102
RTVSPropertyOp6
 70
     0
102
RTVSPropertyOp7
 70
     0
102
RTVSPropertyOp8
 70
     0
102
RTVSPropertyOp9
 70
     0
102
RTVSPropertyOp10
 70
     0
102
RTVSPropertyOp11
 70
     0
102
RTVSPropertyOp12
 70
     0
102
RTVSPropertyOp13
 70
     0
102
RTVSPropertyOp14
 70
     2
102
RTVSPropertyOp15
 70
     0
102
RTVSPropertyOp16
 70
     0
102
RTVSPropertyOp17
 70
     0
102
RTVSPropertyOp18
 70
     0
102
RTVSPropertyOp19
 70
     0
102
RTVSPropertyOp20
 70
     0
102
RTVSPropertyOp21
 70
     0
102
RTVSPropertyOp22
 70
     0
102
RTVSPropertyOp23
 70
     0
102
RTVSPropertyOp24
 70
     0
102
RTVSPropertyOp25
 70
     0
102
RTVSPropertyOp26
 70
     0
102
RTVSPropertyOp27
 70
     0
  0
XRECORD
  5
1A26
102
{ACAD_REACTORS
330
1A25
102
}
330
1A25
100
AcDbXrecord
280
     1
102
RTVSPropertyOp0
 70
     1
102
RTVSPropertyOp1
 70
     1
102
RTVSPropertyOp2
 70
     1
102
RTVSPropertyOp3
 70
     1
102
RTVSPropertyOp4
 70
     1
102
RTVSPropertyOp5
 70
     1
102
RTVSPropertyOp6
 70
     1
102
RTVSPropertyOp7
 70
     1
102
RTVSPropertyOp8
 70
     1
102
RTVSPropertyOp9
 70
     1
102
RTVSPropertyOp10
 70
     1
102
RTVSPropertyOp11
 70
     1
102
RTVSPropertyOp12
 70
     1
102
RTVSPropertyOp13
 70
     1
102
RTVSPropertyOp14
 70
     1
102
RTVSPropertyOp15
 70
     1
102
RTVSPropertyOp16
 70
     1
102
RTVSPropertyOp17
 70
     1
102
RTVSPropertyOp18
 70
     1
102
RTVSPropertyOp19
 70
     1
102
RTVSPropertyOp20
 70
     1
102
RTVSPropertyOp21
 70
     1
102
RTVSPropertyOp22
 70
     1
102
RTVSPropertyOp23
 70
     1
102
RTVSPropertyOp24
 70
     1
102
RTVSPropertyOp25
 70
     1
102
RTVSPropertyOp26
 70
     1
102
RTVSPropertyOp27
 70
     1
  0
XRECORD
  5
1A2E
102
{ACAD_REACTORS
330
1A2D
102
}
330
1A2D
100
AcDbXrecord
280
     1
102
RTVSPropertyOp0
 70
     0
102
RTVSPropertyOp1
 70
     0
102
RTVSPropertyOp2
 70
     0
102
RTVSPropertyOp3
 70
     0
102
RTVSPropertyOp4
 70
     0
102
RTVSPropertyOp5
 70
     0
102
RTVSPropertyOp6
 70
     0
102
RTVSPropertyOp7
 70
     0
102
RTVSPropertyOp8
 70
     0
102
RTVSPropertyOp9
 70
     0
102
RTVSPropertyOp10
 70
     0
102
RTVSPropertyOp11
 70
     0
102
RTVSPropertyOp12
 70
     0
102
RTVSPropertyOp13
 70
     0
102
RTVSPropertyOp14
 70
     2
102
RTVSPropertyOp15
 70
     0
102
RTVSPropertyOp16
 70
     0
102
RTVSPropertyOp17
 70
     0
102
RTVSPropertyOp18
 70
     0
102
RTVSPropertyOp19
 70
     0
102
RTVSPropertyOp20
 70
     0
102
RTVSPropertyOp21
 70
     0
102
RTVSPropertyOp22
 70
     0
102
RTVSPropertyOp23
 70
     0
102
RTVSPropertyOp24
 70
     0
102
RTVSPropertyOp25
 70
     0
102
RTVSPropertyOp26
 70
     0
102
RTVSPropertyOp27
 70
     0
  0
XRECORD
  5
1A1E
102
{ACAD_REACTORS
330
1A1D
102
}
330
1A1D
100
AcDbXrecord
280
     1
102
RTVSPropertyOp0
 70
     1
102
RTVSPropertyOp1
 70
     1
102
RTVSPropertyOp2
 70
     1
102
RTVSPropertyOp3
 70
     1
102
RTVSPropertyOp4
 70
     1
102
RTVSPropertyOp5
 70
     1
102
RTVSPropertyOp6
 70
     1
102
RTVSPropertyOp7
 70
     1
102
RTVSPropertyOp8
 70
     1
102
RTVSPropertyOp9
 70
     1
102
RTVSPropertyOp10
 70
     1
102
RTVSPropertyOp11
 70
     1
102
RTVSPropertyOp12
 70
     1
102
RTVSPropertyOp13
 70
     1
102
RTVSPropertyOp14
 70
     1
102
RTVSPropertyOp15
 70
     1
102
RTVSPropertyOp16
 70
     1
102
RTVSPropertyOp17
 70
     1
102
RTVSPropertyOp18
 70
     1
102
RTVSPropertyOp19
 70
     1
102
RTVSPropertyOp20
 70
     1
102
RTVSPropertyOp21
 70
     1
102
RTVSPropertyOp22
 70
     1
102
RTVSPropertyOp23
 70
     1
102
RTVSPropertyOp24
 70
     1
102
RTVSPropertyOp25
 70
     1
102
RTVSPropertyOp26
 70
     1
102
RTVSPropertyOp27
 70
     1
  0
XRECORD
  5
1A24
102
{ACAD_REACTORS
330
1A23
102
}
330
1A23
100
AcDbXrecord
280
     1
102
RTVSPropertyOp0
 70
     1
102
RTVSPropertyOp1
 70
     1
102
RTVSPropertyOp2
 70
     1
102
RTVSPropertyOp3
 70
     1
102
RTVSPropertyOp4
 70
     1
102
RTVSPropertyOp5
 70
     1
102
RTVSPropertyOp6
 70
     1
102
RTVSPropertyOp7
 70
     1
102
RTVSPropertyOp8
 70
     1
102
RTVSPropertyOp9
 70
     1
102
RTVSPropertyOp10
 70
     1
102
RTVSPropertyOp11
 70
     1
102
RTVSPropertyOp12
 70
     1
102
RTVSPropertyOp13
 70
     1
102
RTVSPropertyOp14
 70
     1
102
RTVSPropertyOp15
 70
     1
102
RTVSPropertyOp16
 70
     1
102
RTVSPropertyOp17
 70
     1
102
RTVSPropertyOp18
 70
     1
102
RTVSPropertyOp19
 70
     1
102
RTVSPropertyOp20
 70
     1
102
RTVSPropertyOp21
 70
     1
102
RTVSPropertyOp22
 70
     1
102
RTVSPropertyOp23
 70
     1
102
RTVSPropertyOp24
 70
     1
102
RTVSPropertyOp25
 70
     1
102
RTVSPropertyOp26
 70
     1
102
RTVSPropertyOp27
 70
     1
  0
ENDSEC
  0
EOF
