  0
SECTION
  2
HEADER
  9
$ACADVER
  1
AC1021
  9
$ACADMAINTVER
 70
    50
  9
$DWGCODEPAGE
  3
ANSI_1252
  9
$LASTSAVEDBY
  1
francoisbu
  9
$INSBASE
 10
0.0
 20
0.0
 30
0.0
  9
$EXTMIN
 10
20.4060701042
 20
18.9865248244
 30
0.0
  9
$EXTMAX
 10
132.8199115851
 20
103.3009926662
 30
0.0
  9
$LIMMIN
 10
0.0
 20
0.0
  9
$LIMMAX
 10
181.3333333333
 20
117.3333333333
  9
$ORTHOMODE
 70
     0
  9
$REGENMODE
 70
     1
  9
$FILLMODE
 70
     1
  9
$QTEXTMODE
 70
     0
  9
$MIRRTEXT
 70
     0
  9
$LTSCALE
 40
9.973333333300001
  9
$ATTMODE
 70
     1
  9
$TEXTSIZE
 40
0.2
  9
$TRACEWID
 40
0.05
  9
$TEXTSTYLE
  7
STANDARD
  9
$CLAYER
  8
0
  9
$CELTYPE
  6
BYLAYER
  9
$CECOLOR
 62
   256
  9
$CELTSCALE
 40
1.0
  9
$DISPSILH
 70
     0
  9
$DIMSCALE
 40
1.0
  9
$DIMASZ
 40
2.0
  9
$DIMEXO
 40
0.0625
  9
$DIMDLI
 40
6.890666666699999
  9
$DIMRND
 40
0.0
  9
$DIMDLE
 40
0.0
  9
$DIMEXE
 40
0.125
  9
$DIMTP
 40
0.00001
  9
$DIMTM
 40
0.00001
  9
$DIMTXT
 40
1.333333333299999
  9
$DIMCEN
 40
1.631999999999999
  9
$DIMTSZ
 40
0.0
  9
$DIMTOL
 70
     1
  9
$DIMLIM
 70
     0
  9
$DIMTIH
 70
     1
  9
$DIMTOH
 70
     1
  9
$DIMSE1
 70
     0
  9
$DIMSE2
 70
     0
  9
$DIMTAD
 70
     0
  9
$DIMZIN
 70
     0
  9
$DIMBLK
  1
_FILLED
  9
$DIMASO
 70
     1
  9
$DIMSHO
 70
     1
  9
$DIMPOST
  1

  9
$DIMAPOST
  1

  9
$DIMALT
 70
     0
  9
$DIMALTD
 70
     2
  9
$DIMALTF
 40
25.4
  9
$DIMLFAC
 40
1.0
  9
$DIMTOFL
 70
     0
  9
$DIMTVP
 40
0.0
  9
$DIMTIX
 70
     0
  9
$DIMSOXD
 70
     0
  9
$DIMSAH
 70
     0
  9
$DIMBLK1
  1

  9
$DIMBLK2
  1

  9
$DIMSTYLE
  2
STANDARD
  9
$DIMCLRD
 70
     0
  9
$DIMCLRE
 70
     0
  9
$DIMCLRT
 70
     0
  9
$DIMTFAC
 40
1.0
  9
$DIMGAP
 40
0.09
  9
$DIMJUST
 70
     0
  9
$DIMSD1
 70
     0
  9
$DIMSD2
 70
     0
  9
$DIMTOLJ
 70
     1
  9
$DIMTZIN
 70
     0
  9
$DIMALTZ
 70
     0
  9
$DIMALTTZ
 70
     0
  9
$DIMUPT
 70
     0
  9
$DIMDEC
 70
     4
  9
$DIMTDEC
 70
     4
  9
$DIMALTU
 70
     2
  9
$DIMALTTD
 70
     2
  9
$DIMTXSTY
  7
STANDARD
  9
$DIMAUNIT
 70
     0
  9
$DIMADEC
 70
     0
  9
$DIMALTRND
 40
0.0
  9
$DIMAZIN
 70
     0
  9
$DIMDSEP
 70
    46
  9
$DIMATFIT
 70
     3
  9
$DIMFRAC
 70
     0
  9
$DIMLDRBLK
  1

  9
$DIMLUNIT
 70
     2
  9
$DIMLWD
 70
    -2
  9
$DIMLWE
 70
    -2
  9
$DIMTMOVE
 70
     0
  9
$DIMFXL
 40
1.0
  9
$DIMFXLON
 70
     0
  9
$DIMJOGANG
 40
0.7853981633974483
  9
$DIMTFILL
 70
     0
  9
$DIMTFILLCLR
 70
     0
  9
$DIMARCSYM
 70
     0
  9
$DIMLTYPE
  6

  9
$DIMLTEX1
  6

  9
$DIMLTEX2
  6

  9
$LUNITS
 70
     2
  9
$LUPREC
 70
     4
  9
$SKETCHINC
 40
0.1
  9
$FILLETRAD
 40
0.0
  9
$AUNITS
 70
     0
  9
$AUPREC
 70
     0
  9
$MENU
  1
.
  9
$ELEVATION
 40
0.0
  9
$PELEVATION
 40
0.0
  9
$THICKNESS
 40
0.0
  9
$LIMCHECK
 70
     0
  9
$CHAMFERA
 40
0.0
  9
$CHAMFERB
 40
0.0
  9
$CHAMFERC
 40
0.0
  9
$CHAMFERD
 40
0.0
  9
$SKPOLY
 70
     0
  9
$TDCREATE
 40
2456966.609441412
  9
$TDUCREATE
 40
2456966.817774745
  9
$TDUPDATE
 40
2456966.627691146
  9
$TDUUPDATE
 40
2456966.836024479
  9
$TDINDWG
 40
0.0009466319
  9
$TDUSRTIMER
 40
0.0009466319
  9
$USRTIMER
 70
     1
  9
$ANGBASE
 50
0.0
  9
$ANGDIR
 70
     0
  9
$PDMODE
 70
     3
  9
$PDSIZE
 40
0.03125
  9
$PLINEWID
 40
0.0
  9
$SPLFRAME
 70
     0
  9
$SPLINETYPE
 70
     6
  9
$SPLINESEGS
 70
     8
  9
$HANDSEED
  5
1627
  9
$SURFTAB1
 70
     6
  9
$SURFTAB2
 70
     6
  9
$SURFTYPE
 70
     6
  9
$SURFU
 70
     6
  9
$SURFV
 70
     6
  9
$UCSBASE
  2

  9
$UCSNAME
  2

  9
$UCSORG
 10
0.0
 20
0.0
 30
0.0
  9
$UCSXDIR
 10
1.0
 20
0.0
 30
0.0
  9
$UCSYDIR
 10
0.0
 20
1.0
 30
0.0
  9
$UCSORTHOREF
  2

  9
$UCSORTHOVIEW
 70
     0
  9
$UCSORGTOP
 10
0.0
 20
0.0
 30
0.0
  9
$UCSORGBOTTOM
 10
0.0
 20
0.0
 30
0.0
  9
$UCSORGLEFT
 10
0.0
 20
0.0
 30
0.0
  9
$UCSORGRIGHT
 10
0.0
 20
0.0
 30
0.0
  9
$UCSORGFRONT
 10
0.0
 20
0.0
 30
0.0
  9
$UCSORGBACK
 10
0.0
 20
0.0
 30
0.0
  9
$PUCSBASE
  2

  9
$PUCSNAME
  2

  9
$PUCSORG
 10
0.0
 20
0.0
 30
0.0
  9
$PUCSXDIR
 10
1.0
 20
0.0
 30
0.0
  9
$PUCSYDIR
 10
0.0
 20
1.0
 30
0.0
  9
$PUCSORTHOREF
  2

  9
$PUCSORTHOVIEW
 70
     0
  9
$PUCSORGTOP
 10
0.0
 20
0.0
 30
0.0
  9
$PUCSORGBOTTOM
 10
0.0
 20
0.0
 30
0.0
  9
$PUCSORGLEFT
 10
0.0
 20
0.0
 30
0.0
  9
$PUCSORGRIGHT
 10
0.0
 20
0.0
 30
0.0
  9
$PUCSORGFRONT
 10
0.0
 20
0.0
 30
0.0
  9
$PUCSORGBACK
 10
0.0
 20
0.0
 30
0.0
  9
$USERI1
 70
     0
  9
$USERI2
 70
     0
  9
$USERI3
 70
     0
  9
$USERI4
 70
     0
  9
$USERI5
 70
     0
  9
$USERR1
 40
0.0
  9
$USERR2
 40
0.0
  9
$USERR3
 40
0.0
  9
$USERR4
 40
0.0
  9
$USERR5
 40
0.0
  9
$WORLDVIEW
 70
     1
  9
$SHADEDGE
 70
     3
  9
$SHADEDIF
 70
    70
  9
$TILEMODE
 70
     1
  9
$MAXACTVP
 70
    64
  9
$PINSBASE
 10
0.0
 20
0.0
 30
0.0
  9
$PLIMCHECK
 70
     0
  9
$PEXTMIN
 10
1.000000000000000E+20
 20
1.000000000000000E+20
 30
1.000000000000000E+20
  9
$PEXTMAX
 10
-1.000000000000000E+20
 20
-1.000000000000000E+20
 30
-1.000000000000000E+20
  9
$PLIMMIN
 10
0.0
 20
0.0
  9
$PLIMMAX
 10
12.0
 20
9.0
  9
$UNITMODE
 70
     0
  9
$VISRETAIN
 70
     1
  9
$PLINEGEN
 70
     0
  9
$PSLTSCALE
 70
     1
  9
$TREEDEPTH
 70
  3020
  9
$CMLSTYLE
  2
Standard
  9
$CMLJUST
 70
     0
  9
$CMLSCALE
 40
1.0
  9
$PROXYGRAPHICS
 70
     1
  9
$MEASUREMENT
 70
     0
  9
$CELWEIGHT
370
    -1
  9
$ENDCAPS
280
     0
  9
$JOINSTYLE
280
     0
  9
$LWDISPLAY
290
     0
  9
$INSUNITS
 70
     1
  9
$HYPERLINKBASE
  1

  9
$STYLESHEET
  1

  9
$XEDIT
290
     1
  9
$CEPSNTYPE
380
     0
  9
$PSTYLEMODE
290
     1
  9
$FINGERPRINTGUID
  2
{2190CFF2-5A8C-4969-82D9-46D26A6C7524}
  9
$VERSIONGUID
  2
{384105DB-D3E6-4AF0-88F5-737FF24BFAF2}
  9
$EXTNAMES
290
     1
  9
$PSVPSCALE
 40
0.0
  9
$OLESTARTUP
290
     0
  9
$SORTENTS
280
   127
  9
$INDEXCTL
280
     0
  9
$HIDETEXT
280
     0
  9
$XCLIPFRAME
290
     0
  9
$HALOGAP
280
     0
  9
$OBSCOLOR
 70
   257
  9
$OBSLTYPE
280
     0
  9
$INTERSECTIONDISPLAY
280
     0
  9
$INTERSECTIONCOLOR
 70
   257
  9
$DIMASSOC
280
     1
  9
$PROJECTNAME
  1

  9
$CAMERADISPLAY
290
     0
  9
$LENSLENGTH
 40
50.0
  9
$CAMERAHEIGHT
 40
0.0
  9
$STEPSPERSEC
 40
2.0
  9
$STEPSIZE
 40
6.0
  9
$3DDWFPREC
 40
2.0
  9
$PSOLWIDTH
 40
0.25
  9
$PSOLHEIGHT
 40
4.0
  9
$LOFTANG1
 40
1.570796326794896
  9
$LOFTANG2
 40
1.570796326794896
  9
$LOFTMAG1
 40
0.0
  9
$LOFTMAG2
 40
0.0
  9
$LOFTPARAM
 70
     7
  9
$LOFTNORMALS
280
     1
  9
$LATITUDE
 40
37.795
  9
$LONGITUDE
 40
-122.394
  9
$NORTHDIRECTION
 40
0.0
  9
$TIMEZONE
 70
 -8000
  9
$LIGHTGLYPHDISPLAY
280
     1
  9
$TILEMODELIGHTSYNCH
280
     1
  9
$CMATERIAL
347
1548
  9
$SOLIDHIST
280
     1
  9
$SHOWHIST
280
     1
  9
$DWFFRAME
280
     2
  9
$DGNFRAME
280
     0
  9
$REALWORLDSCALE
290
     1
  9
$INTERFERECOLOR
 62
     1
  9
$INTERFEREOBJVS
345
156A
  9
$INTERFEREVPVS
346
1567
  9
$CSHADOW
280
     0
  9
$SHADOWPLANELOCATION
 40
0.0
  0
ENDSEC
  0
SECTION
  2
CLASSES
  0
CLASS
  1
ACDBDICTIONARYWDFLT
  2
AcDbDictionaryWithDefault
  3
ObjectDBX Classes
 90
        0
 91
        1
280
     0
281
     0
  0
CLASS
  1
MATERIAL
  2
AcDbMaterial
  3
ObjectDBX Classes
 90
     1153
 91
        3
280
     0
281
     0
  0
CLASS
  1
VISUALSTYLE
  2
AcDbVisualStyle
  3
ObjectDBX Classes
 90
     4095
 91
       19
280
     0
281
     0
  0
CLASS
  1
TABLESTYLE
  2
AcDbTableStyle
  3
ObjectDBX Classes
 90
     4095
 91
        1
280
     0
281
     0
  0
CLASS
  1
SCALE
  2
AcDbScale
  3
ObjectDBX Classes
 90
     1153
 91
       33
280
     0
281
     0
  0
CLASS
  1
MLEADERSTYLE
  2
AcDbMLeaderStyle
  3
ACDB_MLEADERSTYLE_CLASS
 90
     4095
 91
        1
280
     0
281
     0
  0
CLASS
  1
CELLSTYLEMAP
  2
AcDbCellStyleMap
  3
ObjectDBX Classes
 90
     1152
 91
        3
280
     0
281
     0
  0
CLASS
  1
DICTIONARYVAR
  2
AcDbDictionaryVar
  3
ObjectDBX Classes
 90
        0
 91
       11
280
     0
281
     0
  0
ENDSEC
  0
SECTION
  2
TABLES
  0
TABLE
  2
VPORT
  5
8
102
{ACAD_XDICTIONARY
360
159E
102
}
330
0
100
AcDbSymbolTable
 70
     1
  0
VPORT
  5
1F4
330
8
100
AcDbSymbolTableRecord
100
AcDbViewportTableRecord
  2
*ACTIVE
 70
     0
 10
0.0
 20
0.0
 11
1.0
 21
1.0
 12
50.51140272707549
 22
81.51147873895267
 13
0.0
 23
0.0
 14
1.0
 24
1.0
 15
0.0
 25
0.0
 16
0.0
 26
0.0
 36
1.0
 17
0.0
 27
0.0
 37
0.0
 40
63.27777219363889
 41
1.897327707454289
 42
50.0
 43
0.0
 44
0.0
 50
0.0
 51
0.0
 71
     0
 72
   100
 73
     1
 74
     1
 75
     0
 76
     0
 77
     0
 78
     0
281
     0
 65
     1
110
0.0
120
0.0
130
0.0
111
1.0
121
0.0
131
0.0
112
0.0
122
1.0
132
0.0
 79
     0
146
0.0
348
1566
 60
     3
 61
     5
292
     1
282
     1
141
0.0
142
0.0
 63
   250
421
  3355443
  0
ENDTAB
  0
TABLE
  2
LTYPE
  5
5
330
0
100
AcDbSymbolTable
 70
     6
  0
LTYPE
  5
14
330
5
100
AcDbSymbolTableRecord
100
AcDbLinetypeTableRecord
  2
BYBLOCK
 70
     0
  3

 72
    65
 73
     0
 40
0.0
  0
LTYPE
  5
15
330
5
100
AcDbSymbolTableRecord
100
AcDbLinetypeTableRecord
  2
BYLAYER
 70
     0
  3

 72
    65
 73
     0
 40
0.0
  0
LTYPE
  5
16
330
5
100
AcDbSymbolTableRecord
100
AcDbLinetypeTableRecord
  2
CONTINUOUS
 70
     0
  3
Solid line
 72
    65
 73
     0
 40
0.0
  0
LTYPE
  5
1F5
330
5
100
AcDbSymbolTableRecord
100
AcDbLinetypeTableRecord
  2
CENTER
 70
     0
  3
____ _ ____ _ ____ _ ____ _ ____ _ ____ _ ____
 72
    65
 73
     4
 40
0.6
 49
0.375
 74
     0
 49
-0.075
 74
     0
 49
0.075
 74
     0
 49
-0.075
 74
     0
  0
LTYPE
  5
1F6
330
5
100
AcDbSymbolTableRecord
100
AcDbLinetypeTableRecord
  2
HIDDEN
 70
     0
  3
- - - - - - - - - - - - - - - - - - - -
 72
    65
 73
     2
 40
0.2
 49
0.1
 74
     0
 49
-0.1
 74
     0
  0
LTYPE
  5
1F7
330
5
100
AcDbSymbolTableRecord
100
AcDbLinetypeTableRecord
  2
PHANTOM
 70
     0
  3
_____ _ _ _____ _ _ _____ _ _ _____
 72
    65
 73
     6
 40
0.8
 49
0.45
 74
     0
 49
-0.05
 74
     0
 49
0.1
 74
     0
 49
-0.05
 74
     0
 49
0.1
 74
     0
 49
-0.05
 74
     0
  0
LTYPE
  5
1F8
330
5
100
AcDbSymbolTableRecord
100
AcDbLinetypeTableRecord
  2
DOT
 70
     0
  3
. . . . . . . . . . . . . . . . . . . .
 72
    65
 73
     2
 40
0.2
 49
0.1
 74
     0
 49
-0.1
 74
     0
  0
LTYPE
  5
1F9
330
5
100
AcDbSymbolTableRecord
100
AcDbLinetypeTableRecord
  2
DASHED
 70
     0
  3
- - - - - - - - - - - - - - - - - - - -
 72
    65
 73
     2
 40
0.2
 49
0.1
 74
     0
 49
-0.1
 74
     0
  0
ENDTAB
  0
TABLE
  2
LAYER
  5
2
330
0
100
AcDbSymbolTable
 70
    30
  0
LAYER
  5
10
102
{ACAD_XDICTIONARY
360
15DE
102
}
330
2
100
AcDbSymbolTableRecord
100
AcDbLayerTableRecord
  2
0
 70
     0
 62
     7
  6
CONTINUOUS
370
    -3
390
F
347
1558
  0
LAYER
  5
1FA
102
{ACAD_XDICTIONARY
360
15E0
102
}
330
2
100
AcDbSymbolTableRecord
100
AcDbLayerTableRecord
  2
DEFAULT_1
 70
     0
 62
     7
  6
CENTER
370
    -3
390
F
347
1558
  0
LAYER
  5
1FB
102
{ACAD_XDICTIONARY
360
15E2
102
}
330
2
100
AcDbSymbolTableRecord
100
AcDbLayerTableRecord
  2
DEFAULT_2
 70
     0
 62
     7
  6
HIDDEN
370
    -3
390
F
347
1558
  0
LAYER
  5
1FC
102
{ACAD_XDICTIONARY
360
15E4
102
}
330
2
100
AcDbSymbolTableRecord
100
AcDbLayerTableRecord
  2
DEFAULT_3
 70
     0
 62
     7
  6
PHANTOM
370
    -3
390
F
347
1558
  0
LAYER
  5
1FD
102
{ACAD_XDICTIONARY
360
15E6
102
}
330
2
100
AcDbSymbolTableRecord
100
AcDbLayerTableRecord
  2
1_CURVES
 70
     0
 62
     7
  6
CONTINUOUS
370
    -3
390
F
347
1558
  0
LAYER
  5
1FE
102
{ACAD_XDICTIONARY
360
15E8
102
}
330
2
100
AcDbSymbolTableRecord
100
AcDbLayerTableRecord
  2
1_CURVES_CONDUIT
 70
     0
 62
     7
  6
CONTINUOUS
370
    -3
390
F
347
1558
  0
LAYER
  5
1FF
102
{ACAD_XDICTIONARY
360
15EA
102
}
330
2
100
AcDbSymbolTableRecord
100
AcDbLayerTableRecord
  2
1_CURVES_DOT
 70
     0
 62
     7
  6
CONTINUOUS
370
    -3
390
F
347
1558
  0
LAYER
  5
200
102
{ACAD_XDICTIONARY
360
15EC
102
}
330
2
100
AcDbSymbolTableRecord
100
AcDbLayerTableRecord
  2
1_CURVES_JETS
 70
     0
 62
     7
  6
CONTINUOUS
370
    -3
390
F
347
1558
  0
LAYER
  5
201
102
{ACAD_XDICTIONARY
360
15EE
102
}
330
2
100
AcDbSymbolTableRecord
100
AcDbLayerTableRecord
  2
1_CURVES_PATINS
 70
     0
 62
     7
  6
CONTINUOUS
370
    -3
390
F
347
1558
  0
LAYER
  5
202
102
{ACAD_XDICTIONARY
360
15F0
102
}
330
2
100
AcDbSymbolTableRecord
100
AcDbLayerTableRecord
  2
1_CURVES_SPEC_FRONT
 70
     0
 62
     7
  6
CONTINUOUS
370
    -3
390
F
347
1558
  0
LAYER
  5
203
102
{ACAD_XDICTIONARY
360
15F2
102
}
330
2
100
AcDbSymbolTableRecord
100
AcDbLayerTableRecord
  2
1_CURVES_SPEC_RIGHT
 70
     0
 62
     7
  6
CONTINUOUS
370
    -3
390
F
347
1558
  0
LAYER
  5
204
102
{ACAD_XDICTIONARY
360
15F4
102
}
330
2
100
AcDbSymbolTableRecord
100
AcDbLayerTableRecord
  2
2_PLANES
 70
     0
 62
     7
  6
CONTINUOUS
370
    -3
390
F
347
1558
  0
LAYER
  5
205
102
{ACAD_XDICTIONARY
360
15F6
102
}
330
2
100
AcDbSymbolTableRecord
100
AcDbLayerTableRecord
  2
2_PLANES_JETS
 70
     0
 62
     7
  6
CONTINUOUS
370
    -3
390
F
347
1558
  0
LAYER
  5
206
102
{ACAD_XDICTIONARY
360
15F8
102
}
330
2
100
AcDbSymbolTableRecord
100
AcDbLayerTableRecord
  2
3_POINTS
 70
     0
 62
     7
  6
CONTINUOUS
370
    -3
390
F
347
1558
  0
LAYER
  5
207
102
{ACAD_XDICTIONARY
360
15FA
102
}
330
2
100
AcDbSymbolTableRecord
100
AcDbLayerTableRecord
  2
3_POINTS_JETS
 70
     0
 62
     7
  6
CONTINUOUS
370
    -3
390
F
347
1558
  0
LAYER
  5
208
102
{ACAD_XDICTIONARY
360
15FC
102
}
330
2
100
AcDbSymbolTableRecord
100
AcDbLayerTableRecord
  2
4_CSYS
 70
     0
 62
     7
  6
CONTINUOUS
370
    -3
390
F
347
1558
  0
LAYER
  5
209
102
{ACAD_XDICTIONARY
360
15FE
102
}
330
2
100
AcDbSymbolTableRecord
100
AcDbLayerTableRecord
  2
5_AXIS
 70
     0
 62
     7
  6
CONTINUOUS
370
    -3
390
F
347
1558
  0
LAYER
  5
20A
102
{ACAD_XDICTIONARY
360
1600
102
}
330
2
100
AcDbSymbolTableRecord
100
AcDbLayerTableRecord
  2
5_AXIS_JETS
 70
     0
 62
     7
  6
CONTINUOUS
370
    -3
390
F
347
1558
  0
LAYER
  5
20B
102
{ACAD_XDICTIONARY
360
1602
102
}
330
2
100
AcDbSymbolTableRecord
100
AcDbLayerTableRecord
  2
6_AIRE_CONDUIT
 70
     0
 62
     7
  6
CONTINUOUS
370
    -3
390
F
347
1558
  0
LAYER
  5
20C
102
{ACAD_XDICTIONARY
360
1604
102
}
330
2
100
AcDbSymbolTableRecord
100
AcDbLayerTableRecord
  2
6_SURFACES
 70
     0
 62
     7
  6
CONTINUOUS
370
    -3
390
F
347
1558
  0
LAYER
  5
20D
102
{ACAD_XDICTIONARY
360
1606
102
}
330
2
100
AcDbSymbolTableRecord
100
AcDbLayerTableRecord
  2
6_SURFACES_AIRE
 70
     0
 62
     7
  6
CONTINUOUS
370
    -3
390
F
347
1558
  0
LAYER
  5
20E
102
{ACAD_XDICTIONARY
360
1608
102
}
330
2
100
AcDbSymbolTableRecord
100
AcDbLayerTableRecord
  2
6_SURFACES_OFFSET_FIBRE_ACRYLIQ
 70
     0
 62
     7
  6
CONTINUOUS
370
    -3
390
F
347
1558
  0
LAYER
  5
20F
102
{ACAD_XDICTIONARY
360
160A
102
}
330
2
100
AcDbSymbolTableRecord
100
AcDbLayerTableRecord
  2
6_SURFACES_POUR_CONDUIT
 70
     0
 62
     7
  6
CONTINUOUS
370
    -3
390
F
347
1558
  0
LAYER
  5
210
102
{ACAD_XDICTIONARY
360
160C
102
}
330
2
100
AcDbSymbolTableRecord
100
AcDbLayerTableRecord
  2
6_SURFACES_POUR_HFL
 70
     0
 62
     7
  6
CONTINUOUS
370
    -3
390
F
347
1558
  0
LAYER
  5
211
102
{ACAD_XDICTIONARY
360
160E
102
}
330
2
100
AcDbSymbolTableRecord
100
AcDbLayerTableRecord
  2
6_SURFACES_TOOLING
 70
     0
 62
     7
  6
CONTINUOUS
370
    -3
390
F
347
1558
  0
LAYER
  5
212
102
{ACAD_XDICTIONARY
360
1610
102
}
330
2
100
AcDbSymbolTableRecord
100
AcDbLayerTableRecord
  2
7_NOTES
 70
     0
 62
     7
  6
CONTINUOUS
370
    -3
390
F
347
1558
  0
LAYER
  5
213
102
{ACAD_XDICTIONARY
360
1612
102
}
330
2
100
AcDbSymbolTableRecord
100
AcDbLayerTableRecord
  2
8_TOL_GEOM
 70
     0
 62
     7
  6
CONTINUOUS
370
    -3
390
F
347
1558
  0
LAYER
  5
214
102
{ACAD_XDICTIONARY
360
1614
102
}
330
2
100
AcDbSymbolTableRecord
100
AcDbLayerTableRecord
  2
DEGAGEMENT_SERIGRAPHIE
 70
     0
 62
     7
  6
CONTINUOUS
370
    -3
390
F
347
1558
  0
LAYER
  5
215
102
{ACAD_XDICTIONARY
360
1616
102
}
330
2
100
AcDbSymbolTableRecord
100
AcDbLayerTableRecord
  2
NONE
 70
     0
 62
     7
  6
CONTINUOUS
370
    -3
390
F
347
1558
  0
LAYER
  5
216
102
{ACAD_XDICTIONARY
360
1618
102
}
330
2
100
AcDbSymbolTableRecord
100
AcDbLayerTableRecord
  2
XSEC_DATUMS
 70
     0
 62
     7
  6
CONTINUOUS
370
    -3
390
F
347
1558
  0
ENDTAB
  0
TABLE
  2
STYLE
  5
3
330
0
100
AcDbSymbolTable
 70
     8
  0
STYLE
  5
11
330
3
100
AcDbSymbolTableRecord
100
AcDbTextStyleTableRecord
  2
STANDARD
 70
     0
 40
0.0
 41
0.8
 50
0.0
 71
     0
 42
0.2
  3
txt
  4

  0
STYLE
  5
217
330
3
100
AcDbSymbolTableRecord
100
AcDbTextStyleTableRecord
  2
TEXTSTYLE_1
 70
     0
 40
0.0
 41
0.8
 50
0.0
 71
     0
 42
0.2
  3
gdt
  4

  0
STYLE
  5
218
330
3
100
AcDbSymbolTableRecord
100
AcDbTextStyleTableRecord
  2
TEXTSTYLE_2
 70
     0
 40
0.0
 41
1.0
 50
0.0
 71
     0
 42
0.2
  3
trium.ttf
  4

  0
STYLE
  5
219
330
3
100
AcDbSymbolTableRecord
100
AcDbTextStyleTableRecord
  2
TEXTSTYLE_3
 70
     0
 40
0.0
 41
1.0
 50
0.0
 71
     0
 42
0.2
  3
trium.ttf
  4

  0
STYLE
  5
21A
330
3
100
AcDbSymbolTableRecord
100
AcDbTextStyleTableRecord
  2
TEXTSTYLE_4
 70
     0
 40
0.0
 41
1.0
 50
0.0
 71
     0
 42
0.2
  3
txt_____.ttf
  4

1001
ACAD
1000
txt
1071
        2
  0
STYLE
  5
21B
330
3
100
AcDbSymbolTableRecord
100
AcDbTextStyleTableRecord
  2
TEXTSTYLE_5
 70
     0
 40
0.0
 41
1.0
 50
0.0
 71
     0
 42
0.2
  3
txt
  4

  0
STYLE
  5
21C
330
3
100
AcDbSymbolTableRecord
100
AcDbTextStyleTableRecord
  2
TEXTSTYLE_6
 70
     0
 40
0.0
 41
1.0
 50
0.0
 71
     0
 42
0.2
  3
trium.ttf
  4

  0
STYLE
  5
21D
330
3
100
AcDbSymbolTableRecord
100
AcDbTextStyleTableRecord
  2
TEXTSTYLE_7
 70
     0
 40
0.0
 41
0.8
 50
0.0
 71
     0
 42
0.2
  3
txt
  4

  0
ENDTAB
  0
TABLE
  2
VIEW
  5
6
330
0
100
AcDbSymbolTable
 70
     0
  0
ENDTAB
  0
TABLE
  2
UCS
  5
7
330
0
100
AcDbSymbolTable
 70
     0
  0
ENDTAB
  0
TABLE
  2
APPID
  5
9
330
0
100
AcDbSymbolTable
 70
     2
  0
APPID
  5
21E
330
9
100
AcDbSymbolTableRecord
100
AcDbRegAppTableRecord
  2
ACAD
 70
     0
  0
APPID
  5
15CE
330
9
100
AcDbSymbolTableRecord
100
AcDbRegAppTableRecord
  2
ACAD_MLEADERVER
 70
     0
  0
ENDTAB
  0
TABLE
  2
DIMSTYLE
  5
A
330
0
100
AcDbSymbolTable
 70
     5
100
AcDbDimStyleTable
 71
     0
  0
DIMSTYLE
105
236
330
A
100
AcDbSymbolTableRecord
100
AcDbDimStyleTableRecord
  2
STANDARD
 70
     0
 41
2.0
 44
0.125
 47
0.00001
 48
0.00001
 71
     1
 78
     4
140
1.333333333299999
271
     5
272
     5
284
     4
340
11
341
221
342
221
343
221
344
221
  0
DIMSTYLE
105
237
330
A
100
AcDbSymbolTableRecord
100
AcDbDimStyleTableRecord
  2
DIMSTYLE_1
 70
     0
 41
2.0
 44
0.125
 47
0.00001
 48
0.00001
 78
     4
140
1.333333333299999
147
0.0625
271
     3
272
     3
284
     4
340
11
341
221
342
221
343
221
344
221
  0
DIMSTYLE
105
238
330
A
100
AcDbSymbolTableRecord
100
AcDbDimStyleTableRecord
  2
DIMSTYLE_2
 70
     0
 41
2.0
 44
0.125
 47
0.00001
 48
0.00001
 78
     4
140
1.333333333299999
147
0.0625
271
     2
272
     2
284
     4
340
11
341
221
342
221
343
221
344
221
  0
DIMSTYLE
105
239
330
A
100
AcDbSymbolTableRecord
100
AcDbDimStyleTableRecord
  2
DIMSTYLE_3
 70
     0
 41
2.0
 44
0.125
 47
1.0
 48
1.0
 78
     4
140
1.333333333299999
271
     0
272
     0
284
     4
340
11
341
221
342
221
343
221
344
221
  0
DIMSTYLE
105
23A
330
A
100
AcDbSymbolTableRecord
100
AcDbDimStyleTableRecord
  2
DIMSTYLE_4
 70
     0
 41
2.0
 44
0.125
 47
0.5
 48
0.5
 78
     4
140
1.333333333299999
271
     6
272
     6
284
     4
340
11
341
221
342
221
343
221
344
221
  0
ENDTAB
  0
TABLE
  2
BLOCK_RECORD
  5
1
330
0
100
AcDbSymbolTable
 70
    21
  0
BLOCK_RECORD
  5
21F
330
1
100
AcDbSymbolTableRecord
100
AcDbBlockTableRecord
  2
*Model_Space
340
1543
 70
     0
280
     1
281
     0
  0
BLOCK_RECORD
  5
220
330
1
100
AcDbSymbolTableRecord
100
AcDbBlockTableRecord
  2
*Paper_Space
340
1544
 70
     0
280
     1
281
     0
  0
BLOCK_RECORD
  5
221
330
1
100
AcDbSymbolTableRecord
100
AcDbBlockTableRecord
  2
_FILLED
340
0
102
{BLKREFS
331
31F
331
320
331
328
331
329
331
331
331
332
331
33A
331
33B
331
343
331
344
331
34C
331
34D
331
355
331
356
331
35F
331
360
331
369
331
36A
331
372
331
373
331
37B
331
37C
331
38C
331
38D
331
396
331
397
102
}
 70
     0
280
     1
281
     0
  0
BLOCK_RECORD
  5
231
330
1
100
AcDbSymbolTableRecord
100
AcDbBlockTableRecord
  2
SYMBOL_3_BL4
340
0
 70
     0
280
     1
281
     0
  0
BLOCK_RECORD
  5
232
330
1
100
AcDbSymbolTableRecord
100
AcDbBlockTableRecord
  2
SYMBOL_7_BL3
340
0
 70
     0
280
     1
281
     0
  0
BLOCK_RECORD
  5
233
330
1
100
AcDbSymbolTableRecord
100
AcDbBlockTableRecord
  2
SYMBOL_6_BL2
340
0
 70
     0
280
     1
281
     0
  0
BLOCK_RECORD
  5
234
330
1
100
AcDbSymbolTableRecord
100
AcDbBlockTableRecord
  2
SYMBOL_5_BL1
340
0
 70
     0
280
     1
281
     0
  0
BLOCK_RECORD
  5
235
330
1
100
AcDbSymbolTableRecord
100
AcDbBlockTableRecord
  2
SYMBOL_0_BL0
340
0
 70
     0
280
     1
281
     0
  0
ENDTAB
  0
ENDSEC
  0
SECTION
  2
BLOCKS
  0
BLOCK
  5
20
330
21F
100
AcDbEntity
  8
0
100
AcDbBlockBegin
  2
*Model_Space
 70
     0
 10
0.0
 20
0.0
 30
0.0
  3
*Model_Space
  1

  0
ENDBLK
  5
21
330
21F
100
AcDbEntity
  8
0
100
AcDbBlockEnd
  0
BLOCK
  5
1C
330
220
100
AcDbEntity
 67
     1
  8
0
100
AcDbBlockBegin
  2
*Paper_Space
 70
     0
 10
0.0
 20
0.0
 30
0.0
  3
*Paper_Space
  1

  0
ENDBLK
  5
1D
330
220
100
AcDbEntity
 67
     1
  8
0
100
AcDbBlockEnd
  0
BLOCK
  5
316
330
221
100
AcDbEntity
  8
0
100
AcDbBlockBegin
  2
_FILLED
 70
     0
 10
0.0
 20
0.0
 30
0.0
  3
_FILLED
  1

  0
SOLID
  5
317
330
221
100
AcDbEntity
  8
0
  6
ByBlock
 62
     0
100
AcDbTrace
 10
0.0
 20
0.0
 30
0.0
 11
-1.0
 21
0.1666666667
 31
0.0
 12
-1.0
 22
-0.1666666667
 32
0.0
 13
-1.0
 23
-0.1666666667
 33
0.0
  0
ENDBLK
  5
318
330
221
100
AcDbEntity
  8
0
  6
ByBlock
 62
     0
100
AcDbBlockEnd
  0
BLOCK
  5
23B
330
231
100
AcDbEntity
  8
0
  6
Continuous
 62
     7
100
AcDbBlockBegin
  2
SYMBOL_3_BL4
 70
     0
 10
120.2457639667
 20
50.23865679
 30
0.0
  3
SYMBOL_3_BL4
  1

  0
TEXT
  5
23C
330
231
100
AcDbEntity
  8
0
  6
Continuous
 62
     7
100
AcDbText
 10
113.9317036649
 20
52.4836907758
 30
0.0
 40
1.1626666667
  1
INTERNAL USE 
 50
10.0
  7
TEXTSTYLE_3
100
AcDbText
  0
TEXT
  5
23D
330
231
100
AcDbEntity
  8
0
  6
Continuous
 62
     7
100
AcDbText
 10
113.1880194609
 20
50.48216959810001
 30
0.0
 40
1.1626666667
  1
DOCUMENT ONLY
 50
10.0
  7
TEXTSTYLE_3
100
AcDbText
  0
TEXT
  5
23E
330
231
100
AcDbEntity
  8
0
  6
Continuous
 62
     7
100
AcDbText
 10
118.9727470242
 20
50.2337415476
 30
0.0
 40
1.1626666667
  1
 
 50
10.0
  7
TEXTSTYLE_5
100
AcDbText
  0
TEXT
  5
23F
330
231
100
AcDbEntity
  8
0
  6
Continuous
 62
     7
100
AcDbText
 10
110.5280991411
 20
46.0566471413
 30
0.0
 40
1.1626666667
  1
DOCUMENT POUR USAGE
 50
10.0
  7
TEXTSTYLE_3
100
AcDbText
  0
TEXT
  5
240
330
231
100
AcDbEntity
  8
0
  6
Continuous
 62
     7
100
AcDbText
 10
110.9571985872
 20
44.0398986809
 30
0.0
 40
1.1626666667
  1
A L'INTERNE SEULEMENT
 50
10.0
  7
TEXTSTYLE_3
100
AcDbText
  0
LINE
  5
241
330
231
100
AcDbEntity
  8
0
  6
Continuous
 62
     7
100
AcDbLine
 10
134.10231569
 20
45.89512317199999
 30
0.0
 11
134.1090746226
 21
45.9018821047
 31
0.0
  0
LINE
  5
242
330
231
100
AcDbEntity
  8
0
  6
Continuous
 62
     7
100
AcDbLine
 10
133.3697461236
 20
45.7659513922
 30
0.0
 11
134.0186275687
 21
46.41483283729999
 31
0.0
  0
LINE
  5
243
330
231
100
AcDbEntity
  8
0
  6
Continuous
 62
     7
100
AcDbLine
 10
132.6371765572
 20
45.63677961239999
 30
0.0
 11
133.9281805148
 21
46.92778357
 31
0.0
  0
LINE
  5
244
330
231
100
AcDbEntity
  8
0
  6
Continuous
 62
     7
100
AcDbLine
 10
131.9046069907
 20
45.5076078326
 30
0.0
 11
133.8377334608
 21
47.44073430270001
 31
0.0
  0
LINE
  5
245
330
231
100
AcDbEntity
  8
0
  6
Continuous
 62
     7
100
AcDbLine
 10
131.1720374243
 20
45.37843605279999
 30
0.0
 11
133.7472864069
 21
47.95368503539999
 31
0.0
  0
LINE
  5
246
330
231
100
AcDbEntity
  8
0
  6
Continuous
 62
     7
100
AcDbLine
 10
130.4394678579
 20
45.249264273
 30
0.0
 11
131.9804716727
 21
46.79026808779999
 31
0.0
  0
LINE
  5
247
330
231
100
AcDbEntity
  8
0
  6
Continuous
 62
     7
100
AcDbLine
 10
132.5778168654
 20
47.3876132805
 30
0.0
 11
133.6568393529
 21
48.46663576800001
 31
0.0
  0
LINE
  5
248
330
231
100
AcDbEntity
  8
0
  6
Continuous
 62
     7
100
AcDbLine
 10
129.7068982915
 20
45.1200924932
 30
0.0
 11
131.2479021063
 21
46.661096308
 31
0.0
  0
LINE
  5
249
330
231
100
AcDbEntity
  8
0
  6
Continuous
 62
     7
100
AcDbLine
 10
132.4873698115
 20
47.9005640132
 30
0.0
 11
133.566392299
 21
48.97958650069999
 31
0.0
  0
LINE
  5
24A
330
231
100
AcDbEntity
  8
0
  6
Continuous
 62
     7
100
AcDbLine
 10
128.9743287251
 20
44.9909207134
 30
0.0
 11
130.5153325399
 21
46.53192452819999
 31
0.0
  0
LINE
  5
24B
330
231
100
AcDbEntity
  8
0
  6
Continuous
 62
     7
100
AcDbLine
 10
132.3969227575
 20
48.4135147458
 30
0.0
 11
133.475945245
 21
49.4925372334
 31
0.0
  0
LINE
  5
24C
330
231
100
AcDbEntity
  8
0
  6
Continuous
 62
     7
100
AcDbLine
 10
128.2417591587
 20
44.8617489336
 30
0.0
 11
129.7827629734
 21
46.4027527484
 31
0.0
  0
LINE
  5
24D
330
231
100
AcDbEntity
  8
0
  6
Continuous
 62
     7
100
AcDbLine
 10
132.3064757036
 20
48.9264654785
 30
0.0
 11
133.3854981911
 21
50.005487966
 31
0.0
  0
LINE
  5
24E
330
231
100
AcDbEntity
  8
0
  6
Continuous
 62
     7
100
AcDbLine
 10
127.5091895922
 20
44.73257715379999
 30
0.0
 11
129.050193407
 21
46.27358096859999
 31
0.0
  0
LINE
  5
24F
330
231
100
AcDbEntity
  8
0
  6
Continuous
 62
     7
100
AcDbLine
 10
132.2160286496
 20
49.4394162112
 30
0.0
 11
133.2950511372
 21
50.51843869869999
 31
0.0
  0
LINE
  5
250
330
231
100
AcDbEntity
  8
0
  6
Continuous
 62
     7
100
AcDbLine
 10
126.7766200258
 20
44.60340537399999
 30
0.0
 11
128.3176238406
 21
46.1444091888
 31
0.0
  0
LINE
  5
251
330
231
100
AcDbEntity
  8
0
  6
Continuous
 62
     7
100
AcDbLine
 10
132.1255815957
 20
49.9523669438
 30
0.0
 11
133.2046040832
 21
51.0313894314
 31
0.0
  0
LINE
  5
252
330
231
100
AcDbEntity
  8
0
  6
Continuous
 62
     7
100
AcDbLine
 10
126.0440504594
 20
44.4742335942
 30
0.0
 11
127.5850542742
 21
46.01523740890001
 31
0.0
  0
LINE
  5
253
330
231
100
AcDbEntity
  8
0
  6
Continuous
 62
     7
100
AcDbLine
 10
132.0351345417
 20
50.46531767649999
 30
0.0
 11
133.1141570293
 21
51.54434016399999
 31
0.0
  0
LINE
  5
254
330
231
100
AcDbEntity
  8
0
  6
Continuous
 62
     7
100
AcDbLine
 10
125.311480893
 20
44.34506181439999
 30
0.0
 11
126.8524847078
 21
45.88606562909999
 31
0.0
  0
LINE
  5
255
330
231
100
AcDbEntity
  8
0
  6
Continuous
 62
     7
100
AcDbLine
 10
131.9446874878
 20
50.97826840919999
 30
0.0
 11
133.0237099753
 21
52.05729089670001
 31
0.0
  0
LINE
  5
256
330
231
100
AcDbEntity
  8
0
  6
Continuous
 62
     7
100
AcDbLine
 10
124.5789113266
 20
44.2158900346
 30
0.0
 11
126.1199151413
 21
45.7568938493
 31
0.0
  0
LINE
  5
257
330
231
100
AcDbEntity
  8
0
  6
Continuous
 62
     7
100
AcDbLine
 10
131.8542404339
 20
51.4912191419
 30
0.0
 11
132.9332629214
 21
52.57024162939999
 31
0.0
  0
LINE
  5
258
330
231
100
AcDbEntity
  8
0
  6
Continuous
 62
     7
100
AcDbLine
 10
123.8463417601
 20
44.08671825479999
 30
0.0
 11
125.3873455749
 21
45.6277220695
 31
0.0
  0
LINE
  5
259
330
231
100
AcDbEntity
  8
0
  6
Continuous
 62
     7
100
AcDbLine
 10
131.551360834
 20
51.7917373286
 30
0.0
 11
132.8428158674
 21
53.083192362
 31
0.0
  0
LINE
  5
25A
330
231
100
AcDbEntity
  8
0
  6
Continuous
 62
     7
100
AcDbLine
 10
123.1137721937
 20
43.9575464749
 30
0.0
 11
124.6547760085
 21
45.4985502897
 31
0.0
  0
LINE
  5
25B
330
231
100
AcDbEntity
  8
0
  6
Continuous
 62
     7
100
AcDbLine
 10
130.8187912676
 20
51.6625655488
 30
0.0
 11
132.7523688135
 21
53.5961430947
 31
0.0
  0
LINE
  5
25C
330
231
100
AcDbEntity
  8
0
  6
Continuous
 62
     7
100
AcDbLine
 10
122.3812026273
 20
43.8283746951
 30
0.0
 11
123.9222064421
 21
45.36937850989999
 31
0.0
  0
LINE
  5
25D
330
231
100
AcDbEntity
  8
0
  6
Continuous
 62
     7
100
AcDbLine
 10
130.0862217012
 20
51.53339376899999
 30
0.0
 11
131.1135639995
 21
52.5607360673
 31
0.0
  0
LINE
  5
25E
330
231
100
AcDbEntity
  8
0
  6
Continuous
 62
     7
100
AcDbLine
 10
131.582899272
 20
53.0300713399
 30
0.0
 11
132.6619217595
 21
54.10909382739999
 31
0.0
  0
LINE
  5
25F
330
231
100
AcDbEntity
  8
0
  6
Continuous
 62
     7
100
AcDbLine
 10
121.6486330609
 20
43.69920291529999
 30
0.0
 11
123.1896368757
 21
45.24020673009999
 31
0.0
  0
LINE
  5
260
330
231
100
AcDbEntity
  8
0
  6
Continuous
 62
     7
100
AcDbLine
 10
129.3536521348
 20
51.4042219892
 30
0.0
 11
130.3809942234
 21
52.43156407789999
 31
0.0
  0
LINE
  5
261
330
231
100
AcDbEntity
  8
0
  6
Continuous
 62
     7
100
AcDbLine
 10
131.4924522181
 20
53.5430220725
 30
0.0
 11
132.5714747056
 21
54.62204456
 31
0.0
  0
LINE
  5
262
330
231
100
AcDbEntity
  8
0
  6
Continuous
 62
     7
100
AcDbLine
 10
120.9160634945
 20
43.5700311355
 30
0.0
 11
122.4570673093
 21
45.11103495029999
 31
0.0
  0
LINE
  5
263
330
231
100
AcDbEntity
  8
0
  6
Continuous
 62
     7
100
AcDbLine
 10
128.6210825684
 20
51.27505020939999
 30
0.0
 11
129.6484244474
 21
52.30239208850001
 31
0.0
  0
LINE
  5
264
330
231
100
AcDbEntity
  8
0
  6
Continuous
 62
     7
100
AcDbLine
 10
131.4020051641
 20
54.05597280520001
 30
0.0
 11
132.4810276517
 21
55.1349952927
 31
0.0
  0
LINE
  5
265
330
231
100
AcDbEntity
  8
0
  6
Continuous
 62
     7
100
AcDbLine
 10
120.1834939281
 20
43.44085935569999
 30
0.0
 11
121.7244977428
 21
44.9818631705
 31
0.0
  0
LINE
  5
266
330
231
100
AcDbEntity
  8
0
  6
Continuous
 62
     7
100
AcDbLine
 10
127.8885130019
 20
51.1458784296
 30
0.0
 11
128.9158546714
 21
52.173220099
 31
0.0
  0
LINE
  5
267
330
231
100
AcDbEntity
  8
0
  6
Continuous
 62
     7
100
AcDbLine
 10
131.3115581102
 20
54.56892353789999
 30
0.0
 11
132.3905805977
 21
55.64794602540001
 31
0.0
  0
LINE
  5
268
330
231
100
AcDbEntity
  8
0
  6
Continuous
 62
     7
100
AcDbLine
 10
119.4509243616
 20
43.3116875759
 30
0.0
 11
120.9919281764
 21
44.85269139069999
 31
0.0
  0
LINE
  5
269
330
231
100
AcDbEntity
  8
0
  6
Continuous
 62
     7
100
AcDbLine
 10
127.1559434355
 20
51.01670664979999
 30
0.0
 11
128.1832848953
 21
52.04404810959999
 31
0.0
  0
LINE
  5
26A
330
231
100
AcDbEntity
  8
0
  6
Continuous
 62
     7
100
AcDbLine
 10
131.2211110563
 20
55.0818742705
 30
0.0
 11
132.3001335438
 21
56.1608967581
 31
0.0
  0
LINE
  5
26B
330
231
100
AcDbEntity
  8
0
  6
Continuous
 62
     7
100
AcDbLine
 10
118.7183547952
 20
43.1825157961
 30
0.0
 11
120.25935861
 21
44.7235196109
 31
0.0
  0
LINE
  5
26C
330
231
100
AcDbEntity
  8
0
  6
Continuous
 62
     7
100
AcDbLine
 10
126.4233738691
 20
50.88753487
 30
0.0
 11
127.4507151193
 21
51.91487612020001
 31
0.0
  0
LINE
  5
26D
330
231
100
AcDbEntity
  8
0
  6
Continuous
 62
     7
100
AcDbLine
 10
131.1306640023
 20
55.5948250032
 30
0.0
 11
132.2096864898
 21
56.6738474907
 31
0.0
  0
LINE
  5
26E
330
231
100
AcDbEntity
  8
0
  6
Continuous
 62
     7
100
AcDbLine
 10
117.9857852288
 20
43.0533440163
 30
0.0
 11
119.5267890436
 21
44.59434783109999
 31
0.0
  0
LINE
  5
26F
330
231
100
AcDbEntity
  8
0
  6
Continuous
 62
     7
100
AcDbLine
 10
125.6908043027
 20
50.75836309020001
 30
0.0
 11
126.7181453433
 21
51.7857041308
 31
0.0
  0
LINE
  5
270
330
231
100
AcDbEntity
  8
0
  6
Continuous
 62
     7
100
AcDbLine
 10
131.0402169484
 20
56.1077757359
 30
0.0
 11
132.1192394359
 21
57.1867982234
 31
0.0
  0
LINE
  5
271
330
231
100
AcDbEntity
  8
0
  6
Continuous
 62
     7
100
AcDbLine
 10
117.2532156624
 20
42.9241722365
 30
0.0
 11
118.7942194772
 21
44.4651760513
 31
0.0
  0
LINE
  5
272
330
231
100
AcDbEntity
  8
0
  6
Continuous
 62
     7
100
AcDbLine
 10
124.9582347363
 20
50.62919131040001
 30
0.0
 11
125.9855755673
 21
51.6565321414
 31
0.0
  0
LINE
  5
273
330
231
100
AcDbEntity
  8
0
  6
Continuous
 62
     7
100
AcDbLine
 10
130.9497698944
 20
56.6207264685
 30
0.0
 11
132.0287923819
 21
57.69974895609999
 31
0.0
  0
LINE
  5
274
330
231
100
AcDbEntity
  8
0
  6
Continuous
 62
     7
100
AcDbLine
 10
116.520646096
 20
42.7950004567
 30
0.0
 11
118.0616499107
 21
44.3360042715
 31
0.0
  0
LINE
  5
275
330
231
100
AcDbEntity
  8
0
  6
Continuous
 62
     7
100
AcDbLine
 10
124.2256651699
 20
50.5000195306
 30
0.0
 11
125.2530057912
 21
51.527360152
 31
0.0
  0
LINE
  5
276
330
231
100
AcDbEntity
  8
0
  6
Continuous
 62
     7
100
AcDbLine
 10
130.8593228405
 20
57.1336772012
 30
0.0
 11
131.938345328
 21
58.2126996887
 31
0.0
  0
LINE
  5
277
330
231
100
AcDbEntity
  8
0
  6
Continuous
 62
     7
100
AcDbLine
 10
115.7880765296
 20
42.6658286769
 30
0.0
 11
117.3290803443
 21
44.20683249169999
 31
0.0
  0
LINE
  5
278
330
231
100
AcDbEntity
  8
0
  6
Continuous
 62
     7
100
AcDbLine
 10
123.4930956034
 20
50.3708477508
 30
0.0
 11
124.5204360152
 21
51.3981881625
 31
0.0
  0
LINE
  5
279
330
231
100
AcDbEntity
  8
0
  6
Continuous
 62
     7
100
AcDbLine
 10
130.6844467391
 20
57.5621988864
 30
0.0
 11
131.8478982741
 21
58.7256504214
 31
0.0
  0
LINE
  5
27A
330
231
100
AcDbEntity
  8
0
  6
Continuous
 62
     7
100
AcDbLine
 10
115.0555069631
 20
42.5366568971
 30
0.0
 11
116.5965107779
 21
44.07766071189999
 31
0.0
  0
LINE
  5
27B
330
231
100
AcDbEntity
  8
0
  6
Continuous
 62
     7
100
AcDbLine
 10
122.760526037
 20
50.241675971
 30
0.0
 11
123.7878662392
 21
51.2690161731
 31
0.0
  0
LINE
  5
27C
330
231
100
AcDbEntity
  8
0
  6
Continuous
 62
     7
100
AcDbLine
 10
129.9518771726
 20
57.4330271066
 30
0.0
 11
131.4928809874
 21
58.9740309214
 31
0.0
  0
LINE
  5
27D
330
231
100
AcDbEntity
  8
0
  6
Continuous
 62
     7
100
AcDbLine
 10
114.3229373967
 20
42.40748511729999
 30
0.0
 11
115.8639412115
 21
43.94848893209999
 31
0.0
  0
LINE
  5
27E
330
231
100
AcDbEntity
  8
0
  6
Continuous
 62
     7
100
AcDbLine
 10
122.0279564706
 20
50.11250419119999
 30
0.0
 11
123.0552964631
 21
51.1398441837
 31
0.0
  0
LINE
  5
27F
330
231
100
AcDbEntity
  8
0
  6
Continuous
 62
     7
100
AcDbLine
 10
129.2193076062
 20
57.3038553268
 30
0.0
 11
130.760311421
 21
58.84485914159999
 31
0.0
  0
LINE
  5
280
330
231
100
AcDbEntity
  8
0
  6
Continuous
 62
     7
100
AcDbLine
 10
113.5903678303
 20
42.2783133375
 30
0.0
 11
115.1313716451
 21
43.81931715229999
 31
0.0
  0
LINE
  5
281
330
231
100
AcDbEntity
  8
0
  6
Continuous
 62
     7
100
AcDbLine
 10
121.2953869042
 20
49.9833324114
 30
0.0
 11
122.3227266871
 21
51.01067219429999
 31
0.0
  0
LINE
  5
282
330
231
100
AcDbEntity
  8
0
  6
Continuous
 62
     7
100
AcDbLine
 10
128.4867380398
 20
57.174683547
 30
0.0
 11
130.0277418545999
 21
58.7156873618
 31
0.0
  0
LINE
  5
283
330
231
100
AcDbEntity
  8
0
  6
Continuous
 62
     7
100
AcDbLine
 10
112.8577982639
 20
42.14914155769999
 30
0.0
 11
114.3988020787
 21
43.69014537239999
 31
0.0
  0
LINE
  5
284
330
231
100
AcDbEntity
  8
0
  6
Continuous
 62
     7
100
AcDbLine
 10
120.5628173378
 20
49.85416063159999
 30
0.0
 11
121.5901569111
 21
50.8815002049
 31
0.0
  0
LINE
  5
285
330
231
100
AcDbEntity
  8
0
  6
Continuous
 62
     7
100
AcDbLine
 10
127.7541684734
 20
57.0455117672
 30
0.0
 11
129.2951722882
 21
58.586515582
 31
0.0
  0
LINE
  5
286
330
231
100
AcDbEntity
  8
0
  6
Continuous
 62
     7
100
AcDbLine
 10
112.1252286975
 20
42.0199697779
 30
0.0
 11
113.6662325122
 21
43.5609735926
 31
0.0
  0
LINE
  5
287
330
231
100
AcDbEntity
  8
0
  6
Continuous
 62
     7
100
AcDbLine
 10
119.8302477713
 20
49.72498885180001
 30
0.0
 11
120.8575871351
 21
50.7523282155
 31
0.0
  0
LINE
  5
288
330
231
100
AcDbEntity
  8
0
  6
Continuous
 62
     7
100
AcDbLine
 10
127.021598907
 20
56.9163399874
 30
0.0
 11
128.5626027218
 21
58.4573438022
 31
0.0
  0
LINE
  5
289
330
231
100
AcDbEntity
  8
0
  6
Continuous
 62
     7
100
AcDbLine
 10
111.392659131
 20
41.8907979981
 30
0.0
 11
112.9336629458
 21
43.4318018128
 31
0.0
  0
LINE
  5
28A
330
231
100
AcDbEntity
  8
0
  6
Continuous
 62
     7
100
AcDbLine
 10
119.0976782049
 20
49.59581707189999
 30
0.0
 11
120.125017359
 21
50.623156226
 31
0.0
  0
LINE
  5
28B
330
231
100
AcDbEntity
  8
0
  6
Continuous
 62
     7
100
AcDbLine
 10
126.2890293406
 20
56.7871682076
 30
0.0
 11
127.8300331553
 21
58.3281720223
 31
0.0
  0
LINE
  5
28C
330
231
100
AcDbEntity
  8
0
  6
Continuous
 62
     7
100
AcDbLine
 10
110.6600895646
 20
41.7616262183
 30
0.0
 11
112.2010933794
 21
43.30263003299999
 31
0.0
  0
LINE
  5
28D
330
231
100
AcDbEntity
  8
0
  6
Continuous
 62
     7
100
AcDbLine
 10
118.3651086385
 20
49.4666452921
 30
0.0
 11
119.392447583
 21
50.4939842366
 31
0.0
  0
LINE
  5
28E
330
231
100
AcDbEntity
  8
0
  6
Continuous
 62
     7
100
AcDbLine
 10
125.5564597741
 20
56.6579964278
 30
0.0
 11
127.0974635889
 21
58.19900024249999
 31
0.0
  0
LINE
  5
28F
330
231
100
AcDbEntity
  8
0
  6
Continuous
 62
     7
100
AcDbLine
 10
109.9275199982
 20
41.6324544385
 30
0.0
 11
111.468523813
 21
43.17345825319999
 31
0.0
  0
LINE
  5
290
330
231
100
AcDbEntity
  8
0
  6
Continuous
 62
     7
100
AcDbLine
 10
117.6325390721
 20
49.3374735123
 30
0.0
 11
118.659877807
 21
50.3648122472
 31
0.0
  0
LINE
  5
291
330
231
100
AcDbEntity
  8
0
  6
Continuous
 62
     7
100
AcDbLine
 10
124.8238902077
 20
56.52882464800001
 30
0.0
 11
126.3648940225
 21
58.0698284627
 31
0.0
  0
LINE
  5
292
330
231
100
AcDbEntity
  8
0
  6
Continuous
 62
     7
100
AcDbLine
 10
109.1949504318
 20
41.50328265859999
 30
0.0
 11
110.7359542466
 21
43.04428647339999
 31
0.0
  0
LINE
  5
293
330
231
100
AcDbEntity
  8
0
  6
Continuous
 62
     7
100
AcDbLine
 10
116.8999695057
 20
49.20830173249999
 30
0.0
 11
117.9273080309
 21
50.2356402578
 31
0.0
  0
LINE
  5
294
330
231
100
AcDbEntity
  8
0
  6
Continuous
 62
     7
100
AcDbLine
 10
124.0913206413
 20
56.3996528682
 30
0.0
 11
125.6323244561
 21
57.9406566829
 31
0.0
  0
LINE
  5
295
330
231
100
AcDbEntity
  8
0
  6
Continuous
 62
     7
100
AcDbLine
 10
108.6436296593
 20
41.5553596727
 30
0.0
 11
110.0033846801
 21
42.9151146936
 31
0.0
  0
LINE
  5
296
330
231
100
AcDbEntity
  8
0
  6
Continuous
 62
     7
100
AcDbLine
 10
116.1673999393
 20
49.07912995270001
 30
0.0
 11
117.1947382549
 21
50.1064682684
 31
0.0
  0
LINE
  5
297
330
231
100
AcDbEntity
  8
0
  6
Continuous
 62
     7
100
AcDbLine
 10
123.3587510749
 20
56.2704810884
 30
0.0
 11
124.8997548897
 21
57.8114849031
 31
0.0
  0
LINE
  5
298
330
231
100
AcDbEntity
  8
0
  6
Continuous
 62
     7
100
AcDbLine
 10
108.5531826053
 20
42.0683104054
 30
0.0
 11
109.6322050928
 21
43.14733289289999
 31
0.0
  0
LINE
  5
299
330
231
100
AcDbEntity
  8
0
  6
Continuous
 62
     7
100
AcDbLine
 10
115.4348303728
 20
48.94995817289999
 30
0.0
 11
116.4621684789
 21
49.977296279
 31
0.0
  0
LINE
  5
29A
330
231
100
AcDbEntity
  8
0
  6
Continuous
 62
     7
100
AcDbLine
 10
122.6261815085
 20
56.1413093085
 30
0.0
 11
124.1671853232
 21
57.6823131233
 31
0.0
  0
LINE
  5
29B
330
231
100
AcDbEntity
  8
0
  6
Continuous
 62
     7
100
AcDbLine
 10
108.4627355514
 20
42.58126113809999
 30
0.0
 11
109.5417580389
 21
43.6602836256
 31
0.0
  0
LINE
  5
29C
330
231
100
AcDbEntity
  8
0
  6
Continuous
 62
     7
100
AcDbLine
 10
114.7022608064
 20
48.82078639310001
 30
0.0
 11
115.7295987029
 21
49.8481242896
 31
0.0
  0
LINE
  5
29D
330
231
100
AcDbEntity
  8
0
  6
Continuous
 62
     7
100
AcDbLine
 10
121.893611942
 20
56.0121375287
 30
0.0
 11
123.4346157568
 21
57.5531413435
 31
0.0
  0
LINE
  5
29E
330
231
100
AcDbEntity
  8
0
  6
Continuous
 62
     7
100
AcDbLine
 10
108.3722884974
 20
43.09421187069999
 30
0.0
 11
109.451310985
 21
44.1732343583
 31
0.0
  0
LINE
  5
29F
330
231
100
AcDbEntity
  8
0
  6
Continuous
 62
     7
100
AcDbLine
 10
113.96969124
 20
48.6916146133
 30
0.0
 11
114.9970289268
 21
49.7189523001
 31
0.0
  0
LINE
  5
2A0
330
231
100
AcDbEntity
  8
0
  6
Continuous
 62
     7
100
AcDbLine
 10
121.1610423756
 20
55.88296574890001
 30
0.0
 11
122.7020461904
 21
57.4239695637
 31
0.0
  0
LINE
  5
2A1
330
231
100
AcDbEntity
  8
0
  6
Continuous
 62
     7
100
AcDbLine
 10
108.2818414435
 20
43.6071626034
 30
0.0
 11
109.360863931
 21
44.6861850909
 31
0.0
  0
LINE
  5
2A2
330
231
100
AcDbEntity
  8
0
  6
Continuous
 62
     7
100
AcDbLine
 10
113.2371216736
 20
48.5624428335
 30
0.0
 11
114.2644591508
 21
49.5897803107
 31
0.0
  0
LINE
  5
2A3
330
231
100
AcDbEntity
  8
0
  6
Continuous
 62
     7
100
AcDbLine
 10
120.4284728092
 20
55.7537939691
 30
0.0
 11
121.969476624
 21
57.2947977839
 31
0.0
  0
LINE
  5
2A4
330
231
100
AcDbEntity
  8
0
  6
Continuous
 62
     7
100
AcDbLine
 10
108.1913943896
 20
44.12011333609999
 30
0.0
 11
109.2704168771
 21
45.1991358236
 31
0.0
  0
LINE
  5
2A5
330
231
100
AcDbEntity
  8
0
  6
Continuous
 62
     7
100
AcDbLine
 10
112.5045521072
 20
48.4332710537
 30
0.0
 11
113.5318893748
 21
49.4606083213
 31
0.0
  0
LINE
  5
2A6
330
231
100
AcDbEntity
  8
0
  6
Continuous
 62
     7
100
AcDbLine
 10
119.6959032428
 20
55.62462218930001
 30
0.0
 11
121.2369070576
 21
57.1656260041
 31
0.0
  0
LINE
  5
2A7
330
231
100
AcDbEntity
  8
0
  6
Continuous
 62
     7
100
AcDbLine
 10
108.1009473356
 20
44.6330640687
 30
0.0
 11
109.1799698231
 21
45.7120865563
 31
0.0
  0
LINE
  5
2A8
330
231
100
AcDbEntity
  8
0
  6
Continuous
 62
     7
100
AcDbLine
 10
111.7719825408
 20
48.3040992739
 30
0.0
 11
112.7993195987
 21
49.33143633189999
 31
0.0
  0
LINE
  5
2A9
330
231
100
AcDbEntity
  8
0
  6
Continuous
 62
     7
100
AcDbLine
 10
118.9633336764
 20
55.4954504095
 30
0.0
 11
120.5043374912
 21
57.0364542243
 31
0.0
  0
LINE
  5
2AA
330
231
100
AcDbEntity
  8
0
  6
Continuous
 62
     7
100
AcDbLine
 10
108.0105002817
 20
45.1460148014
 30
0.0
 11
109.0895227692
 21
46.2250372889
 31
0.0
  0
LINE
  5
2AB
330
231
100
AcDbEntity
  8
0
  6
Continuous
 62
     7
100
AcDbLine
 10
111.0394129743
 20
48.1749274941
 30
0.0
 11
112.0667498227
 21
49.2022643425
 31
0.0
  0
LINE
  5
2AC
330
231
100
AcDbEntity
  8
0
  6
Continuous
 62
     7
100
AcDbLine
 10
118.23076411
 20
55.3662786297
 30
0.0
 11
119.7717679247
 21
56.90728244449999
 31
0.0
  0
LINE
  5
2AD
330
231
100
AcDbEntity
  8
0
  6
Continuous
 62
     7
100
AcDbLine
 10
107.9200532277
 20
45.6589655341
 30
0.0
 11
108.9990757152
 21
46.73798802159999
 31
0.0
  0
LINE
  5
2AE
330
231
100
AcDbEntity
  8
0
  6
Continuous
 62
     7
100
AcDbLine
 10
110.3068434079
 20
48.0457557143
 30
0.0
 11
111.3341800467
 21
49.0730923531
 31
0.0
  0
LINE
  5
2AF
330
231
100
AcDbEntity
  8
0
  6
Continuous
 62
     7
100
AcDbLine
 10
117.4981945435
 20
55.2371068499
 30
0.0
 11
119.0391983583
 21
56.7781106647
 31
0.0
  0
LINE
  5
2B0
330
231
100
AcDbEntity
  8
0
  6
Continuous
 62
     7
100
AcDbLine
 10
107.8296061738
 20
46.1719162668
 30
0.0
 11
108.9086286612999
 21
47.2509387543
 31
0.0
  0
LINE
  5
2B1
330
231
100
AcDbEntity
  8
0
  6
Continuous
 62
     7
100
AcDbLine
 10
109.5742738415
 20
47.91658393449999
 30
0.0
 11
110.6016102707
 21
48.94392036359999
 31
0.0
  0
LINE
  5
2B2
330
231
100
AcDbEntity
  8
0
  6
Continuous
 62
     7
100
AcDbLine
 10
116.7656249771
 20
55.1079350701
 30
0.0
 11
118.3066287919
 21
56.64893888489999
 31
0.0
  0
LINE
  5
2B3
330
231
100
AcDbEntity
  8
0
  6
Continuous
 62
     7
100
AcDbLine
 10
107.7391591198
 20
46.68486699939999
 30
0.0
 11
108.8181816073
 21
47.7638894869
 31
0.0
  0
LINE
  5
2B4
330
231
100
AcDbEntity
  8
0
  6
Continuous
 62
     7
100
AcDbLine
 10
108.8417042751
 20
47.7874121547
 30
0.0
 11
109.8690404946
 21
48.8147483742
 31
0.0
  0
LINE
  5
2B5
330
231
100
AcDbEntity
  8
0
  6
Continuous
 62
     7
100
AcDbLine
 10
116.0330554107
 20
54.97876329029999
 30
0.0
 11
117.5740592255
 21
56.5197671051
 31
0.0
  0
LINE
  5
2B6
330
231
100
AcDbEntity
  8
0
  6
Continuous
 62
     7
100
AcDbLine
 10
107.6487120659
 20
47.1978177321
 30
0.0
 11
109.1364707186
 21
48.68557638479999
 31
0.0
  0
LINE
  5
2B7
330
231
100
AcDbEntity
  8
0
  6
Continuous
 62
     7
100
AcDbLine
 10
115.3004858443
 20
54.8495915105
 30
0.0
 11
116.8414896591
 21
56.3905953253
 31
0.0
  0
LINE
  5
2B8
330
231
100
AcDbEntity
  8
0
  6
Continuous
 62
     7
100
AcDbLine
 10
107.5582650119
 20
47.71076846479999
 30
0.0
 11
108.6372874995
 21
48.7897909523
 31
0.0
  0
LINE
  5
2B9
330
231
100
AcDbEntity
  8
0
  6
Continuous
 62
     7
100
AcDbLine
 10
114.5679162779
 20
54.72041973069999
 30
0.0
 11
116.1089200926
 21
56.2614235455
 31
0.0
  0
LINE
  5
2BA
330
231
100
AcDbEntity
  8
0
  6
Continuous
 62
     7
100
AcDbLine
 10
107.467817958
 20
48.2237191974
 30
0.0
 11
108.5468404455
 21
49.3027416849
 31
0.0
  0
LINE
  5
2BB
330
231
100
AcDbEntity
  8
0
  6
Continuous
 62
     7
100
AcDbLine
 10
113.8353467115
 20
54.59124795090001
 30
0.0
 11
115.3763505262
 21
56.1322517657
 31
0.0
  0
LINE
  5
2BC
330
231
100
AcDbEntity
  8
0
  6
Continuous
 62
     7
100
AcDbLine
 10
107.3773709041
 20
48.7366699301
 30
0.0
 11
108.4563933916
 21
49.8156924176
 31
0.0
  0
LINE
  5
2BD
330
231
100
AcDbEntity
  8
0
  6
Continuous
 62
     7
100
AcDbLine
 10
113.102777145
 20
54.46207617109999
 30
0.0
 11
114.6437809598
 21
56.0030799859
 31
0.0
  0
LINE
  5
2BE
330
231
100
AcDbEntity
  8
0
  6
Continuous
 62
     7
100
AcDbLine
 10
107.2869238501
 20
49.24962066279999
 30
0.0
 11
108.3659463376
 21
50.3286431503
 31
0.0
  0
LINE
  5
2BF
330
231
100
AcDbEntity
  8
0
  6
Continuous
 62
     7
100
AcDbLine
 10
112.3702075786
 20
54.3329043913
 30
0.0
 11
113.9112113934
 21
55.873908206
 31
0.0
  0
LINE
  5
2C0
330
231
100
AcDbEntity
  8
0
  6
Continuous
 62
     7
100
AcDbLine
 10
107.1964767962
 20
49.7625713954
 30
0.0
 11
108.2754992837
 21
50.841593883
 31
0.0
  0
LINE
  5
2C1
330
231
100
AcDbEntity
  8
0
  6
Continuous
 62
     7
100
AcDbLine
 10
111.6376380122
 20
54.20373261149999
 30
0.0
 11
113.178641827
 21
55.7447364262
 31
0.0
  0
LINE
  5
2C2
330
231
100
AcDbEntity
  8
0
  6
Continuous
 62
     7
100
AcDbLine
 10
107.1060297422
 20
50.2755221281
 30
0.0
 11
108.1850522297
 21
51.35454461560001
 31
0.0
  0
LINE
  5
2C3
330
231
100
AcDbEntity
  8
0
  6
Continuous
 62
     7
100
AcDbLine
 10
110.9050684458
 20
54.0745608317
 30
0.0
 11
112.4460722606
 21
55.6155646464
 31
0.0
  0
LINE
  5
2C4
330
231
100
AcDbEntity
  8
0
  6
Continuous
 62
     7
100
AcDbLine
 10
107.0155826883
 20
50.7884728608
 30
0.0
 11
108.0946051758
 21
51.86749534829999
 31
0.0
  0
LINE
  5
2C5
330
231
100
AcDbEntity
  8
0
  6
Continuous
 62
     7
100
AcDbLine
 10
110.1724988794
 20
53.9453890519
 30
0.0
 11
111.7135026941
 21
55.4863928666
 31
0.0
  0
LINE
  5
2C6
330
231
100
AcDbEntity
  8
0
  6
Continuous
 62
     7
100
AcDbLine
 10
106.9251356343
 20
51.3014235934
 30
0.0
 11
108.0041581219
 21
52.380446081
 31
0.0
  0
LINE
  5
2C7
330
231
100
AcDbEntity
  8
0
  6
Continuous
 62
     7
100
AcDbLine
 10
109.4399293129
 20
53.81621727199999
 30
0.0
 11
110.9809331277
 21
55.3572210868
 31
0.0
  0
LINE
  5
2C8
330
231
100
AcDbEntity
  8
0
  6
Continuous
 62
     7
100
AcDbLine
 10
106.8346885804
 20
51.8143743261
 30
0.0
 11
107.9137110679
 21
52.8933968136
 31
0.0
  0
LINE
  5
2C9
330
231
100
AcDbEntity
  8
0
  6
Continuous
 62
     7
100
AcDbLine
 10
108.7073597465
 20
53.6870454922
 30
0.0
 11
110.2483635613
 21
55.228049307
 31
0.0
  0
LINE
  5
2CA
330
231
100
AcDbEntity
  8
0
  6
Continuous
 62
     7
100
AcDbLine
 10
106.7442415265
 20
52.3273250588
 30
0.0
 11
107.823264014
 21
53.4063475463
 31
0.0
  0
LINE
  5
2CB
330
231
100
AcDbEntity
  8
0
  6
Continuous
 62
     7
100
AcDbLine
 10
107.9747901801
 20
53.55787371239999
 30
0.0
 11
109.5157939949
 21
55.0988775272
 31
0.0
  0
LINE
  5
2CC
330
231
100
AcDbEntity
  8
0
  6
Continuous
 62
     7
100
AcDbLine
 10
106.6537944725
 20
52.84027579149999
 30
0.0
 11
108.7832244285
 21
54.9697057474
 31
0.0
  0
LINE
  5
2CD
330
231
100
AcDbEntity
  8
0
  6
Continuous
 62
     7
100
AcDbLine
 10
106.5633474186
 20
53.3532265241
 30
0.0
 11
108.050654862
 21
54.8405339676
 31
0.0
  0
LINE
  5
2CE
330
231
100
AcDbEntity
  8
0
  6
Continuous
 62
     7
100
AcDbLine
 10
106.4729003646
 20
53.8661772568
 30
0.0
 11
107.3180852956
 21
54.71136218779999
 31
0.0
  0
LINE
  5
2CF
330
231
100
AcDbEntity
  8
0
  6
Continuous
 62
     7
100
AcDbLine
 10
106.3824533107
 20
54.3791279895
 30
0.0
 11
106.5855157292
 21
54.582190408
 31
0.0
  0
ENDBLK
  5
2D0
330
231
100
AcDbEntity
  8
0
  6
ByBlock
 62
     0
100
AcDbBlockEnd
  0
BLOCK
  5
2D1
330
232
100
AcDbEntity
  8
0
  6
Continuous
 62
     7
100
AcDbBlockBegin
  2
SYMBOL_7_BL3
 70
     0
 10
40.1361644286
 20
96.60917899680001
 30
0.0
  3
SYMBOL_7_BL3
  1

  0
TEXT
  5
2D2
330
232
100
AcDbEntity
  8
0
  6
Continuous
 62
     7
100
AcDbText
 10
39.8234290256
 20
95.7935404989
 30
0.0
 40
1.333333852099999
  1
L
 50
18.0
  7
TEXTSTYLE_2
100
AcDbText
  0
TEXT
  5
2D3
330
232
100
AcDbEntity
  8
0
  6
Continuous
 62
     7
100
AcDbText
 10
35.859776089
 20
94.5187211076
 30
0.0
 40
1.333333852099999
  1
J1
 50
18.0
  7
TEXTSTYLE_2
100
AcDbText
  0
TEXT
  5
2D4
330
232
100
AcDbEntity
  8
0
  6
Continuous
 62
     7
100
AcDbText
 10
42.94124812399999
 20
96.8196308501
 30
0.0
 40
1.333333852099999
  1
J2
 50
18.0
  7
TEXTSTYLE_2
100
AcDbText
  0
ELLIPSE
  5
2D5
330
232
100
AcDbEntity
  8
0
  6
Continuous
 62
     7
100
AcDbEllipse
 10
40.119951378
 20
96.59086154040002
 30
0.0
 11
-1.847795881899999
 21
-0.6003852766
 31
0.0
210
0.0
220
0.0
230
1.0
 40
0.6606458385
 41
0.0
 42
6.283185307179586
  0
ENDBLK
  5
2D6
330
232
100
AcDbEntity
  8
0
  6
ByBlock
 62
     0
100
AcDbBlockEnd
  0
BLOCK
  5
2D7
330
233
100
AcDbEntity
  8
0
  6
Continuous
 62
     7
100
AcDbBlockBegin
  2
SYMBOL_6_BL2
 70
     0
 10
64.80204218129999
 20
96.5154918524
 30
0.0
  3
SYMBOL_6_BL2
  1

  0
TEXT
  5
2D8
330
233
100
AcDbEntity
  8
0
  6
Continuous
 62
     7
100
AcDbText
 10
64.0696136452
 20
96.0394477041
 30
0.0
 40
1.333333852099999
  1
L
 50
342.0
  7
TEXTSTYLE_2
100
AcDbText
  0
TEXT
  5
2D9
330
233
100
AcDbEntity
  8
0
  6
Continuous
 62
     7
100
AcDbText
 10
60.1136310222
 20
97.33787389319999
 30
0.0
 40
1.333333852099999
  1
J1
 50
342.0
  7
TEXTSTYLE_2
100
AcDbText
  0
TEXT
  5
2DA
330
233
100
AcDbEntity
  8
0
  6
Continuous
 62
     7
100
AcDbText
 10
67.1951030571
 20
95.03696415070001
 30
0.0
 40
1.333333852099999
  1
J2
 50
342.0
  7
TEXTSTYLE_2
100
AcDbText
  0
ELLIPSE
  5
2DB
330
233
100
AcDbEntity
  8
0
  6
Continuous
 62
     7
100
AcDbEllipse
 10
64.7781588171
 20
96.510202511
 30
0.0
 11
-1.847795881899999
 21
0.6003852766
 31
0.0
210
0.0
220
0.0
230
1.0
 40
0.6606458385
 41
0.0
 42
6.283185307179586
  0
ENDBLK
  5
2DC
330
233
100
AcDbEntity
  8
0
  6
ByBlock
 62
     0
100
AcDbBlockEnd
  0
BLOCK
  5
2DD
330
234
100
AcDbEntity
  8
0
  6
Continuous
 62
     7
100
AcDbBlockBegin
  2
SYMBOL_5_BL1
 70
     0
 10
52.3604130063
 20
71.9932823466
 30
0.0
  3
SYMBOL_5_BL1
  1

  0
TEXT
  5
2DE
330
234
100
AcDbEntity
  8
0
  6
Continuous
 62
     7
100
AcDbText
 10
51.83201773899999
 20
71.32661542060001
 30
0.0
 40
1.333333852099999
  1
L
  7
TEXTSTYLE_2
100
AcDbText
  0
ELLIPSE
  5
2DF
330
234
100
AcDbEntity
  8
0
  6
Continuous
 62
     7
100
AcDbEllipse
 10
52.3604130063
 20
71.9932823466
 30
0.0
 11
-1.942887567899999
 21
0.0
 31
0.0
210
0.0
220
0.0
230
1.0
 40
0.6606458385
 41
0.0
 42
6.283185307179586
  0
ENDBLK
  5
2E0
330
234
100
AcDbEntity
  8
0
  6
ByBlock
 62
     0
100
AcDbBlockEnd
  0
BLOCK
  5
2E1
330
235
100
AcDbEntity
  8
0
  6
Continuous
 62
     7
100
AcDbBlockBegin
  2
SYMBOL_0_BL0
 70
     0
 10
160.6669938391
 20
55.3336716871
 30
0.0
  3
SYMBOL_0_BL0
  1

  0
TEXT
  5
2E2
330
235
100
AcDbEntity
  8
0
  6
Continuous
 62
     7
100
AcDbText
 10
144.4192087629
 20
63.1071050782
 30
0.0
 40
0.5
  1
Infomations Techniques/Technical Infomations
  7
TEXTSTYLE_2
100
AcDbText
  0
TEXT
  5
2E3
330
235
100
AcDbEntity
  8
0
  6
Continuous
 62
     7
100
AcDbText
 10
144.6669938391
 20
61.6670050204
 30
0.0
 40
0.6666666667
  1
NOMBRE DE JETS:     
  7
TEXTSTYLE_2
100
AcDbText
  0
TEXT
  5
2E4
330
235
100
AcDbEntity
  8
0
  6
Continuous
 62
     7
100
AcDbText
 10
154.5114382835
 20
61.6670050204
 30
0.0
 40
0.6666666667
  1
35
  7
TEXTSTYLE_2
100
AcDbText
  0
TEXT
  5
2E5
330
235
100
AcDbEntity
  8
0
  6
Continuous
 62
     7
100
AcDbText
 10
144.6669938391
 20
60.66700502039999
 30
0.0
 40
0.6666666667
  1
 
  7
TEXTSTYLE_2
100
AcDbText
  0
TEXT
  5
2E6
330
235
100
AcDbEntity
  8
0
  6
Continuous
 62
     7
100
AcDbText
 10
144.6669938391
 20
59.6670050204
 30
0.0
 40
0.6666666667
  1
NIVEAU D'EAU              GALLONS(US)        LITRES        GALLONS(UK)
  7
TEXTSTYLE_2
100
AcDbText
  0
TEXT
  5
2E7
330
235
100
AcDbEntity
  8
0
  6
Continuous
 62
     7
100
AcDbText
 10
144.6669938391
 20
58.6670050204
 30
0.0
 40
0.6666666667
  1
PLEIN
  7
TEXTSTYLE_2
100
AcDbText
  0
TEXT
  5
2E8
330
235
100
AcDbEntity
  8
0
  6
Continuous
 62
     7
100
AcDbText
 10
144.6669938391
 20
57.66700502039999
 30
0.0
 40
0.6666666667
  1
HAUT T.PLEIN
  7
TEXTSTYLE_2
100
AcDbText
  0
TEXT
  5
2E9
330
235
100
AcDbEntity
  8
0
  6
Continuous
 62
     7
100
AcDbText
 10
144.6669938391
 20
56.6670050204
 30
0.0
 40
0.6666666667
  1
MILIEU T.PLEIN
  7
TEXTSTYLE_2
100
AcDbText
  0
TEXT
  5
2EA
330
235
100
AcDbEntity
  8
0
  6
Continuous
 62
     7
100
AcDbText
 10
144.6669938391
 20
55.66700502039999
 30
0.0
 40
0.6666666667
  1
BAS T.PLEIN
  7
TEXTSTYLE_2
100
AcDbText
  0
TEXT
  5
2EB
330
235
100
AcDbEntity
  8
0
  6
Continuous
 62
     7
100
AcDbText
 10
144.6669938391
 20
54.6670050204
 30
0.0
 40
0.6666666667
  1
3" EN BAS T.PLEIN
  7
TEXTSTYLE_2
100
AcDbText
  0
TEXT
  5
2EC
330
235
100
AcDbEntity
  8
0
  6
Continuous
 62
     7
100
AcDbText
 10
144.6669938391
 20
53.6670050204
 30
0.0
 40
0.6666666667
  1
 
  7
TEXTSTYLE_2
100
AcDbText
  0
TEXT
  5
2ED
330
235
100
AcDbEntity
  8
0
  6
Continuous
 62
     7
100
AcDbText
 10
144.4668323335
 20
53.1202180956
 30
0.0
 40
0.5
  1
Legende/Legend
  7
TEXTSTYLE_2
100
AcDbText
  0
TEXT
  5
2EE
330
235
100
AcDbEntity
  8
0
  6
Continuous
 62
     7
100
AcDbText
 10
150.9956672775
 20
51.6089531179
 30
0.0
 40
0.6666666667
  1
ZONE DE ROBINETTERIE
  7
TEXTSTYLE_2
100
AcDbText
  0
TEXT
  5
2EF
330
235
100
AcDbEntity
  8
0
  6
Continuous
 62
     7
100
AcDbText
 10
145.9159427106
 20
50.1137086035
 30
0.0
 40
0.6666666667
  1
L   :  SYSTEME LED       DC   :  DOUBLE DOSSIER CHAUFFANT
  7
TEXTSTYLE_2
100
AcDbText
  0
TEXT
  5
2F0
330
235
100
AcDbEntity
  8
0
  6
Continuous
 62
     7
100
AcDbText
 10
145.9159427106
 20
48.7803752702
 30
0.0
 40
0.6666666667
  1
C   :  CONTROLE
  7
TEXTSTYLE_2
100
AcDbText
  0
TEXT
  5
2F1
330
235
100
AcDbEntity
  8
0
  6
Continuous
 62
     7
100
AcDbText
 10
145.9159427106
 20
47.44704193689999
 30
0.0
 40
0.6666666667
  1
T   :  MOTEUR
  7
TEXTSTYLE_2
100
AcDbText
  0
TEXT
  5
2F2
330
235
100
AcDbEntity
  8
0
  6
Continuous
 62
     7
100
AcDbText
 10
157.4996905384
 20
58.6670050204
 30
0.0
 40
0.6666666667
  1
90
  7
TEXTSTYLE_2
100
AcDbText
  0
TEXT
  5
2F3
330
235
100
AcDbEntity
  8
0
  6
Continuous
 62
     7
100
AcDbText
 10
157.4996905384
 20
57.66700502039999
 30
0.0
 40
0.6666666667
  1
69
  7
TEXTSTYLE_2
100
AcDbText
  0
TEXT
  5
2F4
330
235
100
AcDbEntity
  8
0
  6
Continuous
 62
     7
100
AcDbText
 10
157.4996905384
 20
56.6670050204
 30
0.0
 40
0.6666666667
  1
68
  7
TEXTSTYLE_2
100
AcDbText
  0
TEXT
  5
2F5
330
235
100
AcDbEntity
  8
0
  6
Continuous
 62
     7
100
AcDbText
 10
157.4996905384
 20
55.66700502039999
 30
0.0
 40
0.6666666667
  1
66
  7
TEXTSTYLE_2
100
AcDbText
  0
TEXT
  5
2F6
330
235
100
AcDbEntity
  8
0
  6
Continuous
 62
     7
100
AcDbText
 10
157.4996905384
 20
54.6670050204
 30
0.0
 40
0.6666666667
  1
51
  7
TEXTSTYLE_2
100
AcDbText
  0
TEXT
  5
2F7
330
235
100
AcDbEntity
  8
0
  6
Continuous
 62
     7
100
AcDbText
 10
164.4198964821
 20
58.6840844226
 30
0.0
 40
0.6666666667
  1
341
  7
TEXTSTYLE_2
100
AcDbText
  0
TEXT
  5
2F8
330
235
100
AcDbEntity
  8
0
  6
Continuous
 62
     7
100
AcDbText
 10
164.4198964821
 20
57.6840844226
 30
0.0
 40
0.6666666667
  1
260
  7
TEXTSTYLE_2
100
AcDbText
  0
TEXT
  5
2F9
330
235
100
AcDbEntity
  8
0
  6
Continuous
 62
     7
100
AcDbText
 10
164.4198964821
 20
56.6840844226
 30
0.0
 40
0.6666666667
  1
256
  7
TEXTSTYLE_2
100
AcDbText
  0
TEXT
  5
2FA
330
235
100
AcDbEntity
  8
0
  6
Continuous
 62
     7
100
AcDbText
 10
164.4198964821
 20
55.6840844226
 30
0.0
 40
0.6666666667
  1
251
  7
TEXTSTYLE_2
100
AcDbText
  0
TEXT
  5
2FB
330
235
100
AcDbEntity
  8
0
  6
Continuous
 62
     7
100
AcDbText
 10
164.4198964821
 20
54.6840844226
 30
0.0
 40
0.6666666667
  1
192
  7
TEXTSTYLE_2
100
AcDbText
  0
TEXT
  5
2FC
330
235
100
AcDbEntity
  8
0
  6
Continuous
 62
     7
100
AcDbText
 10
171.3645354196
 20
58.6670050204
 30
0.0
 40
0.6666666667
  1
75
  7
TEXTSTYLE_2
100
AcDbText
  0
TEXT
  5
2FD
330
235
100
AcDbEntity
  8
0
  6
Continuous
 62
     7
100
AcDbText
 10
171.3645354196
 20
57.66700502039999
 30
0.0
 40
0.6666666667
  1
57
  7
TEXTSTYLE_2
100
AcDbText
  0
TEXT
  5
2FE
330
235
100
AcDbEntity
  8
0
  6
Continuous
 62
     7
100
AcDbText
 10
171.3645354196
 20
56.6670050204
 30
0.0
 40
0.6666666667
  1
56
  7
TEXTSTYLE_2
100
AcDbText
  0
TEXT
  5
2FF
330
235
100
AcDbEntity
  8
0
  6
Continuous
 62
     7
100
AcDbText
 10
171.3645354196
 20
55.66700502039999
 30
0.0
 40
0.6666666667
  1
55
  7
TEXTSTYLE_2
100
AcDbText
  0
TEXT
  5
300
330
235
100
AcDbEntity
  8
0
  6
Continuous
 62
     7
100
AcDbText
 10
171.3645354196
 20
54.6670050204
 30
0.0
 40
0.6666666667
  1
42
  7
TEXTSTYLE_2
100
AcDbText
  0
LINE
  5
301
330
235
100
AcDbEntity
  8
0
  6
Continuous
 62
     7
100
AcDbLine
 10
144.0003271724
 20
64.0003383538
 30
0.0
 11
144.0003271724
 21
46.6670050204
 31
0.0
  0
LINE
  5
302
330
235
100
AcDbEntity
  8
0
  6
Continuous
 62
     7
100
AcDbLine
 10
144.0003271724
 20
64.0003383538
 30
0.0
 11
177.3336605057
 21
64.0003383538
 31
0.0
  0
LINE
  5
303
330
235
100
AcDbEntity
  8
0
  6
Continuous
 62
     7
100
AcDbLine
 10
177.3336605057
 20
64.0003383538
 30
0.0
 11
177.3336605057
 21
46.6670050204
 31
0.0
  0
LINE
  5
304
330
235
100
AcDbEntity
  8
0
  6
Continuous
 62
     7
100
AcDbLine
 10
144.0003271724
 20
46.6670050204
 30
0.0
 11
177.3336605057
 21
46.6670050204
 31
0.0
  0
LINE
  5
305
330
235
100
AcDbEntity
  8
0
  6
Continuous
 62
     7
100
AcDbLine
 10
145.3336605057
 20
54.0003383538
 30
0.0
 11
176.0003271724
 21
54.0003383538
 31
0.0
  0
LINE
  5
306
330
235
100
AcDbEntity
  8
0
  6
Continuous
 62
     7
100
AcDbLine
 10
145.3336605057
 20
61.0003383538
 30
0.0
 11
176.0003271724
 21
61.0003383538
 31
0.0
  0
LINE
  5
307
330
235
100
AcDbEntity
  8
0
  6
Continuous
 62
     7
100
AcDbLine
 10
144.8092337317
 20
52.37850285810001
 30
0.0
 11
144.4402129893
 21
52.0094821158
 31
0.0
  0
LINE
  5
308
330
235
100
AcDbEntity
  8
0
  6
Continuous
 62
     7
100
AcDbLine
 10
145.4759003983
 20
52.37850285810001
 30
0.0
 11
144.6778846079
 21
51.5804870677
 31
0.0
  0
LINE
  5
309
330
235
100
AcDbEntity
  8
0
  6
Continuous
 62
     7
100
AcDbLine
 10
146.142567065
 20
52.37850285810001
 30
0.0
 11
145.3445512745999
 21
51.5804870677
 31
0.0
  0
LINE
  5
30A
330
235
100
AcDbEntity
  8
0
  6
Continuous
 62
     7
100
AcDbLine
 10
146.8092337317
 20
52.37850285810001
 30
0.0
 11
146.0112179412
 21
51.5804870677
 31
0.0
  0
LINE
  5
30B
330
235
100
AcDbEntity
  8
0
  6
Continuous
 62
     7
100
AcDbLine
 10
147.4759003983
 20
52.37850285810001
 30
0.0
 11
146.6778846079
 21
51.5804870677
 31
0.0
  0
LINE
  5
30C
330
235
100
AcDbEntity
  8
0
  6
Continuous
 62
     7
100
AcDbLine
 10
148.142567065
 20
52.37850285810001
 30
0.0
 11
147.3445512746
 21
51.5804870677
 31
0.0
  0
LINE
  5
30D
330
235
100
AcDbEntity
  8
0
  6
Continuous
 62
     7
100
AcDbLine
 10
148.8092337317
 20
52.37850285810001
 30
0.0
 11
148.0112179412
 21
51.5804870677
 31
0.0
  0
LINE
  5
30E
330
235
100
AcDbEntity
  8
0
  6
Continuous
 62
     7
100
AcDbLine
 10
149.4759003983
 20
52.37850285810001
 30
0.0
 11
148.6778846079
 21
51.5804870677
 31
0.0
  0
LINE
  5
30F
330
235
100
AcDbEntity
  8
0
  6
Continuous
 62
     7
100
AcDbLine
 10
150.142567065
 20
52.37850285810001
 30
0.0
 11
149.3445512745999
 21
51.5804870677
 31
0.0
  0
LINE
  5
310
330
235
100
AcDbEntity
  8
0
  6
Continuous
 62
     7
100
AcDbLine
 10
150.5860544992
 20
52.15532362560001
 30
0.0
 11
150.0112179412
 21
51.5804870677
 31
0.0
  0
ELLIPSE
  5
311
330
235
100
AcDbEntity
  8
0
  6
Continuous
 62
     7
100
AcDbEllipse
 10
146.1457296546
 20
50.43128606069999
 30
0.0
 11
1.0473539356
 21
0.0
 31
0.0
210
0.0
220
0.0
230
1.0
 40
0.4938647983
 41
0.0
 42
6.283185307179586
  0
ELLIPSE
  5
312
330
235
100
AcDbEntity
  8
0
  6
Continuous
 62
     7
100
AcDbEllipse
 10
146.1457296546
 20
49.0979527274
 30
0.0
 11
1.0473539356
 21
0.0
 31
0.0
210
0.0
220
0.0
230
1.0
 40
0.4938647983
 41
0.0
 42
6.283185307179586
  0
ELLIPSE
  5
313
330
235
100
AcDbEntity
  8
0
  6
Continuous
 62
     7
100
AcDbEllipse
 10
146.1457296546
 20
47.76461939409999
 30
0.0
 11
1.0473539356
 21
0.0
 31
0.0
210
0.0
220
0.0
230
1.0
 40
0.4938647983
 41
0.0
 42
6.283185307179586
  0
ELLIPSE
  5
314
330
235
100
AcDbEntity
  8
0
  6
Continuous
 62
     7
100
AcDbEllipse
 10
157.1643652357
 20
50.4508074178
 30
0.0
 11
1.0473539356
 21
0.0
 31
0.0
210
0.0
220
0.0
230
1.0
 40
0.4938647983
 41
0.0
 42
6.283185307179586
  0
ENDBLK
  5
315
330
235
100
AcDbEntity
  8
0
  6
ByBlock
 62
     0
100
AcDbBlockEnd
  0
ENDSEC
  0
SECTION
  2
ENTITIES
  0
LWPOLYLINE
  5
14C2
330
21F
100
AcDbEntity
  8
0
  6
Continuous
 62
     7
100
AcDbPolyline
 90
       40
 70
     0
 43
0.0
 10
20.4060701042
 20
85.3688962906
 10
20.4198511657
 20
84.78302803069999
 10
20.4618513635
 20
84.1960365905
 10
20.5317107912
 20
83.6181540629
 10
20.6293298656
 20
83.0475770484
 10
20.754877396
 20
82.48251184039999
 10
20.908861418
 20
81.92124238060001
 10
21.092053317
 20
81.36213044619999
 10
21.3055525445
 20
80.8036493119
 10
21.5506821193
 20
80.24468227479999
 10
21.8288423767
 20
79.68470585449999
 10
22.1414917308
 20
79.1233296079
 10
22.4903768577
 20
78.5604053167
 10
22.877185638
 20
77.9961730145
 10
23.3036727355
 20
77.43116554709999
 10
23.7716963036
 20
76.8661630661
 10
24.2828931015
 20
76.30211143069999
 10
24.8389603291
 20
75.7403942817
 10
25.4415225026
 20
75.1823919345
 10
26.0931861505
 20
74.62875111629999
 10
26.7974519763
 20
74.0797343642
 10
27.5576678635
 20
73.5365006548
 10
28.3751111951
 20
73.0016677453
 10
29.2502771769
 20
72.4779484158
 10
30.1837751495
 20
71.96809783419999
 10
31.1787000402
 20
71.47335467499999
 10
32.240462553
 20
70.9942622582
 10
33.3746558281
 20
70.531952625
 10
34.5865972022
 20
70.08829177149999
 10
35.8813134182
 20
69.6656886038
 10
37.2607114674
 20
69.2678845731
 10
38.7150394011
 20
68.90129395069999
 10
40.23248260619999
 20
68.57121276069999
 10
41.8102293237
 20
68.27980488029999
 10
43.4500370438
 20
68.0283370189
 10
45.1499321081
 20
67.81879685859999
 10
46.90523942279999
 20
67.65329232270001
 10
48.7111908648
 20
67.5335538691
 10
50.56300894079999
 20
67.46100419390001
 10
52.44487100909999
 20
67.43679991489999
  0
LWPOLYLINE
  5
14C3
330
21F
100
AcDbEntity
  8
0
  6
Continuous
 62
     7
100
AcDbPolyline
 90
       50
 70
     0
 43
0.0
 10
20.421472976
 20
85.3688962906
 10
20.433052683
 20
85.90578231469999
 10
20.4684932269
 20
86.44589954290001
 10
20.52818703
 20
86.9833468662
 10
20.6114370955
 20
87.51216226209999
 10
20.7175402875
 20
88.0316879205
 10
20.8482111661
 20
88.55050004170001
 10
21.0068827076
 20
89.0775016783
 10
21.1984682139
 20
89.6206479201
 10
21.4267084553
 20
90.1808266992
 10
21.6917912197
 20
90.750585226
 10
21.9922413205
 20
91.32226120959998
 10
22.3273410254
 20
91.8921186498
 10
22.6978808847
 20
92.45949426370001
 10
23.104257759
 20
93.0233622591
 10
23.5462027497
 20
93.58158364799999
 10
24.0189860928
 20
94.12776985549999
 10
24.5155122275
 20
94.65478515479999
 10
25.0290858949
 20
95.1577903375
 10
25.5559932691
 20
95.63605604580001
 10
26.0927633752
 20
96.08933459180001
 10
26.6355048917
 20
96.51724662780001
 10
27.1841480566
 20
96.92223527629998
 10
27.7420898464
 20
97.30859679860001
 10
28.3117094924
 20
97.6792534343
 10
28.8919600867
 20
98.0345275898
 10
29.4821449289
 20
98.3747962113
 10
30.0837915543
 20
98.70157274569999
 10
30.6988997694
 20
99.0163755268
 10
31.3304445079
 20
99.3208781605
 10
31.9819254389
 20
99.6165676224
 10
32.6574896932
 20
99.90484248959999
 10
33.36298161070001
 20
100.1873342655
 10
34.1045968654
 20
100.4652434582
 10
34.8891300068
 20
100.7393987248
 10
35.7235874239
 20
101.0101701623
 10
36.6142465637
 20
101.2770367786
 10
37.5578175663
 20
101.5364687318
 10
38.5442065776
 20
101.7837561359
 10
39.5668660395
 20
102.0159682922
 10
40.6277945324
 20
102.2324756926
 10
41.730226877
 20
102.4326985692
 10
42.8765945103
 20
102.6156633307
 10
44.06857110549999
 20
102.7801200324
 10
45.31050507289999
 20
102.9249488453
 10
46.60929718479999
 20
103.0488954025
 10
47.9706040464
 20
103.1500507172
 10
49.3961427026
 20
103.225824283
 10
50.8872015691
 20
103.2734603842
 10
52.4448710112
 20
103.2900136903
  0
LWPOLYLINE
  5
14C4
330
21F
100
AcDbEntity
  8
0
  6
Continuous
 62
     7
100
AcDbPolyline
 90
       50
 70
     0
 43
0.0
 10
22.4572804565
 20
84.8727919735
 10
22.4897412603
 20
84.3717106174
 10
22.5444502931
 20
83.87387921830001
 10
22.620276718
 20
83.3873607698
 10
22.7164827915
 20
82.91166942390001
 10
22.8352184785
 20
82.43582834520001
 10
22.9807860291
 20
81.9487812779
 10
23.1591694176
 20
81.4412314626
 10
23.3735252238
 20
80.9155312775
 10
23.6234382627
 20
80.3809962022
 10
23.9068762436
 20
79.8460283845
 10
24.2234992447
 20
79.3134008886
 10
24.5735969067
 20
78.7841092005
 10
24.9569866375
 20
78.2595050075
 10
25.3711288118
 20
77.74359180890001
 10
25.8096008775
 20
77.2433115921
 10
26.2646240186
 20
76.76526678409999
 10
26.7315873688
 20
76.3111253713
 10
27.2084119318
 20
75.8797635391
 10
27.6930069951
 20
75.47022816329999
 10
28.1839074013
 20
75.08136291640001
 10
28.6822806366
 20
74.71030318619999
 10
29.18972590800001
 20
74.35445677050001
 10
29.7079726844
 20
74.01165710409999
 10
30.2384439427
 20
73.680427877
 10
30.7824902658
 20
73.35966619130001
 10
31.3408108912
 20
73.0487834108
 10
31.9142541952
 20
72.7472178148
 10
32.5037653161
 20
72.4545715328
 10
33.1101530694
 20
72.1706039447
 10
33.7367534778
 20
71.8940858401
 10
34.3894108419
 20
71.62311738719999
 10
35.0742612621
 20
71.3562622626
 10
35.7979007757
 20
71.0924901284
 10
36.5666440959
 20
70.8314149045
 10
37.3855005471
 20
70.57369065350001
 10
38.2519676477
 20
70.32236833289999
 10
39.1614110751
 20
70.0807709874
 10
40.1116904766
 20
69.8511572762
 10
41.10354606829999
 20
69.6349204145
 10
42.13807766939999
 20
69.43336374350001
 10
43.2162788284
 20
69.2479370156
 10
44.33791079779999
 20
69.0804020363
 10
45.469914938
 20
68.9362861963
 10
46.5420611835
 20
68.8218620965
 10
47.50280583579999
 20
68.7368487522
 10
48.3746171671
 20
68.6735831502
 10
49.1966927164
 20
68.6256942326
 10
50.00701055859999
 20
68.5893933465
 10
50.8197054074
 20
68.5636262504
  0
LWPOLYLINE
  5
14C5
330
21F
100
AcDbEntity
  8
0
  6
Continuous
 62
     7
100
AcDbPolyline
 90
       53
 70
     0
 43
0.0
 10
22.4467579558
 20
85.3688962906
 10
22.4593675441
 20
84.82609222890001
 10
22.4973930687
 20
84.28759313289999
 10
22.5610176735
 20
83.75424879209999
 10
22.6502581324
 20
83.22689201379999
 10
22.764885082
 20
82.7064782809
 10
22.9043042473
 20
82.19434834960001
 10
23.0679484911
 20
81.69095255749999
 10
23.2570127275
 20
81.19191590439999
 10
23.4738766893
 20
80.69237714619999
 10
23.7206938046
 20
80.19010823020002
 10
23.9990816506
 20
79.68470247319999
 10
24.3107850362
 20
79.17622667409999
 10
24.6570283128
 20
78.66552282579999
 10
25.0349994874
 20
78.1586483504
 10
25.4394269479
 20
77.66279909229999
 10
25.8637433791
 20
77.184382438
 10
26.302611411
 20
76.72702630439999
 10
26.7520470041
 20
76.2919811859
 10
27.2091145914
 20
75.87914961770001
 10
27.6735648836
 20
75.4861462944
 10
28.1457862009
 20
75.1106946796
 10
28.626374179
 20
74.750821192
 10
29.1156235868
 20
74.40512604770001
 10
29.6143992027
 20
74.0720994715
 10
30.1240893033
 20
73.7502349587
 10
30.646088311
 20
73.43837333100001
 10
31.1815696665
 20
73.13565422169999
 10
31.7306322567
 20
72.8419080621
 10
32.293807002
 20
72.55686164140001
 10
32.8722883867
 20
72.28001144210001
 10
33.4686834406
 20
72.0103564292
 10
34.0882108476
 20
71.7460818855
 10
34.7364840299
 20
71.48571374810001
 10
35.418720732
 20
71.22845050009999
 10
36.1395089642
 20
70.9741136479
 10
36.9034197819
 20
70.7229533357
 10
37.71248373280001
 20
70.4763408555
 10
38.5621475685
 20
70.237483585
 10
39.4470483322
 20
70.0093631437
 10
40.3670995855
 20
69.79324638140001
 10
41.3316954641
 20
69.5884147167
 10
42.3515917402
 20
69.3946888493
 10
43.42733973029999
 20
69.2144734143
 10
44.5232001942
 20
69.05512869
 10
45.5949431634
 20
68.92185526279999
 10
46.61646453449999
 20
68.8146947509
 10
47.6007838084
 20
68.7290872273
 10
48.5666777878
 20
68.66138370539999
 10
49.5324380445
 20
68.60935406359999
 10
50.5033870709
 20
68.5724023157
 10
51.4756248797
 20
68.55045866319999
 10
52.4448710113
 20
68.5432442927
  0
LINE
  5
14C6
330
21F
100
AcDbEntity
  8
0
  6
Continuous
 62
     7
100
AcDbLine
 10
22.4467579558
 20
85.3688962906
 30
0.0
 11
22.4572804565
 21
84.8727919735
 31
0.0
  0
LWPOLYLINE
  5
14C7
330
21F
100
AcDbEntity
  8
0
  6
Continuous
 62
     7
100
AcDbPolyline
 90
        3
 70
     0
 43
0.0
 10
22.4897412726
 20
86.36608210450001
 10
22.4572804595
 20
85.8650006779
 10
22.4467579558
 20
85.3688962906
  0
LWPOLYLINE
  5
14C8
330
21F
100
AcDbEntity
  8
0
  6
Continuous
 62
     7
100
AcDbPolyline
 90
       75
 70
     0
 43
0.0
 10
32.3825239257
 20
85.3688962906
 10
32.3851540312
 20
85.1498781313
 10
32.3921715428
 20
84.9499965016
 10
32.4025358158
 20
84.766441042
 10
32.4152378995
 20
84.59972521420001
 10
32.4293733864
 20
84.4497261338
 10
32.4444424864
 20
84.3136445845
 10
32.4604695865
 20
84.18654513289999
 10
32.4778941492
 20
84.06289556529999
 10
32.4971945275
 20
83.9389687981
 10
32.5185148922
 20
83.8141811142
 10
32.5416275536
 20
83.69006837749999
 10
32.5662404754
 20
83.5679600231
 10
32.5928245717
 20
83.4454151245
 10
32.6229536608
 20
83.31605361120001
 10
32.6581385742
 20
83.1754329099
 10
32.6991486691
 20
83.02311131560001
 10
32.7464008281
 20
82.86018655810002
 10
32.8007905712
 20
82.68622589679999
 10
32.863320405
 20
82.5008582413
 10
32.93291760280001
 20
82.30962052290001
 10
33.0060272757
 20
82.12287516229999
 10
33.08061272670001
 20
81.94471956660001
 10
33.1601551875
 20
81.76626934300001
 10
33.251278945
 20
81.57424270539999
 10
33.3590426616
 20
81.3616233001
 10
33.4869322363
 20
81.12643618529999
 10
33.6386140112
 20
80.8677482176
 10
33.8197630054
 20
80.5827172192
 10
34.03776614050001
 20
80.26783761169999
 10
34.3018459876
 20
79.91977756219999
 10
34.6143028716
 20
79.54614728119999
 10
34.9665247402
 20
79.165060498
 10
35.3534617979
 20
78.785997185
 10
35.7769976658
 20
78.4098070038
 10
36.2403327733
 20
78.0364976867
 10
36.7475441567
 20
77.66589628529999
 10
37.3018569681
 20
77.2988910279
 10
37.90651663550001
 20
76.9368539206
 10
38.5686931854
 20
76.57922980800001
 10
39.29507534280001
 20
76.22670750399999
 10
40.04907040209999
 20
75.8987407963
 10
40.75534067849999
 20
75.62212387879999
 10
41.3813691189
 20
75.3989462016
 10
41.9398769934
 20
75.21580999140001
 10
42.44351267619999
 20
75.06262924100001
 10
42.8988171913
 20
74.9333183203
 10
43.3070497984
 20
74.82440837439999
 10
43.6714000277
 20
74.73259823319999
 10
44.0032883782
 20
74.65324498130001
 10
44.31910211279999
 20
74.5814098684
 10
44.6335476438
 20
74.51334855129999
 10
44.9529931039
 20
74.44765342300001
 10
45.27383671039999
 20
74.38509446739999
 10
45.5930115238
 20
74.32620668130001
 10
45.91047377489999
 20
74.2708739026
 10
46.23358195429999
 20
74.2177977762
 10
46.5748407803
 20
74.1652125849
 10
46.94615571199999
 20
74.11195479239999
 10
47.3512440363
 20
74.0584437584
 10
47.77010407259999
 20
74.0080239186
 10
48.1760876281
 20
73.96379883219999
 10
48.5475818227
 20
73.92724217600001
 10
48.8843836342
 20
73.89726103390001
 10
49.1980725597
 20
73.87199122310001
 10
49.4995637946
 20
73.8500771843
 10
49.7983935883
 20
73.83061697969999
 10
50.0978259931
 20
73.8133406729
 10
50.397806058
 20
73.7982300043
 10
50.6951237105
 20
73.7853909299
 10
50.9909140735
 20
73.7746980279
 10
51.2987094334
 20
73.7657396651
 10
51.63363375100001
 20
73.75846371279999
 10
52.01070274640001
 20
73.75330091409999
 10
52.4448710113
 20
73.7512487228
  0
LWPOLYLINE
  5
14C9
330
21F
100
AcDbEntity
  8
0
  6
Continuous
 62
     7
100
AcDbPolyline
 90
       50
 70
     0
 43
0.0
 10
53.2566722553
 20
68.5482993714
 10
54.0700335132
 20
68.5636261721
 10
54.8827267017
 20
68.58939316449999
 10
55.6930435438
 20
68.62569393619999
 10
56.5151187443
 20
68.6735827521
 10
57.3869299729
 20
68.7368482547
 10
58.34767439220001
 20
68.82186147119999
 10
59.4198202845
 20
68.9362854035
 10
60.5518243809
 20
69.0804010905
 10
61.6734566762
 20
69.24793596810001
 10
62.7516582462
 20
69.43336262319999
 10
63.78619025959999
 20
69.6349192389
 10
64.7780462293
 20
69.85115605439999
 10
65.72832598239999
 20
70.08076972800001
 10
66.63776975080001
 20
70.322367048
 10
67.5042372056
 20
70.57368936199999
 10
68.3230940227
 20
70.8314136267
 10
69.09183768609999
 20
71.09248887449999
 10
69.8154774987
 20
71.3562610325
 10
70.5003281771
 20
71.6231161785
 10
71.15298576159999
 20
71.89408464839999
 10
71.7795863572
 20
72.1706027643
 10
72.3859742695
 20
72.45457035770001
 10
72.97548553919999
 20
72.7472166455
 10
73.54892898439999
 20
73.048782249
 10
74.1072497426
 20
73.35966503739999
 10
74.6512961922
 20
73.68042673169999
 10
75.18176757
 20
74.0116559679
 10
75.70001445719999
 20
74.35445564200001
 10
76.2074598316
 20
74.7103020635
 10
76.7058331618
 20
75.0813617961
 10
77.1967336563
 20
75.47022704220001
 10
77.68132880589999
 20
75.87976241639999
 10
78.1581534589
 20
76.31112425159999
 10
78.6251169013
 20
76.7652656706
 10
79.08014013729999
 20
77.24331048979999
 10
79.51861230919999
 20
77.743590735
 10
79.9327545985
 20
78.2595039814
 10
80.3161444456
 20
78.7841082371
 10
80.6662422155
 20
79.3133999927
 10
80.9828653151
 20
79.84602755890001
 10
81.26630338449999
 20
80.3809954489
 10
81.5162165048
 20
80.91553060489999
 10
81.7305723842
 20
81.44123087990001
 10
81.9089558351
 20
81.9487807898
 10
82.05452343340001
 20
82.43582794069999
 10
82.1732591559
 20
82.91166909080001
 10
82.26946525619998
 20
83.38736050029998
 10
82.34529170180001
 20
83.8738790102
 10
82.4000007499
 20
84.37171047659999
  0
LWPOLYLINE
  5
14CA
330
21F
100
AcDbEntity
  8
0
  6
Continuous
 62
     7
100
AcDbPolyline
 90
       40
 70
     0
 43
0.0
 10
52.44487100909999
 20
67.43679991489999
 10
54.3256334578
 20
67.46097568409999
 10
56.17747272929999
 20
67.53349721959999
 10
57.983530537
 20
67.653214314
 10
59.7389841129
 20
67.8187071757
 10
61.4390122814
 20
68.0282413411
 10
63.0788912798
 20
68.279699866
 10
64.6566745598
 20
68.57109521239999
 10
66.1742478053
 20
68.90118726379999
 10
67.62884401939999
 20
69.2678341529
 10
69.00852969209999
 20
69.66572101539999
 10
70.30345515899999
 20
70.08839820999999
 10
71.51554010569999
 20
70.53212817010001
 10
72.6498481258
 20
70.9945063623
 10
73.7117180677
 20
71.47367512390001
 10
74.7067489575
 20
71.9685055771
 10
75.6403542826
 20
72.4784571344
 10
76.51561316029999
 20
73.00228242340001
 10
77.3331101685
 20
73.5372093444
 10
78.09331986229999
 20
74.0805035803
 10
78.7975123632
 20
74.62952978310001
 10
79.4490532227
 20
75.18313175850001
 10
80.0514616695
 20
75.74105237880001
 10
80.60735605229998
 20
76.3026469676
 10
81.1183722081
 20
76.86654064489999
 10
81.5862196433
 20
77.431356061
 10
82.01254632979999
 20
77.9961571769
 10
82.3992207228
 20
78.5601861195
 10
82.748008388
 20
79.1229213069
 10
83.0606044143
 20
79.68414028899999
 10
83.3387386969
 20
80.2439981038
 10
83.58387538
 20
80.80288172600001
 10
83.79739948580001
 20
81.3613185646
 10
83.98063191549999
 20
81.9204152288
 10
84.13465981659999
 20
82.4816876566
 10
84.26025174819999
 20
83.04676072859999
 10
84.35791201479998
 20
83.61733735779999
 10
84.42780969499999
 20
84.19519490979999
 10
84.46984830439999
 20
84.7821270152
 10
84.4836719184
 20
85.3688962906
  0
LWPOLYLINE
  5
14CB
330
21F
100
AcDbEntity
  8
0
  6
Continuous
 62
     7
100
AcDbPolyline
 90
       53
 70
     0
 43
0.0
 10
52.4448710113
 20
68.5432442927
 10
53.414112536
 20
68.5504585944
 10
54.38634423649999
 20
68.5724019915
 10
55.357287605
 20
68.60935331170001
 10
56.3230444891
 20
68.6613824831
 10
57.2889376867
 20
68.7290856186
 10
58.27325756149999
 20
68.8146928447
 10
59.2947796947
 20
68.92185307310001
 10
60.3665228566
 20
69.0551261364
 10
61.462383643
 20
69.21447049770001
 10
62.5381324908
 20
69.3946856674
 10
63.5580300628
 20
69.588411397
 10
64.5226271697
 20
69.7932429667
 10
65.4426795012
 20
70.0093596482
 10
66.32758117979999
 20
70.23748000810001
 10
67.17724592749999
 20
70.4763372332
 10
67.9863108215
 20
70.72294971729999
 10
68.7502225843
 20
70.97411007689998
 10
69.47101167380001
 20
71.2284469896
 10
70.15324914699999
 20
71.4857103035
 10
70.8015230083
 20
71.74607850360001
 10
71.42105099520001
 20
72.0103530963
 10
72.01744653919999
 20
72.2800081403
 10
72.59592834740001
 20
72.5568583567
 10
73.15910348900001
 20
72.8419047956
 10
73.708166452
 20
73.1356509748
 10
74.2436481688
 20
73.43837010999999
 10
74.76564752139999
 20
73.7502317663
 10
75.2753379422
 20
74.07209630459999
 10
75.7741138563
 20
74.4051229031
 10
76.2633635424
 20
74.75081806430001
 10
76.7439517877
 20
75.1106915683
 10
77.2161733632
 20
75.486143199
 10
77.68062390109999
 20
75.87914653369999
 10
78.13769172739999
 20
76.2919781113
 10
78.5871275621
 20
76.7270232442
 10
79.0259958551
 20
77.18437941810001
 10
79.450312561
 20
77.6627961394
 10
79.85474032109999
 20
78.15864551379999
 10
80.2327118074
 20
78.66552015189999
 10
80.5789553946
 20
79.1762242063
 10
80.89065906450001
 20
79.68470022439999
 10
81.1690471602
 20
80.1901061987
 10
81.4158644928
 20
80.69237532869999
 10
81.6327286419
 20
81.1919142964
 10
81.8217930345
 20
81.69095114500001
 10
81.98543740869999
 20
82.1943471221
 10
82.1248566841
 20
82.7064772393
 10
82.2394837256
 20
83.22689116879999
 10
82.32872425649999
 20
83.7542481502
 10
82.39234891290001
 20
84.28759270070001
 10
82.43037446829999
 20
84.8260920108
 10
82.44298406670001
 20
85.3688962906
  0
LINE
  5
14CC
330
21F
100
AcDbEntity
  8
0
  6
Continuous
 62
     7
100
AcDbLine
 10
52.4448710113
 20
68.5432442927
 30
0.0
 11
53.2566722553
 21
68.5482993714
 31
0.0
  0
LWPOLYLINE
  5
14CD
330
21F
100
AcDbEntity
  8
0
  6
Continuous
 62
     7
100
AcDbPolyline
 90
        3
 70
     0
 43
0.0
 10
50.8197054074
 20
68.5636262504
 10
51.6330684457
 20
68.5482993879
 10
52.4448710113
 20
68.5432442927
  0
LWPOLYLINE
  5
14CE
330
21F
100
AcDbEntity
  8
0
  6
Continuous
 62
     7
100
AcDbPolyline
 90
       69
 70
     0
 43
0.0
 10
52.4448710113
 20
73.7512487229
 10
53.2918951709
 20
73.75911950629999
 10
54.1475036086
 20
73.78354962899999
 10
54.9149144178
 20
73.8201701924
 10
55.5910726159
 20
73.8644225189
 10
56.19809535649999
 20
73.91405353599999
 10
56.746735773
 20
73.9672341051
 10
57.244281135
 20
74.02251354819999
 10
57.69318670819999
 20
74.0783198855
 10
58.0950210596
 20
74.1331831601
 10
58.45586346880001
 20
74.1865063778
 10
58.7884185907
 20
74.23913284060001
 10
59.10641588909999
 20
74.2926524657
 10
59.4231527652
 20
74.3491366997
 10
59.7428663793
 20
74.409443786
 10
60.06340316470001
 20
74.4732894256
 10
60.3809252234
 20
74.539939084
 10
60.6938903328
 20
74.60902444930001
 10
61.01303762939999
 20
74.68303789560001
 10
61.3542511525
 20
74.7662620601
 10
61.7335169196
 20
74.86389020469999
 10
62.15893649209999
 20
74.9800517039
 10
62.63147954509999
 20
75.1177045849
 10
63.1548296618
 20
75.28134489740001
 10
63.7410889135
 20
75.47961997649998
 10
64.4007661899
 20
75.7232109854
 10
65.1190996947
 20
76.01568899330001
 10
65.83688716800001
 20
76.34000847919999
 10
66.5053055235
 20
76.6750252394
 10
67.11820772260001
 20
77.0145347122
 10
67.6829432589
 20
77.35928062790001
 10
68.20313970399999
 20
77.70855112439999
 10
68.6815528626
 20
78.0612509821
 10
69.12156135859999
 20
78.4172753767
 10
69.52663306019999
 20
78.7770075077
 10
69.89819298180001
 20
79.13938085169999
 10
70.23115054209999
 20
79.4960737799
 10
70.51893367419999
 20
79.83403673499999
 10
70.76284933069999
 20
80.14663938060001
 10
70.96964516069999
 20
80.4343358851
 10
71.1458632945
 20
80.6992617258
 10
71.2968777973
 20
80.9436713242
 10
71.4266812681
 20
81.1690621213
 10
71.53801897560001
 20
81.3756190057
 10
71.63367883560001
 20
81.5644885322
 10
71.71790625939999
 20
81.7409573509
 10
71.79684035220001
 20
81.91641962629999
 10
71.8745000114
 20
82.10023437450001
 10
71.949110087
 20
82.2892792935
 10
72.0168822418
 20
82.47377192550001
 10
72.07656074289999
 20
82.64834589480001
 10
72.1290616939
 20
82.81322276899999
 10
72.1753101645
 20
82.9690669975
 10
72.21559820999999
 20
83.1146346683
 10
72.2503473663
 20
83.2490743079
 10
72.2805633506
 20
83.3740649377
 10
72.30785460469999
 20
83.4947811884
 10
72.3334084059
 20
83.6160049847
 10
72.3573710867
 20
83.73855272760001
 10
72.3794869873
 20
83.8612120133
 10
72.3996464681
 20
83.983185913
 10
72.4181478263
 20
84.1061334809
 10
72.4356226412
 20
84.23512634159999
 10
72.4525459066
 20
84.3766697723
 10
72.4687985097
 20
84.5358337593
 10
72.4835333843
 20
84.7137716842
 10
72.49567166899999
 20
84.9107570205
 10
72.5040472517
 20
85.12844810789999
 10
72.50721809689999
 20
85.3688962906
  0
LINE
  5
14CF
330
21F
100
AcDbEntity
  8
DEFAULT_1
  6
CENTER
 62
     7
100
AcDbLine
 10
56.3198710113
 20
81.1188962906
 30
0.0
 11
54.1282043446
 21
81.1188962906
 31
0.0
  0
LINE
  5
14D0
330
21F
100
AcDbEntity
  8
DEFAULT_1
  6
CENTER
 62
     7
100
AcDbLine
 10
56.3198710113
 20
81.1188962906
 30
0.0
 11
58.5115376779
 21
81.1188962906
 31
0.0
  0
LWPOLYLINE
  5
14D1
330
21F
100
AcDbEntity
  8
0
  6
Continuous
 62
     7
100
AcDbPolyline
 90
       22
 70
     0
 43
0.0
 10
50.4717189083
 20
85.3688962906
 10
50.4773385304
 20
85.22030708699999
 10
50.49384203369999
 20
85.0746934866
 10
50.52114712369999
 20
84.93066923049999
 10
50.55909559229999
 20
84.7890826575
 10
50.607497838
 20
84.6506616031
 10
50.6660721467
 20
84.51622476
 10
50.7345010708
 20
84.38650305580001
 10
50.8124283329
 20
84.26218620729999
 10
50.89940496189999
 20
84.14399745899999
 10
50.9949692735
 20
84.03257147479999
 10
51.0986045305
 20
83.9285206383
 10
51.2097543595
 20
83.83241582649999
 10
51.3278077339
 20
83.74480140840001
 10
51.45205768810001
 20
83.66620434819999
 10
51.5818437181
 20
83.5970441191
 10
51.7164159312
 20
83.53772320350001
 10
51.8549939228
 20
83.4885803188
 10
51.9967134492
 20
83.4499069459
 10
52.1433648428
 20
83.4214921621
 10
52.2936584274
 20
83.40410218859998
 10
52.4448710113
 20
83.3982898042
  0
LINE
  5
14D2
330
21F
100
AcDbEntity
  8
0
  6
Continuous
 62
     7
100
AcDbLine
 10
50.4448710113
 20
100.8103357712
 30
0.0
 11
50.4448710113
 21
100.8321977615
 31
0.0
  0
LINE
  5
14D3
330
21F
100
AcDbEntity
  8
0
  6
Continuous
 62
     7
100
AcDbLine
 10
50.8823710113
 20
100.5967420815
 30
0.0
 11
50.8823710113
 21
100.6023067417
 31
0.0
  0
LINE
  5
14D4
330
21F
100
AcDbEntity
  8
0
  6
Continuous
 62
     7
100
AcDbLine
 10
51.1323710113
 20
100.8308844519
 30
0.0
 11
51.1323710113
 21
100.8284995975
 31
0.0
  0
LWPOLYLINE
  5
14D5
330
21F
100
AcDbEntity
  8
0
  6
Continuous
 62
     7
100
AcDbPolyline
 90
       31
 70
     0
 43
0.0
 10
50.4448710113
 20
100.8103357712
 10
50.4450260564
 20
100.8148864127
 10
50.4462657582
 20
100.8239747965
 10
50.4487416477
 20
100.833024519
 10
50.4524467068
 20
100.8420099278
 10
50.457370433
 20
100.8509055527
 10
50.4634988695
 20
100.8596861782
 10
50.47081464459999
 20
100.8683269146
 10
50.479297021
 20
100.8768032688
 10
50.4889219543
 20
100.8850912137
 10
50.4996621618
 20
100.8931672561
 10
50.51148719909999
 20
100.9010085037
 10
50.52436354680001
 20
100.9085927296
 10
50.5382547056
 20
100.9158984354
 10
50.55312129949999
 20
100.9229049124
 10
50.5689211874
 20
100.9295923
 10
50.5856095829
 20
100.9359416419
 10
50.6031391809
 20
100.9419349404
 10
50.6214602919
 20
100.9475552067
 10
50.6405209827
 20
100.9527865097
 10
50.6602672236
 20
100.9576140205
 10
50.68064304189999
 20
100.9620240552
 10
50.70159068
 20
100.9660041129
 10
50.7230507596
 20
100.9695429118
 10
50.74496244979999
 20
100.9726304207
 10
50.76726363939999
 20
100.9752578879
 10
50.7898911134
 20
100.9774178653
 10
50.8127807318
 20
100.9791042305
 10
50.8358676113
 20
100.9803122031
 10
50.8590863098
 20
100.981038359
 10
50.8823710113
 20
100.9812806399
  0
LWPOLYLINE
  5
14D6
330
21F
100
AcDbEntity
  8
0
  6
Continuous
 62
     7
100
AcDbPolyline
 90
       31
 70
     0
 43
0.0
 10
50.4448710113
 20
100.8321977615
 10
50.4454705898
 20
100.8411443246
 10
50.447267682
 20
100.8500663659
 10
50.45025736229999
 20
100.8589394305
 10
50.454431436
 20
100.8677391981
 10
50.45977846229999
 20
100.8764415491
 10
50.4662837854
 20
100.885022631
 10
50.4739295747
 20
100.8934589235
 10
50.48269487359999
 20
100.9017273035
 10
50.4925556569
 20
100.9098051078
 10
50.5034848971
 20
100.9176701958
 10
50.51545263779999
 20
100.9253010098
 10
50.5284260762
 20
100.9326766342
 10
50.5423696531
 20
100.9397768531
 10
50.5572451501
 20
100.9465822051
 10
50.5730117945
 20
100.9530740373
 10
50.589626371
 20
100.9592345561
 10
50.60704334020001
 20
100.9650468758
 10
50.6252149634
 20
100.9704950653
 10
50.6440914335
 20
100.9755641916
 10
50.6636210113
 20
100.9802403604
 10
50.68375016760001
 20
100.9845107548
 10
50.7044237299
 20
100.9883636698
 10
50.7255850333
 20
100.9917885449
 10
50.7471760762
 20
100.9947759928
 10
50.76913767899999
 20
100.997317825
 10
50.79140964649999
 20
100.9994070746
 10
50.81393093279999
 20
101.0010380152
 10
50.83663980859999
 20
101.0022061763
 10
50.8594740304
 20
101.0029083562
 10
50.8823710113
 20
101.0031426302
  0
LWPOLYLINE
  5
14D7
330
21F
100
AcDbEntity
  8
0
  6
Continuous
 62
     7
100
AcDbPolyline
 90
        4
 70
     0
 43
0.0
 10
55.24816280060001
 20
100.930785322
 10
55.3061281411
 20
101.1998799343
 10
55.36148377119999
 20
101.4701551839
 10
55.4194092683
 20
101.7594220865
  0
LWPOLYLINE
  5
14D8
330
21F
100
AcDbEntity
  8
0
  6
Continuous
 62
     7
100
AcDbPolyline
 90
       15
 70
     0
 43
0.0
 10
54.6036248121
 20
100.9733558907
 10
54.5884330077
 20
100.9055201699
 10
54.5816694248
 20
100.8752106556
 10
54.57534622649999
 20
100.8471047514
 10
54.56973704600001
 20
100.821088517
 10
54.562654391
 20
100.797523312
 10
54.5511405781
 20
100.7759550072
 10
54.5340566569
 20
100.7550222375
 10
54.5111832164
 20
100.7344573944
 10
54.483044673
 20
100.7148851429
 10
54.44997547659999
 20
100.6965601108
 10
54.41226614739999
 20
100.6796359223
 10
54.3703655303
 20
100.6643080908
 10
54.32465646629999
 20
100.6507161822
 10
54.2885626386
 20
100.6420995739
  0
LINE
  5
14D9
330
21F
100
AcDbEntity
  8
0
  6
Continuous
 62
     7
100
AcDbLine
 10
54.6212322143
 20
101.0519840212
 30
0.0
 11
54.6036248121
 21
100.9733558907
 31
0.0
  0
LWPOLYLINE
  5
14DA
330
21F
100
AcDbEntity
  8
0
  6
Continuous
 62
     7
100
AcDbPolyline
 90
        7
 70
     0
 43
0.0
 10
54.6212322143
 20
101.0519840212
 10
54.64284285419999
 20
101.1421800477
 10
54.6666500741
 20
101.2330145133
 10
54.69277611129999
 20
101.3317602211
 10
54.7221342063
 20
101.4501601196
 10
54.75547956859999
 20
101.5996162403
 10
54.7926035502
 20
101.7813911652
  0
LWPOLYLINE
  5
14DB
330
21F
100
AcDbEntity
  8
0
  6
Continuous
 62
     7
100
AcDbPolyline
 90
       22
 70
     0
 43
0.0
 10
52.4448710113
 20
83.3982898042
 10
52.59366332889999
 20
83.4039173833
 10
52.73960188100001
 20
83.42045561569999
 10
52.88401338739999
 20
83.44782583629999
 10
53.02601465689999
 20
83.485866602
 10
53.1648517892
 20
83.5343808224
 10
53.2996901606
 20
83.59307826449999
 10
53.429758599
 20
83.66161888239998
 10
53.5543635385
 20
83.73963401600001
 10
53.6727625129
 20
83.82665204899998
 10
53.7843014285
 20
83.922180111
 10
53.8883807252
 20
84.02569000520001
 10
53.98444013979999
 20
84.13661610590001
 10
54.0719682693
 20
84.25436579060001
 10
54.1504604789
 20
84.3782513841
 10
54.2195067292
 20
84.5076191491
 10
54.2787288306
 20
84.64175907020001
 10
54.3277940009
 20
84.77991224129999
 10
54.36641291789999
 20
84.92122604530001
 10
54.39479190930001
 20
85.06745812
 10
54.4121898719
 20
85.21751334980001
 10
54.4180231143
 20
85.3688962906
  0
LINE
  5
14DC
330
21F
100
AcDbEntity
  8
DEFAULT_1
  6
CENTER
 62
     7
100
AcDbLine
 10
52.4448710113
 20
89.59639629059999
 30
0.0
 11
52.4448710113
 21
87.40472962389999
 31
0.0
  0
LINE
  5
14DD
330
21F
100
AcDbEntity
  8
DEFAULT_1
  6
CENTER
 62
     7
100
AcDbLine
 10
52.4448710113
 20
85.3688962906
 30
0.0
 11
52.4448710113
 21
82.1975038332
 31
0.0
  0
LINE
  5
14DE
330
21F
100
AcDbEntity
  8
DEFAULT_1
  6
CENTER
 62
     7
100
AcDbLine
 10
52.4448710113
 20
85.3688962906
 30
0.0
 11
52.4448710113
 21
87.40472962389999
 31
0.0
  0
LINE
  5
14DF
330
21F
100
AcDbEntity
  8
DEFAULT_1
  6
CENTER
 62
     7
100
AcDbLine
 10
52.4448710113
 20
89.59639629059999
 30
0.0
 11
52.4448710113
 21
91.78806295719999
 31
0.0
  0
LINE
  5
14E0
330
21F
100
AcDbEntity
  8
0
  6
Continuous
 62
     7
100
AcDbLine
 10
53.7573710113
 20
100.8308844519
 30
0.0
 11
53.7573710113
 21
100.8284995975
 31
0.0
  0
LINE
  5
14E1
330
21F
100
AcDbEntity
  8
0
  6
Continuous
 62
     7
100
AcDbLine
 10
54.0073710113
 20
100.5967420815
 30
0.0
 11
54.0073710113
 21
100.6023067417
 31
0.0
  0
LWPOLYLINE
  5
14E2
330
21F
100
AcDbEntity
  8
0
  6
Continuous
 62
     7
100
AcDbPolyline
 90
       25
 70
     0
 43
0.0
 10
53.9448710113
 20
100.773515577
 10
53.9444695594
 20
100.7687240074
 10
53.94326692279999
 20
100.7639529559
 10
53.9412682514
 20
100.7592228531
 10
53.93848210379999
 20
100.7545539539
 10
53.9349204107
 20
100.7499662512
 10
53.9305984238
 20
100.7454793904
 10
53.9255346505
 20
100.7411125849
 10
53.9197507747
 20
100.7368845339
 10
53.9132715639
 20
100.7328133427
 10
53.906124763
 20
100.7289164447
 10
53.89834097569999
 20
100.7252105271
 10
53.8899535333
 20
100.721711459
 10
53.8809983522
 20
100.7184342242
 10
53.8715137799
 20
100.7153928562
 10
53.8615404308
 20
100.7126003785
 10
53.8511210122
 20
100.7100687491
 10
53.8403001416
 20
100.7078088088
 10
53.8291241558
 20
100.7058302349
 10
53.81764091239999
 20
100.7041415001
 10
53.8058995839
 20
100.7027498357
 10
53.7939504479
 20
100.701661201
 10
53.7818446732
 20
100.7008802578
 10
53.7696340984
 20
100.7004103502
 10
53.7573710113
 20
100.7002534905
  0
LINE
  5
14E3
330
21F
100
AcDbEntity
  8
DEFAULT_1
  6
CENTER
 62
     7
100
AcDbLine
 10
52.4448710113
 20
85.3688962906
 30
0.0
 11
49.2734785539
 21
85.3688962906
 31
0.0
  0
LINE
  5
14E4
330
21F
100
AcDbEntity
  8
DEFAULT_1
  6
CENTER
 62
     7
100
AcDbLine
 10
52.4448710113
 20
85.3688962906
 30
0.0
 11
55.61626346859999
 21
85.3688962906
 31
0.0
  0
LWPOLYLINE
  5
14E5
330
21F
100
AcDbEntity
  8
0
  6
Continuous
 62
     7
100
AcDbPolyline
 90
        7
 70
     0
 43
0.0
 10
50.26850980829999
 20
101.0519840212
 10
50.24689917829999
 20
101.142180003
 10
50.2230919675
 20
101.2330144214
 10
50.1969659389
 20
101.3317600698
 10
50.1676078535
 20
101.4501598941
 10
50.1342624994
 20
101.599615955
 10
50.0971385466
 20
101.7813907908
  0
LWPOLYLINE
  5
14E6
330
21F
100
AcDbEntity
  8
0
  6
Continuous
 62
     7
100
AcDbPolyline
 90
        4
 70
     0
 43
0.0
 10
50.3012402992
 20
100.9058267897
 10
50.2860647413
 20
100.9735863684
 10
50.2776052531
 20
101.0113631761
 10
50.26850980829999
 20
101.0519840212
  0
LWPOLYLINE
  5
14E7
330
21F
100
AcDbEntity
  8
0
  6
Continuous
 62
     7
100
AcDbPolyline
 90
       33
 70
     0
 43
0.0
 10
49.64158645680001
 20
100.9307856008
 10
49.6558545656
 20
100.8666074492
 10
49.6689741117
 20
100.8083145931
 10
49.6810518104
 20
100.7552346088
 10
49.6919620882
 20
100.7067837951
 10
49.7031557517
 20
100.6630612276
 10
49.7189672738
 20
100.6246281601
 10
49.7427517779
 20
100.5895761519
 10
49.7745350831
 20
100.5557531367
 10
49.8131628579
 20
100.5243005404
 10
49.8584746196
 20
100.494841326
 10
49.9100376785
 20
100.4674963896
 10
49.9676979495
 20
100.4421721322
 10
50.0311186373
 20
100.4189351469
 10
50.09999903489999
 20
100.3978440903
 10
50.1740674714
 20
100.3789565611
 10
50.2530574747
 20
100.3623404466
 10
50.33682790090001
 20
100.3480492934
 10
50.4253413854
 20
100.3361419521
 10
50.51823430529999
 20
100.3267287544
 10
50.61358743279999
 20
100.3200443964
 10
50.71113529149999
 20
100.3160810201
 10
50.8081787842
 20
100.3149570775
 10
50.916321091
 20
100.3164276913
 10
51.03643890609999
 20
100.318976724
 10
51.1664232975
 20
100.3214244663
 10
51.3072835498
 20
100.3238059732
 10
51.460016941
 20
100.3260703721
 10
51.6257246826
 20
100.3281544428
 10
51.8056276378
 20
100.3299795111
 10
52.00108243149999
 20
100.3314484263
 10
52.2136008209
 20
100.3324412193
 10
52.4448710113
 20
100.3328101406
  0
LWPOLYLINE
  5
14E8
330
21F
100
AcDbEntity
  8
0
  6
Continuous
 62
     7
100
AcDbPolyline
 90
        4
 70
     0
 43
0.0
 10
49.4703193201
 20
101.7594214315
 10
49.5283648967
 20
101.4695273715
 10
49.5837140241
 20
101.1994113239
 10
49.64157963569999
 20
100.9307853381
  0
LWPOLYLINE
  5
14E9
330
21F
100
AcDbEntity
  8
0
  6
Continuous
 62
     7
100
AcDbPolyline
 90
       31
 70
     0
 43
0.0
 10
54.4448710113
 20
100.8321977615
 10
54.44427143270001
 20
100.8411443246
 10
54.4424743405
 20
100.8500663659
 10
54.4394846603
 20
100.8589394305
 10
54.43531058659999
 20
100.8677391981
 10
54.4299635603
 20
100.8764415491
 10
54.4234582372
 20
100.885022631
 10
54.4158124479
 20
100.8934589235
 10
54.40704714899999
 20
100.9017273035
 10
54.39718636560001
 20
100.9098051078
 10
54.3862571254
 20
100.9176701958
 10
54.3742893847
 20
100.9253010098
 10
54.3613159463
 20
100.9326766342
 10
54.3473723694
 20
100.9397768531
 10
54.3324968724
 20
100.9465822051
 10
54.316730228
 20
100.9530740373
 10
54.3001156516
 20
100.9592345561
 10
54.2826986824
 20
100.9650468758
 10
54.2645270592
 20
100.9704950653
 10
54.24565058909999
 20
100.9755641916
 10
54.2261210113
 20
100.9802403604
 10
54.2059918549
 20
100.9845107548
 10
54.1853182926
 20
100.9883636698
 10
54.1641569892
 20
100.9917885449
 10
54.1425659463
 20
100.9947759928
 10
54.1206043435
 20
100.997317825
 10
54.098332376
 20
100.9994070746
 10
54.0758110897
 20
101.0010380152
 10
54.053102214
 20
101.0022061763
 10
54.0302679921
 20
101.0029083562
 10
54.0073710113
 20
101.0031426302
  0
LWPOLYLINE
  5
14EA
330
21F
100
AcDbEntity
  8
0
  6
Continuous
 62
     7
100
AcDbPolyline
 90
       22
 70
     0
 43
0.0
 10
54.4180231143
 20
85.3688962906
 10
54.4124034922
 20
85.5174854941
 10
54.3958999889
 20
85.6630990945
 10
54.3685948989
 20
85.80712335060001
 10
54.3306464302
 20
85.9487099236
 10
54.2822441845
 20
86.08713097799999
 10
54.2236698759
 20
86.22156782100001
 10
54.1552409518
 20
86.3512895252
 10
54.07731368970001
 20
86.47560637379999
 10
53.99033706069999
 20
86.59379512200001
 10
53.89477274899999
 20
86.70522110629999
 10
53.791137492
 20
86.8092719428
 10
53.679987663
 20
86.90537675459998
 10
53.5619342886
 20
86.9929911728
 10
53.4376843344
 20
87.07158823299998
 10
53.3078983044
 20
87.14074846209999
 10
53.1733260913
 20
87.2000693776
 10
53.0347480997
 20
87.24921226239999
 10
52.8930285733
 20
87.2878856352
 10
52.74637717970001
 20
87.31630041909999
 10
52.59608359520001
 20
87.3336903925
 10
52.4448710113
 20
87.3395027769
  0
LINE
  5
14EB
330
21F
100
AcDbEntity
  8
0
  6
Continuous
 62
     7
100
AcDbLine
 10
54.4448710113
 20
100.8321977615
 30
0.0
 11
54.4448710113
 21
100.8103357712
 31
0.0
  0
LINE
  5
14EC
330
21F
100
AcDbEntity
  8
DEFAULT_1
  6
CENTER
 62
     7
100
AcDbLine
 10
56.3198710113
 20
81.1188962906
 30
0.0
 11
56.3198710113
 21
78.9272296239
 31
0.0
  0
LINE
  5
14ED
330
21F
100
AcDbEntity
  8
DEFAULT_1
  6
CENTER
 62
     7
100
AcDbLine
 10
56.3198710113
 20
81.1188962906
 30
0.0
 11
56.3198710113
 21
83.31056295720001
 31
0.0
  0
LWPOLYLINE
  5
14EE
330
21F
100
AcDbEntity
  8
0
  6
Continuous
 62
     7
100
AcDbPolyline
 90
       22
 70
     0
 43
0.0
 10
52.4448710113
 20
87.3395027769
 10
52.29607869369999
 20
87.3338751978
 10
52.1501401415
 20
87.3173369654
 10
52.0057286351
 20
87.28996674479999
 10
51.8637273656
 20
87.2519259791
 10
51.7248902333
 20
87.20341175870002
 10
51.59005186189999
 20
87.14471431659999
 10
51.45998342350001
 20
87.07617369860001
 10
51.33537848399999
 20
86.998158565
 10
51.2169795097
 20
86.91114053209998
 10
51.10544059409999
 20
86.81561247020001
 10
51.0013612974
 20
86.712102576
 10
50.9053018827
 20
86.6011764753
 10
50.8177737533
 20
86.48342679049999
 10
50.73928154369999
 20
86.35954119709998
 10
50.6702352934
 20
86.230173432
 10
50.611013192
 20
86.09603351089999
 10
50.5619480216
 20
85.95788033979999
 10
50.5233291047
 20
85.81656653579999
 10
50.4949501132
 20
85.6703344611
 10
50.4775521507
 20
85.52027923129999
 10
50.4717189083
 20
85.3688962906
  0
LINE
  5
14EF
330
21F
100
AcDbEntity
  8
DEFAULT_1
  6
CENTER
 62
     7
100
AcDbLine
 10
52.4448710113
 20
89.59639629059999
 30
0.0
 11
50.2532043446
 21
89.59639629059999
 31
0.0
  0
LINE
  5
14F0
330
21F
100
AcDbEntity
  8
DEFAULT_1
  6
CENTER
 62
     7
100
AcDbLine
 10
52.4448710113
 20
89.59639629059999
 30
0.0
 11
54.6365376779
 21
89.59639629059999
 31
0.0
  0
LWPOLYLINE
  5
14F1
330
21F
100
AcDbEntity
  8
0
  6
Continuous
 62
     7
100
AcDbPolyline
 90
       69
 70
     0
 43
0.0
 10
52.4448710113
 20
96.98654385819999
 10
51.59784685169999
 20
96.97867307480001
 10
50.742238414
 20
96.95424295209999
 10
49.9748276048
 20
96.91762238870001
 10
49.2986694067
 20
96.8733700623
 10
48.6916466661
 20
96.82373904510001
 10
48.1430062497
 20
96.77055847610001
 10
47.6454608876
 20
96.71527903290002
 10
47.19655531439999
 20
96.65947269570001
 10
46.7947209631
 20
96.60460942100002
 10
46.4338785538
 20
96.5512862033
 10
46.101323432
 20
96.49865974049999
 10
45.7833261335
 20
96.44514011540001
 10
45.4665892575
 20
96.38865588139999
 10
45.14687564339999
 20
96.32834879509999
 10
44.826338858
 20
96.26450315559999
 10
44.5088167992
 20
96.19785349709999
 10
44.19585168989999
 20
96.12876813180001
 10
43.87670439319999
 20
96.05475468549999
 10
43.53549087020001
 20
95.9715305211
 10
43.156225103
 20
95.87390237639999
 10
42.7308055306
 20
95.75774087719999
 10
42.25826247749999
 20
95.6200879962
 10
41.7349123608
 20
95.45644768370001
 10
41.14865310899999
 20
95.2581726046
 10
40.4889758326
 20
95.01458159569999
 10
39.7706423278
 20
94.72210358780001
 10
39.0528548545
 20
94.39778410189999
 10
38.384436499
 20
94.06276734169999
 10
37.7715342999
 20
93.7232578689
 10
37.2067987636
 20
93.3785119532
 10
36.6866023185
 20
93.02924145670001
 10
36.2081891599
 20
92.67654159899999
 10
35.7681806639
 20
92.32051720440001
 10
35.3631089624
 20
91.96078507340001
 10
34.9915490407
 20
91.5984117294
 10
34.6585914805
 20
91.2417188012
 10
34.37080834840001
 20
90.90375584610001
 10
34.12689269179999
 20
90.59115320049999
 10
33.9200968618
 20
90.303456696
 10
33.743878728
 20
90.03853085530002
 10
33.5928642252
 20
89.7941212569
 10
33.4630607544
 20
89.5687304598
 10
33.351723047
 20
89.3621735754
 10
33.2560631869
 20
89.17330404899999
 10
33.1718357632
 20
88.9968352302
 10
33.0929016704
 20
88.82137295479999
 10
33.0152420112
 20
88.63755820660001
 10
32.9406319355
 20
88.4485132876
 10
32.8728597808
 20
88.26402065559999
 10
32.8131812796
 20
88.08944668629999
 10
32.7606803287
 20
87.92456981209999
 10
32.71443185800001
 20
87.7687255836
 10
32.6741438126
 20
87.6231579128
 10
32.6393946562
 20
87.4887182732
 10
32.609178672
 20
87.3637276434
 10
32.5818874179
 20
87.2430113927
 10
32.5563336167
 20
87.1217875964
 10
32.5323709358
 20
86.9992398535
 10
32.5102550352
 20
86.8765805678
 10
32.4900955544
 20
86.7546066681
 10
32.4715941962
 20
86.63165910020001
 10
32.45411938130001
 20
86.50266623950001
 10
32.4371961159
 20
86.36112280889999
 10
32.4209435128
 20
86.2019588218
 10
32.4062086383
 20
86.0240208969
 10
32.3940703535
 20
85.82703556060002
 10
32.3856947709
 20
85.60934447319999
 10
32.3825239257
 20
85.3688962906
  0
LWPOLYLINE
  5
14F2
330
21F
100
AcDbEntity
  8
0
  6
Continuous
 62
     7
100
AcDbPolyline
 90
       14
 70
     0
 43
0.0
 10
50.601249418
 20
100.642072497
 10
50.56431965369999
 20
100.6509204424
 10
50.5186806061
 20
100.664537091
 10
50.47685713109999
 20
100.6798871657
 10
50.4392266714
 20
100.6968293128
 10
50.4062381658
 20
100.7151680655
 10
50.3781907019
 20
100.7347506101
 10
50.3554151201
 20
100.7553071464
 10
50.33841577859999
 20
100.7762293953
 10
50.3269699646
 20
100.797809147
 10
50.3199405946
 20
100.8213934089
 10
50.3143269864
 20
100.8474186556
 10
50.3080050782
 20
100.8755252021
 10
50.3012402992
 20
100.9058267897
  0
LWPOLYLINE
  5
14F3
330
21F
100
AcDbEntity
  8
0
  6
Continuous
 62
     7
100
AcDbPolyline
 90
       50
 70
     0
 43
0.0
 10
51.63306976729999
 20
102.1894932097
 10
50.81970850939999
 20
102.174166409
 10
50.0070153208
 20
102.1483994167
 10
49.1966984787
 20
102.1120986449
 10
48.37462327829999
 20
102.064209829
 10
47.5028120496
 20
102.0009443264
 10
46.5420676304
 20
101.9159311099
 10
45.4699217381
 20
101.8015071776
 10
44.3379176416
 20
101.6573914906
 10
43.2162853463
 20
101.489856613
 10
42.1380837763
 20
101.3044299579
 10
41.10355176289999
 20
101.1028733422
 10
40.11169579319999
 20
100.8866365268
 10
39.1614160401
 20
100.6570228531
 10
38.2519722717
 20
100.4154255332
 10
37.385504817
 20
100.1641032191
 10
36.5666479998
 20
99.90637895440002
 10
35.7979043364
 20
99.64530370670001
 10
35.0742645239
 20
99.38153154860001
 10
34.3894138454
 20
99.11467640259999
 10
33.7367562609
 20
98.84370793270001
 10
33.1101556653
 20
98.56718981680002
 10
32.5037677531
 20
98.28322222350001
 10
31.9142564834
 20
97.9905759356
 10
31.3408130382
 20
97.68901033209999
 10
30.7824922799
 20
97.3781275438
 10
30.2384458303
 20
97.0573658494
 10
29.7079744526
 20
96.72613661319999
 10
29.1897275654
 20
96.3833369391
 10
28.6822821909
 20
96.0274905176
 10
28.1839088608
 20
95.656430785
 10
27.6930083662
 20
95.26756553889999
 10
27.2084132167
 20
94.85803016469999
 10
26.73158856360001
 20
94.42666832950001
 10
26.2646251212
 20
93.97252691049999
 10
25.8096018852
 20
93.49448209129999
 10
25.3711297133
 20
92.99420184610001
 10
24.956987424
 20
92.47828859969999
 10
24.573597577
 20
91.953684344
 10
24.2234998071
 20
91.42439258839999
 10
23.9068767074
 20
90.89176502219999
 10
23.6234386381
 20
90.35679713219998
 10
23.3735255177
 20
89.82226197620001
 10
23.1591696383
 20
89.29656170120001
 10
22.9807861875
 20
88.7890117913
 10
22.8352185892
 20
88.30196464040001
 10
22.7164828667
 20
87.82612349030001
 10
22.6202767663
 20
87.35043208090001
 10
22.5444503207
 20
86.8639135709
 10
22.4897412726
 20
86.36608210450001
  0
LINE
  5
14F4
330
21F
100
AcDbEntity
  8
0
  6
Continuous
 62
     7
100
AcDbLine
 10
51.1187244368
 20
100.83071701
 30
0.0
 11
51.1323710113
 21
100.8308844519
 31
0.0
  0
LWPOLYLINE
  5
14F5
330
21F
100
AcDbEntity
  8
0
  6
Continuous
 62
     7
100
AcDbPolyline
 90
       27
 70
     0
 43
0.0
 10
51.1323710113
 20
100.8284995975
 10
51.1196862964
 20
100.8283466848
 10
51.1070608664
 20
100.8278889777
 10
51.0945562459
 20
100.8271297568
 10
51.0822334964
 20
100.8260746435
 10
51.0701516265
 20
100.824731489
 10
51.05836771959999
 20
100.8231103345
 10
51.04694198579999
 20
100.8212243293
 10
51.0359312431
 20
100.8190891896
 10
51.02539037989999
 20
100.816723556
 10
51.01536468009999
 20
100.8141472221
 10
51.0059080901
 20
100.8113859007
 10
50.99706708180001
 20
100.8084681296
 10
50.9888826131
 20
100.8054259089
 10
50.9813818359
 20
100.8022914409
 10
50.9745975587
 20
100.7991052266
 10
50.9685516143
 20
100.795910688
 10
50.9632520077
 20
100.7927522231
 10
50.9586904716
 20
100.789672187
 10
50.954861987
 20
100.7867238957
 10
50.9517368787
 20
100.7839525283
 10
50.9492744342
 20
100.7814013808
 10
50.9474309733
 20
100.7791204697
 10
50.9461351218
 20
100.7771328322
 10
50.9453308783
 20
100.7754888742
 10
50.9449578437
 20
100.7742938002
 10
50.9448710113
 20
100.773515577
  0
LWPOLYLINE
  5
14F6
330
21F
100
AcDbEntity
  8
0
  6
Continuous
 62
     7
100
AcDbPolyline
 90
       31
 70
     0
 43
0.0
 10
54.0073710113
 20
100.5967420815
 10
54.02981915619999
 20
100.5969916019
 10
54.05221384819999
 20
100.5977400677
 10
54.0745086401
 20
100.5989876678
 10
54.09665391549999
 20
100.6007347803
 10
54.11859739770001
 20
100.6029817197
 10
54.1402995742
 20
100.6057306324
 10
54.16171837939999
 20
100.608984695
 10
54.18279974489999
 20
100.6127462243
 10
54.20350600969999
 20
100.6170215591
 10
54.2238058966
 20
100.6218212804
 10
54.2436641693
 20
100.6271590012
 10
54.2630196396
 20
100.6330446639
 10
54.2818476118
 20
100.6395033769
 10
54.3001092975
 20
100.6465638004
 10
54.3177478405
 20
100.6542558699
 10
54.3346529613
 20
100.6625904538
 10
54.3507085865
 20
100.6715722035
 10
54.3657613808
 20
100.6811736839
 10
54.3796180929
 20
100.6913095074
 10
54.3920585522
 20
100.7018069474
 10
54.4029806166
 20
100.7125013705
 10
54.4124460895
 20
100.7233317347
 10
54.4204548797
 20
100.734133461
 10
54.42718334529999
 20
100.7449610805
 10
54.4327140324
 20
100.7557776963
 10
54.4371505789
 20
100.7666241706
 10
54.4405449592
 20
100.777479403
 10
54.442955458
 20
100.788407448
 10
54.4443904583
 20
100.7993331345
 10
54.4448710113
 20
100.8103357712
  0
LWPOLYLINE
  5
14F7
330
21F
100
AcDbEntity
  8
0
  6
Continuous
 62
     7
100
AcDbPolyline
 90
       53
 70
     0
 43
0.0
 10
52.4448710113
 20
102.1945482884
 10
51.4756294865
 20
102.1873339867
 10
50.503397786
 20
102.1653905896
 10
49.5324544175
 20
102.1284392694
 10
48.5666975334
 20
102.076410098
 10
47.6008043359
 20
102.0087069626
 10
46.616484461
 20
101.9230997364
 10
45.59496232779999
 20
101.815939508
 10
44.5232191659
 20
101.6826664447
 10
43.4273583796
 20
101.5233220834
 10
42.3516095318
 20
101.3431069137
 10
41.33171195969999
 20
101.1493811841
 10
40.3671148528
 20
100.9445496144
 10
39.4470625213
 20
100.7284329329
 10
38.56216084280001
 20
100.500312573
 10
37.7124960951
 20
100.261455348
 10
36.903431201
 20
100.0148428638
 10
36.1395194382
 20
99.76368250420001
 10
35.4187303488
 20
99.50934559149999
 10
34.7364928756
 20
99.2520822776
 10
34.0882190142
 20
98.99171407750001
 10
33.4686910273
 20
98.72743948490001
 10
32.8722954834
 20
98.45778444090001
 10
32.29381367510001
 20
98.1809342244
 10
31.7306385336
 20
97.89588778549999
 10
31.1815755705
 20
97.60214160629999
 10
30.6460938537
 20
97.29942247110001
 10
30.1240945011
 20
96.98756081479999
 10
29.6144040804
 20
96.6656962765
 10
29.1156281662
 20
96.33266967799999
 10
28.6263784802
 20
95.98697451680001
 10
28.1457902348
 20
95.62710101280002
 10
27.6735686594
 20
95.25164938209998
 10
27.2091181214
 20
94.85864604739999
 10
26.7520502951
 20
94.4458144699
 10
26.3026144605
 20
94.01076933690001
 10
25.8637461675
 20
93.55341316299998
 10
25.4394294615
 20
93.07499644169999
 10
25.0350017014
 20
92.5791470673
 10
24.6570302151
 20
92.0722724292
 10
24.310786628
 20
91.56156837479999
 10
23.999082958
 20
91.0530923567
 10
23.7206948623
 20
90.5476863824
 10
23.4738775297
 20
90.04541725240001
 10
23.2570133806
 20
89.5458782847
 10
23.067948988
 20
89.04684143610001
 10
22.9043046138
 20
88.543445459
 10
22.7648853384
 20
88.03131534180002
 10
22.6502582969
 20
87.51090141229999
 10
22.561017766
 20
86.9835444309
 10
22.4973931096
 20
86.45019988040001
 10
22.4593675542
 20
85.91170057030002
 10
22.4467579558
 20
85.3688962906
  0
LINE
  5
14F8
330
21F
100
AcDbEntity
  8
0
  6
Continuous
 62
     7
100
AcDbLine
 10
52.4448710113
 20
102.1945482884
 30
0.0
 11
51.63306976729999
 21
102.1894932097
 31
0.0
  0
LINE
  5
14F9
330
21F
100
AcDbEntity
  8
0
  6
Continuous
 62
     7
100
AcDbLine
 10
54.0073710113
 20
100.5967420815
 30
0.0
 11
50.8823710113
 21
100.5967420815
 31
0.0
  0
LINE
  5
14FA
330
21F
100
AcDbEntity
  8
0
  6
Continuous
 62
     7
100
AcDbLine
 10
54.0073710113
 20
100.6023067417
 30
0.0
 11
50.8823710113
 21
100.6023067417
 31
0.0
  0
LINE
  5
14FB
330
21F
100
AcDbEntity
  8
0
  6
Continuous
 62
     7
100
AcDbLine
 10
53.7573710113
 20
100.660916411
 30
0.0
 11
51.1323710113
 21
100.660916411
 31
0.0
  0
LINE
  5
14FC
330
21F
100
AcDbEntity
  8
0
  6
Continuous
 62
     7
100
AcDbLine
 10
53.7573710113
 20
100.7002534905
 30
0.0
 11
51.1323710113
 21
100.7002534905
 31
0.0
  0
LINE
  5
14FD
330
21F
100
AcDbEntity
  8
0
  6
Continuous
 62
     7
100
AcDbLine
 10
51.1323710113
 20
100.8284995975
 30
0.0
 11
53.7573710113
 21
100.8284995975
 31
0.0
  0
LINE
  5
14FE
330
21F
100
AcDbEntity
  8
0
  6
Continuous
 62
     7
100
AcDbLine
 10
51.1323710113
 20
100.8308844519
 30
0.0
 11
53.7573710113
 21
100.8308844519
 31
0.0
  0
LINE
  5
14FF
330
21F
100
AcDbEntity
  8
0
  6
Continuous
 62
     7
100
AcDbLine
 10
50.8823710113
 20
100.8894941212
 30
0.0
 11
54.0073710113
 21
100.8894941212
 31
0.0
  0
LINE
  5
1500
330
21F
100
AcDbEntity
  8
0
  6
Continuous
 62
     7
100
AcDbLine
 10
50.8823710113
 20
100.9812806399
 30
0.0
 11
54.0073710113
 21
100.9812806399
 31
0.0
  0
LINE
  5
1501
330
21F
100
AcDbEntity
  8
0
  6
Continuous
 62
     7
100
AcDbLine
 10
50.8823710113
 20
101.0031426302
 30
0.0
 11
54.0073710113
 21
101.0031426302
 31
0.0
  0
LWPOLYLINE
  5
1502
330
21F
100
AcDbEntity
  8
0
  6
Continuous
 62
     7
100
AcDbPolyline
 90
       34
 70
     0
 43
0.0
 10
52.4448710113
 20
100.3328101406
 10
52.6681084047
 20
100.3324667466
 10
52.8734704633
 20
100.3315403456
 10
53.06254310539999
 20
100.3301677897
 10
53.2367495449
 20
100.3284602735
 10
53.3973694083
 20
100.3265077688
 10
53.54555580060001
 20
100.3243833761
 10
53.6823502717
 20
100.3221464685
 10
53.8086963641
 20
100.3198430505
 10
53.92548246979999
 20
100.3174981039
 10
54.03296766850001
 20
100.3152914495
 10
54.128785851
 20
100.3151265852
 10
54.2219335683
 20
100.3174876767
 10
54.3175460096
 20
100.3225982416
 10
54.4104844279
 20
100.330306279
 10
54.50009724890001
 20
100.3406121847
 10
54.5873566762
 20
100.3535984831
 10
54.66809457270001
 20
100.3685593742
 10
54.74432190199999
 20
100.3858563687
 10
54.8159926891
 20
100.4054294374
 10
54.8820968445
 20
100.4270225672
 10
54.9427238514
 20
100.4506975557
 10
54.99792882819999
 20
100.4765542687
 10
55.04679597049999
 20
100.5042278222
 10
55.08963344739999
 20
100.5341662816
 10
55.1262195939
 20
100.5664608784
 10
55.1553192173
 20
100.6003813982
 10
55.1765575975
 20
100.6360761033
 10
55.1898878267
 20
100.6744262797
 10
55.1999195828
 20
100.7165721695
 10
55.2104811593
 20
100.762983493
 10
55.2220113643
 20
100.8138191888
 10
55.2345420139
 20
100.8695465111
 10
55.2481537973
 20
100.9307856688
  0
LWPOLYLINE
  5
1503
330
21F
100
AcDbEntity
  8
0
  6
Continuous
 62
     7
100
AcDbPolyline
 90
       31
 70
     0
 43
0.0
 10
54.0073710113
 20
100.9812806399
 10
54.03065571279999
 20
100.981038359
 10
54.0538744112
 20
100.9803122031
 10
54.0769612908
 20
100.9791042305
 10
54.0998509091
 20
100.9774178653
 10
54.1224783831
 20
100.9752578879
 10
54.14477957279999
 20
100.9726304207
 10
54.1666912629
 20
100.9695429118
 10
54.18815134249999
 20
100.9660041129
 10
54.2090989807
 20
100.9620240552
 10
54.2294747989
 20
100.9576140205
 10
54.2492210399
 20
100.9527865097
 10
54.2682817306
 20
100.9475552067
 10
54.2866028416
 20
100.9419349404
 10
54.3041324396
 20
100.9359416419
 10
54.3208208351
 20
100.9295923
 10
54.3366207231
 20
100.9229049124
 10
54.3514873169
 20
100.9158984354
 10
54.3653784757
 20
100.9085927296
 10
54.3782548235
 20
100.9010085037
 10
54.3900798608
 20
100.8931672561
 10
54.40082006819999
 20
100.8850912137
 10
54.4104450016
 20
100.8768032688
 10
54.41892737789999
 20
100.8683269146
 10
54.4262431531
 20
100.8596861782
 10
54.4323715896
 20
100.8509055527
 10
54.4372953158
 20
100.8420099278
 10
54.4410003748
 20
100.833024519
 10
54.4434762643
 20
100.8239747965
 10
54.4447159661
 20
100.8148864127
 10
54.4448710113
 20
100.8103357712
  0
LWPOLYLINE
  5
1504
330
21F
100
AcDbEntity
  8
0
  6
Continuous
 62
     7
100
AcDbPolyline
 90
       57
 70
     0
 43
0.0
 10
50.8823710113
 20
100.6023067417
 10
50.86177604239999
 20
100.6025324016
 10
50.84123358279999
 20
100.6032092098
 10
50.8208223138
 20
100.6043349211
 10
50.8006036455
 20
100.6059061258
 10
50.7806426247
 20
100.6079177924
 10
50.7610015674
 20
100.6103636324
 10
50.74174243739999
 20
100.6132359325
 10
50.72292578159999
 20
100.6165256619
 10
50.7046108221
 20
100.6202224669
 10
50.68685518209999
 20
100.6243147165
 10
50.6697147308
 20
100.6287895342
 10
50.6532434001
 20
100.6336328401
 10
50.63749301699999
 20
100.6388293948
 10
50.6225131399
 20
100.6443628473
 10
50.6083509028
 20
100.6502157868
 10
50.59505086699999
 20
100.6563697969
 10
50.582654881
 20
100.6628055142
 10
50.5712019486
 20
100.6695026888
 10
50.56072810619999
 20
100.676440248
 10
50.55126630979999
 20
100.683596363
 10
50.54284633079999
 20
100.6909485171
 10
50.5354946626
 20
100.6984735767
 10
50.529234437
 20
100.7061478645
 10
50.5240853518
 20
100.7139472333
 10
50.5200636087
 20
100.7218471424
 10
50.5171818619
 20
100.729822735
 10
50.51544917880001
 20
100.7378489159
 10
50.5148710113
 20
100.7459004308
 10
50.51544917859999
 20
100.7539519457
 10
50.5171818615
 20
100.7619781266
 10
50.5200636081
 20
100.7699537192
 10
50.5240853511
 20
100.7778536284
 10
50.5292344361
 20
100.7856529972
 10
50.53549466149999
 20
100.793327285
 10
50.5428463296
 20
100.8008523447
 10
50.55126630850001
 20
100.8082044988
 10
50.5607281047
 20
100.8153606138
 10
50.5712019469
 20
100.822298173
 10
50.58265487919999
 20
100.8289953477
 10
50.5950508651
 20
100.835431065
 10
50.6083509007
 20
100.8415850752
 10
50.6225131377
 20
100.8474380147
 10
50.63749301459999
 20
100.8529714673
 10
50.6532433976
 20
100.858168022
 10
50.6697147282
 20
100.8630113279
 10
50.6868551794
 20
100.8674861457
 10
50.7046108193
 20
100.8715783954
 10
50.7229257788
 20
100.8752752005
 10
50.74174243449999
 20
100.8785649299
 10
50.7610015643
 20
100.8814372301
 10
50.7806426218
 20
100.8838830701
 10
50.8006036422
 20
100.8858947368
 10
50.8208223109
 20
100.8874659416
 10
50.8412335795
 20
100.888591653
 10
50.861776038
 20
100.8892684612
 10
50.8823710113
 20
100.8894941212
  0
LWPOLYLINE
  5
1505
330
21F
100
AcDbEntity
  8
0
  6
Continuous
 62
     7
100
AcDbPolyline
 90
       57
 70
     0
 43
0.0
 10
54.0073710113
 20
100.8894941212
 10
54.0279659845
 20
100.8892684612
 10
54.048508443
 20
100.888591653
 10
54.0689197116
 20
100.8874659416
 10
54.0891383804
 20
100.8858947368
 10
54.10909940079999
 20
100.8838830701
 10
54.1287404582
 20
100.8814372301
 10
54.1479995881
 20
100.8785649299
 10
54.1668162438
 20
100.8752752005
 10
54.1851312033
 20
100.8715783954
 10
54.20288684319999
 20
100.8674861457
 10
54.22002729439999
 20
100.8630113279
 10
54.2364986249
 20
100.858168022
 10
54.25224900789999
 20
100.8529714673
 10
54.2672288849
 20
100.8474380147
 10
54.28139112189999
 20
100.8415850752
 10
54.29469115749999
 20
100.835431065
 10
54.3070871434
 20
100.8289953477
 10
54.3185400757
 20
100.822298173
 10
54.32901391779999
 20
100.8153606138
 10
54.3384757141
 20
100.8082044988
 10
54.3468956929
 20
100.8008523447
 10
54.354247361
 20
100.793327285
 10
54.3605075864
 20
100.7856529972
 10
54.3656566714
 20
100.7778536284
 10
54.3696784144
 20
100.7699537192
 10
54.3725601611
 20
100.7619781266
 10
54.374292844
 20
100.7539519457
 10
54.3748710113
 20
100.7459004308
 10
54.3742928438
 20
100.7378489159
 10
54.3725601607
 20
100.729822735
 10
54.3696784139
 20
100.7218471424
 10
54.36565667069999
 20
100.7139472333
 10
54.3605075856
 20
100.7061478645
 10
54.35424736
 20
100.6984735767
 10
54.3468956917
 20
100.6909485171
 10
54.3384757127
 20
100.683596363
 10
54.3290139163
 20
100.676440248
 10
54.318540074
 20
100.6695026888
 10
54.3070871415
 20
100.6628055142
 10
54.2946911555
 20
100.6563697969
 10
54.28139111970001
 20
100.6502157868
 10
54.2672288826
 20
100.6443628473
 10
54.2522490055
 20
100.6388293948
 10
54.2364986224
 20
100.6336328401
 10
54.2200272918
 20
100.6287895342
 10
54.20288684049999
 20
100.6243147165
 10
54.1851312005
 20
100.6202224669
 10
54.1668162409
 20
100.6165256619
 10
54.1479995851
 20
100.6132359325
 10
54.1287404552
 20
100.6103636324
 10
54.10909939779999
 20
100.6079177924
 10
54.089138377
 20
100.6059061258
 10
54.0689197088
 20
100.6043349211
 10
54.0485084397
 20
100.6032092098
 10
54.0279659802
 20
100.6025324016
 10
54.0073710113
 20
100.6023067417
  0
LWPOLYLINE
  5
1506
330
21F
100
AcDbEntity
  8
0
  6
Continuous
 62
     7
100
AcDbPolyline
 90
       31
 70
     0
 43
0.0
 10
50.8823710113
 20
100.5967420815
 10
50.8599228664
 20
100.5969916019
 10
50.8375281744
 20
100.5977400677
 10
50.8152333825
 20
100.5989876678
 10
50.79308810699999
 20
100.6007347803
 10
50.77114462479999
 20
100.6029817197
 10
50.74944244840001
 20
100.6057306324
 10
50.7280236431
 20
100.608984695
 10
50.7069422777
 20
100.6127462243
 10
50.68623601289999
 20
100.6170215591
 10
50.66593612600001
 20
100.6218212804
 10
50.64607785319999
 20
100.6271590012
 10
50.626722383
 20
100.6330446639
 10
50.6078944108
 20
100.6395033769
 10
50.5896327251
 20
100.6465638004
 10
50.5719941821
 20
100.6542558699
 10
50.5550890613
 20
100.6625904538
 10
50.539033436
 20
100.6715722035
 10
50.5239806418
 20
100.6811736839
 10
50.5101239297
 20
100.6913095074
 10
50.4976834704
 20
100.7018069474
 10
50.48676140600001
 20
100.7125013705
 10
50.4772959331
 20
100.7233317347
 10
50.46928714279999
 20
100.734133461
 10
50.4625586772
 20
100.7449610805
 10
50.4570279901
 20
100.7557776963
 10
50.4525914437
 20
100.7666241706
 10
50.44919706329999
 20
100.777479403
 10
50.44678656449999
 20
100.788407448
 10
50.4453515642
 20
100.7993331345
 10
50.4448710113
 20
100.8103357712
  0
LWPOLYLINE
  5
1507
330
21F
100
AcDbEntity
  8
0
  6
Continuous
 62
     7
100
AcDbPolyline
 90
       27
 70
     0
 43
0.0
 10
53.7573710113
 20
100.8284995975
 10
53.77005572619999
 20
100.8283466848
 10
53.7826811561
 20
100.8278889777
 10
53.7951857767
 20
100.8271297568
 10
53.8075085262
 20
100.8260746435
 10
53.819590396
 20
100.824731489
 10
53.8313743029
 20
100.8231103345
 10
53.84280003669999
 20
100.8212243293
 10
53.8538107795
 20
100.8190891896
 10
53.8643516427
 20
100.816723556
 10
53.87437734249999
 20
100.8141472221
 10
53.8838339325
 20
100.8113859007
 10
53.8926749408
 20
100.8084681296
 10
53.9008594094
 20
100.8054259089
 10
53.9083601867
 20
100.8022914409
 10
53.91514446390001
 20
100.7991052266
 10
53.92119040819999
 20
100.795910688
 10
53.92649001489999
 20
100.7927522231
 10
53.9310515509
 20
100.789672187
 10
53.9348800356
 20
100.7867238957
 10
53.9380051438
 20
100.7839525283
 10
53.9404675884
 20
100.7814013808
 10
53.9423110493
 20
100.7791204697
 10
53.9436069008
 20
100.7771328322
 10
53.94441114430001
 20
100.7754888742
 10
53.9447841788
 20
100.7742938002
 10
53.9448710113
 20
100.773515577
  0
LWPOLYLINE
  5
1508
330
21F
100
AcDbEntity
  8
0
  6
Continuous
 62
     7
100
AcDbPolyline
 90
       50
 70
     0
 43
0.0
 10
51.1323710113
 20
100.660916411
 10
51.11872447359999
 20
100.661083852
 10
51.10512013140001
 20
100.6615860864
 10
51.0916248076
 20
100.6624210236
 10
51.0782895062
 20
100.6635854831
 10
51.0651678449
 20
100.6650748056
 10
51.05231136899999
 20
100.6668831354
 10
51.0397708825
 20
100.6690033281
 10
51.0275958693
 20
100.6714270172
 10
51.0158343817
 20
100.6741446368
 10
51.0045328383
 20
100.6771454614
 10
50.9937358446
 20
100.6804176472
 10
50.98348601459999
 20
100.6839482795
 10
50.9738238019
 20
100.6877234236
 10
50.9647873411
 20
100.69172818
 10
50.9564122972
 20
100.6959467427
 10
50.9487317247
 20
100.7003624619
 10
50.9417759372
 20
100.7049579097
 10
50.9355723877
 20
100.7097149489
 10
50.93014556029999
 20
100.7146148045
 10
50.9255168735
 20
100.7196381378
 10
50.9217045958
 20
100.7247651227
 10
50.9187237734
 20
100.7299755241
 10
50.91658617090001
 20
100.7352487778
 10
50.9153002251
 20
100.7405640713
 10
50.9148710113
 20
100.7459004262
 10
50.9153002234
 20
100.7512367811
 10
50.9165861676
 20
100.7565520747
 10
50.9187237683
 20
100.7618253284
 10
50.9217045891
 20
100.76703573
 10
50.9255168652
 20
100.7721627151
 10
50.93014555039999
 20
100.7771860486
 10
50.9355723762
 20
100.7820859044
 10
50.9417759242
 20
100.7868429439
 10
50.94873171020001
 20
100.7914383921
 10
50.9564122813
 20
100.7958541117
 10
50.9647873239
 20
100.8000726748
 10
50.9738237835
 20
100.8040774316
 10
50.9834859949
 20
100.8078525762
 10
50.9937358238
 20
100.811383209
 10
51.0045328165
 20
100.8146553953
 10
51.0158343589
 20
100.8176562204
 10
51.02759584560001
 20
100.8203738406
 10
51.0397708583
 20
100.8227975303
 10
51.0523113437
 20
100.8249177236
 10
51.0651678201
 20
100.8267260541
 10
51.07828947819999
 20
100.828215377
 10
51.0916247841
 20
100.8293798375
 10
51.1051201024
 20
100.8302147751
 10
51.1187244368
 20
100.83071701
  0
LWPOLYLINE
  5
1509
330
21F
100
AcDbEntity
  8
0
  6
Continuous
 62
     7
100
AcDbPolyline
 90
       51
 70
     0
 43
0.0
 10
53.7573710113
 20
100.8308844519
 10
53.77101758569999
 20
100.83071701
 10
53.7846219201
 20
100.8302147751
 10
53.7981172384
 20
100.8293798376
 10
53.8114525443
 20
100.828215377
 10
53.8245742025
 20
100.8267260541
 10
53.83743067890001
 20
100.8249177236
 10
53.8499711642
 20
100.8227975303
 10
53.8621461769
 20
100.8203738406
 10
53.87390766359999
 20
100.8176562204
 10
53.88520920600001
 20
100.8146553953
 10
53.8960061987
 20
100.811383209
 10
53.9062560276
 20
100.8078525762
 10
53.9159182391
 20
100.8040774316
 10
53.9249546986
 20
100.8000726748
 10
53.93332974119999
 20
100.7958541117
 10
53.94101031229999
 20
100.7914383921
 10
53.9479660983
 20
100.786842944
 10
53.9541696463
 20
100.7820859045
 10
53.9595964721
 20
100.7771860486
 10
53.96422515729999
 20
100.7721627151
 10
53.9680374334
 20
100.76703573
 10
53.9710182542
 20
100.7618253284
 10
53.973155855
 20
100.7565520747
 10
53.97444179909999
 20
100.7512367812
 10
53.9748710113
 20
100.7459004262
 10
53.97444179739999
 20
100.7405640713
 10
53.9731558516
 20
100.7352487778
 10
53.9710182492
 20
100.7299755242
 10
53.9680374267
 20
100.7247651227
 10
53.96422514899999
 20
100.7196381378
 10
53.9595964623
 20
100.7146148045
 10
53.95416963489999
 20
100.7097149489
 10
53.9479660854
 20
100.7049579097
 10
53.9410102979
 20
100.7003624619
 10
53.9333297254
 20
100.6959467427
 10
53.92495468149999
 20
100.69172818
 10
53.9159182207
 20
100.6877234236
 10
53.90625600799999
 20
100.6839482795
 10
53.896006178
 20
100.6804176472
 10
53.8852091843
 20
100.6771454614
 10
53.8739076409
 20
100.6741446368
 10
53.8621461533
 20
100.6714270173
 10
53.8499711401
 20
100.6690033282
 10
53.8374306536
 20
100.6668831354
 10
53.82457417770001
 20
100.6650748056
 10
53.8114525164
 20
100.6635854831
 10
53.7981172149
 20
100.6624210236
 10
53.7846218912
 20
100.6615860864
 10
53.77101754899999
 20
100.661083852
 10
53.7573710113
 20
100.660916411
  0
LWPOLYLINE
  5
150A
330
21F
100
AcDbEntity
  8
0
  6
Continuous
 62
     7
100
AcDbPolyline
 90
       25
 70
     0
 43
0.0
 10
51.1323710113
 20
100.7002534905
 10
51.1201079241
 20
100.7004103502
 10
51.10789734939999
 20
100.7008802578
 10
51.0957915746
 20
100.701661201
 10
51.08384243869999
 20
100.7027498357
 10
51.0721011101
 20
100.7041415001
 10
51.0606178667
 20
100.7058302349
 10
51.0494418809
 20
100.7078088088
 10
51.03862101029999
 20
100.7100687491
 10
51.02820159170001
 20
100.7126003785
 10
51.0182282426
 20
100.7153928562
 10
51.0087436703
 20
100.7184342242
 10
50.9997884892
 20
100.721711459
 10
50.9914010469
 20
100.7252105271
 10
50.9836172596
 20
100.7289164447
 10
50.9764704586
 20
100.7328133427
 10
50.96999124779999
 20
100.7368845339
 10
50.96420737199999
 20
100.7411125849
 10
50.9591435988
 20
100.7454793904
 10
50.95482161189999
 20
100.7499662512
 10
50.95125991879999
 20
100.7545539539
 10
50.9484737712
 20
100.7592228531
 10
50.9464750997
 20
100.7639529559
 10
50.9452724632
 20
100.7687240074
 10
50.9448710113
 20
100.773515577
  0
LWPOLYLINE
  5
150B
330
21F
100
AcDbEntity
  8
0
  6
Continuous
 62
     7
100
AcDbPolyline
 90
        3
 70
     0
 43
0.0
 10
54.07003661520001
 20
102.1741663307
 10
53.2566735769
 20
102.1894931932
 10
52.4448710113
 20
102.1945482884
  0
LWPOLYLINE
  5
150C
330
21F
100
AcDbEntity
  8
0
  6
Continuous
 62
     7
100
AcDbPolyline
 90
       75
 70
     0
 43
0.0
 10
72.50721809689999
 20
85.3688962906
 10
72.5045879914
 20
85.5879144498
 10
72.49757047979999
 20
85.7877960795
 10
72.48720620669999
 20
85.9713515391
 10
72.4745041231
 20
86.13806736689999
 10
72.4603686361
 20
86.2880664473
 10
72.44529953609999
 20
86.4241479966
 10
72.429272436
 20
86.5512474482
 10
72.4118478734
 20
86.6748970158
 10
72.3925474951
 20
86.79882378299998
 10
72.3712271303
 20
86.9236114669
 10
72.34811446890001
 20
87.04772420360001
 10
72.32350154709999
 20
87.169832558
 10
72.2969174509
 20
87.29237745659998
 10
72.26678836179999
 20
87.42173896989999
 10
72.23160344829999
 20
87.56235967120002
 10
72.1905933535
 20
87.71468126549999
 10
72.1433411944
 20
87.877606023
 10
72.0889514513
 20
88.05156668429999
 10
72.0264216175
 20
88.2369343398
 10
71.95682441969999
 20
88.42817205819999
 10
71.88371474680001
 20
88.61491741889999
 10
71.8091292959
 20
88.79307301450001
 10
71.7295868351
 20
88.97152323809999
 10
71.6384630776
 20
89.1635498758
 10
71.530699361
 20
89.37616928110001
 10
71.40280978619999
 20
89.6113563958
 10
71.2511280113
 20
89.87004436360001
 10
71.06997901709999
 20
90.1550753619
 10
70.851975882
 20
90.46995496940001
 10
70.587896035
 20
90.81801501900001
 10
70.27543915089999
 20
91.19164529989999
 10
69.9232172823
 20
91.5727320831
 10
69.53628022460001
 20
91.95179539620001
 10
69.11274435670001
 20
92.32798557729999
 10
68.6494092492
 20
92.70129489450001
 10
68.1421978658
 20
93.07189629579999
 10
67.58788505439999
 20
93.43890155329999
 10
66.98322538700001
 20
93.8009386605
 10
66.32104883709999
 20
94.1585627731
 10
65.59466667959999
 20
94.51108507719998
 10
64.8406716204
 20
94.83905178489999
 10
64.134401344
 20
95.1156687023
 10
63.5083729036
 20
95.3388463795
 10
62.94986502899999
 20
95.52198258969999
 10
62.4462293462
 20
95.67516334009999
 10
61.9909248312
 20
95.80447426079999
 10
61.582692224
 20
95.9133842067
 10
61.21834199470001
 20
96.00519434790001
 10
60.8864536442
 20
96.08454759979998
 10
60.57063990959999
 20
96.1563827127
 10
60.2561943786
 20
96.22444402980001
 10
59.9367489185
 20
96.29013915809998
 10
59.61590531199999
 20
96.35269811370001
 10
59.29673049859999
 20
96.4115858999
 10
58.9792682475
 20
96.46691867850002
 10
58.6561600681
 20
96.519994805
 10
58.314901242
 20
96.57257999629999
 10
57.9435863104
 20
96.6258377888
 10
57.53849798600001
 20
96.6793488228
 10
57.11963794979999
 20
96.72976866250001
 10
56.7136543943
 20
96.77399374890001
 10
56.34216019970001
 20
96.81055040510001
 10
56.00535838819999
 20
96.84053154719999
 10
55.69166946270001
 20
96.86580135799999
 10
55.3901782279
 20
96.88771539680001
 10
55.0913484342
 20
96.90717560140001
 10
54.79191602939999
 20
96.9244519082
 10
54.49193596439999
 20
96.9395625768
 10
54.19461831199999
 20
96.95240165120001
 10
53.898827949
 20
96.96309455319999
 10
53.5910325891
 20
96.97205291600001
 10
53.2561082715
 20
96.97932886830001
 10
52.8790392762
 20
96.98449166700001
 10
52.4448710113
 20
96.9865438583
  0
LWPOLYLINE
  5
150D
330
21F
100
AcDbEntity
  8
0
  6
Continuous
 62
     7
100
AcDbPolyline
 90
       40
 70
     0
 43
0.0
 10
52.44487101539999
 20
103.3009926662
 10
50.5641085667
 20
103.276816897
 10
48.7122692951
 20
103.2042953616
 10
46.9062114873
 20
103.0845782672
 10
45.1507579113
 20
102.9190854056
 10
43.4507297427
 20
102.7095512402
 10
41.8108507441
 20
102.4580927154
 10
40.23306746409999
 20
102.1666973689
 10
38.71549421840001
 20
101.8366053176
 10
37.2608980043
 20
101.4699584285
 10
35.8812123315
 20
101.072071566
 10
34.5862868645
 20
100.6493943714
 10
33.3742019177
 20
100.2056644114
 10
32.2398938975
 20
99.74328621920001
 10
31.1780239556
 20
99.26411745760001
 10
30.1829930657
 20
98.7692870044
 10
29.2493877406
 20
98.25933544700001
 10
28.3741288627
 20
97.735510158
 10
27.5566318545
 20
97.20058323700001
 10
26.7964221607
 20
96.65728900110002
 10
26.0922296597
 20
96.1082627983
 10
25.4406888002
 20
95.55466082290001
 10
24.8382803533
 20
94.9967402026
 10
24.2823859705
 20
94.43514561379998
 10
23.7713698147
 20
93.87125193640001
 10
23.3035223794
 20
93.30643652030001
 10
22.8771956928
 20
92.7416354044
 10
22.4905212999
 20
92.1776064618
 10
22.1417336347
 20
91.6148712743
 10
21.8291376084
 20
91.05365229230001
 10
21.5510033257
 20
90.49379447739999
 10
21.3058666426
 20
89.9349108552
 10
21.0923425368
 20
89.37647401659999
 10
20.9091101071
 20
88.81737735239999
 10
20.755082206
 20
88.25610492459999
 10
20.6294902743
 20
87.6910318526
 10
20.5318300078
 20
87.1204552234
 10
20.4619323276
 20
86.54259767129998
 10
20.4198937182
 20
85.9556655659
 10
20.4060701042
 20
85.3688962906
  0
LWPOLYLINE
  5
150E
330
21F
100
AcDbEntity
  8
0
  6
Continuous
 62
     7
100
AcDbPolyline
 90
       50
 70
     0
 43
0.0
 10
82.43246156599999
 20
85.8650006076
 10
82.40000076220001
 20
86.36608196370001
 10
82.34529172950001
 20
86.86391336280001
 10
82.2694653045
 20
87.3504318113
 10
82.173259231
 20
87.82612315719999
 10
82.05452354409999
 20
88.30196423590001
 10
81.9089559934
 20
88.7890113032
 10
81.730572605
 20
89.2965611185
 10
81.51621679879999
 20
89.8222613036
 10
81.2663037599
 20
90.3567963789
 10
80.9828657789
 20
90.8917641967
 10
80.66624277779999
 20
91.4243916925
 10
80.3161451158
 20
91.95368338059999
 10
79.93275538499999
 20
92.4782875736
 10
79.51861321069999
 20
92.99420077229999
 10
79.080141145
 20
93.49448098899999
 10
78.6251180039
 20
93.97252579709999
 10
78.1581546537
 20
94.4266672098
 10
77.6813300908
 20
94.85802904200001
 10
77.1967350274
 20
95.26756441779999
 10
76.70583462119999
 20
95.65642966469999
 10
76.2074613859
 20
96.0274893949
 10
75.7000161145
 20
96.38333581059999
 10
75.18176933810001
 20
96.72613547700002
 10
74.6512980798
 20
97.05736470419999
 10
74.10725175679999
 20
97.37812638980001
 10
73.5489311313
 20
97.68900917030002
 10
72.9754878273
 20
97.99057476629998
 10
72.3859767064
 20
98.2832210483
 10
71.7795889531
 20
98.56718863639999
 10
71.15298854470001
 20
98.84370674100001
 10
70.50033118059999
 20
99.11467519390001
 10
69.81548076039999
 20
99.38153031849999
 10
69.09184124689999
 20
99.64530245270001
 10
68.3230979267
 20
99.9063776766
 10
67.50424147539999
 20
100.1641019276
 10
66.63777437479999
 20
100.4154242482
 10
65.72833094739999
 20
100.6570215937
 10
64.7780515459
 20
100.8866353049
 10
63.7861959543
 20
101.1028721666
 10
62.7516643531
 20
101.3044288377
 10
61.6734631941
 20
101.4898555655
 10
60.5518312247
 20
101.6573905448
 10
59.4198270845
 20
101.8015063848
 10
58.347680839
 20
101.9159304846
 10
57.3869361867
 20
102.0009438289
 10
56.5151248555
 20
102.0642094309
 10
55.69304930619999
 20
102.1120983485
 10
54.8827314639
 20
102.1483992347
 10
54.07003661520001
 20
102.1741663307
  0
LWPOLYLINE
  5
150F
330
21F
100
AcDbEntity
  8
0
  6
Continuous
 62
     7
100
AcDbPolyline
 90
       53
 70
     0
 43
0.0
 10
82.44298406670001
 20
85.3688962906
 10
82.43037447849999
 20
85.91170035219999
 10
82.3923489539
 20
86.45019944819999
 10
82.328724349
 20
86.98354378899999
 10
82.23948389010001
 20
87.51090056729999
 10
82.1248569405
 20
88.0313143002
 10
81.98543777519999
 20
88.54344423159998
 10
81.8217935314
 20
89.04684002370002
 10
81.63272929500001
 20
89.54587667670001
 10
81.41586533319999
 20
90.04541543489999
 10
81.169048218
 20
90.5476843509
 10
80.890660372
 20
91.0530901079
 10
80.57895698640001
 20
91.561565907
 10
80.2327137097
 20
92.07226975530002
 10
79.8547425352
 20
92.57914423069999
 10
79.4503150746
 20
93.07499348879998
 10
79.0259986435
 20
93.55341014309999
 10
78.5871306116
 20
94.01076627669999
 10
78.1376950185
 20
94.44581139520002
 10
77.68062743109999
 20
94.8586429634
 10
77.21617713899999
 20
95.25164628669999
 10
76.74395582159999
 20
95.6270979015
 10
76.26336784359999
 20
95.98697138909999
 10
75.77411843570001
 20
96.3326665335
 10
75.2753428199
 20
96.66569310959999
 10
74.76565271920001
 20
96.98755762240001
 10
74.2436537115
 20
97.29941925010001
 10
73.708172356
 20
97.6021383594
 10
73.15910976579999
 20
97.895884519
 10
72.59593502060001
 20
98.18093093969999
 10
72.01745363579999
 20
98.45778113899999
 10
71.421058582
 20
98.72743615190001
 10
70.80153117489999
 20
98.99171069559999
 10
70.15325799260001
 20
99.252078833
 10
69.47102129060001
 20
99.50934208100001
 10
68.7502330584
 20
99.7636789332
 10
67.98632224069999
 20
100.0148392454
 10
67.17725828979999
 20
100.2614517257
 10
66.32759445399999
 20
100.5003089961
 10
65.44269369040001
 20
100.7284294374
 10
64.52264243710001
 20
100.9445461997
 10
63.5580465584
 20
101.1493778644
 10
62.5381502824
 20
101.3431037318
 10
61.4624022923
 20
101.5233191668
 10
60.3665418283
 20
101.6826638912
 10
59.2947988592
 20
101.8159373183
 10
58.27327748810001
 20
101.9230978302
 10
57.2889582141
 20
102.0087053539
 10
56.32306423470001
 20
102.0764088757
 10
55.3573039781
 20
102.1284385176
 10
54.38635495159999
 20
102.1653902654
 10
53.4141171429
 20
102.1873339179
 10
52.4448710113
 20
102.1945482884
  0
LINE
  5
1510
330
21F
100
AcDbEntity
  8
0
  6
Continuous
 62
     7
100
AcDbLine
 10
82.44298406670001
 20
85.3688962906
 30
0.0
 11
82.43246156599999
 21
85.8650006076
 31
0.0
  0
LWPOLYLINE
  5
1511
330
21F
100
AcDbEntity
  8
0
  6
Continuous
 62
     7
100
AcDbPolyline
 90
        3
 70
     0
 43
0.0
 10
82.4000007499
 20
84.37171047659999
 10
82.43246156300001
 20
84.8727919032
 10
82.44298406670001
 20
85.3688962906
  0
LWPOLYLINE
  5
1512
330
21F
100
AcDbEntity
  8
0
  6
Continuous
 62
     7
100
AcDbPolyline
 90
       40
 70
     0
 43
0.0
 10
84.4836719184
 20
85.3688962906
 10
84.4698908568
 20
85.95476455040001
 10
84.42789065899999
 20
86.5417559906
 10
84.35803123140001
 20
87.1196385182
 10
84.26041215700001
 20
87.6902155327
 10
84.13486462659999
 20
88.2552807407
 10
83.98088060460001
 20
88.81655020040001
 10
83.79768870560001
 20
89.3756621348
 10
83.58418947809999
 20
89.9341432691
 10
83.3390599033
 20
90.49311030620001
 10
83.0608996459
 20
91.05308672639999
 10
82.74825029189999
 20
91.61446297299999
 10
82.399365165
 20
92.1773872642
 10
82.0125563847
 20
92.74161956639998
 10
81.58606928720001
 20
93.30662703379999
 10
81.11804571909999
 20
93.87162951469999
 10
80.6068489213
 20
94.4356811501
 10
80.05078169369999
 20
94.9973982991
 10
79.44821952019999
 20
95.55540064629999
 10
78.79655587239999
 20
96.10904146450002
 10
78.0922900466
 20
96.6580582167
 10
77.33207415949999
 20
97.20129192600001
 10
76.51463082800001
 20
97.7361248355
 10
75.6394648462
 20
98.259844165
 10
74.70596687369999
 20
98.7696947466
 10
73.7110419831
 20
99.2644379058
 10
72.6492794703
 20
99.7435303225
 10
71.5150861953
 20
100.2058399558
 10
70.30314482119999
 20
100.6495008093
 10
69.0084286054
 20
101.072103977
 10
67.62903055629999
 20
101.4699080077
 10
66.17470262260001
 20
101.8364986301
 10
64.6572594176
 20
102.1665798201
 10
63.07951270020001
 20
102.4579877005
 10
61.4397049803
 20
102.709455562
 10
59.73980991600001
 20
102.9189957224
 10
57.9845026014
 20
103.0845002583
 10
56.1785511596
 20
103.2042387119
 10
54.3267330836
 20
103.2767883872
 10
52.44487101539999
 20
103.3009926662
  0
LWPOLYLINE
  5
1513
330
21F
100
AcDbEntity
  8
0
  6
Continuous
 62
     7
100
AcDbPolyline
 90
       50
 70
     0
 43
0.0
 10
84.4682690465
 20
85.3688962906
 10
84.45668933950001
 20
84.83201026640001
 10
84.4212487957
 20
84.29189303820001
 10
84.36155499260001
 20
83.754445715
 10
84.278304927
 20
83.22563031899999
 10
84.17220173510001
 20
82.7061046606
 10
84.0415308564
 20
82.18729253939999
 10
83.882859315
 20
81.6602909028
 10
83.6912738086
 20
81.117144661
 10
83.4630335673
 20
80.5569658819
 10
83.19795080289999
 20
79.9872073551
 10
82.897500702
 20
79.41553137149999
 10
82.5624009971
 20
78.8456739313
 10
82.19186113780001
 20
78.2782983174
 10
81.7854842636
 20
77.714430322
 10
81.3435392729
 20
77.1562089331
 10
80.8707559297
 20
76.61002272569999
 10
80.37422979510001
 20
76.0830074263
 10
79.8606561276
 20
75.58000224359999
 10
79.3337487534
 20
75.10173653539999
 10
78.79697864729999
 20
74.64845798929999
 10
78.25423713079999
 20
74.2205459533
 10
77.70559396590001
 20
73.81555730479999
 10
77.1476521761
 20
73.4291957825
 10
76.5780325301
 20
73.0585391468
 10
75.9977819358
 20
72.7032649913
 10
75.4075970936
 20
72.3629963698
 10
74.80595046819999
 20
72.0362198354
 10
74.1908422531
 20
71.7214170543
 10
73.5592975146
 20
71.4169144206
 10
72.9078165836
 20
71.1212249587
 10
72.23225232929999
 20
70.83295009149999
 10
71.5267604119
 20
70.55045831560001
 10
70.78514515710001
 20
70.2725491229
 10
70.0006120157
 20
69.9983938563
 10
69.1661545986
 20
69.72762241879999
 10
68.2754954588
 20
69.4607558025
 10
67.3319244562
 20
69.20132384929999
 10
66.3455354449
 20
68.9540364452
 10
65.3228759831
 20
68.72182428890001
 10
64.2619474901
 20
68.50531688850001
 10
63.1595151455
 20
68.30509401189999
 10
62.01314751219999
 20
68.12212925039999
 10
60.82117091709999
 20
67.9576725487
 10
59.5792369496
 20
67.8128437358
 10
58.2804448377
 20
67.6888971786
 10
56.91913797609999
 20
67.587741864
 10
55.4935993199
 20
67.5119682981
 10
54.0025404534
 20
67.4643321969
 10
52.4448710112
 20
67.44777889079999
  0
CIRCLE
  5
1526
330
21F
100
AcDbEntity
  8
DEFAULT_2
  6
HIDDEN
 62
     7
100
AcDbCircle
 10
52.4448710113
 20
89.59639629059999
 30
0.0
 40
1.125
  0
CIRCLE
  5
1527
330
21F
100
AcDbEntity
  8
DEFAULT_2
  6
HIDDEN
 62
     7
100
AcDbCircle
 10
56.3198710113
 20
81.1188962906
 30
0.0
 40
1.125
  0
CIRCLE
  5
1529
330
21F
100
AcDbEntity
  8
DEFAULT_2
  6
HIDDEN
 62
     7
100
AcDbCircle
 10
52.4448710113
 20
89.59639629059999
 30
0.0
 40
0.9849999999999999
  0
CIRCLE
  5
152A
330
21F
100
AcDbEntity
  8
DEFAULT_2
  6
HIDDEN
 62
     7
100
AcDbCircle
 10
56.3198710113
 20
81.1188962906
 30
0.0
 40
0.9375
  0
CIRCLE
  5
153E
330
21F
100
AcDbEntity
  8
0
  6
Continuous
 62
     7
100
AcDbCircle
 10
52.4448710113
 20
85.3688962906
 30
0.0
 40
1.448223304699999
  0
ENDSEC
  0
SECTION
  2
OBJECTS
  0
DICTIONARY
  5
C
330
0
100
AcDbDictionary
281
     1
  3
ACAD_COLOR
350
1574
  3
ACAD_GROUP
350
D
  3
ACAD_LAYOUT
350
1A
  3
ACAD_MATERIAL
350
1547
  3
ACAD_MLEADERSTYLE
350
1599
  3
ACAD_MLINESTYLE
350
17
  3
ACAD_PLOTSETTINGS
350
19
  3
ACAD_PLOTSTYLENAME
350
E
  3
ACAD_SCALELIST
350
1577
  3
ACAD_TABLESTYLE
350
1575
  3
ACAD_VISUALSTYLE
350
1560
  3
ACDB_RECOMPOSE_DATA
350
159D
  3
AcDbVariableDictionary
350
15CF
  0
DICTIONARY
  5
159E
330
8
100
AcDbDictionary
280
     1
281
     1
  0
DICTIONARY
  5
15DE
330
10
100
AcDbDictionary
280
     1
281
     1
  3
ADSK_XREC_LAYER_RECONCILED
360
15DF
  0
DICTIONARY
  5
15E0
330
1FA
100
AcDbDictionary
280
     1
281
     1
  3
ADSK_XREC_LAYER_RECONCILED
360
15E1
  0
DICTIONARY
  5
15E2
330
1FB
100
AcDbDictionary
280
     1
281
     1
  3
ADSK_XREC_LAYER_RECONCILED
360
15E3
  0
DICTIONARY
  5
15E4
330
1FC
100
AcDbDictionary
280
     1
281
     1
  3
ADSK_XREC_LAYER_RECONCILED
360
15E5
  0
DICTIONARY
  5
15E6
330
1FD
100
AcDbDictionary
280
     1
281
     1
  3
ADSK_XREC_LAYER_RECONCILED
360
15E7
  0
DICTIONARY
  5
15E8
330
1FE
100
AcDbDictionary
280
     1
281
     1
  3
ADSK_XREC_LAYER_RECONCILED
360
15E9
  0
DICTIONARY
  5
15EA
330
1FF
100
AcDbDictionary
280
     1
281
     1
  3
ADSK_XREC_LAYER_RECONCILED
360
15EB
  0
DICTIONARY
  5
15EC
330
200
100
AcDbDictionary
280
     1
281
     1
  3
ADSK_XREC_LAYER_RECONCILED
360
15ED
  0
DICTIONARY
  5
15EE
330
201
100
AcDbDictionary
280
     1
281
     1
  3
ADSK_XREC_LAYER_RECONCILED
360
15EF
  0
DICTIONARY
  5
15F0
330
202
100
AcDbDictionary
280
     1
281
     1
  3
ADSK_XREC_LAYER_RECONCILED
360
15F1
  0
DICTIONARY
  5
15F2
330
203
100
AcDbDictionary
280
     1
281
     1
  3
ADSK_XREC_LAYER_RECONCILED
360
15F3
  0
DICTIONARY
  5
15F4
330
204
100
AcDbDictionary
280
     1
281
     1
  3
ADSK_XREC_LAYER_RECONCILED
360
15F5
  0
DICTIONARY
  5
15F6
330
205
100
AcDbDictionary
280
     1
281
     1
  3
ADSK_XREC_LAYER_RECONCILED
360
15F7
  0
DICTIONARY
  5
15F8
330
206
100
AcDbDictionary
280
     1
281
     1
  3
ADSK_XREC_LAYER_RECONCILED
360
15F9
  0
DICTIONARY
  5
15FA
330
207
100
AcDbDictionary
280
     1
281
     1
  3
ADSK_XREC_LAYER_RECONCILED
360
15FB
  0
DICTIONARY
  5
15FC
330
208
100
AcDbDictionary
280
     1
281
     1
  3
ADSK_XREC_LAYER_RECONCILED
360
15FD
  0
DICTIONARY
  5
15FE
330
209
100
AcDbDictionary
280
     1
281
     1
  3
ADSK_XREC_LAYER_RECONCILED
360
15FF
  0
DICTIONARY
  5
1600
330
20A
100
AcDbDictionary
280
     1
281
     1
  3
ADSK_XREC_LAYER_RECONCILED
360
1601
  0
DICTIONARY
  5
1602
330
20B
100
AcDbDictionary
280
     1
281
     1
  3
ADSK_XREC_LAYER_RECONCILED
360
1603
  0
DICTIONARY
  5
1604
330
20C
100
AcDbDictionary
280
     1
281
     1
  3
ADSK_XREC_LAYER_RECONCILED
360
1605
  0
DICTIONARY
  5
1606
330
20D
100
AcDbDictionary
280
     1
281
     1
  3
ADSK_XREC_LAYER_RECONCILED
360
1607
  0
DICTIONARY
  5
1608
330
20E
100
AcDbDictionary
280
     1
281
     1
  3
ADSK_XREC_LAYER_RECONCILED
360
1609
  0
DICTIONARY
  5
160A
330
20F
100
AcDbDictionary
280
     1
281
     1
  3
ADSK_XREC_LAYER_RECONCILED
360
160B
  0
DICTIONARY
  5
160C
330
210
100
AcDbDictionary
280
     1
281
     1
  3
ADSK_XREC_LAYER_RECONCILED
360
160D
  0
DICTIONARY
  5
160E
330
211
100
AcDbDictionary
280
     1
281
     1
  3
ADSK_XREC_LAYER_RECONCILED
360
160F
  0
DICTIONARY
  5
1610
330
212
100
AcDbDictionary
280
     1
281
     1
  3
ADSK_XREC_LAYER_RECONCILED
360
1611
  0
DICTIONARY
  5
1612
330
213
100
AcDbDictionary
280
     1
281
     1
  3
ADSK_XREC_LAYER_RECONCILED
360
1613
  0
DICTIONARY
  5
1614
330
214
100
AcDbDictionary
280
     1
281
     1
  3
ADSK_XREC_LAYER_RECONCILED
360
1615
  0
DICTIONARY
  5
1616
330
215
100
AcDbDictionary
280
     1
281
     1
  3
ADSK_XREC_LAYER_RECONCILED
360
1617
  0
DICTIONARY
  5
1618
330
216
100
AcDbDictionary
280
     1
281
     1
  3
ADSK_XREC_LAYER_RECONCILED
360
1619
  0
DICTIONARY
  5
1574
102
{ACAD_REACTORS
330
C
102
}
330
C
100
AcDbDictionary
281
     1
  0
DICTIONARY
  5
D
102
{ACAD_REACTORS
330
C
102
}
330
C
100
AcDbDictionary
281
     1
  0
DICTIONARY
  5
1A
102
{ACAD_REACTORS
330
C
102
}
330
C
100
AcDbDictionary
281
     1
  3
Layout1
350
1544
  3
Model
350
1543
  0
DICTIONARY
  5
1547
102
{ACAD_REACTORS
330
C
102
}
330
C
100
AcDbDictionary
281
     1
  3
ByBlock
350
1550
  3
ByLayer
350
1548
  3
Global
350
1558
  0
DICTIONARY
  5
1599
102
{ACAD_REACTORS
330
C
102
}
330
C
100
AcDbDictionary
281
     1
  3
Standard
350
159A
  0
DICTIONARY
  5
17
102
{ACAD_REACTORS
330
C
102
}
330
C
100
AcDbDictionary
281
     1
  3
Standard
350
18
  0
DICTIONARY
  5
19
102
{ACAD_REACTORS
330
C
102
}
330
C
100
AcDbDictionary
281
     1
  0
ACDBDICTIONARYWDFLT
  5
E
102
{ACAD_REACTORS
330
C
102
}
330
C
100
AcDbDictionary
281
     1
  3
Normal
350
F
100
AcDbDictionaryWithDefault
340
F
  0
DICTIONARY
  5
1577
102
{ACAD_REACTORS
330
C
102
}
330
C
100
AcDbDictionary
281
     1
  3
A0
350
1578
  3
A1
350
1579
  3
A2
350
157A
  3
A3
350
157B
  3
A4
350
157C
  3
A5
350
157D
  3
A6
350
157E
  3
A7
350
157F
  3
A8
350
1580
  3
A9
350
1581
  3
B0
350
1582
  3
B1
350
1583
  3
B2
350
1584
  3
B3
350
1585
  3
B4
350
1586
  3
B5
350
1587
  3
B6
350
1588
  3
B7
350
1589
  3
B8
350
158A
  3
B9
350
158B
  3
C0
350
158C
  3
C1
350
158D
  3
C2
350
158E
  3
C3
350
158F
  3
C4
350
1590
  3
C5
350
1591
  3
C6
350
1592
  3
C7
350
1593
  3
C8
350
1594
  3
C9
350
1595
  3
D0
350
1596
  3
D1
350
1597
  3
D2
350
1598
  0
DICTIONARY
  5
1575
102
{ACAD_REACTORS
330
C
102
}
330
C
100
AcDbDictionary
281
     1
  3
Standard
350
1576
  0
DICTIONARY
  5
1560
102
{ACAD_REACTORS
330
C
102
}
330
C
100
AcDbDictionary
281
     1
  3
2dWireframe
350
1566
  3
3D Hidden
350
1568
  3
3dWireframe
350
1567
  3
Basic
350
1565
  3
Brighten
350
156C
  3
ColorChange
350
1570
  3
Conceptual
350
1569
  3
Dim
350
156B
  3
EdgeColorOff
350
1573
  3
Facepattern
350
156F
  3
Flat
350
1561
  3
FlatWithEdges
350
1562
  3
Gouraud
350
1563
  3
GouraudWithEdges
350
1564
  3
JitterOff
350
1571
  3
Linepattern
350
156E
  3
OverhangOff
350
1572
  3
Realistic
350
156A
  3
Thicken
350
156D
  0
XRECORD
  5
159D
102
{ACAD_REACTORS
330
C
102
}
330
C
100
AcDbXrecord
280
     1
 90
        1
330
1576
  0
DICTIONARY
  5
15CF
102
{ACAD_REACTORS
330
C
102
}
330
C
100
AcDbDictionary
281
     1
  3
CANNOSCALE
350
15D2
  3
CMLEADERSTYLE
350
15D1
  3
CTABLESTYLE
350
15D0
  3
DIMASSOC
350
15D5
  3
INDEXCTL
350
15D4
  3
LAYEREVAL
350
161D
  3
LAYERNOTIFY
350
161E
  3
LIGHTINGUNITS
350
161C
  3
MSLTSCALE
350
161B
  3
SORTENTS
350
15D3
  3
XCLIPFRAME
350
15D6
  0
XRECORD
  5
15DF
102
{ACAD_REACTORS
330
15DE
102
}
330
15DE
100
AcDbXrecord
280
     1
290
     1
  0
XRECORD
  5
15E1
102
{ACAD_REACTORS
330
15E0
102
}
330
15E0
100
AcDbXrecord
280
     1
290
     1
  0
XRECORD
  5
15E3
102
{ACAD_REACTORS
330
15E2
102
}
330
15E2
100
AcDbXrecord
280
     1
290
     1
  0
XRECORD
  5
15E5
102
{ACAD_REACTORS
330
15E4
102
}
330
15E4
100
AcDbXrecord
280
     1
290
     1
  0
XRECORD
  5
15E7
102
{ACAD_REACTORS
330
15E6
102
}
330
15E6
100
AcDbXrecord
280
     1
290
     1
  0
XRECORD
  5
15E9
102
{ACAD_REACTORS
330
15E8
102
}
330
15E8
100
AcDbXrecord
280
     1
290
     1
  0
XRECORD
  5
15EB
102
{ACAD_REACTORS
330
15EA
102
}
330
15EA
100
AcDbXrecord
280
     1
290
     1
  0
XRECORD
  5
15ED
102
{ACAD_REACTORS
330
15EC
102
}
330
15EC
100
AcDbXrecord
280
     1
290
     1
  0
XRECORD
  5
15EF
102
{ACAD_REACTORS
330
15EE
102
}
330
15EE
100
AcDbXrecord
280
     1
290
     1
  0
XRECORD
  5
15F1
102
{ACAD_REACTORS
330
15F0
102
}
330
15F0
100
AcDbXrecord
280
     1
290
     1
  0
XRECORD
  5
15F3
102
{ACAD_REACTORS
330
15F2
102
}
330
15F2
100
AcDbXrecord
280
     1
290
     1
  0
XRECORD
  5
15F5
102
{ACAD_REACTORS
330
15F4
102
}
330
15F4
100
AcDbXrecord
280
     1
290
     1
  0
XRECORD
  5
15F7
102
{ACAD_REACTORS
330
15F6
102
}
330
15F6
100
AcDbXrecord
280
     1
290
     1
  0
XRECORD
  5
15F9
102
{ACAD_REACTORS
330
15F8
102
}
330
15F8
100
AcDbXrecord
280
     1
290
     1
  0
XRECORD
  5
15FB
102
{ACAD_REACTORS
330
15FA
102
}
330
15FA
100
AcDbXrecord
280
     1
290
     1
  0
XRECORD
  5
15FD
102
{ACAD_REACTORS
330
15FC
102
}
330
15FC
100
AcDbXrecord
280
     1
290
     1
  0
XRECORD
  5
15FF
102
{ACAD_REACTORS
330
15FE
102
}
330
15FE
100
AcDbXrecord
280
     1
290
     1
  0
XRECORD
  5
1601
102
{ACAD_REACTORS
330
1600
102
}
330
1600
100
AcDbXrecord
280
     1
290
     1
  0
XRECORD
  5
1603
102
{ACAD_REACTORS
330
1602
102
}
330
1602
100
AcDbXrecord
280
     1
290
     1
  0
XRECORD
  5
1605
102
{ACAD_REACTORS
330
1604
102
}
330
1604
100
AcDbXrecord
280
     1
290
     1
  0
XRECORD
  5
1607
102
{ACAD_REACTORS
330
1606
102
}
330
1606
100
AcDbXrecord
280
     1
290
     1
  0
XRECORD
  5
1609
102
{ACAD_REACTORS
330
1608
102
}
330
1608
100
AcDbXrecord
280
     1
290
     1
  0
XRECORD
  5
160B
102
{ACAD_REACTORS
330
160A
102
}
330
160A
100
AcDbXrecord
280
     1
290
     1
  0
XRECORD
  5
160D
102
{ACAD_REACTORS
330
160C
102
}
330
160C
100
AcDbXrecord
280
     1
290
     1
  0
XRECORD
  5
160F
102
{ACAD_REACTORS
330
160E
102
}
330
160E
100
AcDbXrecord
280
     1
290
     1
  0
XRECORD
  5
1611
102
{ACAD_REACTORS
330
1610
102
}
330
1610
100
AcDbXrecord
280
     1
290
     1
  0
XRECORD
  5
1613
102
{ACAD_REACTORS
330
1612
102
}
330
1612
100
AcDbXrecord
280
     1
290
     1
  0
XRECORD
  5
1615
102
{ACAD_REACTORS
330
1614
102
}
330
1614
100
AcDbXrecord
280
     1
290
     1
  0
XRECORD
  5
1617
102
{ACAD_REACTORS
330
1616
102
}
330
1616
100
AcDbXrecord
280
     1
290
     1
  0
XRECORD
  5
1619
102
{ACAD_REACTORS
330
1618
102
}
330
1618
100
AcDbXrecord
280
     1
290
     1
  0
LAYOUT
  5
1544
102
{ACAD_REACTORS
330
1A
102
}
330
1A
100
AcDbPlotSettings
  1

  2
none_device
  4
ANSI_B_(17.00_x_11.00_Inches)
  6

 40
0.0
 41
0.0
 42
0.0
 43
0.0
 44
431.8
 45
279.4
 46
0.0
 47
0.0
 48
0.0
 49
0.0
140
0.0
141
0.0
142
1.0
143
1.0
 70
     0
 72
     0
 73
     0
 74
     0
  7

 75
     0
147
1.0
 76
     0
 77
     2
 78
   300
148
0.0
149
0.0
100
AcDbLayout
  1
Layout1
 70
     1
 71
     1
 10
0.0
 20
0.0
 11
12.0
 21
9.0
 12
0.0
 22
0.0
 32
0.0
 14
1.000000000000000E+20
 24
1.000000000000000E+20
 34
1.000000000000000E+20
 15
-1.000000000000000E+20
 25
-1.000000000000000E+20
 35
-1.000000000000000E+20
146
0.0
 13
0.0
 23
0.0
 33
0.0
 16
1.0
 26
0.0
 36
0.0
 17
0.0
 27
1.0
 37
0.0
 76
     0
330
220
  0
LAYOUT
  5
1543
102
{ACAD_REACTORS
330
1A
102
}
330
1A
100
AcDbPlotSettings
  1

  2
none_device
  4
ANSI_B_(17.00_x_11.00_Inches)
  6

 40
0.0
 41
0.0
 42
0.0
 43
0.0
 44
431.8
 45
279.4
 46
0.0
 47
0.0
 48
0.0
 49
0.0
140
0.0
141
0.0
142
1.0
143
1.0
 70
  1024
 72
     0
 73
     0
 74
     0
  7

 75
     0
147
1.0
 76
     0
 77
     2
 78
   300
148
0.0
149
0.0
100
AcDbLayout
  1
Model
 70
     0
 71
     0
 10
0.0
 20
0.0
 11
17.0
 21
11.0
 12
0.0
 22
0.0
 32
0.0
 14
0.0
 24
0.0
 34
0.0
 15
0.0
 25
0.0
 35
0.0
146
0.0
 13
0.0
 23
0.0
 33
0.0
 16
1.0
 26
0.0
 36
0.0
 17
0.0
 27
1.0
 37
0.0
 76
     0
330
21F
331
1F4
  0
MATERIAL
  5
1550
102
{ACAD_XDICTIONARY
360
1551
102
}
102
{ACAD_REACTORS
330
1547
102
}
330
1547
100
AcDbMaterial
  1
ByBlock
 72
     0
 43
0.0208333333333333
 43
0.0
 43
0.0
 43
0.0
 43
0.0
 43
0.0208333333333333
 43
0.0
 43
0.0
 43
0.0
 43
0.0
 43
1.0
 43
0.0
 43
0.0
 43
0.0
 43
0.0
 43
1.0
 77
     0
 47
0.0208333333333333
 47
0.0
 47
0.0
 47
0.0
 47
0.0
 47
0.0208333333333333
 47
0.0
 47
0.0
 47
0.0
 47
0.0
 47
1.0
 47
0.0
 47
0.0
 47
0.0
 47
0.0
 47
1.0
171
     0
 49
0.0208333333333333
 49
0.0
 49
0.0
 49
0.0
 49
0.0
 49
0.0208333333333333
 49
0.0
 49
0.0
 49
0.0
 49
0.0
 49
1.0
 49
0.0
 49
0.0
 49
0.0
 49
0.0
 49
1.0
175
     0
142
0.0208333333333333
142
0.0
142
0.0
142
0.0
142
0.0
142
0.0208333333333333
142
0.0
142
0.0
142
0.0
142
0.0
142
1.0
142
0.0
142
0.0
142
0.0
142
0.0
142
1.0
179
     0
144
0.0208333333333333
144
0.0
144
0.0
144
0.0
144
0.0
144
0.0208333333333333
144
0.0
144
0.0
144
0.0
144
0.0
144
1.0
144
0.0
144
0.0
144
0.0
144
0.0
144
1.0
147
0.0208333333333333
147
0.0
147
0.0
147
0.0
147
0.0
147
0.0208333333333333
147
0.0
147
0.0
147
0.0
147
0.0
147
1.0
147
0.0
147
0.0
147
0.0
147
0.0
147
1.0
  0
MATERIAL
  5
1548
102
{ACAD_XDICTIONARY
360
1549
102
}
102
{ACAD_REACTORS
330
1547
102
}
330
1547
100
AcDbMaterial
  1
ByLayer
 72
     0
 43
0.0208333333333333
 43
0.0
 43
0.0
 43
0.0
 43
0.0
 43
0.0208333333333333
 43
0.0
 43
0.0
 43
0.0
 43
0.0
 43
1.0
 43
0.0
 43
0.0
 43
0.0
 43
0.0
 43
1.0
 77
     0
 47
0.0208333333333333
 47
0.0
 47
0.0
 47
0.0
 47
0.0
 47
0.0208333333333333
 47
0.0
 47
0.0
 47
0.0
 47
0.0
 47
1.0
 47
0.0
 47
0.0
 47
0.0
 47
0.0
 47
1.0
171
     0
 49
0.0208333333333333
 49
0.0
 49
0.0
 49
0.0
 49
0.0
 49
0.0208333333333333
 49
0.0
 49
0.0
 49
0.0
 49
0.0
 49
1.0
 49
0.0
 49
0.0
 49
0.0
 49
0.0
 49
1.0
175
     0
142
0.0208333333333333
142
0.0
142
0.0
142
0.0
142
0.0
142
0.0208333333333333
142
0.0
142
0.0
142
0.0
142
0.0
142
1.0
142
0.0
142
0.0
142
0.0
142
0.0
142
1.0
179
     0
144
0.0208333333333333
144
0.0
144
0.0
144
0.0
144
0.0
144
0.0208333333333333
144
0.0
144
0.0
144
0.0
144
0.0
144
1.0
144
0.0
144
0.0
144
0.0
144
0.0
144
1.0
147
0.0208333333333333
147
0.0
147
0.0
147
0.0
147
0.0
147
0.0208333333333333
147
0.0
147
0.0
147
0.0
147
0.0
147
1.0
147
0.0
147
0.0
147
0.0
147
0.0
147
1.0
  0
MATERIAL
  5
1558
102
{ACAD_XDICTIONARY
360
1559
102
}
102
{ACAD_REACTORS
330
1547
102
}
330
1547
100
AcDbMaterial
  1
Global
 72
     0
 43
0.0208333333333333
 43
0.0
 43
0.0
 43
0.0
 43
0.0
 43
0.0208333333333333
 43
0.0
 43
0.0
 43
0.0
 43
0.0
 43
1.0
 43
0.0
 43
0.0
 43
0.0
 43
0.0
 43
1.0
 77
     0
 47
0.0208333333333333
 47
0.0
 47
0.0
 47
0.0
 47
0.0
 47
0.0208333333333333
 47
0.0
 47
0.0
 47
0.0
 47
0.0
 47
1.0
 47
0.0
 47
0.0
 47
0.0
 47
0.0
 47
1.0
171
     0
 49
0.0208333333333333
 49
0.0
 49
0.0
 49
0.0
 49
0.0
 49
0.0208333333333333
 49
0.0
 49
0.0
 49
0.0
 49
0.0
 49
1.0
 49
0.0
 49
0.0
 49
0.0
 49
0.0
 49
1.0
175
     0
142
0.0208333333333333
142
0.0
142
0.0
142
0.0
142
0.0
142
0.0208333333333333
142
0.0
142
0.0
142
0.0
142
0.0
142
1.0
142
0.0
142
0.0
142
0.0
142
0.0
142
1.0
179
     0
144
0.0208333333333333
144
0.0
144
0.0
144
0.0
144
0.0
144
0.0208333333333333
144
0.0
144
0.0
144
0.0
144
0.0
144
1.0
144
0.0
144
0.0
144
0.0
144
0.0
144
1.0
147
0.0208333333333333
147
0.0
147
0.0
147
0.0
147
0.0
147
0.0208333333333333
147
0.0
147
0.0
147
0.0
147
0.0
147
1.0
147
0.0
147
0.0
147
0.0
147
0.0
147
1.0
  0
MLEADERSTYLE
  5
159A
102
{ACAD_REACTORS
330
1599
102
}
330
1599
100
AcDbMLeaderStyle
170
     2
171
     1
172
     0
 90
        2
 40
0.0
 41
0.0
173
     1
 91
-1056964608
340
14
 92
       -2
290
     1
 42
0.09
291
     1
 43
0.36
  3
Standard
 44
0.18
300

342
11
174
     1
178
     6
175
     1
176
     0
 93
-1056964608
 45
0.18
292
     0
297
     0
 46
0.18
 94
-1056964608
 47
1.0
 49
1.0
140
1.0
293
     1
141
0.0
294
     1
177
     0
142
1.0
295
     0
296
     0
143
0.125
1001
ACAD_MLEADERVER
1070
     2
  0
MLINESTYLE
  5
18
102
{ACAD_REACTORS
330
17
102
}
330
17
100
AcDbMlineStyle
  2
STANDARD
 70
     0
  3

 62
   256
 51
90.0
 52
90.0
 71
     2
 49
0.5
 62
   256
  6
BYLAYER
 49
-0.5
 62
   256
  6
BYLAYER
  0
ACDBPLACEHOLDER
  5
F
102
{ACAD_REACTORS
330
E
102
}
330
E
  0
SCALE
  5
1578
102
{ACAD_REACTORS
330
1577
102
}
330
1577
100
AcDbScale
 70
     0
300
1:1
140
1.0
141
1.0
290
     1
  0
SCALE
  5
1579
102
{ACAD_REACTORS
330
1577
102
}
330
1577
100
AcDbScale
 70
     0
300
1:2
140
1.0
141
2.0
290
     0
  0
SCALE
  5
157A
102
{ACAD_REACTORS
330
1577
102
}
330
1577
100
AcDbScale
 70
     0
300
1:4
140
1.0
141
4.0
290
     0
  0
SCALE
  5
157B
102
{ACAD_REACTORS
330
1577
102
}
330
1577
100
AcDbScale
 70
     0
300
1:5
140
1.0
141
5.0
290
     0
  0
SCALE
  5
157C
102
{ACAD_REACTORS
330
1577
102
}
330
1577
100
AcDbScale
 70
     0
300
1:8
140
1.0
141
8.0
290
     0
  0
SCALE
  5
157D
102
{ACAD_REACTORS
330
1577
102
}
330
1577
100
AcDbScale
 70
     0
300
1:10
140
1.0
141
10.0
290
     0
  0
SCALE
  5
157E
102
{ACAD_REACTORS
330
1577
102
}
330
1577
100
AcDbScale
 70
     0
300
1:16
140
1.0
141
16.0
290
     0
  0
SCALE
  5
157F
102
{ACAD_REACTORS
330
1577
102
}
330
1577
100
AcDbScale
 70
     0
300
1:20
140
1.0
141
20.0
290
     0
  0
SCALE
  5
1580
102
{ACAD_REACTORS
330
1577
102
}
330
1577
100
AcDbScale
 70
     0
300
1:30
140
1.0
141
30.0
290
     0
  0
SCALE
  5
1581
102
{ACAD_REACTORS
330
1577
102
}
330
1577
100
AcDbScale
 70
     0
300
1:40
140
1.0
141
40.0
290
     0
  0
SCALE
  5
1582
102
{ACAD_REACTORS
330
1577
102
}
330
1577
100
AcDbScale
 70
     0
300
1:50
140
1.0
141
50.0
290
     0
  0
SCALE
  5
1583
102
{ACAD_REACTORS
330
1577
102
}
330
1577
100
AcDbScale
 70
     0
300
1:100
140
1.0
141
100.0
290
     0
  0
SCALE
  5
1584
102
{ACAD_REACTORS
330
1577
102
}
330
1577
100
AcDbScale
 70
     0
300
2:1
140
2.0
141
1.0
290
     0
  0
SCALE
  5
1585
102
{ACAD_REACTORS
330
1577
102
}
330
1577
100
AcDbScale
 70
     0
300
4:1
140
4.0
141
1.0
290
     0
  0
SCALE
  5
1586
102
{ACAD_REACTORS
330
1577
102
}
330
1577
100
AcDbScale
 70
     0
300
8:1
140
8.0
141
1.0
290
     0
  0
SCALE
  5
1587
102
{ACAD_REACTORS
330
1577
102
}
330
1577
100
AcDbScale
 70
     0
300
10:1
140
10.0
141
1.0
290
     0
  0
SCALE
  5
1588
102
{ACAD_REACTORS
330
1577
102
}
330
1577
100
AcDbScale
 70
     0
300
100:1
140
100.0
141
1.0
290
     0
  0
SCALE
  5
1589
102
{ACAD_REACTORS
330
1577
102
}
330
1577
100
AcDbScale
 70
     0
300
1/128" = 1'-0"
140
0.0078125
141
12.0
290
     0
  0
SCALE
  5
158A
102
{ACAD_REACTORS
330
1577
102
}
330
1577
100
AcDbScale
 70
     0
300
1/64" = 1'-0"
140
0.015625
141
12.0
290
     0
  0
SCALE
  5
158B
102
{ACAD_REACTORS
330
1577
102
}
330
1577
100
AcDbScale
 70
     0
300
1/32" = 1'-0"
140
0.03125
141
12.0
290
     0
  0
SCALE
  5
158C
102
{ACAD_REACTORS
330
1577
102
}
330
1577
100
AcDbScale
 70
     0
300
1/16" = 1'-0"
140
0.0625
141
12.0
290
     0
  0
SCALE
  5
158D
102
{ACAD_REACTORS
330
1577
102
}
330
1577
100
AcDbScale
 70
     0
300
3/32" = 1'-0"
140
0.09375
141
12.0
290
     0
  0
SCALE
  5
158E
102
{ACAD_REACTORS
330
1577
102
}
330
1577
100
AcDbScale
 70
     0
300
1/8" = 1'-0"
140
0.125
141
12.0
290
     0
  0
SCALE
  5
158F
102
{ACAD_REACTORS
330
1577
102
}
330
1577
100
AcDbScale
 70
     0
300
3/16" = 1'-0"
140
0.1875
141
12.0
290
     0
  0
SCALE
  5
1590
102
{ACAD_REACTORS
330
1577
102
}
330
1577
100
AcDbScale
 70
     0
300
1/4" = 1'-0"
140
0.25
141
12.0
290
     0
  0
SCALE
  5
1591
102
{ACAD_REACTORS
330
1577
102
}
330
1577
100
AcDbScale
 70
     0
300
3/8" = 1'-0"
140
0.375
141
12.0
290
     0
  0
SCALE
  5
1592
102
{ACAD_REACTORS
330
1577
102
}
330
1577
100
AcDbScale
 70
     0
300
1/2" = 1'-0"
140
0.5
141
12.0
290
     0
  0
SCALE
  5
1593
102
{ACAD_REACTORS
330
1577
102
}
330
1577
100
AcDbScale
 70
     0
300
3/4" = 1'-0"
140
0.75
141
12.0
290
     0
  0
SCALE
  5
1594
102
{ACAD_REACTORS
330
1577
102
}
330
1577
100
AcDbScale
 70
     0
300
1" = 1'-0"
140
1.0
141
12.0
290
     0
  0
SCALE
  5
1595
102
{ACAD_REACTORS
330
1577
102
}
330
1577
100
AcDbScale
 70
     0
300
1-1/2" = 1'-0"
140
1.5
141
12.0
290
     0
  0
SCALE
  5
1596
102
{ACAD_REACTORS
330
1577
102
}
330
1577
100
AcDbScale
 70
     0
300
3" = 1'-0"
140
3.0
141
12.0
290
     0
  0
SCALE
  5
1597
102
{ACAD_REACTORS
330
1577
102
}
330
1577
100
AcDbScale
 70
     0
300
6" = 1'-0"
140
6.0
141
12.0
290
     0
  0
SCALE
  5
1598
102
{ACAD_REACTORS
330
1577
102
}
330
1577
100
AcDbScale
 70
     0
300
1'-0" = 1'-0"
140
12.0
141
12.0
290
     0
  0
TABLESTYLE
  5
1576
102
{ACAD_XDICTIONARY
360
159B
102
}
102
{ACAD_REACTORS
330
1575
102
}
330
1575
100
AcDbTableStyle
  3
Standard
 70
     0
 71
     0
 40
0.06
 41
0.06
280
     0
281
     0
  7
STANDARD
140
0.18
170
     2
 62
     0
 63
     7
283
     0
 90
      512
 91
        0
  1

274
    -2
284
     1
 64
     0
275
    -2
285
     1
 65
     0
276
    -2
286
     1
 66
     0
277
    -2
287
     1
 67
     0
278
    -2
288
     1
 68
     0
279
    -2
289
     1
 69
     0
  7
STANDARD
140
0.25
170
     5
 62
     0
 63
     7
283
     0
 90
      512
 91
        0
  1

274
    -2
284
     1
 64
     0
275
    -2
285
     1
 65
     0
276
    -2
286
     1
 66
     0
277
    -2
287
     1
 67
     0
278
    -2
288
     1
 68
     0
279
    -2
289
     1
 69
     0
  7
STANDARD
140
0.18
170
     5
 62
     0
 63
     7
283
     0
 90
      512
 91
        0
  1

274
    -2
284
     1
 64
     0
275
    -2
285
     1
 65
     0
276
    -2
286
     1
 66
     0
277
    -2
287
     1
 67
     0
278
    -2
288
     1
 68
     0
279
    -2
289
     1
 69
     0
  0
VISUALSTYLE
  5
1566
102
{ACAD_XDICTIONARY
360
15B1
102
}
102
{ACAD_REACTORS
330
1560
102
}
330
1560
100
AcDbVisualStyle
  2
2dWireframe
 70
     4
 71
     0
 72
     2
 73
     0
 90
        0
 40
-0.6
 41
-30.0
 62
     5
 63
     7
 74
     1
 91
        4
 64
     7
 65
   257
 75
     1
175
     1
 42
1.0
 92
        0
 66
   257
 43
1.0
 76
     1
 77
     6
 78
     2
 67
     7
 79
     5
170
     0
171
     0
290
     0
174
     0
 93
        1
 44
0.0
173
     0
291
     0
 45
0.0
  0
VISUALSTYLE
  5
1568
102
{ACAD_XDICTIONARY
360
15B5
102
}
102
{ACAD_REACTORS
330
1560
102
}
330
1560
100
AcDbVisualStyle
  2
3D Hidden
 70
     6
 71
     1
 72
     2
 73
     2
 90
        0
 40
-0.6
 41
-30.0
 62
     5
 63
     7
 74
     2
 91
        2
 64
     7
 65
   257
 75
     2
175
     1
 42
179.0
 92
        0
 66
   257
 43
1.0
 76
     1
 77
     6
 78
     2
 67
     7
 79
     3
170
     0
171
     0
290
     0
174
     0
 93
        1
 44
0.0
173
     0
291
     0
 45
0.0
  0
VISUALSTYLE
  5
1567
102
{ACAD_XDICTIONARY
360
15B3
102
}
102
{ACAD_REACTORS
330
1560
102
}
330
1560
100
AcDbVisualStyle
  2
3dWireframe
 70
     5
 71
     0
 72
     2
 73
     0
 90
        0
 40
-0.6
 41
-30.0
 62
     5
 63
     7
 74
     1
 91
        4
 64
     7
 65
   257
 75
     1
175
     1
 42
1.0
 92
        0
 66
   257
 43
1.0
 76
     1
 77
     6
 78
     2
 67
     7
 79
     5
170
     0
171
     0
290
     0
174
     0
 93
        1
 44
0.0
173
     0
291
     0
 45
0.0
  0
VISUALSTYLE
  5
1565
102
{ACAD_XDICTIONARY
360
15AF
102
}
102
{ACAD_REACTORS
330
1560
102
}
330
1560
100
AcDbVisualStyle
  2
Basic
 70
     7
 71
     1
 72
     0
 73
     1
 90
        0
 40
-0.6
 41
-30.0
 62
     5
 63
     7
 74
     0
 91
        4
 64
     7
 65
   257
 75
     1
175
     1
 42
1.0
 92
        8
 66
     7
 43
1.0
 76
     1
 77
     6
 78
     2
 67
     7
 79
     5
170
     0
171
     0
290
     0
174
     0
 93
        1
 44
0.0
173
     0
291
     1
 45
0.0
  0
VISUALSTYLE
  5
156C
102
{ACAD_XDICTIONARY
360
15BD
102
}
102
{ACAD_REACTORS
330
1560
102
}
330
1560
100
AcDbVisualStyle
  2
Brighten
 70
    12
 71
     2
 72
     2
 73
     0
 90
        0
 40
-0.6
 41
-30.0
 62
     5
 63
     7
 74
     1
 91
        4
 64
     7
 65
   257
 75
     1
175
     1
 42
1.0
 92
        8
 66
     7
 43
1.0
 76
     1
 77
     6
 78
     2
 67
     7
 79
     5
170
     0
171
     0
290
     0
174
     0
 93
        1
 44
50.0
173
     0
291
     1
 45
0.0
  0
VISUALSTYLE
  5
1570
102
{ACAD_XDICTIONARY
360
15C5
102
}
102
{ACAD_REACTORS
330
1560
102
}
330
1560
100
AcDbVisualStyle
  2
ColorChange
 70
    16
 71
     2
 72
     2
 73
     3
 90
        0
 40
-0.6
 41
-30.0
 62
     5
 63
     8
 74
     1
 91
        4
 64
     7
 65
   257
 75
     1
175
     1
 42
1.0
 92
        8
 66
     8
 43
1.0
 76
     1
 77
     6
 78
     2
 67
     7
 79
     5
170
     0
171
     0
290
     0
174
     0
 93
        1
 44
0.0
173
     0
291
     1
 45
0.0
  0
VISUALSTYLE
  5
1569
102
{ACAD_XDICTIONARY
360
15B7
102
}
102
{ACAD_REACTORS
330
1560
102
}
330
1560
100
AcDbVisualStyle
  2
Conceptual
 70
     9
 71
     3
 72
     2
 73
     0
 90
        0
 40
-0.6
 41
-30.0
 62
     5
 63
     7
 74
     2
 91
        2
 64
     7
 65
   257
 75
     1
175
     1
 42
179.0
 92
        8
 66
     7
 43
1.0
 76
     1
 77
     6
 78
     2
 67
     7
 79
     3
170
     0
171
     0
290
     0
174
     0
 93
        1
 44
0.0
173
     0
291
     0
 45
0.0
  0
VISUALSTYLE
  5
156B
102
{ACAD_XDICTIONARY
360
15BB
102
}
102
{ACAD_REACTORS
330
1560
102
}
330
1560
100
AcDbVisualStyle
  2
Dim
 70
    11
 71
     2
 72
     2
 73
     0
 90
        0
 40
-0.6
 41
-30.0
 62
     5
 63
     7
 74
     1
 91
        4
 64
     7
 65
   257
 75
     1
175
     1
 42
1.0
 92
        8
 66
     7
 43
1.0
 76
     1
 77
     6
 78
     2
 67
     7
 79
     5
170
     0
171
     0
290
     0
174
     0
 93
        1
 44
-50.0
173
     0
291
     1
 45
0.0
  0
VISUALSTYLE
  5
1573
102
{ACAD_XDICTIONARY
360
15CB
102
}
102
{ACAD_REACTORS
330
1560
102
}
330
1560
100
AcDbVisualStyle
  2
EdgeColorOff
 70
    22
 71
     2
 72
     2
 73
     0
 90
        0
 40
-0.6
 41
-30.0
 62
     5
 63
     7
 74
     1
 91
        4
 64
     7
 65
   257
 75
     1
175
     1
 42
1.0
 92
        8
 66
     7
 43
1.0
 76
     1
 77
     6
 78
     2
 67
     7
 79
     5
170
     0
171
     0
290
     0
174
     0
 93
        1
 44
0.0
173
     0
291
     1
 45
0.0
  0
VISUALSTYLE
  5
156F
102
{ACAD_XDICTIONARY
360
15C3
102
}
102
{ACAD_REACTORS
330
1560
102
}
330
1560
100
AcDbVisualStyle
  2
Facepattern
 70
    15
 71
     2
 72
     2
 73
     0
 90
        0
 40
-0.6
 41
-30.0
 62
     5
 63
     7
 74
     1
 91
        4
 64
     7
 65
   257
 75
     1
175
     1
 42
1.0
 92
        8
 66
     7
 43
1.0
 76
     1
 77
     6
 78
     2
 67
     7
 79
     5
170
     0
171
     0
290
     0
174
     0
 93
        1
 44
0.0
173
     0
291
     1
 45
0.0
  0
VISUALSTYLE
  5
1561
102
{ACAD_XDICTIONARY
360
15A7
102
}
102
{ACAD_REACTORS
330
1560
102
}
330
1560
100
AcDbVisualStyle
  2
Flat
 70
     0
 71
     2
 72
     1
 73
     1
 90
        2
 40
-0.6
 41
30.0
 62
     5
 63
     7
 74
     0
 91
        4
 64
     7
 65
   257
 75
     1
175
     1
 42
1.0
 92
        8
 66
     7
 43
1.0
 76
     1
 77
     6
 78
     2
 67
     7
 79
     5
170
     0
171
     0
290
     0
174
     0
 93
       13
 44
0.0
173
     0
291
     1
 45
0.0
  0
VISUALSTYLE
  5
1562
102
{ACAD_XDICTIONARY
360
15A9
102
}
102
{ACAD_REACTORS
330
1560
102
}
330
1560
100
AcDbVisualStyle
  2
FlatWithEdges
 70
     1
 71
     2
 72
     1
 73
     1
 90
        2
 40
-0.6
 41
30.0
 62
     5
 63
     7
 74
     1
 91
        4
 64
     7
 65
   257
 75
     1
175
     1
 42
1.0
 92
        0
 66
   257
 43
1.0
 76
     1
 77
     6
 78
     2
 67
     7
 79
     5
170
     0
171
     0
290
     0
174
     0
 93
       13
 44
0.0
173
     0
291
     1
 45
0.0
  0
VISUALSTYLE
  5
1563
102
{ACAD_XDICTIONARY
360
15AB
102
}
102
{ACAD_REACTORS
330
1560
102
}
330
1560
100
AcDbVisualStyle
  2
Gouraud
 70
     2
 71
     2
 72
     2
 73
     1
 90
        2
 40
-0.6
 41
30.0
 62
     5
 63
     7
 74
     0
 91
        4
 64
     7
 65
   257
 75
     1
175
     1
 42
1.0
 92
        0
 66
     7
 43
1.0
 76
     1
 77
     6
 78
     2
 67
     7
 79
     5
170
     0
171
     0
290
     0
174
     0
 93
       13
 44
0.0
173
     0
291
     1
 45
0.0
  0
VISUALSTYLE
  5
1564
102
{ACAD_XDICTIONARY
360
15AD
102
}
102
{ACAD_REACTORS
330
1560
102
}
330
1560
100
AcDbVisualStyle
  2
GouraudWithEdges
 70
     3
 71
     2
 72
     2
 73
     1
 90
        2
 40
-0.6
 41
30.0
 62
     5
 63
     7
 74
     1
 91
        4
 64
     7
 65
   257
 75
     1
175
     1
 42
1.0
 92
        0
 66
   257
 43
1.0
 76
     1
 77
     6
 78
     2
 67
     7
 79
     5
170
     0
171
     0
290
     0
174
     0
 93
       13
 44
0.0
173
     0
291
     1
 45
0.0
  0
VISUALSTYLE
  5
1571
102
{ACAD_XDICTIONARY
360
15C7
102
}
102
{ACAD_REACTORS
330
1560
102
}
330
1560
100
AcDbVisualStyle
  2
JitterOff
 70
    20
 71
     2
 72
     2
 73
     0
 90
        0
 40
-0.6
 41
-30.0
 62
     5
 63
     7
 74
     1
 91
        4
 64
     7
 65
   257
 75
     1
175
     1
 42
1.0
 92
       10
 66
     7
 43
1.0
 76
     1
 77
     6
 78
     2
 67
     7
 79
     5
170
     0
171
     0
290
     0
174
     0
 93
        1
 44
0.0
173
     0
291
     1
 45
0.0
  0
VISUALSTYLE
  5
156E
102
{ACAD_XDICTIONARY
360
15C1
102
}
102
{ACAD_REACTORS
330
1560
102
}
330
1560
100
AcDbVisualStyle
  2
Linepattern
 70
    14
 71
     2
 72
     2
 73
     0
 90
        0
 40
-0.6
 41
-30.0
 62
     5
 63
     7
 74
     1
 91
        4
 64
     7
 65
   257
 75
     7
175
     7
 42
1.0
 92
        8
 66
     7
 43
1.0
 76
     1
 77
     6
 78
     2
 67
     7
 79
     5
170
     0
171
     0
290
     0
174
     0
 93
        1
 44
0.0
173
     0
291
     1
 45
0.0
  0
VISUALSTYLE
  5
1572
102
{ACAD_XDICTIONARY
360
15C9
102
}
102
{ACAD_REACTORS
330
1560
102
}
330
1560
100
AcDbVisualStyle
  2
OverhangOff
 70
    21
 71
     2
 72
     2
 73
     0
 90
        0
 40
-0.6
 41
-30.0
 62
     5
 63
     7
 74
     1
 91
        4
 64
     7
 65
   257
 75
     1
175
     1
 42
1.0
 92
        9
 66
     7
 43
1.0
 76
     1
 77
     6
 78
     2
 67
     7
 79
     5
170
     0
171
     0
290
     0
174
     0
 93
        1
 44
0.0
173
     0
291
     1
 45
0.0
  0
VISUALSTYLE
  5
156A
102
{ACAD_XDICTIONARY
360
15B9
102
}
102
{ACAD_REACTORS
330
1560
102
}
330
1560
100
AcDbVisualStyle
  2
Realistic
 70
     8
 71
     2
 72
     2
 73
     0
 90
        0
 40
-0.6
 41
-30.0
 62
     5
 63
     7
 74
     1
 91
        0
 64
     7
 65
   257
 75
     1
175
     1
 42
1.0
 92
        8
 66
     8
 43
1.0
 76
     1
 77
     6
 78
     2
 67
     7
 79
     5
170
     0
171
     0
290
     0
174
     0
 93
       13
 44
0.0
173
     0
291
     0
 45
0.0
  0
VISUALSTYLE
  5
156D
102
{ACAD_XDICTIONARY
360
15BF
102
}
102
{ACAD_REACTORS
330
1560
102
}
330
1560
100
AcDbVisualStyle
  2
Thicken
 70
    13
 71
     2
 72
     2
 73
     0
 90
        0
 40
-0.6
 41
-30.0
 62
     5
 63
     7
 74
     1
 91
        4
 64
     7
 65
   257
 75
     1
175
     1
 42
1.0
 92
       12
 66
     7
 43
1.0
 76
     1
 77
     6
 78
     2
 67
     7
 79
     5
170
     0
171
     0
290
     0
174
     0
 93
        1
 44
0.0
173
     0
291
     1
 45
0.0
  0
DICTIONARYVAR
  5
15D2
102
{ACAD_REACTORS
330
15CF
102
}
330
15CF
100
DictionaryVariables
280
     0
  1
1:1
  0
DICTIONARYVAR
  5
15D1
102
{ACAD_REACTORS
330
15CF
102
}
330
15CF
100
DictionaryVariables
280
     0
  1
STANDARD
  0
DICTIONARYVAR
  5
15D0
102
{ACAD_REACTORS
330
15CF
102
}
330
15CF
100
DictionaryVariables
280
     0
  1
STANDARD
  0
DICTIONARYVAR
  5
15D5
102
{ACAD_REACTORS
330
15CF
102
}
330
15CF
100
DictionaryVariables
280
     0
  1
1
  0
DICTIONARYVAR
  5
15D4
102
{ACAD_REACTORS
330
15CF
102
}
330
15CF
100
DictionaryVariables
280
     0
  1
0
  0
DICTIONARYVAR
  5
161D
102
{ACAD_REACTORS
330
15CF
102
}
330
15CF
100
DictionaryVariables
280
     0
  1
1
  0
DICTIONARYVAR
  5
161E
102
{ACAD_REACTORS
330
15CF
102
}
330
15CF
100
DictionaryVariables
280
     0
  1
15
  0
DICTIONARYVAR
  5
161C
102
{ACAD_REACTORS
330
15CF
102
}
330
15CF
100
DictionaryVariables
280
     0
  1
0
  0
DICTIONARYVAR
  5
161B
102
{ACAD_REACTORS
330
15CF
102
}
330
15CF
100
DictionaryVariables
280
     0
  1
0
  0
DICTIONARYVAR
  5
15D3
102
{ACAD_REACTORS
330
15CF
102
}
330
15CF
100
DictionaryVariables
280
     0
  1
127
  0
DICTIONARYVAR
  5
15D6
102
{ACAD_REACTORS
330
15CF
102
}
330
15CF
100
DictionaryVariables
280
     0
  1
2
  0
DICTIONARY
  5
1551
330
1550
100
AcDbDictionary
280
     1
281
     1
  3
BUMPTILE
360
1553
  3
DIFFUSETILE
360
1552
  3
OPACITYTILE
360
1556
  3
REFLECTIONTILE
360
1555
  3
REFRACTIONTILE
360
1557
  3
SPECULARTILE
360
1554
  0
DICTIONARY
  5
1549
330
1548
100
AcDbDictionary
280
     1
281
     1
  3
BUMPTILE
360
154B
  3
DIFFUSETILE
360
154A
  3
OPACITYTILE
360
154E
  3
REFLECTIONTILE
360
154D
  3
REFRACTIONTILE
360
154F
  3
SPECULARTILE
360
154C
  0
DICTIONARY
  5
1559
330
1558
100
AcDbDictionary
280
     1
281
     1
  3
BUMPTILE
360
155B
  3
DIFFUSETILE
360
155A
  3
OPACITYTILE
360
155E
  3
REFLECTIONTILE
360
155D
  3
REFRACTIONTILE
360
155F
  3
SPECULARTILE
360
155C
  0
DICTIONARY
  5
159B
330
1576
100
AcDbDictionary
280
     1
281
     1
  3
ACAD_ROUNDTRIP_2008_TABLESTYLE_CELLSTYLEMAP
360
1626
  0
DICTIONARY
  5
15B1
330
1566
100
AcDbDictionary
280
     1
281
     1
  3
ACAD_XREC_ROUNDTRIP
360
15B2
  0
DICTIONARY
  5
15B5
330
1568
100
AcDbDictionary
280
     1
281
     1
  3
ACAD_XREC_ROUNDTRIP
360
15B6
  0
DICTIONARY
  5
15B3
330
1567
100
AcDbDictionary
280
     1
281
     1
  3
ACAD_XREC_ROUNDTRIP
360
15B4
  0
DICTIONARY
  5
15AF
330
1565
100
AcDbDictionary
280
     1
281
     1
  3
ACAD_XREC_ROUNDTRIP
360
15B0
  0
DICTIONARY
  5
15BD
330
156C
100
AcDbDictionary
280
     1
281
     1
  3
ACAD_XREC_ROUNDTRIP
360
15BE
  0
DICTIONARY
  5
15C5
330
1570
100
AcDbDictionary
280
     1
281
     1
  3
ACAD_XREC_ROUNDTRIP
360
15C6
  0
DICTIONARY
  5
15B7
330
1569
100
AcDbDictionary
280
     1
281
     1
  3
ACAD_XREC_ROUNDTRIP
360
15B8
  0
DICTIONARY
  5
15BB
330
156B
100
AcDbDictionary
280
     1
281
     1
  3
ACAD_XREC_ROUNDTRIP
360
15BC
  0
DICTIONARY
  5
15CB
330
1573
100
AcDbDictionary
280
     1
281
     1
  3
ACAD_XREC_ROUNDTRIP
360
15CC
  0
DICTIONARY
  5
15C3
330
156F
100
AcDbDictionary
280
     1
281
     1
  3
ACAD_XREC_ROUNDTRIP
360
15C4
  0
DICTIONARY
  5
15A7
330
1561
100
AcDbDictionary
280
     1
281
     1
  3
ACAD_XREC_ROUNDTRIP
360
15A8
  0
DICTIONARY
  5
15A9
330
1562
100
AcDbDictionary
280
     1
281
     1
  3
ACAD_XREC_ROUNDTRIP
360
15AA
  0
DICTIONARY
  5
15AB
330
1563
100
AcDbDictionary
280
     1
281
     1
  3
ACAD_XREC_ROUNDTRIP
360
15AC
  0
DICTIONARY
  5
15AD
330
1564
100
AcDbDictionary
280
     1
281
     1
  3
ACAD_XREC_ROUNDTRIP
360
15AE
  0
DICTIONARY
  5
15C7
330
1571
100
AcDbDictionary
280
     1
281
     1
  3
ACAD_XREC_ROUNDTRIP
360
15C8
  0
DICTIONARY
  5
15C1
330
156E
100
AcDbDictionary
280
     1
281
     1
  3
ACAD_XREC_ROUNDTRIP
360
15C2
  0
DICTIONARY
  5
15C9
330
1572
100
AcDbDictionary
280
     1
281
     1
  3
ACAD_XREC_ROUNDTRIP
360
15CA
  0
DICTIONARY
  5
15B9
330
156A
100
AcDbDictionary
280
     1
281
     1
  3
ACAD_XREC_ROUNDTRIP
360
15BA
  0
DICTIONARY
  5
15BF
330
156D
100
AcDbDictionary
280
     1
281
     1
  3
ACAD_XREC_ROUNDTRIP
360
15C0
  0
XRECORD
  5
1553
102
{ACAD_REACTORS
330
1551
102
}
330
1551
100
AcDbXrecord
280
     1
270
     1
271
     1
  0
XRECORD
  5
1552
102
{ACAD_REACTORS
330
1551
102
}
330
1551
100
AcDbXrecord
280
     1
270
     1
271
     1
  0
XRECORD
  5
1556
102
{ACAD_REACTORS
330
1551
102
}
330
1551
100
AcDbXrecord
280
     1
270
     1
271
     1
  0
XRECORD
  5
1555
102
{ACAD_REACTORS
330
1551
102
}
330
1551
100
AcDbXrecord
280
     1
270
     1
271
     1
  0
XRECORD
  5
1557
102
{ACAD_REACTORS
330
1551
102
}
330
1551
100
AcDbXrecord
280
     1
270
     1
271
     1
  0
XRECORD
  5
1554
102
{ACAD_REACTORS
330
1551
102
}
330
1551
100
AcDbXrecord
280
     1
270
     1
271
     1
  0
XRECORD
  5
154B
102
{ACAD_REACTORS
330
1549
102
}
330
1549
100
AcDbXrecord
280
     1
270
     1
271
     1
  0
XRECORD
  5
154A
102
{ACAD_REACTORS
330
1549
102
}
330
1549
100
AcDbXrecord
280
     1
270
     1
271
     1
  0
XRECORD
  5
154E
102
{ACAD_REACTORS
330
1549
102
}
330
1549
100
AcDbXrecord
280
     1
270
     1
271
     1
  0
XRECORD
  5
154D
102
{ACAD_REACTORS
330
1549
102
}
330
1549
100
AcDbXrecord
280
     1
270
     1
271
     1
  0
XRECORD
  5
154F
102
{ACAD_REACTORS
330
1549
102
}
330
1549
100
AcDbXrecord
280
     1
270
     1
271
     1
  0
XRECORD
  5
154C
102
{ACAD_REACTORS
330
1549
102
}
330
1549
100
AcDbXrecord
280
     1
270
     1
271
     1
  0
XRECORD
  5
155B
102
{ACAD_REACTORS
330
1559
102
}
330
1559
100
AcDbXrecord
280
     1
270
     1
271
     1
  0
XRECORD
  5
155A
102
{ACAD_REACTORS
330
1559
102
}
330
1559
100
AcDbXrecord
280
     1
270
     1
271
     1
  0
XRECORD
  5
155E
102
{ACAD_REACTORS
330
1559
102
}
330
1559
100
AcDbXrecord
280
     1
270
     1
271
     1
  0
XRECORD
  5
155D
102
{ACAD_REACTORS
330
1559
102
}
330
1559
100
AcDbXrecord
280
     1
270
     1
271
     1
  0
XRECORD
  5
155F
102
{ACAD_REACTORS
330
1559
102
}
330
1559
100
AcDbXrecord
280
     1
270
     1
271
     1
  0
XRECORD
  5
155C
102
{ACAD_REACTORS
330
1559
102
}
330
1559
100
AcDbXrecord
280
     1
270
     1
271
     1
  0
CELLSTYLEMAP
  5
1626
102
{ACAD_REACTORS
330
159B
102
}
330
159B
100
AcDbCellStyleMap
 90
        3
300
CELLSTYLE
  1
TABLEFORMAT_BEGIN
 90
        5
170
     1
 91
        0
 92
    32768
 62
   257
 93
        1
300
CONTENTFORMAT
  1
CONTENTFORMAT_BEGIN
 90
        0
 91
        0
 92
      512
 93
        0
300

 40
0.0
140
1.0
 94
        5
 62
     0
340
11
144
0.25
309
CONTENTFORMAT_END
171
     0
 94
        0
309
TABLEFORMAT_END
  1
CELLSTYLE_BEGIN
 90
        1
 91
        1
300
_TITLE
309
CELLSTYLE_END
300
CELLSTYLE
  1
TABLEFORMAT_BEGIN
 90
        5
170
     1
 91
        0
 92
        0
 62
   257
 93
        1
300
CONTENTFORMAT
  1
CONTENTFORMAT_BEGIN
 90
        0
 91
        0
 92
      512
 93
        0
300

 40
0.0
140
1.0
 94
        5
 62
     0
340
11
144
0.18
309
CONTENTFORMAT_END
171
     0
 94
        0
309
TABLEFORMAT_END
  1
CELLSTYLE_BEGIN
 90
        2
 91
        1
300
_HEADER
309
CELLSTYLE_END
300
CELLSTYLE
  1
TABLEFORMAT_BEGIN
 90
        5
170
     1
 91
        0
 92
        0
 62
   257
 93
        1
300
CONTENTFORMAT
  1
CONTENTFORMAT_BEGIN
 90
        0
 91
        0
 92
      512
 93
        0
300

 40
0.0
140
1.0
 94
        2
 62
     0
340
11
144
0.18
309
CONTENTFORMAT_END
171
     0
 94
        0
309
TABLEFORMAT_END
  1
CELLSTYLE_BEGIN
 90
        3
 91
        2
300
_DATA
309
CELLSTYLE_END
  0
XRECORD
  5
15B2
102
{ACAD_REACTORS
330
15B1
102
}
330
15B1
100
AcDbXrecord
280
     1
102
RTVSPropertyOp0
 70
     1
102
RTVSPropertyOp1
 70
     1
102
RTVSPropertyOp2
 70
     1
102
RTVSPropertyOp3
 70
     1
102
RTVSPropertyOp4
 70
     1
102
RTVSPropertyOp5
 70
     1
102
RTVSPropertyOp6
 70
     1
102
RTVSPropertyOp7
 70
     1
102
RTVSPropertyOp8
 70
     1
102
RTVSPropertyOp9
 70
     1
102
RTVSPropertyOp10
 70
     1
102
RTVSPropertyOp11
 70
     1
102
RTVSPropertyOp12
 70
     1
102
RTVSPropertyOp13
 70
     1
102
RTVSPropertyOp14
 70
     1
102
RTVSPropertyOp15
 70
     1
102
RTVSPropertyOp16
 70
     1
102
RTVSPropertyOp17
 70
     1
102
RTVSPropertyOp18
 70
     1
102
RTVSPropertyOp19
 70
     1
102
RTVSPropertyOp20
 70
     1
102
RTVSPropertyOp21
 70
     1
102
RTVSPropertyOp22
 70
     1
102
RTVSPropertyOp23
 70
     1
102
RTVSPropertyOp24
 70
     1
102
RTVSPropertyOp25
 70
     1
102
RTVSPropertyOp26
 70
     1
102
RTVSPropertyOp27
 70
     1
  0
XRECORD
  5
15B6
102
{ACAD_REACTORS
330
15B5
102
}
330
15B5
100
AcDbXrecord
280
     1
102
RTVSPropertyOp0
 70
     1
102
RTVSPropertyOp1
 70
     1
102
RTVSPropertyOp2
 70
     1
102
RTVSPropertyOp3
 70
     1
102
RTVSPropertyOp4
 70
     1
102
RTVSPropertyOp5
 70
     1
102
RTVSPropertyOp6
 70
     1
102
RTVSPropertyOp7
 70
     1
102
RTVSPropertyOp8
 70
     1
102
RTVSPropertyOp9
 70
     1
102
RTVSPropertyOp10
 70
     1
102
RTVSPropertyOp11
 70
     1
102
RTVSPropertyOp12
 70
     1
102
RTVSPropertyOp13
 70
     1
102
RTVSPropertyOp14
 70
     1
102
RTVSPropertyOp15
 70
     1
102
RTVSPropertyOp16
 70
     1
102
RTVSPropertyOp17
 70
     1
102
RTVSPropertyOp18
 70
     1
102
RTVSPropertyOp19
 70
     1
102
RTVSPropertyOp20
 70
     1
102
RTVSPropertyOp21
 70
     1
102
RTVSPropertyOp22
 70
     1
102
RTVSPropertyOp23
 70
     1
102
RTVSPropertyOp24
 70
     1
102
RTVSPropertyOp25
 70
     1
102
RTVSPropertyOp26
 70
     1
102
RTVSPropertyOp27
 70
     1
  0
XRECORD
  5
15B4
102
{ACAD_REACTORS
330
15B3
102
}
330
15B3
100
AcDbXrecord
280
     1
102
RTVSPropertyOp0
 70
     1
102
RTVSPropertyOp1
 70
     1
102
RTVSPropertyOp2
 70
     1
102
RTVSPropertyOp3
 70
     1
102
RTVSPropertyOp4
 70
     1
102
RTVSPropertyOp5
 70
     1
102
RTVSPropertyOp6
 70
     1
102
RTVSPropertyOp7
 70
     1
102
RTVSPropertyOp8
 70
     1
102
RTVSPropertyOp9
 70
     1
102
RTVSPropertyOp10
 70
     1
102
RTVSPropertyOp11
 70
     1
102
RTVSPropertyOp12
 70
     1
102
RTVSPropertyOp13
 70
     1
102
RTVSPropertyOp14
 70
     1
102
RTVSPropertyOp15
 70
     1
102
RTVSPropertyOp16
 70
     1
102
RTVSPropertyOp17
 70
     1
102
RTVSPropertyOp18
 70
     1
102
RTVSPropertyOp19
 70
     1
102
RTVSPropertyOp20
 70
     1
102
RTVSPropertyOp21
 70
     1
102
RTVSPropertyOp22
 70
     1
102
RTVSPropertyOp23
 70
     1
102
RTVSPropertyOp24
 70
     1
102
RTVSPropertyOp25
 70
     1
102
RTVSPropertyOp26
 70
     1
102
RTVSPropertyOp27
 70
     1
  0
XRECORD
  5
15B0
102
{ACAD_REACTORS
330
15AF
102
}
330
15AF
100
AcDbXrecord
280
     1
102
RTVSPropertyOp0
 70
     1
102
RTVSPropertyOp1
 70
     1
102
RTVSPropertyOp2
 70
     1
102
RTVSPropertyOp3
 70
     1
102
RTVSPropertyOp4
 70
     1
102
RTVSPropertyOp5
 70
     1
102
RTVSPropertyOp6
 70
     1
102
RTVSPropertyOp7
 70
     1
102
RTVSPropertyOp8
 70
     1
102
RTVSPropertyOp9
 70
     1
102
RTVSPropertyOp10
 70
     1
102
RTVSPropertyOp11
 70
     1
102
RTVSPropertyOp12
 70
     1
102
RTVSPropertyOp13
 70
     1
102
RTVSPropertyOp14
 70
     1
102
RTVSPropertyOp15
 70
     1
102
RTVSPropertyOp16
 70
     1
102
RTVSPropertyOp17
 70
     1
102
RTVSPropertyOp18
 70
     1
102
RTVSPropertyOp19
 70
     1
102
RTVSPropertyOp20
 70
     1
102
RTVSPropertyOp21
 70
     1
102
RTVSPropertyOp22
 70
     1
102
RTVSPropertyOp23
 70
     1
102
RTVSPropertyOp24
 70
     1
102
RTVSPropertyOp25
 70
     1
102
RTVSPropertyOp26
 70
     1
102
RTVSPropertyOp27
 70
     1
  0
XRECORD
  5
15BE
102
{ACAD_REACTORS
330
15BD
102
}
330
15BD
100
AcDbXrecord
280
     1
102
RTVSPropertyOp0
 70
     1
102
RTVSPropertyOp1
 70
     1
102
RTVSPropertyOp2
 70
     1
102
RTVSPropertyOp3
 70
     1
102
RTVSPropertyOp4
 70
     1
102
RTVSPropertyOp5
 70
     1
102
RTVSPropertyOp6
 70
     1
102
RTVSPropertyOp7
 70
     1
102
RTVSPropertyOp8
 70
     1
102
RTVSPropertyOp9
 70
     1
102
RTVSPropertyOp10
 70
     1
102
RTVSPropertyOp11
 70
     1
102
RTVSPropertyOp12
 70
     1
102
RTVSPropertyOp13
 70
     1
102
RTVSPropertyOp14
 70
     1
102
RTVSPropertyOp15
 70
     1
102
RTVSPropertyOp16
 70
     1
102
RTVSPropertyOp17
 70
     1
102
RTVSPropertyOp18
 70
     1
102
RTVSPropertyOp19
 70
     1
102
RTVSPropertyOp20
 70
     1
102
RTVSPropertyOp21
 70
     1
102
RTVSPropertyOp22
 70
     1
102
RTVSPropertyOp23
 70
     1
102
RTVSPropertyOp24
 70
     1
102
RTVSPropertyOp25
 70
     1
102
RTVSPropertyOp26
 70
     1
102
RTVSPropertyOp27
 70
     1
  0
XRECORD
  5
15C6
102
{ACAD_REACTORS
330
15C5
102
}
330
15C5
100
AcDbXrecord
280
     1
102
RTVSPropertyOp0
 70
     1
102
RTVSPropertyOp1
 70
     1
102
RTVSPropertyOp2
 70
     1
102
RTVSPropertyOp3
 70
     1
102
RTVSPropertyOp4
 70
     1
102
RTVSPropertyOp5
 70
     1
102
RTVSPropertyOp6
 70
     1
102
RTVSPropertyOp7
 70
     1
102
RTVSPropertyOp8
 70
     1
102
RTVSPropertyOp9
 70
     1
102
RTVSPropertyOp10
 70
     1
102
RTVSPropertyOp11
 70
     1
102
RTVSPropertyOp12
 70
     1
102
RTVSPropertyOp13
 70
     1
102
RTVSPropertyOp14
 70
     1
102
RTVSPropertyOp15
 70
     1
102
RTVSPropertyOp16
 70
     1
102
RTVSPropertyOp17
 70
     1
102
RTVSPropertyOp18
 70
     1
102
RTVSPropertyOp19
 70
     1
102
RTVSPropertyOp20
 70
     1
102
RTVSPropertyOp21
 70
     1
102
RTVSPropertyOp22
 70
     1
102
RTVSPropertyOp23
 70
     1
102
RTVSPropertyOp24
 70
     1
102
RTVSPropertyOp25
 70
     1
102
RTVSPropertyOp26
 70
     1
102
RTVSPropertyOp27
 70
     1
  0
XRECORD
  5
15B8
102
{ACAD_REACTORS
330
15B7
102
}
330
15B7
100
AcDbXrecord
280
     1
102
RTVSPropertyOp0
 70
     1
102
RTVSPropertyOp1
 70
     1
102
RTVSPropertyOp2
 70
     1
102
RTVSPropertyOp3
 70
     1
102
RTVSPropertyOp4
 70
     1
102
RTVSPropertyOp5
 70
     1
102
RTVSPropertyOp6
 70
     1
102
RTVSPropertyOp7
 70
     1
102
RTVSPropertyOp8
 70
     1
102
RTVSPropertyOp9
 70
     1
102
RTVSPropertyOp10
 70
     1
102
RTVSPropertyOp11
 70
     1
102
RTVSPropertyOp12
 70
     1
102
RTVSPropertyOp13
 70
     1
102
RTVSPropertyOp14
 70
     1
102
RTVSPropertyOp15
 70
     1
102
RTVSPropertyOp16
 70
     1
102
RTVSPropertyOp17
 70
     1
102
RTVSPropertyOp18
 70
     1
102
RTVSPropertyOp19
 70
     1
102
RTVSPropertyOp20
 70
     1
102
RTVSPropertyOp21
 70
     1
102
RTVSPropertyOp22
 70
     1
102
RTVSPropertyOp23
 70
     1
102
RTVSPropertyOp24
 70
     1
102
RTVSPropertyOp25
 70
     1
102
RTVSPropertyOp26
 70
     1
102
RTVSPropertyOp27
 70
     1
  0
XRECORD
  5
15BC
102
{ACAD_REACTORS
330
15BB
102
}
330
15BB
100
AcDbXrecord
280
     1
102
RTVSPropertyOp0
 70
     1
102
RTVSPropertyOp1
 70
     1
102
RTVSPropertyOp2
 70
     1
102
RTVSPropertyOp3
 70
     1
102
RTVSPropertyOp4
 70
     1
102
RTVSPropertyOp5
 70
     1
102
RTVSPropertyOp6
 70
     1
102
RTVSPropertyOp7
 70
     1
102
RTVSPropertyOp8
 70
     1
102
RTVSPropertyOp9
 70
     1
102
RTVSPropertyOp10
 70
     1
102
RTVSPropertyOp11
 70
     1
102
RTVSPropertyOp12
 70
     1
102
RTVSPropertyOp13
 70
     1
102
RTVSPropertyOp14
 70
     1
102
RTVSPropertyOp15
 70
     1
102
RTVSPropertyOp16
 70
     1
102
RTVSPropertyOp17
 70
     1
102
RTVSPropertyOp18
 70
     1
102
RTVSPropertyOp19
 70
     1
102
RTVSPropertyOp20
 70
     1
102
RTVSPropertyOp21
 70
     1
102
RTVSPropertyOp22
 70
     1
102
RTVSPropertyOp23
 70
     1
102
RTVSPropertyOp24
 70
     1
102
RTVSPropertyOp25
 70
     1
102
RTVSPropertyOp26
 70
     1
102
RTVSPropertyOp27
 70
     1
  0
XRECORD
  5
15CC
102
{ACAD_REACTORS
330
15CB
102
}
330
15CB
100
AcDbXrecord
280
     1
102
RTVSPropertyOp0
 70
     0
102
RTVSPropertyOp1
 70
     0
102
RTVSPropertyOp2
 70
     0
102
RTVSPropertyOp3
 70
     0
102
RTVSPropertyOp4
 70
     0
102
RTVSPropertyOp5
 70
     0
102
RTVSPropertyOp6
 70
     0
102
RTVSPropertyOp7
 70
     0
102
RTVSPropertyOp8
 70
     0
102
RTVSPropertyOp9
 70
     0
102
RTVSPropertyOp10
 70
     0
102
RTVSPropertyOp11
 70
     0
102
RTVSPropertyOp12
 70
     0
102
RTVSPropertyOp13
 70
     0
102
RTVSPropertyOp14
 70
     2
102
RTVSPropertyOp15
 70
     0
102
RTVSPropertyOp16
 70
     0
102
RTVSPropertyOp17
 70
     0
102
RTVSPropertyOp18
 70
     0
102
RTVSPropertyOp19
 70
     0
102
RTVSPropertyOp20
 70
     0
102
RTVSPropertyOp21
 70
     0
102
RTVSPropertyOp22
 70
     0
102
RTVSPropertyOp23
 70
     0
102
RTVSPropertyOp24
 70
     0
102
RTVSPropertyOp25
 70
     0
102
RTVSPropertyOp26
 70
     0
102
RTVSPropertyOp27
 70
     0
  0
XRECORD
  5
15C4
102
{ACAD_REACTORS
330
15C3
102
}
330
15C3
100
AcDbXrecord
280
     1
102
RTVSPropertyOp0
 70
     1
102
RTVSPropertyOp1
 70
     1
102
RTVSPropertyOp2
 70
     1
102
RTVSPropertyOp3
 70
     1
102
RTVSPropertyOp4
 70
     1
102
RTVSPropertyOp5
 70
     1
102
RTVSPropertyOp6
 70
     1
102
RTVSPropertyOp7
 70
     1
102
RTVSPropertyOp8
 70
     1
102
RTVSPropertyOp9
 70
     1
102
RTVSPropertyOp10
 70
     1
102
RTVSPropertyOp11
 70
     1
102
RTVSPropertyOp12
 70
     1
102
RTVSPropertyOp13
 70
     1
102
RTVSPropertyOp14
 70
     1
102
RTVSPropertyOp15
 70
     1
102
RTVSPropertyOp16
 70
     1
102
RTVSPropertyOp17
 70
     1
102
RTVSPropertyOp18
 70
     1
102
RTVSPropertyOp19
 70
     1
102
RTVSPropertyOp20
 70
     1
102
RTVSPropertyOp21
 70
     1
102
RTVSPropertyOp22
 70
     1
102
RTVSPropertyOp23
 70
     1
102
RTVSPropertyOp24
 70
     1
102
RTVSPropertyOp25
 70
     1
102
RTVSPropertyOp26
 70
     1
102
RTVSPropertyOp27
 70
     1
  0
XRECORD
  5
15A8
102
{ACAD_REACTORS
330
15A7
102
}
330
15A7
100
AcDbXrecord
280
     1
102
RTVSPropertyOp0
 70
     1
102
RTVSPropertyOp1
 70
     1
102
RTVSPropertyOp2
 70
     1
102
RTVSPropertyOp3
 70
     1
102
RTVSPropertyOp4
 70
     1
102
RTVSPropertyOp5
 70
     1
102
RTVSPropertyOp6
 70
     1
102
RTVSPropertyOp7
 70
     1
102
RTVSPropertyOp8
 70
     1
102
RTVSPropertyOp9
 70
     1
102
RTVSPropertyOp10
 70
     1
102
RTVSPropertyOp11
 70
     1
102
RTVSPropertyOp12
 70
     1
102
RTVSPropertyOp13
 70
     1
102
RTVSPropertyOp14
 70
     1
102
RTVSPropertyOp15
 70
     1
102
RTVSPropertyOp16
 70
     1
102
RTVSPropertyOp17
 70
     1
102
RTVSPropertyOp18
 70
     1
102
RTVSPropertyOp19
 70
     1
102
RTVSPropertyOp20
 70
     1
102
RTVSPropertyOp21
 70
     1
102
RTVSPropertyOp22
 70
     1
102
RTVSPropertyOp23
 70
     1
102
RTVSPropertyOp24
 70
     1
102
RTVSPropertyOp25
 70
     1
102
RTVSPropertyOp26
 70
     1
102
RTVSPropertyOp27
 70
     1
  0
XRECORD
  5
15AA
102
{ACAD_REACTORS
330
15A9
102
}
330
15A9
100
AcDbXrecord
280
     1
102
RTVSPropertyOp0
 70
     1
102
RTVSPropertyOp1
 70
     1
102
RTVSPropertyOp2
 70
     1
102
RTVSPropertyOp3
 70
     1
102
RTVSPropertyOp4
 70
     1
102
RTVSPropertyOp5
 70
     1
102
RTVSPropertyOp6
 70
     1
102
RTVSPropertyOp7
 70
     1
102
RTVSPropertyOp8
 70
     1
102
RTVSPropertyOp9
 70
     1
102
RTVSPropertyOp10
 70
     1
102
RTVSPropertyOp11
 70
     1
102
RTVSPropertyOp12
 70
     1
102
RTVSPropertyOp13
 70
     1
102
RTVSPropertyOp14
 70
     1
102
RTVSPropertyOp15
 70
     1
102
RTVSPropertyOp16
 70
     1
102
RTVSPropertyOp17
 70
     1
102
RTVSPropertyOp18
 70
     1
102
RTVSPropertyOp19
 70
     1
102
RTVSPropertyOp20
 70
     1
102
RTVSPropertyOp21
 70
     1
102
RTVSPropertyOp22
 70
     1
102
RTVSPropertyOp23
 70
     1
102
RTVSPropertyOp24
 70
     1
102
RTVSPropertyOp25
 70
     1
102
RTVSPropertyOp26
 70
     1
102
RTVSPropertyOp27
 70
     1
  0
XRECORD
  5
15AC
102
{ACAD_REACTORS
330
15AB
102
}
330
15AB
100
AcDbXrecord
280
     1
102
RTVSPropertyOp0
 70
     1
102
RTVSPropertyOp1
 70
     1
102
RTVSPropertyOp2
 70
     1
102
RTVSPropertyOp3
 70
     1
102
RTVSPropertyOp4
 70
     1
102
RTVSPropertyOp5
 70
     1
102
RTVSPropertyOp6
 70
     1
102
RTVSPropertyOp7
 70
     1
102
RTVSPropertyOp8
 70
     1
102
RTVSPropertyOp9
 70
     1
102
RTVSPropertyOp10
 70
     1
102
RTVSPropertyOp11
 70
     1
102
RTVSPropertyOp12
 70
     1
102
RTVSPropertyOp13
 70
     1
102
RTVSPropertyOp14
 70
     1
102
RTVSPropertyOp15
 70
     1
102
RTVSPropertyOp16
 70
     1
102
RTVSPropertyOp17
 70
     1
102
RTVSPropertyOp18
 70
     1
102
RTVSPropertyOp19
 70
     1
102
RTVSPropertyOp20
 70
     1
102
RTVSPropertyOp21
 70
     1
102
RTVSPropertyOp22
 70
     1
102
RTVSPropertyOp23
 70
     1
102
RTVSPropertyOp24
 70
     1
102
RTVSPropertyOp25
 70
     1
102
RTVSPropertyOp26
 70
     1
102
RTVSPropertyOp27
 70
     1
  0
XRECORD
  5
15AE
102
{ACAD_REACTORS
330
15AD
102
}
330
15AD
100
AcDbXrecord
280
     1
102
RTVSPropertyOp0
 70
     1
102
RTVSPropertyOp1
 70
     1
102
RTVSPropertyOp2
 70
     1
102
RTVSPropertyOp3
 70
     1
102
RTVSPropertyOp4
 70
     1
102
RTVSPropertyOp5
 70
     1
102
RTVSPropertyOp6
 70
     1
102
RTVSPropertyOp7
 70
     1
102
RTVSPropertyOp8
 70
     1
102
RTVSPropertyOp9
 70
     1
102
RTVSPropertyOp10
 70
     1
102
RTVSPropertyOp11
 70
     1
102
RTVSPropertyOp12
 70
     1
102
RTVSPropertyOp13
 70
     1
102
RTVSPropertyOp14
 70
     1
102
RTVSPropertyOp15
 70
     1
102
RTVSPropertyOp16
 70
     1
102
RTVSPropertyOp17
 70
     1
102
RTVSPropertyOp18
 70
     1
102
RTVSPropertyOp19
 70
     1
102
RTVSPropertyOp20
 70
     1
102
RTVSPropertyOp21
 70
     1
102
RTVSPropertyOp22
 70
     1
102
RTVSPropertyOp23
 70
     1
102
RTVSPropertyOp24
 70
     1
102
RTVSPropertyOp25
 70
     1
102
RTVSPropertyOp26
 70
     1
102
RTVSPropertyOp27
 70
     1
  0
XRECORD
  5
15C8
102
{ACAD_REACTORS
330
15C7
102
}
330
15C7
100
AcDbXrecord
280
     1
102
RTVSPropertyOp0
 70
     0
102
RTVSPropertyOp1
 70
     0
102
RTVSPropertyOp2
 70
     0
102
RTVSPropertyOp3
 70
     0
102
RTVSPropertyOp4
 70
     0
102
RTVSPropertyOp5
 70
     0
102
RTVSPropertyOp6
 70
     0
102
RTVSPropertyOp7
 70
     0
102
RTVSPropertyOp8
 70
     0
102
RTVSPropertyOp9
 70
     0
102
RTVSPropertyOp10
 70
     0
102
RTVSPropertyOp11
 70
     0
102
RTVSPropertyOp12
 70
     0
102
RTVSPropertyOp13
 70
     0
102
RTVSPropertyOp14
 70
     2
102
RTVSPropertyOp15
 70
     0
102
RTVSPropertyOp16
 70
     0
102
RTVSPropertyOp17
 70
     0
102
RTVSPropertyOp18
 70
     0
102
RTVSPropertyOp19
 70
     0
102
RTVSPropertyOp20
 70
     0
102
RTVSPropertyOp21
 70
     0
102
RTVSPropertyOp22
 70
     0
102
RTVSPropertyOp23
 70
     0
102
RTVSPropertyOp24
 70
     0
102
RTVSPropertyOp25
 70
     0
102
RTVSPropertyOp26
 70
     0
102
RTVSPropertyOp27
 70
     0
  0
XRECORD
  5
15C2
102
{ACAD_REACTORS
330
15C1
102
}
330
15C1
100
AcDbXrecord
280
     1
102
RTVSPropertyOp0
 70
     1
102
RTVSPropertyOp1
 70
     1
102
RTVSPropertyOp2
 70
     1
102
RTVSPropertyOp3
 70
     1
102
RTVSPropertyOp4
 70
     1
102
RTVSPropertyOp5
 70
     1
102
RTVSPropertyOp6
 70
     1
102
RTVSPropertyOp7
 70
     1
102
RTVSPropertyOp8
 70
     1
102
RTVSPropertyOp9
 70
     1
102
RTVSPropertyOp10
 70
     1
102
RTVSPropertyOp11
 70
     1
102
RTVSPropertyOp12
 70
     1
102
RTVSPropertyOp13
 70
     1
102
RTVSPropertyOp14
 70
     1
102
RTVSPropertyOp15
 70
     1
102
RTVSPropertyOp16
 70
     1
102
RTVSPropertyOp17
 70
     1
102
RTVSPropertyOp18
 70
     1
102
RTVSPropertyOp19
 70
     1
102
RTVSPropertyOp20
 70
     1
102
RTVSPropertyOp21
 70
     1
102
RTVSPropertyOp22
 70
     1
102
RTVSPropertyOp23
 70
     1
102
RTVSPropertyOp24
 70
     1
102
RTVSPropertyOp25
 70
     1
102
RTVSPropertyOp26
 70
     1
102
RTVSPropertyOp27
 70
     1
  0
XRECORD
  5
15CA
102
{ACAD_REACTORS
330
15C9
102
}
330
15C9
100
AcDbXrecord
280
     1
102
RTVSPropertyOp0
 70
     0
102
RTVSPropertyOp1
 70
     0
102
RTVSPropertyOp2
 70
     0
102
RTVSPropertyOp3
 70
     0
102
RTVSPropertyOp4
 70
     0
102
RTVSPropertyOp5
 70
     0
102
RTVSPropertyOp6
 70
     0
102
RTVSPropertyOp7
 70
     0
102
RTVSPropertyOp8
 70
     0
102
RTVSPropertyOp9
 70
     0
102
RTVSPropertyOp10
 70
     0
102
RTVSPropertyOp11
 70
     0
102
RTVSPropertyOp12
 70
     0
102
RTVSPropertyOp13
 70
     0
102
RTVSPropertyOp14
 70
     2
102
RTVSPropertyOp15
 70
     0
102
RTVSPropertyOp16
 70
     0
102
RTVSPropertyOp17
 70
     0
102
RTVSPropertyOp18
 70
     0
102
RTVSPropertyOp19
 70
     0
102
RTVSPropertyOp20
 70
     0
102
RTVSPropertyOp21
 70
     0
102
RTVSPropertyOp22
 70
     0
102
RTVSPropertyOp23
 70
     0
102
RTVSPropertyOp24
 70
     0
102
RTVSPropertyOp25
 70
     0
102
RTVSPropertyOp26
 70
     0
102
RTVSPropertyOp27
 70
     0
  0
XRECORD
  5
15BA
102
{ACAD_REACTORS
330
15B9
102
}
330
15B9
100
AcDbXrecord
280
     1
102
RTVSPropertyOp0
 70
     1
102
RTVSPropertyOp1
 70
     1
102
RTVSPropertyOp2
 70
     1
102
RTVSPropertyOp3
 70
     1
102
RTVSPropertyOp4
 70
     1
102
RTVSPropertyOp5
 70
     1
102
RTVSPropertyOp6
 70
     1
102
RTVSPropertyOp7
 70
     1
102
RTVSPropertyOp8
 70
     1
102
RTVSPropertyOp9
 70
     1
102
RTVSPropertyOp10
 70
     1
102
RTVSPropertyOp11
 70
     1
102
RTVSPropertyOp12
 70
     1
102
RTVSPropertyOp13
 70
     1
102
RTVSPropertyOp14
 70
     1
102
RTVSPropertyOp15
 70
     1
102
RTVSPropertyOp16
 70
     1
102
RTVSPropertyOp17
 70
     1
102
RTVSPropertyOp18
 70
     1
102
RTVSPropertyOp19
 70
     1
102
RTVSPropertyOp20
 70
     1
102
RTVSPropertyOp21
 70
     1
102
RTVSPropertyOp22
 70
     1
102
RTVSPropertyOp23
 70
     1
102
RTVSPropertyOp24
 70
     1
102
RTVSPropertyOp25
 70
     1
102
RTVSPropertyOp26
 70
     1
102
RTVSPropertyOp27
 70
     1
  0
XRECORD
  5
15C0
102
{ACAD_REACTORS
330
15BF
102
}
330
15BF
100
AcDbXrecord
280
     1
102
RTVSPropertyOp0
 70
     1
102
RTVSPropertyOp1
 70
     1
102
RTVSPropertyOp2
 70
     1
102
RTVSPropertyOp3
 70
     1
102
RTVSPropertyOp4
 70
     1
102
RTVSPropertyOp5
 70
     1
102
RTVSPropertyOp6
 70
     1
102
RTVSPropertyOp7
 70
     1
102
RTVSPropertyOp8
 70
     1
102
RTVSPropertyOp9
 70
     1
102
RTVSPropertyOp10
 70
     1
102
RTVSPropertyOp11
 70
     1
102
RTVSPropertyOp12
 70
     1
102
RTVSPropertyOp13
 70
     1
102
RTVSPropertyOp14
 70
     1
102
RTVSPropertyOp15
 70
     1
102
RTVSPropertyOp16
 70
     1
102
RTVSPropertyOp17
 70
     1
102
RTVSPropertyOp18
 70
     1
102
RTVSPropertyOp19
 70
     1
102
RTVSPropertyOp20
 70
     1
102
RTVSPropertyOp21
 70
     1
102
RTVSPropertyOp22
 70
     1
102
RTVSPropertyOp23
 70
     1
102
RTVSPropertyOp24
 70
     1
102
RTVSPropertyOp25
 70
     1
102
RTVSPropertyOp26
 70
     1
102
RTVSPropertyOp27
 70
     1
  0
ENDSEC
  0
EOF
