  0
SECTION
  2
HEADER
  9
$ACADVER
  1
AC1021
  9
$ACADMAINTVER
 70
    50
  9
$DWGCODEPAGE
  3
ANSI_1252
  9
$LASTSAVEDBY
  1
francoisbu
  9
$INSBASE
 10
0.0
 20
0.0
 30
0.0
  9
$EXTMIN
 10
17.61672643196932
 20
71.79003941924219
 30
-0.0000000349181948
  9
$EXTMAX
 10
81.10698754188717
 20
104.4731447894371
 30
0.0000000814935746
  9
$LIMMIN
 10
0.0
 20
0.0
  9
$LIMMAX
 10
181.3333333333
 20
117.3333333333
  9
$ORTHOMODE
 70
     1
  9
$REGENMODE
 70
     1
  9
$FILLMODE
 70
     1
  9
$QTEXTMODE
 70
     0
  9
$MIRRTEXT
 70
     0
  9
$LTSCALE
 40
9.973333333300001
  9
$ATTMODE
 70
     1
  9
$TEXTSIZE
 40
0.2
  9
$TRACEWID
 40
0.05
  9
$TEXTSTYLE
  7
STANDARD
  9
$CLAYER
  8
0
  9
$CELTYPE
  6
BYLAYER
  9
$CECOLOR
 62
   256
  9
$CELTSCALE
 40
1.0
  9
$DISPSILH
 70
     0
  9
$DIMSCALE
 40
1.0
  9
$DIMASZ
 40
2.0
  9
$DIMEXO
 40
0.0625
  9
$DIMDLI
 40
6.890666666699999
  9
$DIMRND
 40
0.0
  9
$DIMDLE
 40
0.0
  9
$DIMEXE
 40
0.125
  9
$DIMTP
 40
0.00001
  9
$DIMTM
 40
0.00001
  9
$DIMTXT
 40
1.333333333299999
  9
$DIMCEN
 40
1.631999999999999
  9
$DIMTSZ
 40
0.0
  9
$DIMTOL
 70
     1
  9
$DIMLIM
 70
     0
  9
$DIMTIH
 70
     1
  9
$DIMTOH
 70
     1
  9
$DIMSE1
 70
     0
  9
$DIMSE2
 70
     0
  9
$DIMTAD
 70
     0
  9
$DIMZIN
 70
     0
  9
$DIMBLK
  1
_FILLED
  9
$DIMASO
 70
     1
  9
$DIMSHO
 70
     1
  9
$DIMPOST
  1

  9
$DIMAPOST
  1

  9
$DIMALT
 70
     0
  9
$DIMALTD
 70
     2
  9
$DIMALTF
 40
25.4
  9
$DIMLFAC
 40
1.0
  9
$DIMTOFL
 70
     0
  9
$DIMTVP
 40
0.0
  9
$DIMTIX
 70
     0
  9
$DIMSOXD
 70
     0
  9
$DIMSAH
 70
     0
  9
$DIMBLK1
  1

  9
$DIMBLK2
  1

  9
$DIMSTYLE
  2
STANDARD
  9
$DIMCLRD
 70
     0
  9
$DIMCLRE
 70
     0
  9
$DIMCLRT
 70
     0
  9
$DIMTFAC
 40
1.0
  9
$DIMGAP
 40
0.09
  9
$DIMJUST
 70
     0
  9
$DIMSD1
 70
     0
  9
$DIMSD2
 70
     0
  9
$DIMTOLJ
 70
     1
  9
$DIMTZIN
 70
     0
  9
$DIMALTZ
 70
     0
  9
$DIMALTTZ
 70
     0
  9
$DIMUPT
 70
     0
  9
$DIMDEC
 70
     4
  9
$DIMTDEC
 70
     4
  9
$DIMALTU
 70
     2
  9
$DIMALTTD
 70
     2
  9
$DIMTXSTY
  7
STANDARD
  9
$DIMAUNIT
 70
     0
  9
$DIMADEC
 70
     0
  9
$DIMALTRND
 40
0.0
  9
$DIMAZIN
 70
     0
  9
$DIMDSEP
 70
    46
  9
$DIMATFIT
 70
     3
  9
$DIMFRAC
 70
     0
  9
$DIMLDRBLK
  1

  9
$DIMLUNIT
 70
     2
  9
$DIMLWD
 70
    -2
  9
$DIMLWE
 70
    -2
  9
$DIMTMOVE
 70
     0
  9
$DIMFXL
 40
1.0
  9
$DIMFXLON
 70
     0
  9
$DIMJOGANG
 40
0.7853981633974483
  9
$DIMTFILL
 70
     0
  9
$DIMTFILLCLR
 70
     0
  9
$DIMARCSYM
 70
     0
  9
$DIMLTYPE
  6

  9
$DIMLTEX1
  6

  9
$DIMLTEX2
  6

  9
$LUNITS
 70
     2
  9
$LUPREC
 70
     4
  9
$SKETCHINC
 40
0.1
  9
$FILLETRAD
 40
0.0
  9
$AUNITS
 70
     0
  9
$AUPREC
 70
     0
  9
$MENU
  1
.
  9
$ELEVATION
 40
0.0
  9
$PELEVATION
 40
0.0
  9
$THICKNESS
 40
0.0
  9
$LIMCHECK
 70
     0
  9
$CHAMFERA
 40
0.0
  9
$CHAMFERB
 40
0.0
  9
$CHAMFERC
 40
0.0
  9
$CHAMFERD
 40
0.0
  9
$SKPOLY
 70
     0
  9
$TDCREATE
 40
2456638.635086227
  9
$TDUCREATE
 40
2456638.843419561
  9
$TDUPDATE
 40
2456645.386755058
  9
$TDUUPDATE
 40
2456645.595088391
  9
$TDINDWG
 40
0.0051401273
  9
$TDUSRTIMER
 40
0.0051401273
  9
$USRTIMER
 70
     1
  9
$ANGBASE
 50
0.0
  9
$ANGDIR
 70
     0
  9
$PDMODE
 70
     3
  9
$PDSIZE
 40
0.03125
  9
$PLINEWID
 40
0.0
  9
$SPLFRAME
 70
     0
  9
$SPLINETYPE
 70
     6
  9
$SPLINESEGS
 70
     8
  9
$HANDSEED
  5
176A
  9
$SURFTAB1
 70
     6
  9
$SURFTAB2
 70
     6
  9
$SURFTYPE
 70
     6
  9
$SURFU
 70
     6
  9
$SURFV
 70
     6
  9
$UCSBASE
  2

  9
$UCSNAME
  2

  9
$UCSORG
 10
0.0
 20
0.0
 30
0.0
  9
$UCSXDIR
 10
1.0
 20
0.0
 30
0.0
  9
$UCSYDIR
 10
0.0
 20
1.0
 30
0.0
  9
$UCSORTHOREF
  2

  9
$UCSORTHOVIEW
 70
     0
  9
$UCSORGTOP
 10
0.0
 20
0.0
 30
0.0
  9
$UCSORGBOTTOM
 10
0.0
 20
0.0
 30
0.0
  9
$UCSORGLEFT
 10
0.0
 20
0.0
 30
0.0
  9
$UCSORGRIGHT
 10
0.0
 20
0.0
 30
0.0
  9
$UCSORGFRONT
 10
0.0
 20
0.0
 30
0.0
  9
$UCSORGBACK
 10
0.0
 20
0.0
 30
0.0
  9
$PUCSBASE
  2

  9
$PUCSNAME
  2

  9
$PUCSORG
 10
0.0
 20
0.0
 30
0.0
  9
$PUCSXDIR
 10
1.0
 20
0.0
 30
0.0
  9
$PUCSYDIR
 10
0.0
 20
1.0
 30
0.0
  9
$PUCSORTHOREF
  2

  9
$PUCSORTHOVIEW
 70
     0
  9
$PUCSORGTOP
 10
0.0
 20
0.0
 30
0.0
  9
$PUCSORGBOTTOM
 10
0.0
 20
0.0
 30
0.0
  9
$PUCSORGLEFT
 10
0.0
 20
0.0
 30
0.0
  9
$PUCSORGRIGHT
 10
0.0
 20
0.0
 30
0.0
  9
$PUCSORGFRONT
 10
0.0
 20
0.0
 30
0.0
  9
$PUCSORGBACK
 10
0.0
 20
0.0
 30
0.0
  9
$USERI1
 70
     0
  9
$USERI2
 70
     0
  9
$USERI3
 70
     0
  9
$USERI4
 70
     0
  9
$USERI5
 70
     0
  9
$USERR1
 40
0.0
  9
$USERR2
 40
0.0
  9
$USERR3
 40
0.0
  9
$USERR4
 40
0.0
  9
$USERR5
 40
0.0
  9
$WORLDVIEW
 70
     1
  9
$SHADEDGE
 70
     3
  9
$SHADEDIF
 70
    70
  9
$TILEMODE
 70
     1
  9
$MAXACTVP
 70
    64
  9
$PINSBASE
 10
0.0
 20
0.0
 30
0.0
  9
$PLIMCHECK
 70
     0
  9
$PEXTMIN
 10
1.000000000000000E+20
 20
1.000000000000000E+20
 30
1.000000000000000E+20
  9
$PEXTMAX
 10
-1.000000000000000E+20
 20
-1.000000000000000E+20
 30
-1.000000000000000E+20
  9
$PLIMMIN
 10
0.0
 20
0.0
  9
$PLIMMAX
 10
12.0
 20
9.0
  9
$UNITMODE
 70
     0
  9
$VISRETAIN
 70
     1
  9
$PLINEGEN
 70
     0
  9
$PSLTSCALE
 70
     1
  9
$TREEDEPTH
 70
  3020
  9
$CMLSTYLE
  2
Standard
  9
$CMLJUST
 70
     0
  9
$CMLSCALE
 40
1.0
  9
$PROXYGRAPHICS
 70
     1
  9
$MEASUREMENT
 70
     0
  9
$CELWEIGHT
370
    -1
  9
$ENDCAPS
280
     0
  9
$JOINSTYLE
280
     0
  9
$LWDISPLAY
290
     0
  9
$INSUNITS
 70
     1
  9
$HYPERLINKBASE
  1

  9
$STYLESHEET
  1

  9
$XEDIT
290
     1
  9
$CEPSNTYPE
380
     0
  9
$PSTYLEMODE
290
     1
  9
$FINGERPRINTGUID
  2
{9E6F6152-6BD2-4E43-9ECE-49CAE40F48F5}
  9
$VERSIONGUID
  2
{DF06E3A2-EF4D-4493-A679-113D056891E0}
  9
$EXTNAMES
290
     1
  9
$PSVPSCALE
 40
0.0
  9
$OLESTARTUP
290
     0
  9
$SORTENTS
280
   127
  9
$INDEXCTL
280
     0
  9
$HIDETEXT
280
     0
  9
$XCLIPFRAME
290
     0
  9
$HALOGAP
280
     0
  9
$OBSCOLOR
 70
   257
  9
$OBSLTYPE
280
     0
  9
$INTERSECTIONDISPLAY
280
     0
  9
$INTERSECTIONCOLOR
 70
   257
  9
$DIMASSOC
280
     1
  9
$PROJECTNAME
  1

  9
$CAMERADISPLAY
290
     0
  9
$LENSLENGTH
 40
50.0
  9
$CAMERAHEIGHT
 40
0.0
  9
$STEPSPERSEC
 40
2.0
  9
$STEPSIZE
 40
6.0
  9
$3DDWFPREC
 40
2.0
  9
$PSOLWIDTH
 40
0.25
  9
$PSOLHEIGHT
 40
4.0
  9
$LOFTANG1
 40
1.570796326794896
  9
$LOFTANG2
 40
1.570796326794896
  9
$LOFTMAG1
 40
0.0
  9
$LOFTMAG2
 40
0.0
  9
$LOFTPARAM
 70
     7
  9
$LOFTNORMALS
280
     1
  9
$LATITUDE
 40
37.795
  9
$LONGITUDE
 40
-122.394
  9
$NORTHDIRECTION
 40
0.0
  9
$TIMEZONE
 70
 -8000
  9
$LIGHTGLYPHDISPLAY
280
     1
  9
$TILEMODELIGHTSYNCH
280
     1
  9
$CMATERIAL
347
166D
  9
$SOLIDHIST
280
     1
  9
$SHOWHIST
280
     1
  9
$DWFFRAME
280
     2
  9
$DGNFRAME
280
     0
  9
$REALWORLDSCALE
290
     1
  9
$INTERFERECOLOR
 62
     1
  9
$INTERFEREOBJVS
345
168F
  9
$INTERFEREVPVS
346
168C
  9
$CSHADOW
280
     0
  9
$SHADOWPLANELOCATION
 40
0.0
  0
ENDSEC
  0
SECTION
  2
CLASSES
  0
CLASS
  1
ACDBDICTIONARYWDFLT
  2
AcDbDictionaryWithDefault
  3
ObjectDBX Classes
 90
        0
 91
        1
280
     0
281
     0
  0
CLASS
  1
MATERIAL
  2
AcDbMaterial
  3
ObjectDBX Classes
 90
     1153
 91
        3
280
     0
281
     0
  0
CLASS
  1
VISUALSTYLE
  2
AcDbVisualStyle
  3
ObjectDBX Classes
 90
     4095
 91
       19
280
     0
281
     0
  0
CLASS
  1
TABLESTYLE
  2
AcDbTableStyle
  3
ObjectDBX Classes
 90
     4095
 91
        1
280
     0
281
     0
  0
CLASS
  1
SCALE
  2
AcDbScale
  3
ObjectDBX Classes
 90
     1153
 91
       33
280
     0
281
     0
  0
CLASS
  1
MLEADERSTYLE
  2
AcDbMLeaderStyle
  3
ACDB_MLEADERSTYLE_CLASS
 90
     4095
 91
        1
280
     0
281
     0
  0
CLASS
  1
CELLSTYLEMAP
  2
AcDbCellStyleMap
  3
ObjectDBX Classes
 90
     1152
 91
        7
280
     0
281
     0
  0
CLASS
  1
DICTIONARYVAR
  2
AcDbDictionaryVar
  3
ObjectDBX Classes
 90
        0
 91
       11
280
     0
281
     0
  0
ENDSEC
  0
SECTION
  2
TABLES
  0
TABLE
  2
VPORT
  5
8
102
{ACAD_XDICTIONARY
360
16C3
102
}
330
0
100
AcDbSymbolTable
 70
     1
  0
VPORT
  5
1F4
330
8
100
AcDbSymbolTableRecord
100
AcDbViewportTableRecord
  2
*ACTIVE
 70
     0
 10
0.0
 20
0.0
 11
1.0
 21
1.0
 12
50.61857273713664
 22
88.72880322218096
 13
0.0
 23
0.0
 14
1.0
 24
1.0
 15
0.0
 25
0.0
 16
0.0
 26
0.0
 36
1.0
 17
0.0
 27
0.0
 37
0.0
 40
59.03199057845605
 41
1.957300275482093
 42
50.0
 43
0.0
 44
0.0
 50
0.0
 51
0.0
 71
     0
 72
   100
 73
     1
 74
     1
 75
     0
 76
     0
 77
     0
 78
     0
281
     0
 65
     1
110
0.0
120
0.0
130
0.0
111
1.0
121
0.0
131
0.0
112
0.0
122
1.0
132
0.0
 79
     0
146
0.0
348
168B
 60
     3
 61
     5
292
     1
282
     1
141
0.0
142
0.0
 63
   250
421
  3355443
  0
ENDTAB
  0
TABLE
  2
LTYPE
  5
5
330
0
100
AcDbSymbolTable
 70
     6
  0
LTYPE
  5
14
330
5
100
AcDbSymbolTableRecord
100
AcDbLinetypeTableRecord
  2
BYBLOCK
 70
     0
  3

 72
    65
 73
     0
 40
0.0
  0
LTYPE
  5
15
330
5
100
AcDbSymbolTableRecord
100
AcDbLinetypeTableRecord
  2
BYLAYER
 70
     0
  3

 72
    65
 73
     0
 40
0.0
  0
LTYPE
  5
16
330
5
100
AcDbSymbolTableRecord
100
AcDbLinetypeTableRecord
  2
CONTINUOUS
 70
     0
  3
Solid line
 72
    65
 73
     0
 40
0.0
  0
LTYPE
  5
1F5
330
5
100
AcDbSymbolTableRecord
100
AcDbLinetypeTableRecord
  2
CENTER
 70
     0
  3
____ _ ____ _ ____ _ ____ _ ____ _ ____ _ ____
 72
    65
 73
     4
 40
0.6
 49
0.375
 74
     0
 49
-0.075
 74
     0
 49
0.075
 74
     0
 49
-0.075
 74
     0
  0
LTYPE
  5
1F6
330
5
100
AcDbSymbolTableRecord
100
AcDbLinetypeTableRecord
  2
HIDDEN
 70
     0
  3
- - - - - - - - - - - - - - - - - - - -
 72
    65
 73
     2
 40
0.2
 49
0.1
 74
     0
 49
-0.1
 74
     0
  0
LTYPE
  5
1F7
330
5
100
AcDbSymbolTableRecord
100
AcDbLinetypeTableRecord
  2
PHANTOM
 70
     0
  3
_____ _ _ _____ _ _ _____ _ _ _____
 72
    65
 73
     6
 40
0.8
 49
0.45
 74
     0
 49
-0.05
 74
     0
 49
0.1
 74
     0
 49
-0.05
 74
     0
 49
0.1
 74
     0
 49
-0.05
 74
     0
  0
LTYPE
  5
1F8
330
5
100
AcDbSymbolTableRecord
100
AcDbLinetypeTableRecord
  2
DOT
 70
     0
  3
. . . . . . . . . . . . . . . . . . . .
 72
    65
 73
     2
 40
0.2
 49
0.1
 74
     0
 49
-0.1
 74
     0
  0
LTYPE
  5
1F9
330
5
100
AcDbSymbolTableRecord
100
AcDbLinetypeTableRecord
  2
DASHED
 70
     0
  3
- - - - - - - - - - - - - - - - - - - -
 72
    65
 73
     2
 40
0.2
 49
0.1
 74
     0
 49
-0.1
 74
     0
  0
ENDTAB
  0
TABLE
  2
LAYER
  5
2
330
0
100
AcDbSymbolTable
 70
    42
  0
LAYER
  5
10
102
{ACAD_XDICTIONARY
360
1703
102
}
330
2
100
AcDbSymbolTableRecord
100
AcDbLayerTableRecord
  2
0
 70
     0
 62
     7
  6
CONTINUOUS
370
    -3
390
F
347
167D
  0
LAYER
  5
1FA
102
{ACAD_XDICTIONARY
360
1705
102
}
330
2
100
AcDbSymbolTableRecord
100
AcDbLayerTableRecord
  2
DEFAULT_1
 70
     0
 62
     7
  6
CENTER
370
    -3
390
F
347
167D
  0
LAYER
  5
1FB
102
{ACAD_XDICTIONARY
360
1707
102
}
330
2
100
AcDbSymbolTableRecord
100
AcDbLayerTableRecord
  2
DEFAULT_2
 70
     0
 62
     7
  6
HIDDEN
370
    -3
390
F
347
167D
  0
LAYER
  5
1FC
102
{ACAD_XDICTIONARY
360
1709
102
}
330
2
100
AcDbSymbolTableRecord
100
AcDbLayerTableRecord
  2
DEFAULT_3
 70
     0
 62
     7
  6
PHANTOM
370
    -3
390
F
347
167D
  0
LAYER
  5
1FD
102
{ACAD_XDICTIONARY
360
170B
102
}
330
2
100
AcDbSymbolTableRecord
100
AcDbLayerTableRecord
  2
1_CURCES_SPECS_FRONT_GAUCHE_INS
 70
     0
 62
     7
  6
CONTINUOUS
370
    -3
390
F
347
167D
  0
LAYER
  5
1FE
102
{ACAD_XDICTIONARY
360
170D
102
}
330
2
100
AcDbSymbolTableRecord
100
AcDbLayerTableRecord
  2
1_CURVES
 70
     0
 62
     7
  6
CONTINUOUS
370
    -3
390
F
347
167D
  0
LAYER
  5
1FF
102
{ACAD_XDICTIONARY
360
170F
102
}
330
2
100
AcDbSymbolTableRecord
100
AcDbLayerTableRecord
  2
1_CURVES_CONDUIT
 70
     0
 62
     7
  6
CONTINUOUS
370
    -3
390
F
347
167D
  0
LAYER
  5
200
102
{ACAD_XDICTIONARY
360
1711
102
}
330
2
100
AcDbSymbolTableRecord
100
AcDbLayerTableRecord
  2
1_CURVES_JETS
 70
     0
 62
     7
  6
CONTINUOUS
370
    -3
390
F
347
167D
  0
LAYER
  5
201
102
{ACAD_XDICTIONARY
360
1713
102
}
330
2
100
AcDbSymbolTableRecord
100
AcDbLayerTableRecord
  2
1_CURVES_JETS-1
 70
     0
 62
     7
  6
CONTINUOUS
370
    -3
390
F
347
167D
  0
LAYER
  5
202
102
{ACAD_XDICTIONARY
360
1715
102
}
330
2
100
AcDbSymbolTableRecord
100
AcDbLayerTableRecord
  2
1_CURVES_JETS-2
 70
     0
 62
     7
  6
CONTINUOUS
370
    -3
390
F
347
167D
  0
LAYER
  5
203
102
{ACAD_XDICTIONARY
360
1717
102
}
330
2
100
AcDbSymbolTableRecord
100
AcDbLayerTableRecord
  2
1_CURVES_PATINS
 70
     0
 62
     7
  6
CONTINUOUS
370
    -3
390
F
347
167D
  0
LAYER
  5
204
102
{ACAD_XDICTIONARY
360
1719
102
}
330
2
100
AcDbSymbolTableRecord
100
AcDbLayerTableRecord
  2
1_CURVES_RESURFACAGE
 70
     0
 62
     7
  6
CONTINUOUS
370
    -3
390
F
347
167D
  0
LAYER
  5
205
102
{ACAD_XDICTIONARY
360
171B
102
}
330
2
100
AcDbSymbolTableRecord
100
AcDbLayerTableRecord
  2
1_CURVES_SPECS_FRONT-GAUCHE
 70
     0
 62
     7
  6
CONTINUOUS
370
    -3
390
F
347
167D
  0
LAYER
  5
206
102
{ACAD_XDICTIONARY
360
171D
102
}
330
2
100
AcDbSymbolTableRecord
100
AcDbLayerTableRecord
  2
1_CURVES_SPECS_RIGHT-GAUCHE
 70
     0
 62
     7
  6
CONTINUOUS
370
    -3
390
F
347
167D
  0
LAYER
  5
207
102
{ACAD_XDICTIONARY
360
171F
102
}
330
2
100
AcDbSymbolTableRecord
100
AcDbLayerTableRecord
  2
2_PLANES
 70
     0
 62
     7
  6
CONTINUOUS
370
    -3
390
F
347
167D
  0
LAYER
  5
208
102
{ACAD_XDICTIONARY
360
1721
102
}
330
2
100
AcDbSymbolTableRecord
100
AcDbLayerTableRecord
  2
2_PLANES_JETS-1
 70
     0
 62
     7
  6
CONTINUOUS
370
    -3
390
F
347
167D
  0
LAYER
  5
209
102
{ACAD_XDICTIONARY
360
1723
102
}
330
2
100
AcDbSymbolTableRecord
100
AcDbLayerTableRecord
  2
2_PLANES_JETS-2
 70
     0
 62
     7
  6
CONTINUOUS
370
    -3
390
F
347
167D
  0
LAYER
  5
20A
102
{ACAD_XDICTIONARY
360
1725
102
}
330
2
100
AcDbSymbolTableRecord
100
AcDbLayerTableRecord
  2
3_POINTS
 70
     0
 62
     7
  6
CONTINUOUS
370
    -3
390
F
347
167D
  0
LAYER
  5
20B
102
{ACAD_XDICTIONARY
360
1727
102
}
330
2
100
AcDbSymbolTableRecord
100
AcDbLayerTableRecord
  2
3_POINTS_JETS-1
 70
     0
 62
     7
  6
CONTINUOUS
370
    -3
390
F
347
167D
  0
LAYER
  5
20C
102
{ACAD_XDICTIONARY
360
1729
102
}
330
2
100
AcDbSymbolTableRecord
100
AcDbLayerTableRecord
  2
3_POINTS_JETS-2
 70
     0
 62
     7
  6
CONTINUOUS
370
    -3
390
F
347
167D
  0
LAYER
  5
20D
102
{ACAD_XDICTIONARY
360
172B
102
}
330
2
100
AcDbSymbolTableRecord
100
AcDbLayerTableRecord
  2
4_CSYS
 70
     0
 62
     7
  6
CONTINUOUS
370
    -3
390
F
347
167D
  0
LAYER
  5
20E
102
{ACAD_XDICTIONARY
360
172D
102
}
330
2
100
AcDbSymbolTableRecord
100
AcDbLayerTableRecord
  2
5_AXIS
 70
     0
 62
     7
  6
CONTINUOUS
370
    -3
390
F
347
167D
  0
LAYER
  5
20F
102
{ACAD_XDICTIONARY
360
172F
102
}
330
2
100
AcDbSymbolTableRecord
100
AcDbLayerTableRecord
  2
5_AXIS_JETS-1
 70
     0
 62
     7
  6
CONTINUOUS
370
    -3
390
F
347
167D
  0
LAYER
  5
210
102
{ACAD_XDICTIONARY
360
1731
102
}
330
2
100
AcDbSymbolTableRecord
100
AcDbLayerTableRecord
  2
5_AXIS_JETS-2
 70
     0
 62
     7
  6
CONTINUOUS
370
    -3
390
F
347
167D
  0
LAYER
  5
211
102
{ACAD_XDICTIONARY
360
1733
102
}
330
2
100
AcDbSymbolTableRecord
100
AcDbLayerTableRecord
  2
6_AIRE_CONDUIT
 70
     0
 62
     7
  6
CONTINUOUS
370
    -3
390
F
347
167D
  0
LAYER
  5
212
102
{ACAD_XDICTIONARY
360
1735
102
}
330
2
100
AcDbSymbolTableRecord
100
AcDbLayerTableRecord
  2
6_SURFACES
 70
     0
 62
     7
  6
CONTINUOUS
370
    -3
390
F
347
167D
  0
LAYER
  5
213
102
{ACAD_XDICTIONARY
360
1737
102
}
330
2
100
AcDbSymbolTableRecord
100
AcDbLayerTableRecord
  2
6_SURFACES-TOOLING
 70
     0
 62
     7
  6
CONTINUOUS
370
    -3
390
F
347
167D
  0
LAYER
  5
214
102
{ACAD_XDICTIONARY
360
1739
102
}
330
2
100
AcDbSymbolTableRecord
100
AcDbLayerTableRecord
  2
6_SURFACES_AIRE
 70
     0
 62
     7
  6
CONTINUOUS
370
    -3
390
F
347
167D
  0
LAYER
  5
215
102
{ACAD_XDICTIONARY
360
173B
102
}
330
2
100
AcDbSymbolTableRecord
100
AcDbLayerTableRecord
  2
6_SURFACES_BAIN_DROIT
 70
     0
 62
     7
  6
CONTINUOUS
370
    -3
390
F
347
167D
  0
LAYER
  5
216
102
{ACAD_XDICTIONARY
360
173D
102
}
330
2
100
AcDbSymbolTableRecord
100
AcDbLayerTableRecord
  2
6_SURFACES_BAIN_DROIT_INSERT
 70
     0
 62
     7
  6
CONTINUOUS
370
    -3
390
F
347
167D
  0
LAYER
  5
217
102
{ACAD_XDICTIONARY
360
173F
102
}
330
2
100
AcDbSymbolTableRecord
100
AcDbLayerTableRecord
  2
6_SURFACES_BAIN_GAUCHE
 70
     0
 62
     7
  6
CONTINUOUS
370
    -3
390
F
347
167D
  0
LAYER
  5
218
102
{ACAD_XDICTIONARY
360
1741
102
}
330
2
100
AcDbSymbolTableRecord
100
AcDbLayerTableRecord
  2
6_SURFACES_BAIN_GAUCHE_INSERT
 70
     0
 62
     7
  6
CONTINUOUS
370
    -3
390
F
347
167D
  0
LAYER
  5
219
102
{ACAD_XDICTIONARY
360
1743
102
}
330
2
100
AcDbSymbolTableRecord
100
AcDbLayerTableRecord
  2
6_SURFACES_OFFSET_FIBRE_ACRYLIQ
 70
     0
 62
     7
  6
CONTINUOUS
370
    -3
390
F
347
167D
  0
LAYER
  5
21A
102
{ACAD_XDICTIONARY
360
1745
102
}
330
2
100
AcDbSymbolTableRecord
100
AcDbLayerTableRecord
  2
6_SURFACES_PATINS_SPECS
 70
     0
 62
     7
  6
CONTINUOUS
370
    -3
390
F
347
167D
  0
LAYER
  5
21B
102
{ACAD_XDICTIONARY
360
1747
102
}
330
2
100
AcDbSymbolTableRecord
100
AcDbLayerTableRecord
  2
6_SURFACES_POUR_CONDUIT
 70
     0
 62
     7
  6
CONTINUOUS
370
    -3
390
F
347
167D
  0
LAYER
  5
21C
102
{ACAD_XDICTIONARY
360
1749
102
}
330
2
100
AcDbSymbolTableRecord
100
AcDbLayerTableRecord
  2
6_SURFACES_POUR_HFL
 70
     0
 62
     7
  6
CONTINUOUS
370
    -3
390
F
347
167D
  0
LAYER
  5
21D
102
{ACAD_XDICTIONARY
360
174B
102
}
330
2
100
AcDbSymbolTableRecord
100
AcDbLayerTableRecord
  2
6_SURFACES_POUR_TROP_PLEIN
 70
     0
 62
     7
  6
CONTINUOUS
370
    -3
390
F
347
167D
  0
LAYER
  5
21E
102
{ACAD_XDICTIONARY
360
174D
102
}
330
2
100
AcDbSymbolTableRecord
100
AcDbLayerTableRecord
  2
6_SURFACES_TOOLING
 70
     0
 62
     7
  6
CONTINUOUS
370
    -3
390
F
347
167D
  0
LAYER
  5
21F
102
{ACAD_XDICTIONARY
360
174F
102
}
330
2
100
AcDbSymbolTableRecord
100
AcDbLayerTableRecord
  2
7_NOTES
 70
     0
 62
     7
  6
CONTINUOUS
370
    -3
390
F
347
167D
  0
LAYER
  5
220
102
{ACAD_XDICTIONARY
360
1751
102
}
330
2
100
AcDbSymbolTableRecord
100
AcDbLayerTableRecord
  2
8_TOL_GEOM
 70
     0
 62
     7
  6
CONTINUOUS
370
    -3
390
F
347
167D
  0
LAYER
  5
221
102
{ACAD_XDICTIONARY
360
1753
102
}
330
2
100
AcDbSymbolTableRecord
100
AcDbLayerTableRecord
  2
NONE
 70
     0
 62
     7
  6
CONTINUOUS
370
    -3
390
F
347
167D
  0
LAYER
  5
222
102
{ACAD_XDICTIONARY
360
1755
102
}
330
2
100
AcDbSymbolTableRecord
100
AcDbLayerTableRecord
  2
XSEC_DATUMS
 70
     0
 62
     7
  6
CONTINUOUS
370
    -3
390
F
347
167D
  0
ENDTAB
  0
TABLE
  2
STYLE
  5
3
330
0
100
AcDbSymbolTable
 70
     8
  0
STYLE
  5
11
330
3
100
AcDbSymbolTableRecord
100
AcDbTextStyleTableRecord
  2
STANDARD
 70
     0
 40
0.0
 41
0.8
 50
0.0
 71
     0
 42
0.2
  3
txt
  4

  0
STYLE
  5
223
330
3
100
AcDbSymbolTableRecord
100
AcDbTextStyleTableRecord
  2
TEXTSTYLE_1
 70
     0
 40
0.0
 41
0.8
 50
0.0
 71
     0
 42
0.2
  3
gdt
  4

  0
STYLE
  5
224
330
3
100
AcDbSymbolTableRecord
100
AcDbTextStyleTableRecord
  2
TEXTSTYLE_2
 70
     0
 40
0.0
 41
1.0
 50
0.0
 71
     0
 42
0.2
  3
trium.ttf
  4

  0
STYLE
  5
225
330
3
100
AcDbSymbolTableRecord
100
AcDbTextStyleTableRecord
  2
TEXTSTYLE_3
 70
     0
 40
0.0
 41
1.0
 50
0.0
 71
     0
 42
0.2
  3
trium.ttf
  4

  0
STYLE
  5
226
330
3
100
AcDbSymbolTableRecord
100
AcDbTextStyleTableRecord
  2
TEXTSTYLE_4
 70
     0
 40
0.0
 41
1.0
 50
0.0
 71
     0
 42
0.2
  3
txt_____.ttf
  4

1001
ACAD
1000
txt
1071
        2
  0
STYLE
  5
227
330
3
100
AcDbSymbolTableRecord
100
AcDbTextStyleTableRecord
  2
TEXTSTYLE_5
 70
     0
 40
0.0
 41
1.0
 50
0.0
 71
     0
 42
0.2
  3
txt
  4

  0
STYLE
  5
228
330
3
100
AcDbSymbolTableRecord
100
AcDbTextStyleTableRecord
  2
TEXTSTYLE_6
 70
     0
 40
0.0
 41
1.0
 50
0.0
 71
     0
 42
0.2
  3
trium.ttf
  4

  0
STYLE
  5
229
330
3
100
AcDbSymbolTableRecord
100
AcDbTextStyleTableRecord
  2
TEXTSTYLE_7
 70
     0
 40
0.0
 41
0.8
 50
0.0
 71
     0
 42
0.2
  3
txt
  4

  0
ENDTAB
  0
TABLE
  2
VIEW
  5
6
330
0
100
AcDbSymbolTable
 70
     0
  0
ENDTAB
  0
TABLE
  2
UCS
  5
7
330
0
100
AcDbSymbolTable
 70
     0
  0
ENDTAB
  0
TABLE
  2
APPID
  5
9
330
0
100
AcDbSymbolTable
 70
     2
  0
APPID
  5
22A
330
9
100
AcDbSymbolTableRecord
100
AcDbRegAppTableRecord
  2
ACAD
 70
     0
  0
APPID
  5
16F3
330
9
100
AcDbSymbolTableRecord
100
AcDbRegAppTableRecord
  2
ACAD_MLEADERVER
 70
     0
  0
ENDTAB
  0
TABLE
  2
DIMSTYLE
  5
A
330
0
100
AcDbSymbolTable
 70
     4
100
AcDbDimStyleTable
 71
     0
  0
DIMSTYLE
105
23D
330
A
100
AcDbSymbolTableRecord
100
AcDbDimStyleTableRecord
  2
STANDARD
 70
     0
 41
2.0
 44
0.125
 47
0.00001
 48
0.00001
 71
     1
 78
     4
140
1.333333333299999
271
     5
272
     5
284
     4
340
11
341
22D
342
22D
343
22D
344
22D
  0
DIMSTYLE
105
23E
330
A
100
AcDbSymbolTableRecord
100
AcDbDimStyleTableRecord
  2
DIMSTYLE_1
 70
     0
 41
2.0
 44
0.125
 47
0.00001
 48
0.00001
 78
     4
140
1.333333333299999
147
0.0625
284
     4
340
11
341
22D
342
22D
343
22D
344
22D
  0
DIMSTYLE
105
23F
330
A
100
AcDbSymbolTableRecord
100
AcDbDimStyleTableRecord
  2
DIMSTYLE_2
 70
     0
 41
2.0
 44
0.125
 47
0.00001
 48
0.00001
 78
     4
140
1.333333333299999
147
0.0625
271
     3
272
     3
284
     4
340
11
341
22D
342
22D
343
22D
344
22D
  0
DIMSTYLE
105
240
330
A
100
AcDbSymbolTableRecord
100
AcDbDimStyleTableRecord
  2
DIMSTYLE_3
 70
     0
 41
2.0
 44
0.125
 47
0.00001
 48
0.00001
 78
     4
140
1.333333333299999
147
0.0625
271
     6
272
     6
284
     4
340
11
341
22D
342
22D
343
22D
344
22D
  0
ENDTAB
  0
TABLE
  2
BLOCK_RECORD
  5
1
330
0
100
AcDbSymbolTable
 70
    16
  0
BLOCK_RECORD
  5
22B
330
1
100
AcDbSymbolTableRecord
100
AcDbBlockTableRecord
  2
*Model_Space
340
1668
 70
     0
280
     1
281
     0
  0
BLOCK_RECORD
  5
22C
330
1
100
AcDbSymbolTableRecord
100
AcDbBlockTableRecord
  2
*Paper_Space
340
1669
 70
     0
280
     1
281
     0
  0
BLOCK_RECORD
  5
22D
330
1
100
AcDbSymbolTableRecord
100
AcDbBlockTableRecord
  2
_FILLED
340
0
102
{BLKREFS
331
345
331
346
331
34E
331
34F
331
358
331
359
102
}
 70
     0
280
     1
281
     0
  0
BLOCK_RECORD
  5
22E
330
1
100
AcDbSymbolTableRecord
100
AcDbBlockTableRecord
  2
*D1
340
0
 70
     0
280
     1
281
     0
  0
BLOCK_RECORD
  5
22F
330
1
100
AcDbSymbolTableRecord
100
AcDbBlockTableRecord
  2
*D2
340
0
 70
     0
280
     1
281
     0
  0
BLOCK_RECORD
  5
230
330
1
100
AcDbSymbolTableRecord
100
AcDbBlockTableRecord
  2
*D3
340
0
 70
     0
280
     1
281
     0
  0
BLOCK_RECORD
  5
231
330
1
100
AcDbSymbolTableRecord
100
AcDbBlockTableRecord
  2
SYMBOL_31_BL11
340
0
 70
     0
280
     1
281
     0
  0
BLOCK_RECORD
  5
232
330
1
100
AcDbSymbolTableRecord
100
AcDbBlockTableRecord
  2
SYMBOL_30_BL10
340
0
 70
     0
280
     1
281
     0
  0
BLOCK_RECORD
  5
233
330
1
100
AcDbSymbolTableRecord
100
AcDbBlockTableRecord
  2
SYMBOL_28_BL9
340
0
 70
     0
280
     1
281
     0
  0
BLOCK_RECORD
  5
234
330
1
100
AcDbSymbolTableRecord
100
AcDbBlockTableRecord
  2
SYMBOL_19_BL8
340
0
 70
     0
280
     1
281
     0
  0
BLOCK_RECORD
  5
235
330
1
100
AcDbSymbolTableRecord
100
AcDbBlockTableRecord
  2
SYMBOL_18_BL7
340
0
 70
     0
280
     1
281
     0
  0
BLOCK_RECORD
  5
236
330
1
100
AcDbSymbolTableRecord
100
AcDbBlockTableRecord
  2
SYMBOL_33_BL6
340
0
 70
     0
280
     1
281
     0
  0
BLOCK_RECORD
  5
237
330
1
100
AcDbSymbolTableRecord
100
AcDbBlockTableRecord
  2
SYMBOL_29_BL5
340
0
 70
     0
280
     1
281
     0
  0
BLOCK_RECORD
  5
238
330
1
100
AcDbSymbolTableRecord
100
AcDbBlockTableRecord
  2
SYMBOL_27_BL4
340
0
 70
     0
280
     1
281
     0
  0
BLOCK_RECORD
  5
239
330
1
100
AcDbSymbolTableRecord
100
AcDbBlockTableRecord
  2
SYMBOL_17_BL3
340
0
 70
     0
280
     1
281
     0
  0
BLOCK_RECORD
  5
23A
330
1
100
AcDbSymbolTableRecord
100
AcDbBlockTableRecord
  2
SYMBOL_16_BL2
340
0
 70
     0
280
     1
281
     0
  0
BLOCK_RECORD
  5
23B
330
1
100
AcDbSymbolTableRecord
100
AcDbBlockTableRecord
  2
SYMBOL_14_BL1
340
0
 70
     0
280
     1
281
     0
  0
BLOCK_RECORD
  5
23C
330
1
100
AcDbSymbolTableRecord
100
AcDbBlockTableRecord
  2
SYMBOL_11_BL0
340
0
 70
     0
280
     1
281
     0
  0
ENDTAB
  0
ENDSEC
  0
SECTION
  2
BLOCKS
  0
BLOCK
  5
20
330
22B
100
AcDbEntity
  8
0
100
AcDbBlockBegin
  2
*Model_Space
 70
     0
 10
0.0
 20
0.0
 30
0.0
  3
*Model_Space
  1

  0
ENDBLK
  5
21
330
22B
100
AcDbEntity
  8
0
100
AcDbBlockEnd
  0
BLOCK
  5
1C
330
22C
100
AcDbEntity
 67
     1
  8
0
100
AcDbBlockBegin
  2
*Paper_Space
 70
     0
 10
0.0
 20
0.0
 30
0.0
  3
*Paper_Space
  1

  0
ENDBLK
  5
1D
330
22C
100
AcDbEntity
 67
     1
  8
0
100
AcDbBlockEnd
  0
BLOCK
  5
33C
330
22D
100
AcDbEntity
  8
0
100
AcDbBlockBegin
  2
_FILLED
 70
     0
 10
0.0
 20
0.0
 30
0.0
  3
_FILLED
  1

  0
SOLID
  5
33D
330
22D
100
AcDbEntity
  8
0
  6
ByBlock
 62
     0
100
AcDbTrace
 10
0.0
 20
0.0
 30
0.0
 11
-1.0
 21
0.1666666667
 31
0.0
 12
-1.0
 22
-0.1666666667
 32
0.0
 13
-1.0
 23
-0.1666666667
 33
0.0
  0
ENDBLK
  5
33E
330
22D
100
AcDbEntity
  8
0
  6
ByBlock
 62
     0
100
AcDbBlockEnd
  0
BLOCK
  5
33F
330
22E
100
AcDbEntity
  8
0
  6
Continuous
 62
     7
100
AcDbBlockBegin
  2
*D1
 70
     1
 10
0.0
 20
0.0
 30
0.0
  3
*D1
  1

  0
MTEXT
  5
340
330
22E
100
AcDbEntity
  8
0
  6
Continuous
 62
     7
100
AcDbMText
 10
49.3917905753
 20
68.0576067512
 30
0.0
 40
1.333333333299999
 41
7.466666666699999
 46
0.0
 71
     2
 72
     1
  1
49-3/16\P[125]
 73
     1
 44
0.9
  0
LINE
  5
341
330
22E
100
AcDbEntity
  8
0
  6
Continuous
 62
     7
100
AcDbLine
 10
73.988900184
 20
71.5686354466
 30
0.0
 11
73.988900184
 21
66.05760675119999
 31
0.0
  0
LINE
  5
342
330
22E
100
AcDbEntity
  8
0
  6
Continuous
 62
     7
100
AcDbLine
 10
24.7946809666
 20
71.4889098622
 30
0.0
 11
24.7946809666
 21
66.05760675119999
 31
0.0
  0
LINE
  5
343
330
22E
100
AcDbEntity
  8
0
  6
Continuous
 62
     7
100
AcDbLine
 10
73.988900184
 20
67.3909400845
 30
0.0
 11
53.7917905753
 21
67.3909400845
 31
0.0
  0
LINE
  5
344
330
22E
100
AcDbEntity
  8
0
  6
Continuous
 62
     7
100
AcDbLine
 10
24.7946809666
 20
67.3909400845
 30
0.0
 11
44.99179057529999
 21
67.3909400845
 31
0.0
  0
INSERT
  5
345
330
22E
100
AcDbEntity
  8
0
  6
Continuous
 62
     7
100
AcDbBlockReference
  2
_FILLED
 10
73.988900184
 20
67.3909400845
 30
0.0
 41
2.0
 42
2.0
 43
2.0
  0
INSERT
  5
346
330
22E
100
AcDbEntity
  8
0
  6
Continuous
 62
     7
100
AcDbBlockReference
  2
_FILLED
 10
24.7946809666
 20
67.3909400845
 30
0.0
 41
2.0
 42
2.0
 43
2.0
 50
180.0
  0
ENDBLK
  5
347
330
22E
100
AcDbEntity
  8
0
  6
ByBlock
 62
     0
100
AcDbBlockEnd
  0
BLOCK
  5
348
330
22F
100
AcDbEntity
  8
0
  6
Continuous
 62
     7
100
AcDbBlockBegin
  2
*D2
 70
     1
 10
0.0
 20
0.0
 30
0.0
  3
*D2
  1

  0
MTEXT
  5
349
330
22F
100
AcDbEntity
  8
0
  6
Continuous
 62
     7
100
AcDbMText
 10
53.1508505218
 20
109.8943093367
 30
0.0
 40
1.333333333299999
 41
6.4
 46
0.0
 71
     2
 72
     1
  1
41-5/8\P[106]
 73
     1
 44
0.9
  0
LINE
  5
34A
330
22F
100
AcDbEntity
  8
0
  6
Continuous
 62
     7
100
AcDbLine
 10
73.988900184
 20
105.3428854466
 30
0.0
 11
73.988900184
 21
110.5609760033
 31
0.0
  0
LINE
  5
34B
330
22F
100
AcDbEntity
  8
0
  6
Continuous
 62
     7
100
AcDbLine
 10
32.3128008595
 20
105.4682627706
 30
0.0
 11
32.3128008595
 21
110.5609760033
 31
0.0
  0
LINE
  5
34C
330
22F
100
AcDbEntity
  8
0
  6
Continuous
 62
     7
100
AcDbLine
 10
73.988900184
 20
109.22764267
 30
0.0
 11
57.0175171884
 21
109.22764267
 31
0.0
  0
LINE
  5
34D
330
22F
100
AcDbEntity
  8
0
  6
Continuous
 62
     7
100
AcDbLine
 10
32.3128008595
 20
109.22764267
 30
0.0
 11
49.2841838551
 21
109.22764267
 31
0.0
  0
INSERT
  5
34E
330
22F
100
AcDbEntity
  8
0
  6
Continuous
 62
     7
100
AcDbBlockReference
  2
_FILLED
 10
73.988900184
 20
109.22764267
 30
0.0
 41
2.0
 42
2.0
 43
2.0
  0
INSERT
  5
34F
330
22F
100
AcDbEntity
  8
0
  6
Continuous
 62
     7
100
AcDbBlockReference
  2
_FILLED
 10
32.3128008595
 20
109.22764267
 30
0.0
 41
2.0
 42
2.0
 43
2.0
 50
180.0
  0
ENDBLK
  5
350
330
22F
100
AcDbEntity
  8
0
  6
ByBlock
 62
     0
100
AcDbBlockEnd
  0
BLOCK
  5
351
330
230
100
AcDbEntity
  8
0
  6
Continuous
 62
     7
100
AcDbBlockBegin
  2
*D3
 70
     1
 10
0.0
 20
0.0
 30
0.0
  3
*D3
  1

  0
MTEXT
  5
352
330
230
100
AcDbEntity
  8
0
  6
Continuous
 62
     7
100
AcDbMText
 10
8.8845403969
 20
52.78628828609999
 30
0.0
 40
1.333333333299999
 41
3.2
 46
0.0
 71
     3
 72
     1
  1
1\P[3]
 73
     1
 44
0.9
  0
LINE
  5
353
330
230
100
AcDbEntity
  8
0
  6
Continuous
 62
     7
100
AcDbLine
 10
20.026329381
 20
46.4636503263
 30
0.0
 11
12.3512070636
 21
46.4636503263
 31
0.0
  0
LINE
  5
354
330
230
100
AcDbEntity
  8
0
  6
Continuous
 62
     7
100
AcDbLine
 10
20.0206627143
 20
45.46365032629999
 30
0.0
 11
12.3512070636
 21
45.46365032629999
 31
0.0
  0
LINE
  5
355
330
230
100
AcDbEntity
  8
0
  6
Continuous
 62
     7
100
AcDbLine
 10
13.6845403969
 20
46.4636503263
 30
0.0
 11
13.6845403969
 21
52.11962161939999
 31
0.0
  0
LINE
  5
356
330
230
100
AcDbEntity
  8
0
  6
Continuous
 62
     7
100
AcDbLine
 10
13.6845403969
 20
52.11962161939999
 30
0.0
 11
11.6845403969
 21
52.11962161939999
 31
0.0
  0
LINE
  5
357
330
230
100
AcDbEntity
  8
0
  6
Continuous
 62
     7
100
AcDbLine
 10
13.6845403969
 20
45.46365032629999
 30
0.0
 11
13.6845403969
 21
40.13031699299999
 31
0.0
  0
INSERT
  5
358
330
230
100
AcDbEntity
  8
0
  6
Continuous
 62
     7
100
AcDbBlockReference
  2
_FILLED
 10
13.6845403969
 20
46.4636503263
 30
0.0
 41
2.0
 42
2.0
 43
2.0
 50
270.0
  0
INSERT
  5
359
330
230
100
AcDbEntity
  8
0
  6
Continuous
 62
     7
100
AcDbBlockReference
  2
_FILLED
 10
13.6845403969
 20
45.46365032629999
 30
0.0
 41
2.0
 42
2.0
 43
2.0
 50
90.0
  0
ENDBLK
  5
35A
330
230
100
AcDbEntity
  8
0
  6
ByBlock
 62
     0
100
AcDbBlockEnd
  0
BLOCK
  5
241
330
231
100
AcDbEntity
  8
0
  6
Continuous
 62
     7
100
AcDbBlockBegin
  2
SYMBOL_31_BL11
 70
     0
 10
155.4090468927
 20
99.0770605682
 30
0.0
  3
SYMBOL_31_BL11
  1

  0
TEXT
  5
242
330
231
100
AcDbEntity
  8
0
  6
Continuous
 62
     7
100
AcDbText
 10
154.5723057688999
 20
99.42678422
 30
0.0
 40
1.333333852099999
  1
A
 50
290.0
  7
TEXTSTYLE_2
100
AcDbText
  0
ELLIPSE
  5
243
330
231
100
AcDbEntity
  8
0
  6
Continuous
 62
     7
100
AcDbEllipse
 10
155.4090468927
 20
99.0770605682
 30
0.0
 11
-0.6645066844
 21
1.825717110599999
 31
0.0
210
0.0
220
0.0
230
1.0
 40
0.6606458385
 41
0.0
 42
6.283185307179586
  0
ENDBLK
  5
244
330
231
100
AcDbEntity
  8
0
  6
ByBlock
 62
     0
100
AcDbBlockEnd
  0
BLOCK
  5
245
330
232
100
AcDbEntity
  8
0
  6
Continuous
 62
     7
100
AcDbBlockBegin
  2
SYMBOL_30_BL10
 70
     0
 10
124.2221370667
 20
74.429044245
 30
0.0
  3
SYMBOL_30_BL10
  1

  0
TEXT
  5
246
330
232
100
AcDbEntity
  8
0
  6
Continuous
 62
     7
100
AcDbText
 10
123.6073220127
 20
73.76237731899999
 30
0.0
 40
1.333333852099999
  1
A
  7
TEXTSTYLE_2
100
AcDbText
  0
ELLIPSE
  5
247
330
232
100
AcDbEntity
  8
0
  6
Continuous
 62
     7
100
AcDbEllipse
 10
124.2221370667
 20
74.429044245
 30
0.0
 11
-1.942887567899999
 21
0.0
 31
0.0
210
0.0
220
0.0
230
1.0
 40
0.6606458385
 41
0.0
 42
6.283185307179586
  0
ENDBLK
  5
248
330
232
100
AcDbEntity
  8
0
  6
ByBlock
 62
     0
100
AcDbBlockEnd
  0
BLOCK
  5
249
330
233
100
AcDbEntity
  8
0
  6
Continuous
 62
     7
100
AcDbBlockBegin
  2
SYMBOL_28_BL9
 70
     0
 10
114.0331640937
 20
74.4322200288
 30
0.0
  3
SYMBOL_28_BL9
  1

  0
TEXT
  5
24A
330
233
100
AcDbEntity
  8
0
  6
Continuous
 62
     7
100
AcDbText
 10
113.3664971677
 20
73.7655531028
 30
0.0
 40
1.333333852099999
  1
C
  7
TEXTSTYLE_2
100
AcDbText
  0
ELLIPSE
  5
24B
330
233
100
AcDbEntity
  8
0
  6
Continuous
 62
     7
100
AcDbEllipse
 10
114.0331640937
 20
74.4322200288
 30
0.0
 11
-1.942887567899999
 21
0.0
 31
0.0
210
0.0
220
0.0
230
1.0
 40
0.6606458385
 41
0.0
 42
6.283185307179586
  0
ENDBLK
  5
24C
330
233
100
AcDbEntity
  8
0
  6
ByBlock
 62
     0
100
AcDbBlockEnd
  0
BLOCK
  5
24D
330
234
100
AcDbEntity
  8
0
  6
Continuous
 62
     7
100
AcDbBlockBegin
  2
SYMBOL_19_BL8
 70
     0
 10
142.0330889674
 20
101.5118742047
 30
0.0
  3
SYMBOL_19_BL8
  1

  0
TEXT
  5
24E
330
234
100
AcDbEntity
  8
0
  6
Continuous
 62
     7
100
AcDbText
 10
141.4836137674
 20
100.8390018647
 30
0.0
 40
1.333333852099999
  1
L
  7
TEXTSTYLE_2
100
AcDbText
  0
TEXT
  5
24F
330
234
100
AcDbEntity
  8
0
  6
Continuous
 62
     7
100
AcDbText
 10
137.7990274891
 20
100.8514126927
 30
0.0
 40
1.333333852099999
  1
9
  7
TEXTSTYLE_2
100
AcDbText
  0
TEXT
  5
250
330
234
100
AcDbEntity
  8
0
  6
Continuous
 62
     7
100
AcDbText
 10
145.2449278259
 20
100.8514126927
 30
0.0
 40
1.333333852099999
  1
8
  7
TEXTSTYLE_2
100
AcDbText
  0
ELLIPSE
  5
251
330
234
100
AcDbEntity
  8
0
  6
Continuous
 62
     7
100
AcDbEllipse
 10
142.0120090347
 20
101.5056687907
 30
0.0
 11
-1.942887567899999
 21
0.0
 31
0.0
210
0.0
220
0.0
230
1.0
 40
0.6606458385
 41
0.0
 42
6.283185307179586
  0
ENDBLK
  5
252
330
234
100
AcDbEntity
  8
0
  6
ByBlock
 62
     0
100
AcDbBlockEnd
  0
BLOCK
  5
253
330
235
100
AcDbEntity
  8
0
  6
Continuous
 62
     7
100
AcDbBlockBegin
  2
SYMBOL_18_BL7
 70
     0
 10
117.0263839069
 20
77.7984533602
 30
0.0
  3
SYMBOL_18_BL7
  1

  0
TEXT
  5
254
330
235
100
AcDbEntity
  8
0
  6
Continuous
 62
     7
100
AcDbText
 10
116.4769087068
 20
77.1255810202
 30
0.0
 40
1.333333852099999
  1
L
  7
TEXTSTYLE_2
100
AcDbText
  0
TEXT
  5
255
330
235
100
AcDbEntity
  8
0
  6
Continuous
 62
     7
100
AcDbText
 10
112.2812111186
 20
77.1379918482
 30
0.0
 40
1.333333852099999
  1
14
  7
TEXTSTYLE_2
100
AcDbText
  0
TEXT
  5
256
330
235
100
AcDbEntity
  8
0
  6
Continuous
 62
     7
100
AcDbText
 10
119.7271114553
 20
77.1379918482
 30
0.0
 40
1.333333852099999
  1
13
  7
TEXTSTYLE_2
100
AcDbText
  0
ELLIPSE
  5
257
330
235
100
AcDbEntity
  8
0
  6
Continuous
 62
     7
100
AcDbEllipse
 10
117.0053039741
 20
77.79224794619999
 30
0.0
 11
-1.942887567899999
 21
0.0
 31
0.0
210
0.0
220
0.0
230
1.0
 40
0.6606458385
 41
0.0
 42
6.283185307179586
  0
ENDBLK
  5
258
330
235
100
AcDbEntity
  8
0
  6
ByBlock
 62
     0
100
AcDbBlockEnd
  0
BLOCK
  5
259
330
236
100
AcDbEntity
  8
0
  6
Continuous
 62
     7
100
AcDbBlockBegin
  2
SYMBOL_33_BL6
 70
     0
 10
25.427226101
 20
99.0836870527
 30
0.0
  3
SYMBOL_33_BL6
  1

  0
TEXT
  5
25A
330
236
100
AcDbEntity
  8
0
  6
Continuous
 62
     7
100
AcDbText
 10
25.8434089591
 20
98.2779363658
 30
0.0
 40
1.333333852099999
  1
A
 50
70.0
  7
TEXTSTYLE_2
100
AcDbText
  0
ELLIPSE
  5
25B
330
236
100
AcDbEntity
  8
0
  6
Continuous
 62
     7
100
AcDbEllipse
 10
25.427226101
 20
99.0836870527
 30
0.0
 11
-0.6645066844
 21
-1.825717110599999
 31
0.0
210
0.0
220
0.0
230
1.0
 40
0.6606458385
 41
0.0
 42
6.283185307179586
  0
ENDBLK
  5
25C
330
236
100
AcDbEntity
  8
0
  6
ByBlock
 62
     0
100
AcDbBlockEnd
  0
BLOCK
  5
25D
330
237
100
AcDbEntity
  8
0
  6
Continuous
 62
     7
100
AcDbBlockBegin
  2
SYMBOL_29_BL5
 70
     0
 10
56.4720830126
 20
74.1675713802
 30
0.0
  3
SYMBOL_29_BL5
  1

  0
TEXT
  5
25E
330
237
100
AcDbEntity
  8
0
  6
Continuous
 62
     7
100
AcDbText
 10
55.8572679586
 20
73.5009044542
 30
0.0
 40
1.333333852099999
  1
A
  7
TEXTSTYLE_2
100
AcDbText
  0
ELLIPSE
  5
25F
330
237
100
AcDbEntity
  8
0
  6
Continuous
 62
     7
100
AcDbEllipse
 10
56.4720830126
 20
74.1675713802
 30
0.0
 11
-1.942887567899999
 21
0.0
 31
0.0
210
0.0
220
0.0
230
1.0
 40
0.6606458385
 41
0.0
 42
6.283185307179586
  0
ENDBLK
  5
260
330
237
100
AcDbEntity
  8
0
  6
ByBlock
 62
     0
100
AcDbBlockEnd
  0
BLOCK
  5
261
330
238
100
AcDbEntity
  8
0
  6
Continuous
 62
     7
100
AcDbBlockBegin
  2
SYMBOL_27_BL4
 70
     0
 10
66.45859976939999
 20
74.216862191
 30
0.0
  3
SYMBOL_27_BL4
  1

  0
TEXT
  5
262
330
238
100
AcDbEntity
  8
0
  6
Continuous
 62
     7
100
AcDbText
 10
65.7919328433
 20
73.550195265
 30
0.0
 40
1.333333852099999
  1
C
  7
TEXTSTYLE_2
100
AcDbText
  0
ELLIPSE
  5
263
330
238
100
AcDbEntity
  8
0
  6
Continuous
 62
     7
100
AcDbEllipse
 10
66.45859976939999
 20
74.216862191
 30
0.0
 11
-1.942887567899999
 21
0.0
 31
0.0
210
0.0
220
0.0
230
1.0
 40
0.6606458385
 41
0.0
 42
6.283185307179586
  0
ENDBLK
  5
264
330
238
100
AcDbEntity
  8
0
  6
ByBlock
 62
     0
100
AcDbBlockEnd
  0
BLOCK
  5
265
330
239
100
AcDbEntity
  8
0
  6
Continuous
 62
     7
100
AcDbBlockBegin
  2
SYMBOL_17_BL3
 70
     0
 10
37.1070917374
 20
77.63493496719999
 30
0.0
  3
SYMBOL_17_BL3
  1

  0
TEXT
  5
266
330
239
100
AcDbEntity
  8
0
  6
Continuous
 62
     7
100
AcDbText
 10
36.55761653739999
 20
76.96206262709999
 30
0.0
 40
1.333333852099999
  1
L
  7
TEXTSTYLE_2
100
AcDbText
  0
TEXT
  5
267
330
239
100
AcDbEntity
  8
0
  6
Continuous
 62
     7
100
AcDbText
 10
32.8730302591
 20
76.97447345509999
 30
0.0
 40
1.333333852099999
  1
8
  7
TEXTSTYLE_2
100
AcDbText
  0
TEXT
  5
268
330
239
100
AcDbEntity
  8
0
  6
Continuous
 62
     7
100
AcDbText
 10
40.31893059579999
 20
76.97447345509999
 30
0.0
 40
1.333333852099999
  1
9
  7
TEXTSTYLE_2
100
AcDbText
  0
ELLIPSE
  5
269
330
239
100
AcDbEntity
  8
0
  6
Continuous
 62
     7
100
AcDbEllipse
 10
37.0860118046
 20
77.6287295531
 30
0.0
 11
-1.942887567899999
 21
0.0
 31
0.0
210
0.0
220
0.0
230
1.0
 40
0.6606458385
 41
0.0
 42
6.283185307179586
  0
ENDBLK
  5
26A
330
239
100
AcDbEntity
  8
0
  6
ByBlock
 62
     0
100
AcDbBlockEnd
  0
BLOCK
  5
26B
330
23A
100
AcDbEntity
  8
0
  6
Continuous
 62
     7
100
AcDbBlockBegin
  2
SYMBOL_16_BL2
 70
     0
 10
62.7476256092
 20
101.2585467634
 30
0.0
  3
SYMBOL_16_BL2
  1

  0
TEXT
  5
26C
330
23A
100
AcDbEntity
  8
0
  6
Continuous
 62
     7
100
AcDbText
 10
62.1981504092
 20
100.5856744233
 30
0.0
 40
1.333333852099999
  1
L
  7
TEXTSTYLE_2
100
AcDbText
  0
TEXT
  5
26D
330
23A
100
AcDbEntity
  8
0
  6
Continuous
 62
     7
100
AcDbText
 10
58.0024528209
 20
100.5980852514
 30
0.0
 40
1.333333852099999
  1
13
  7
TEXTSTYLE_2
100
AcDbText
  0
TEXT
  5
26E
330
23A
100
AcDbEntity
  8
0
  6
Continuous
 62
     7
100
AcDbText
 10
65.4483531576
 20
100.5980852514
 30
0.0
 40
1.333333852099999
  1
14
  7
TEXTSTYLE_2
100
AcDbText
  0
ELLIPSE
  5
26F
330
23A
100
AcDbEntity
  8
0
  6
Continuous
 62
     7
100
AcDbEllipse
 10
62.7265456764
 20
101.2523413494
 30
0.0
 11
-1.942887567899999
 21
0.0
 31
0.0
210
0.0
220
0.0
230
1.0
 40
0.6606458385
 41
0.0
 42
6.283185307179586
  0
ENDBLK
  5
270
330
23A
100
AcDbEntity
  8
0
  6
ByBlock
 62
     0
100
AcDbBlockEnd
  0
BLOCK
  5
271
330
23B
100
AcDbEntity
  8
0
  6
Continuous
 62
     7
100
AcDbBlockBegin
  2
SYMBOL_14_BL1
 70
     0
 10
129.1965162126
 20
53.634443082
 30
0.0
  3
SYMBOL_14_BL1
  1

  0
TEXT
  5
272
330
23B
100
AcDbEntity
  8
0
  6
Continuous
 62
     7
100
AcDbText
 10
122.8824559108
 20
55.87947706779999
 30
0.0
 40
1.1626666667
  1
INTERNAL USE 
 50
10.0
  7
TEXTSTYLE_3
100
AcDbText
  0
TEXT
  5
273
330
23B
100
AcDbEntity
  8
0
  6
Continuous
 62
     7
100
AcDbText
 10
122.1387717068
 20
53.8779558901
 30
0.0
 40
1.1626666667
  1
DOCUMENT ONLY
 50
10.0
  7
TEXTSTYLE_3
100
AcDbText
  0
TEXT
  5
274
330
23B
100
AcDbEntity
  8
0
  6
Continuous
 62
     7
100
AcDbText
 10
127.9234992701
 20
53.6295278396
 30
0.0
 40
1.1626666667
  1
 
 50
10.0
  7
TEXTSTYLE_5
100
AcDbText
  0
TEXT
  5
275
330
23B
100
AcDbEntity
  8
0
  6
Continuous
 62
     7
100
AcDbText
 10
119.478851387
 20
49.4524334333
 30
0.0
 40
1.1626666667
  1
DOCUMENT POUR USAGE
 50
10.0
  7
TEXTSTYLE_3
100
AcDbText
  0
TEXT
  5
276
330
23B
100
AcDbEntity
  8
0
  6
Continuous
 62
     7
100
AcDbText
 10
119.9079508331
 20
47.4356849729
 30
0.0
 40
1.1626666667
  1
A L'INTERNE SEULEMENT
 50
10.0
  7
TEXTSTYLE_3
100
AcDbText
  0
LINE
  5
277
330
23B
100
AcDbEntity
  8
0
  6
Continuous
 62
     7
100
AcDbLine
 10
143.0530679359
 20
49.29090946399999
 30
0.0
 11
143.0598268686
 21
49.2976683967
 31
0.0
  0
LINE
  5
278
330
23B
100
AcDbEntity
  8
0
  6
Continuous
 62
     7
100
AcDbLine
 10
142.3204983695
 20
49.1617376842
 30
0.0
 11
142.9693798146
 21
49.8106191293
 31
0.0
  0
LINE
  5
279
330
23B
100
AcDbEntity
  8
0
  6
Continuous
 62
     7
100
AcDbLine
 10
141.5879288031
 20
49.03256590439999
 30
0.0
 11
142.8789327607
 21
50.32356986199999
 31
0.0
  0
LINE
  5
27A
330
23B
100
AcDbEntity
  8
0
  6
Continuous
 62
     7
100
AcDbLine
 10
140.8553592367
 20
48.9033941246
 30
0.0
 11
142.7884857067
 21
50.83652059470001
 31
0.0
  0
LINE
  5
27B
330
23B
100
AcDbEntity
  8
0
  6
Continuous
 62
     7
100
AcDbLine
 10
140.1227896702
 20
48.7742223448
 30
0.0
 11
142.6980386528
 21
51.34947132729999
 31
0.0
  0
LINE
  5
27C
330
23B
100
AcDbEntity
  8
0
  6
Continuous
 62
     7
100
AcDbLine
 10
139.3902201038
 20
48.645050565
 30
0.0
 11
140.9312239186
 21
50.18605437979999
 31
0.0
  0
LINE
  5
27D
330
23B
100
AcDbEntity
  8
0
  6
Continuous
 62
     7
100
AcDbLine
 10
141.5285691113
 20
50.7833995725
 30
0.0
 11
142.6075915988
 21
51.86242206
 31
0.0
  0
LINE
  5
27E
330
23B
100
AcDbEntity
  8
0
  6
Continuous
 62
     7
100
AcDbLine
 10
138.6576505374
 20
48.5158787852
 30
0.0
 11
140.1986543521999
 21
50.0568826
 31
0.0
  0
LINE
  5
27F
330
23B
100
AcDbEntity
  8
0
  6
Continuous
 62
     7
100
AcDbLine
 10
141.4381220574
 20
51.2963503051
 30
0.0
 11
142.5171445449
 21
52.3753727927
 31
0.0
  0
LINE
  5
280
330
23B
100
AcDbEntity
  8
0
  6
Continuous
 62
     7
100
AcDbLine
 10
137.925080971
 20
48.38670700539999
 30
0.0
 11
139.4660847858
 21
49.9277108201
 31
0.0
  0
LINE
  5
281
330
23B
100
AcDbEntity
  8
0
  6
Continuous
 62
     7
100
AcDbLine
 10
141.3476750034
 20
51.80930103779999
 30
0.0
 11
142.426697491
 21
52.8883235253
 31
0.0
  0
LINE
  5
282
330
23B
100
AcDbEntity
  8
0
  6
Continuous
 62
     7
100
AcDbLine
 10
137.1925114046
 20
48.2575352256
 30
0.0
 11
138.7335152193
 21
49.7985390403
 31
0.0
  0
LINE
  5
283
330
23B
100
AcDbEntity
  8
0
  6
Continuous
 62
     7
100
AcDbLine
 10
141.2572279495
 20
52.32225177050001
 30
0.0
 11
142.336250437
 21
53.401274258
 31
0.0
  0
LINE
  5
284
330
23B
100
AcDbEntity
  8
0
  6
Continuous
 62
     7
100
AcDbLine
 10
136.4599418381
 20
48.12836344579999
 30
0.0
 11
138.0009456529
 21
49.66936726050001
 31
0.0
  0
LINE
  5
285
330
23B
100
AcDbEntity
  8
0
  6
Continuous
 62
     7
100
AcDbLine
 10
141.1667808955
 20
52.83520250319999
 30
0.0
 11
142.2458033831
 21
53.91422499069999
 31
0.0
  0
LINE
  5
286
330
23B
100
AcDbEntity
  8
0
  6
Continuous
 62
     7
100
AcDbLine
 10
135.7273722717
 20
47.999191666
 30
0.0
 11
137.2683760864999
 21
49.5401954807
 31
0.0
  0
LINE
  5
287
330
23B
100
AcDbEntity
  8
0
  6
Continuous
 62
     7
100
AcDbLine
 10
141.0763338416
 20
53.34815323579999
 30
0.0
 11
142.1553563291
 21
54.4271757233
 31
0.0
  0
LINE
  5
288
330
23B
100
AcDbEntity
  8
0
  6
Continuous
 62
     7
100
AcDbLine
 10
134.9948027053
 20
47.8700198861
 30
0.0
 11
136.5358065201
 21
49.4110237009
 31
0.0
  0
LINE
  5
289
330
23B
100
AcDbEntity
  8
0
  6
Continuous
 62
     7
100
AcDbLine
 10
140.9858867877
 20
53.8611039685
 30
0.0
 11
142.0649092752
 21
54.940126456
 31
0.0
  0
LINE
  5
28A
330
23B
100
AcDbEntity
  8
0
  6
Continuous
 62
     7
100
AcDbLine
 10
134.2622331389
 20
47.74084810629999
 30
0.0
 11
135.8032369537
 21
49.28185192109999
 31
0.0
  0
LINE
  5
28B
330
23B
100
AcDbEntity
  8
0
  6
Continuous
 62
     7
100
AcDbLine
 10
140.8954397337
 20
54.3740547012
 30
0.0
 11
141.9744622212
 21
55.4530771887
 31
0.0
  0
LINE
  5
28C
330
23B
100
AcDbEntity
  8
0
  6
Continuous
 62
     7
100
AcDbLine
 10
133.5296635725
 20
47.61167632649999
 30
0.0
 11
135.0706673873
 21
49.1526801413
 31
0.0
  0
LINE
  5
28D
330
23B
100
AcDbEntity
  8
0
  6
Continuous
 62
     7
100
AcDbLine
 10
140.8049926798
 20
54.8870054338
 30
0.0
 11
141.8840151673
 21
55.9660279213
 31
0.0
  0
LINE
  5
28E
330
23B
100
AcDbEntity
  8
0
  6
Continuous
 62
     7
100
AcDbLine
 10
132.7970940061
 20
47.48250454669999
 30
0.0
 11
134.3380978208
 21
49.0235083615
 31
0.0
  0
LINE
  5
28F
330
23B
100
AcDbEntity
  8
0
  6
Continuous
 62
     7
100
AcDbLine
 10
140.5021130799
 20
55.1875236206
 30
0.0
 11
141.7935681133
 21
56.478978654
 31
0.0
  0
LINE
  5
290
330
23B
100
AcDbEntity
  8
0
  6
Continuous
 62
     7
100
AcDbLine
 10
132.0645244395999
 20
47.35333276689999
 30
0.0
 11
133.6055282544
 21
48.8943365817
 31
0.0
  0
LINE
  5
291
330
23B
100
AcDbEntity
  8
0
  6
Continuous
 62
     7
100
AcDbLine
 10
139.7695435135
 20
55.0583518408
 30
0.0
 11
141.7031210594
 21
56.9919293867
 31
0.0
  0
LINE
  5
292
330
23B
100
AcDbEntity
  8
0
  6
Continuous
 62
     7
100
AcDbLine
 10
131.3319548732
 20
47.2241609871
 30
0.0
 11
132.8729586879999
 21
48.7651648019
 31
0.0
  0
LINE
  5
293
330
23B
100
AcDbEntity
  8
0
  6
Continuous
 62
     7
100
AcDbLine
 10
139.0369739471
 20
54.929180061
 30
0.0
 11
140.0643162454
 21
55.9565223593
 31
0.0
  0
LINE
  5
294
330
23B
100
AcDbEntity
  8
0
  6
Continuous
 62
     7
100
AcDbLine
 10
140.5336515179
 20
56.4258576318
 30
0.0
 11
141.6126740055
 21
57.50488011939999
 31
0.0
  0
LINE
  5
295
330
23B
100
AcDbEntity
  8
0
  6
Continuous
 62
     7
100
AcDbLine
 10
130.5993853068
 20
47.09498920729999
 30
0.0
 11
132.1403891216
 21
48.6359930221
 31
0.0
  0
LINE
  5
296
330
23B
100
AcDbEntity
  8
0
  6
Continuous
 62
     7
100
AcDbLine
 10
138.3044043807
 20
54.8000082812
 30
0.0
 11
139.3317464693
 21
55.82735036979999
 31
0.0
  0
LINE
  5
297
330
23B
100
AcDbEntity
  8
0
  6
Continuous
 62
     7
100
AcDbLine
 10
140.443204464
 20
56.93880836449999
 30
0.0
 11
141.5222269515
 21
58.017830852
 31
0.0
  0
LINE
  5
298
330
23B
100
AcDbEntity
  8
0
  6
Continuous
 62
     7
100
AcDbLine
 10
129.8668157404
 20
46.9658174275
 30
0.0
 11
131.4078195552
 21
48.50682124229999
 31
0.0
  0
LINE
  5
299
330
23B
100
AcDbEntity
  8
0
  6
Continuous
 62
     7
100
AcDbLine
 10
137.5718348143
 20
54.67083650140001
 30
0.0
 11
138.5991766933
 21
55.6981783804
 31
0.0
  0
LINE
  5
29A
330
23B
100
AcDbEntity
  8
0
  6
Continuous
 62
     7
100
AcDbLine
 10
140.3527574101
 20
57.4517590972
 30
0.0
 11
141.4317798976
 21
58.5307815847
 31
0.0
  0
LINE
  5
29B
330
23B
100
AcDbEntity
  8
0
  6
Continuous
 62
     7
100
AcDbLine
 10
129.134246174
 20
46.8366456477
 30
0.0
 11
130.6752499887
 21
48.3776494625
 31
0.0
  0
LINE
  5
29C
330
23B
100
AcDbEntity
  8
0
  6
Continuous
 62
     7
100
AcDbLine
 10
136.8392652479
 20
54.5416647216
 30
0.0
 11
137.8666069173
 21
55.569006391
 31
0.0
  0
LINE
  5
29D
330
23B
100
AcDbEntity
  8
0
  6
Continuous
 62
     7
100
AcDbLine
 10
140.2623103561
 20
57.96470982979999
 30
0.0
 11
141.3413328436
 21
59.0437323174
 31
0.0
  0
LINE
  5
29E
330
23B
100
AcDbEntity
  8
0
  6
Continuous
 62
     7
100
AcDbLine
 10
128.4016766076
 20
46.7074738679
 30
0.0
 11
129.9426804223
 21
48.2484776827
 31
0.0
  0
LINE
  5
29F
330
23B
100
AcDbEntity
  8
0
  6
Continuous
 62
     7
100
AcDbLine
 10
136.1066956814
 20
54.4124929418
 30
0.0
 11
137.1340371413
 21
55.43983440159999
 31
0.0
  0
LINE
  5
2A0
330
23B
100
AcDbEntity
  8
0
  6
Continuous
 62
     7
100
AcDbLine
 10
140.1718633022
 20
58.4776605625
 30
0.0
 11
141.2508857897
 21
59.55668304999999
 31
0.0
  0
LINE
  5
2A1
330
23B
100
AcDbEntity
  8
0
  6
Continuous
 62
     7
100
AcDbLine
 10
127.6691070411
 20
46.5783020881
 30
0.0
 11
129.2101108559
 21
48.1193059029
 31
0.0
  0
LINE
  5
2A2
330
23B
100
AcDbEntity
  8
0
  6
Continuous
 62
     7
100
AcDbLine
 10
135.374126115
 20
54.283321162
 30
0.0
 11
136.4014673652
 21
55.3106624122
 31
0.0
  0
LINE
  5
2A3
330
23B
100
AcDbEntity
  8
0
  6
Continuous
 62
     7
100
AcDbLine
 10
140.0814162482
 20
58.9906112952
 30
0.0
 11
141.1604387357
 21
60.0696337827
 31
0.0
  0
LINE
  5
2A4
330
23B
100
AcDbEntity
  8
0
  6
Continuous
 62
     7
100
AcDbLine
 10
126.9365374747
 20
46.44913030829999
 30
0.0
 11
128.4775412895
 21
47.9901341231
 31
0.0
  0
LINE
  5
2A5
330
23B
100
AcDbEntity
  8
0
  6
Continuous
 62
     7
100
AcDbLine
 10
134.6415565486
 20
54.1541493822
 30
0.0
 11
135.6688975892
 21
55.1814904228
 31
0.0
  0
LINE
  5
2A6
330
23B
100
AcDbEntity
  8
0
  6
Continuous
 62
     7
100
AcDbLine
 10
139.9909691943
 20
59.5035620279
 30
0.0
 11
141.0699916818
 21
60.5825845154
 31
0.0
  0
LINE
  5
2A7
330
23B
100
AcDbEntity
  8
0
  6
Continuous
 62
     7
100
AcDbLine
 10
126.2039679083
 20
46.3199585285
 30
0.0
 11
127.7449717231
 21
47.8609623433
 31
0.0
  0
LINE
  5
2A8
330
23B
100
AcDbEntity
  8
0
  6
Continuous
 62
     7
100
AcDbLine
 10
133.9089869822
 20
54.0249776024
 30
0.0
 11
134.9363278132
 21
55.0523184334
 31
0.0
  0
LINE
  5
2A9
330
23B
100
AcDbEntity
  8
0
  6
Continuous
 62
     7
100
AcDbLine
 10
139.9005221403
 20
60.0165127605
 30
0.0
 11
140.9795446279
 21
61.095535248
 31
0.0
  0
LINE
  5
2AA
330
23B
100
AcDbEntity
  8
0
  6
Continuous
 62
     7
100
AcDbLine
 10
125.4713983419
 20
46.19078674869999
 30
0.0
 11
127.0124021567
 21
47.7317905635
 31
0.0
  0
LINE
  5
2AB
330
23B
100
AcDbEntity
  8
0
  6
Continuous
 62
     7
100
AcDbLine
 10
133.1764174158
 20
53.8958058226
 30
0.0
 11
134.2037580371
 21
54.9231464439
 31
0.0
  0
LINE
  5
2AC
330
23B
100
AcDbEntity
  8
0
  6
Continuous
 62
     7
100
AcDbLine
 10
139.8100750864
 20
60.52946349319999
 30
0.0
 11
140.8890975739
 21
61.6084859807
 31
0.0
  0
LINE
  5
2AD
330
23B
100
AcDbEntity
  8
0
  6
Continuous
 62
     7
100
AcDbLine
 10
124.7388287755
 20
46.0616149689
 30
0.0
 11
126.2798325902
 21
47.60261878359999
 31
0.0
  0
LINE
  5
2AE
330
23B
100
AcDbEntity
  8
0
  6
Continuous
 62
     7
100
AcDbLine
 10
132.4438478493
 20
53.7666340428
 30
0.0
 11
133.4711882611
 21
54.7939744545
 31
0.0
  0
LINE
  5
2AF
330
23B
100
AcDbEntity
  8
0
  6
Continuous
 62
     7
100
AcDbLine
 10
139.635198985
 20
60.9579851784
 30
0.0
 11
140.79865052
 21
62.1214367134
 31
0.0
  0
LINE
  5
2B0
330
23B
100
AcDbEntity
  8
0
  6
Continuous
 62
     7
100
AcDbLine
 10
124.006259209
 20
45.9324431891
 30
0.0
 11
125.5472630238
 21
47.4734470038
 31
0.0
  0
LINE
  5
2B1
330
23B
100
AcDbEntity
  8
0
  6
Continuous
 62
     7
100
AcDbLine
 10
131.7112782829
 20
53.637462263
 30
0.0
 11
132.7386184851
 21
54.6648024651
 31
0.0
  0
LINE
  5
2B2
330
23B
100
AcDbEntity
  8
0
  6
Continuous
 62
     7
100
AcDbLine
 10
138.9026294186
 20
60.8288133986
 30
0.0
 11
140.4436332333
 21
62.36981721340001
 31
0.0
  0
LINE
  5
2B3
330
23B
100
AcDbEntity
  8
0
  6
Continuous
 62
     7
100
AcDbLine
 10
123.2736896426
 20
45.8032714093
 30
0.0
 11
124.8146934574
 21
47.34427522399999
 31
0.0
  0
LINE
  5
2B4
330
23B
100
AcDbEntity
  8
0
  6
Continuous
 62
     7
100
AcDbLine
 10
130.9787087165
 20
53.5082904831
 30
0.0
 11
132.0060487091
 21
54.5356304757
 31
0.0
  0
LINE
  5
2B5
330
23B
100
AcDbEntity
  8
0
  6
Continuous
 62
     7
100
AcDbLine
 10
138.1700598521
 20
60.6996416188
 30
0.0
 11
139.7110636669
 21
62.2406454335
 31
0.0
  0
LINE
  5
2B6
330
23B
100
AcDbEntity
  8
0
  6
Continuous
 62
     7
100
AcDbLine
 10
122.5411200762
 20
45.6740996295
 30
0.0
 11
124.082123891
 21
47.2151034442
 31
0.0
  0
LINE
  5
2B7
330
23B
100
AcDbEntity
  8
0
  6
Continuous
 62
     7
100
AcDbLine
 10
130.2461391501
 20
53.3791187033
 30
0.0
 11
131.273478933
 21
54.4064584863
 31
0.0
  0
LINE
  5
2B8
330
23B
100
AcDbEntity
  8
0
  6
Continuous
 62
     7
100
AcDbLine
 10
137.4374902857
 20
60.570469839
 30
0.0
 11
138.9784941005
 21
62.11147365369999
 31
0.0
  0
LINE
  5
2B9
330
23B
100
AcDbEntity
  8
0
  6
Continuous
 62
     7
100
AcDbLine
 10
121.8085505098
 20
45.54492784959999
 30
0.0
 11
123.3495543246
 21
47.08593166439999
 31
0.0
  0
LINE
  5
2BA
330
23B
100
AcDbEntity
  8
0
  6
Continuous
 62
     7
100
AcDbLine
 10
129.5135695837
 20
53.2499469235
 30
0.0
 11
130.540909157
 21
54.27728649689999
 31
0.0
  0
LINE
  5
2BB
330
23B
100
AcDbEntity
  8
0
  6
Continuous
 62
     7
100
AcDbLine
 10
136.7049207193
 20
60.4412980592
 30
0.0
 11
138.2459245341
 21
61.9823018739
 31
0.0
  0
LINE
  5
2BC
330
23B
100
AcDbEntity
  8
0
  6
Continuous
 62
     7
100
AcDbLine
 10
121.0759809434
 20
45.41575606979999
 30
0.0
 11
122.6169847581
 21
46.9567598846
 31
0.0
  0
LINE
  5
2BD
330
23B
100
AcDbEntity
  8
0
  6
Continuous
 62
     7
100
AcDbLine
 10
128.7810000173
 20
53.1207751437
 30
0.0
 11
129.808339381
 21
54.1481145074
 31
0.0
  0
LINE
  5
2BE
330
23B
100
AcDbEntity
  8
0
  6
Continuous
 62
     7
100
AcDbLine
 10
135.9723511529
 20
60.3121262794
 30
0.0
 11
137.5133549677
 21
61.85313009409999
 31
0.0
  0
LINE
  5
2BF
330
23B
100
AcDbEntity
  8
0
  6
Continuous
 62
     7
100
AcDbLine
 10
120.343411377
 20
45.28658429
 30
0.0
 11
121.8844151917
 21
46.82758810479999
 31
0.0
  0
LINE
  5
2C0
330
23B
100
AcDbEntity
  8
0
  6
Continuous
 62
     7
100
AcDbLine
 10
128.0484304508
 20
52.9916033639
 30
0.0
 11
129.0757696049
 21
54.018942518
 31
0.0
  0
LINE
  5
2C1
330
23B
100
AcDbEntity
  8
0
  6
Continuous
 62
     7
100
AcDbLine
 10
135.2397815865
 20
60.1829544996
 30
0.0
 11
136.7807854012
 21
61.72395831430001
 31
0.0
  0
LINE
  5
2C2
330
23B
100
AcDbEntity
  8
0
  6
Continuous
 62
     7
100
AcDbLine
 10
119.6108418105
 20
45.1574125102
 30
0.0
 11
121.1518456253
 21
46.69841632499999
 31
0.0
  0
LINE
  5
2C3
330
23B
100
AcDbEntity
  8
0
  6
Continuous
 62
     7
100
AcDbLine
 10
127.3158608844
 20
52.8624315841
 30
0.0
 11
128.3431998289
 21
53.88977052859999
 31
0.0
  0
LINE
  5
2C4
330
23B
100
AcDbEntity
  8
0
  6
Continuous
 62
     7
100
AcDbLine
 10
134.50721202
 20
60.0537827197
 30
0.0
 11
136.0482158348
 21
61.59478653449999
 31
0.0
  0
LINE
  5
2C5
330
23B
100
AcDbEntity
  8
0
  6
Continuous
 62
     7
100
AcDbLine
 10
118.8782722441
 20
45.0282407304
 30
0.0
 11
120.4192760589
 21
46.56924454520001
 31
0.0
  0
LINE
  5
2C6
330
23B
100
AcDbEntity
  8
0
  6
Continuous
 62
     7
100
AcDbLine
 10
126.583291318
 20
52.73325980430001
 30
0.0
 11
127.6106300529
 21
53.76059853920001
 31
0.0
  0
LINE
  5
2C7
330
23B
100
AcDbEntity
  8
0
  6
Continuous
 62
     7
100
AcDbLine
 10
133.7746424536
 20
59.9246109399
 30
0.0
 11
135.3156462684
 21
61.46561475470001
 31
0.0
  0
LINE
  5
2C8
330
23B
100
AcDbEntity
  8
0
  6
Continuous
 62
     7
100
AcDbLine
 10
118.1457026777
 20
44.8990689506
 30
0.0
 11
119.6867064925
 21
46.4400727654
 31
0.0
  0
LINE
  5
2C9
330
23B
100
AcDbEntity
  8
0
  6
Continuous
 62
     7
100
AcDbLine
 10
125.8507217516
 20
52.6040880245
 30
0.0
 11
126.8780602769
 21
53.63142654979999
 31
0.0
  0
LINE
  5
2CA
330
23B
100
AcDbEntity
  8
0
  6
Continuous
 62
     7
100
AcDbLine
 10
133.0420728872
 20
59.7954391601
 30
0.0
 11
134.583076702
 21
61.3364429749
 31
0.0
  0
LINE
  5
2CB
330
23B
100
AcDbEntity
  8
0
  6
Continuous
 62
     7
100
AcDbLine
 10
117.5943819052
 20
44.9511459647
 30
0.0
 11
118.9541369261
 21
46.3109009856
 31
0.0
  0
LINE
  5
2CC
330
23B
100
AcDbEntity
  8
0
  6
Continuous
 62
     7
100
AcDbLine
 10
125.1181521852
 20
52.47491624470001
 30
0.0
 11
126.1454905008
 21
53.5022545604
 31
0.0
  0
LINE
  5
2CD
330
23B
100
AcDbEntity
  8
0
  6
Continuous
 62
     7
100
AcDbLine
 10
132.3095033208
 20
59.6662673803
 30
0.0
 11
133.8505071356
 21
61.2072711951
 31
0.0
  0
LINE
  5
2CE
330
23B
100
AcDbEntity
  8
0
  6
Continuous
 62
     7
100
AcDbLine
 10
117.5039348512
 20
45.4640966974
 30
0.0
 11
118.5829573388
 21
46.5431191849
 31
0.0
  0
LINE
  5
2CF
330
23B
100
AcDbEntity
  8
0
  6
Continuous
 62
     7
100
AcDbLine
 10
124.3855826188
 20
52.3457444649
 30
0.0
 11
125.4129207248
 21
53.37308257090001
 31
0.0
  0
LINE
  5
2D0
330
23B
100
AcDbEntity
  8
0
  6
Continuous
 62
     7
100
AcDbLine
 10
131.5769337544
 20
59.5370956005
 30
0.0
 11
133.1179375692
 21
61.0780994153
 31
0.0
  0
LINE
  5
2D1
330
23B
100
AcDbEntity
  8
0
  6
Continuous
 62
     7
100
AcDbLine
 10
117.4134877973
 20
45.9770474301
 30
0.0
 11
118.4925102848
 21
47.0560699176
 31
0.0
  0
LINE
  5
2D2
330
23B
100
AcDbEntity
  8
0
  6
Continuous
 62
     7
100
AcDbLine
 10
123.6530130523
 20
52.2165726851
 30
0.0
 11
124.6803509488
 21
53.24391058149999
 31
0.0
  0
LINE
  5
2D3
330
23B
100
AcDbEntity
  8
0
  6
Continuous
 62
     7
100
AcDbLine
 10
130.844364188
 20
59.4079238207
 30
0.0
 11
132.3853680027
 21
60.94892763549999
 31
0.0
  0
LINE
  5
2D4
330
23B
100
AcDbEntity
  8
0
  6
Continuous
 62
     7
100
AcDbLine
 10
117.3230407433
 20
46.4899981627
 30
0.0
 11
118.4020632309
 21
47.5690206502
 31
0.0
  0
LINE
  5
2D5
330
23B
100
AcDbEntity
  8
0
  6
Continuous
 62
     7
100
AcDbLine
 10
122.9204434859
 20
52.0874009053
 30
0.0
 11
123.9477811727
 21
53.1147385921
 31
0.0
  0
LINE
  5
2D6
330
23B
100
AcDbEntity
  8
0
  6
Continuous
 62
     7
100
AcDbLine
 10
130.1117946215
 20
59.2787520409
 30
0.0
 11
131.6527984363
 21
60.81975585569999
 31
0.0
  0
LINE
  5
2D7
330
23B
100
AcDbEntity
  8
0
  6
Continuous
 62
     7
100
AcDbLine
 10
117.2325936894
 20
47.0029488954
 30
0.0
 11
118.3116161769
 21
48.0819713829
 31
0.0
  0
LINE
  5
2D8
330
23B
100
AcDbEntity
  8
0
  6
Continuous
 62
     7
100
AcDbLine
 10
122.1878739195
 20
51.9582291255
 30
0.0
 11
123.2152113967
 21
52.9855666027
 31
0.0
  0
LINE
  5
2D9
330
23B
100
AcDbEntity
  8
0
  6
Continuous
 62
     7
100
AcDbLine
 10
129.3792250551
 20
59.14958026109999
 30
0.0
 11
130.9202288699
 21
60.6905840759
 31
0.0
  0
LINE
  5
2DA
330
23B
100
AcDbEntity
  8
0
  6
Continuous
 62
     7
100
AcDbLine
 10
117.1421466355
 20
47.5158996281
 30
0.0
 11
118.221169123
 21
48.5949221156
 31
0.0
  0
LINE
  5
2DB
330
23B
100
AcDbEntity
  8
0
  6
Continuous
 62
     7
100
AcDbLine
 10
121.4553043531
 20
51.82905734569999
 30
0.0
 11
122.4826416207
 21
52.85639461329999
 31
0.0
  0
LINE
  5
2DC
330
23B
100
AcDbEntity
  8
0
  6
Continuous
 62
     7
100
AcDbLine
 10
128.6466554887
 20
59.0204084813
 30
0.0
 11
130.1876593035
 21
60.56141229609999
 31
0.0
  0
LINE
  5
2DD
330
23B
100
AcDbEntity
  8
0
  6
Continuous
 62
     7
100
AcDbLine
 10
117.0516995815
 20
48.0288503607
 30
0.0
 11
118.130722069
 21
49.10787284819999
 31
0.0
  0
LINE
  5
2DE
330
23B
100
AcDbEntity
  8
0
  6
Continuous
 62
     7
100
AcDbLine
 10
120.7227347867
 20
51.6998855659
 30
0.0
 11
121.7500718447
 21
52.72722262390001
 31
0.0
  0
LINE
  5
2DF
330
23B
100
AcDbEntity
  8
0
  6
Continuous
 62
     7
100
AcDbLine
 10
127.9140859223
 20
58.8912367015
 30
0.0
 11
129.4550897371
 21
60.4322405163
 31
0.0
  0
LINE
  5
2E0
330
23B
100
AcDbEntity
  8
0
  6
Continuous
 62
     7
100
AcDbLine
 10
116.9612525276
 20
48.5418010934
 30
0.0
 11
118.0402750151
 21
49.6208235809
 31
0.0
  0
LINE
  5
2E1
330
23B
100
AcDbEntity
  8
0
  6
Continuous
 62
     7
100
AcDbLine
 10
119.9901652202
 20
51.57071378609999
 30
0.0
 11
121.0175020686
 21
52.59805063449999
 31
0.0
  0
LINE
  5
2E2
330
23B
100
AcDbEntity
  8
0
  6
Continuous
 62
     7
100
AcDbLine
 10
127.1815163559
 20
58.7620649217
 30
0.0
 11
128.7225201706
 21
60.30306873649999
 31
0.0
  0
LINE
  5
2E3
330
23B
100
AcDbEntity
  8
0
  6
Continuous
 62
     7
100
AcDbLine
 10
116.8708054736
 20
49.0547518261
 30
0.0
 11
117.9498279611
 21
50.1337743136
 31
0.0
  0
LINE
  5
2E4
330
23B
100
AcDbEntity
  8
0
  6
Continuous
 62
     7
100
AcDbLine
 10
119.2575956538
 20
51.4415420063
 30
0.0
 11
120.2849322926
 21
52.46887864499999
 31
0.0
  0
LINE
  5
2E5
330
23B
100
AcDbEntity
  8
0
  6
Continuous
 62
     7
100
AcDbLine
 10
126.4489467895
 20
58.6328931419
 30
0.0
 11
127.9899506042
 21
60.1738969567
 31
0.0
  0
LINE
  5
2E6
330
23B
100
AcDbEntity
  8
0
  6
Continuous
 62
     7
100
AcDbLine
 10
116.7803584197
 20
49.5677025587
 30
0.0
 11
117.8593809072
 21
50.64672504629999
 31
0.0
  0
LINE
  5
2E7
330
23B
100
AcDbEntity
  8
0
  6
Continuous
 62
     7
100
AcDbLine
 10
118.5250260874
 20
51.31237022649999
 30
0.0
 11
119.5523625166
 21
52.33970665560001
 31
0.0
  0
LINE
  5
2E8
330
23B
100
AcDbEntity
  8
0
  6
Continuous
 62
     7
100
AcDbLine
 10
125.716377223
 20
58.5037213621
 30
0.0
 11
127.2573810378
 21
60.0447251769
 31
0.0
  0
LINE
  5
2E9
330
23B
100
AcDbEntity
  8
0
  6
Continuous
 62
     7
100
AcDbLine
 10
116.6899113657
 20
50.0806532914
 30
0.0
 11
117.7689338533
 21
51.1596757789
 31
0.0
  0
LINE
  5
2EA
330
23B
100
AcDbEntity
  8
0
  6
Continuous
 62
     7
100
AcDbLine
 10
117.792456521
 20
51.1831984466
 30
0.0
 11
118.8197927405
 21
52.21053466619999
 31
0.0
  0
LINE
  5
2EB
330
23B
100
AcDbEntity
  8
0
  6
Continuous
 62
     7
100
AcDbLine
 10
124.9838076566
 20
58.3745495823
 30
0.0
 11
126.5248114714
 21
59.9155533971
 31
0.0
  0
LINE
  5
2EC
330
23B
100
AcDbEntity
  8
0
  6
Continuous
 62
     7
100
AcDbLine
 10
116.5994643118
 20
50.5936040241
 30
0.0
 11
118.0872229645
 21
52.0813626768
 31
0.0
  0
LINE
  5
2ED
330
23B
100
AcDbEntity
  8
0
  6
Continuous
 62
     7
100
AcDbLine
 10
124.2512380902
 20
58.2453778025
 30
0.0
 11
125.792241905
 21
59.7863816172
 31
0.0
  0
LINE
  5
2EE
330
23B
100
AcDbEntity
  8
0
  6
Continuous
 62
     7
100
AcDbLine
 10
116.5090172579
 20
51.1065547567
 30
0.0
 11
117.5880397454
 21
52.1855772443
 31
0.0
  0
LINE
  5
2EF
330
23B
100
AcDbEntity
  8
0
  6
Continuous
 62
     7
100
AcDbLine
 10
123.5186685238
 20
58.1162060227
 30
0.0
 11
125.0596723386
 21
59.65720983739999
 31
0.0
  0
LINE
  5
2F0
330
23B
100
AcDbEntity
  8
0
  6
Continuous
 62
     7
100
AcDbLine
 10
116.4185702039
 20
51.6195054894
 30
0.0
 11
117.4975926914
 21
52.69852797689999
 31
0.0
  0
LINE
  5
2F1
330
23B
100
AcDbEntity
  8
0
  6
Continuous
 62
     7
100
AcDbLine
 10
122.7860989574
 20
57.9870342429
 30
0.0
 11
124.3271027721
 21
59.5280380576
 31
0.0
  0
LINE
  5
2F2
330
23B
100
AcDbEntity
  8
0
  6
Continuous
 62
     7
100
AcDbLine
 10
116.32812315
 20
52.1324562221
 30
0.0
 11
117.4071456375
 21
53.2114787096
 31
0.0
  0
LINE
  5
2F3
330
23B
100
AcDbEntity
  8
0
  6
Continuous
 62
     7
100
AcDbLine
 10
122.0535293909
 20
57.8578624631
 30
0.0
 11
123.5945332057
 21
59.39886627779999
 31
0.0
  0
LINE
  5
2F4
330
23B
100
AcDbEntity
  8
0
  6
Continuous
 62
     7
100
AcDbLine
 10
116.237676096
 20
52.6454069547
 30
0.0
 11
117.3166985835
 21
53.72442944229999
 31
0.0
  0
LINE
  5
2F5
330
23B
100
AcDbEntity
  8
0
  6
Continuous
 62
     7
100
AcDbLine
 10
121.3209598245
 20
57.7286906832
 30
0.0
 11
122.8619636393
 21
59.269694498
 31
0.0
  0
LINE
  5
2F6
330
23B
100
AcDbEntity
  8
0
  6
Continuous
 62
     7
100
AcDbLine
 10
116.1472290421
 20
53.1583576874
 30
0.0
 11
117.2262515296
 21
54.23738017489999
 31
0.0
  0
LINE
  5
2F7
330
23B
100
AcDbEntity
  8
0
  6
Continuous
 62
     7
100
AcDbLine
 10
120.5883902581
 20
57.5995189034
 30
0.0
 11
122.1293940729
 21
59.1405227182
 31
0.0
  0
LINE
  5
2F8
330
23B
100
AcDbEntity
  8
0
  6
Continuous
 62
     7
100
AcDbLine
 10
116.0567819881
 20
53.6713084201
 30
0.0
 11
117.1358044757
 21
54.7503309076
 31
0.0
  0
LINE
  5
2F9
330
23B
100
AcDbEntity
  8
0
  6
Continuous
 62
     7
100
AcDbLine
 10
119.8558206917
 20
57.4703471236
 30
0.0
 11
121.3968245065
 21
59.0113509384
 31
0.0
  0
LINE
  5
2FA
330
23B
100
AcDbEntity
  8
0
  6
Continuous
 62
     7
100
AcDbLine
 10
115.9663349342
 20
54.1842591528
 30
0.0
 11
117.0453574217
 21
55.2632816403
 31
0.0
  0
LINE
  5
2FB
330
23B
100
AcDbEntity
  8
0
  6
Continuous
 62
     7
100
AcDbLine
 10
119.1232511253
 20
57.34117534380001
 30
0.0
 11
120.66425494
 21
58.8821791586
 31
0.0
  0
LINE
  5
2FC
330
23B
100
AcDbEntity
  8
0
  6
Continuous
 62
     7
100
AcDbLine
 10
115.8758878802
 20
54.6972098854
 30
0.0
 11
116.9549103678
 21
55.7762323729
 31
0.0
  0
LINE
  5
2FD
330
23B
100
AcDbEntity
  8
0
  6
Continuous
 62
     7
100
AcDbLine
 10
118.3906815589
 20
57.21200356399999
 30
0.0
 11
119.9316853736
 21
58.75300737879999
 31
0.0
  0
LINE
  5
2FE
330
23B
100
AcDbEntity
  8
0
  6
Continuous
 62
     7
100
AcDbLine
 10
115.7854408263
 20
55.21016061810001
 30
0.0
 11
116.8644633138
 21
56.2891831056
 31
0.0
  0
LINE
  5
2FF
330
23B
100
AcDbEntity
  8
0
  6
Continuous
 62
     7
100
AcDbLine
 10
117.6581119924
 20
57.0828317842
 30
0.0
 11
119.1991158072
 21
58.62383559899999
 31
0.0
  0
LINE
  5
300
330
23B
100
AcDbEntity
  8
0
  6
Continuous
 62
     7
100
AcDbLine
 10
115.6949937724
 20
55.72311135079999
 30
0.0
 11
116.7740162599
 21
56.8021338383
 31
0.0
  0
LINE
  5
301
330
23B
100
AcDbEntity
  8
0
  6
Continuous
 62
     7
100
AcDbLine
 10
116.925542426
 20
56.95366000439999
 30
0.0
 11
118.4665462408
 21
58.4946638192
 31
0.0
  0
LINE
  5
302
330
23B
100
AcDbEntity
  8
0
  6
Continuous
 62
     7
100
AcDbLine
 10
115.6045467184
 20
56.2360620834
 30
0.0
 11
117.7339766744
 21
58.36549203939999
 31
0.0
  0
LINE
  5
303
330
23B
100
AcDbEntity
  8
0
  6
Continuous
 62
     7
100
AcDbLine
 10
115.5140996645
 20
56.7490128161
 30
0.0
 11
117.001407108
 21
58.2363202596
 31
0.0
  0
LINE
  5
304
330
23B
100
AcDbEntity
  8
0
  6
Continuous
 62
     7
100
AcDbLine
 10
115.4236526105
 20
57.2619635488
 30
0.0
 11
116.2688375415
 21
58.10714847979999
 31
0.0
  0
LINE
  5
305
330
23B
100
AcDbEntity
  8
0
  6
Continuous
 62
     7
100
AcDbLine
 10
115.3332055566
 20
57.7749142814
 30
0.0
 11
115.5362679751
 21
57.9779767
 31
0.0
  0
ENDBLK
  5
306
330
23B
100
AcDbEntity
  8
0
  6
ByBlock
 62
     0
100
AcDbBlockEnd
  0
BLOCK
  5
307
330
23C
100
AcDbEntity
  8
0
  6
Continuous
 62
     7
100
AcDbBlockBegin
  2
SYMBOL_11_BL0
 70
     0
 10
160.6683690716
 20
55.3344296681
 30
0.0
  3
SYMBOL_11_BL0
  1

  0
TEXT
  5
308
330
23C
100
AcDbEntity
  8
0
  6
Continuous
 62
     7
100
AcDbText
 10
144.4205839954999
 20
63.1078630592
 30
0.0
 40
0.5
  1
Infomations Techniques/Technical Infomations
  7
TEXTSTYLE_2
100
AcDbText
  0
TEXT
  5
309
330
23C
100
AcDbEntity
  8
0
  6
Continuous
 62
     7
100
AcDbText
 10
144.6683690716
 20
61.6677630015
 30
0.0
 40
0.6666666667
  1
NOMBRE DE JETS:     
  7
TEXTSTYLE_2
100
AcDbText
  0
TEXT
  5
30A
330
23C
100
AcDbEntity
  8
0
  6
Continuous
 62
     7
100
AcDbText
 10
154.5128135161
 20
61.6677630015
 30
0.0
 40
0.6666666667
  1
42
  7
TEXTSTYLE_2
100
AcDbText
  0
TEXT
  5
30B
330
23C
100
AcDbEntity
  8
0
  6
Continuous
 62
     7
100
AcDbText
 10
144.6683690716
 20
60.66776300149999
 30
0.0
 40
0.6666666667
  1
 
  7
TEXTSTYLE_2
100
AcDbText
  0
TEXT
  5
30C
330
23C
100
AcDbEntity
  8
0
  6
Continuous
 62
     7
100
AcDbText
 10
144.6683690716
 20
59.6677630015
 30
0.0
 40
0.6666666667
  1
NIVEAU D'EAU              GALLONS(US)        LITRES        GALLONS(UK)
  7
TEXTSTYLE_2
100
AcDbText
  0
TEXT
  5
30D
330
23C
100
AcDbEntity
  8
0
  6
Continuous
 62
     7
100
AcDbText
 10
144.6683690716
 20
58.6677630015
 30
0.0
 40
0.6666666667
  1
PLEIN
  7
TEXTSTYLE_2
100
AcDbText
  0
TEXT
  5
30E
330
23C
100
AcDbEntity
  8
0
  6
Continuous
 62
     7
100
AcDbText
 10
144.6683690716
 20
57.6677630015
 30
0.0
 40
0.6666666667
  1
HAUT T.PLEIN
  7
TEXTSTYLE_2
100
AcDbText
  0
TEXT
  5
30F
330
23C
100
AcDbEntity
  8
0
  6
Continuous
 62
     7
100
AcDbText
 10
144.6683690716
 20
56.6677630015
 30
0.0
 40
0.6666666667
  1
MILIEU T.PLEIN
  7
TEXTSTYLE_2
100
AcDbText
  0
TEXT
  5
310
330
23C
100
AcDbEntity
  8
0
  6
Continuous
 62
     7
100
AcDbText
 10
144.6683690716
 20
55.66776300149999
 30
0.0
 40
0.6666666667
  1
BAS T.PLEIN
  7
TEXTSTYLE_2
100
AcDbText
  0
TEXT
  5
311
330
23C
100
AcDbEntity
  8
0
  6
Continuous
 62
     7
100
AcDbText
 10
144.6683690716
 20
54.6677630015
 30
0.0
 40
0.6666666667
  1
3" EN BAS T.PLEIN
  7
TEXTSTYLE_2
100
AcDbText
  0
TEXT
  5
312
330
23C
100
AcDbEntity
  8
0
  6
Continuous
 62
     7
100
AcDbText
 10
144.6683690716
 20
53.6677630014
 30
0.0
 40
0.6666666667
  1
 
  7
TEXTSTYLE_2
100
AcDbText
  0
TEXT
  5
313
330
23C
100
AcDbEntity
  8
0
  6
Continuous
 62
     7
100
AcDbText
 10
144.468207566
 20
53.1209760766
 30
0.0
 40
0.5
  1
Legende/Legend
  7
TEXTSTYLE_2
100
AcDbText
  0
TEXT
  5
314
330
23C
100
AcDbEntity
  8
0
  6
Continuous
 62
     7
100
AcDbText
 10
150.9970425101
 20
51.6097110989
 30
0.0
 40
0.6666666667
  1
ZONE DE ROBINETTERIE
  7
TEXTSTYLE_2
100
AcDbText
  0
TEXT
  5
315
330
23C
100
AcDbEntity
  8
0
  6
Continuous
 62
     7
100
AcDbText
 10
145.9173179431
 20
50.1144665845
 30
0.0
 40
0.6666666667
  1
L   :  SYSTEME LED       DC   :  DOUBLE DOSSIER CHAUFFANT
  7
TEXTSTYLE_2
100
AcDbText
  0
TEXT
  5
316
330
23C
100
AcDbEntity
  8
0
  6
Continuous
 62
     7
100
AcDbText
 10
145.9173179431
 20
48.7811332512
 30
0.0
 40
0.6666666667
  1
C   :  CONTROLE
  7
TEXTSTYLE_2
100
AcDbText
  0
TEXT
  5
317
330
23C
100
AcDbEntity
  8
0
  6
Continuous
 62
     7
100
AcDbText
 10
145.9173179431
 20
47.44779991789999
 30
0.0
 40
0.6666666667
  1
T   :  MOTEUR
  7
TEXTSTYLE_2
100
AcDbText
  0
TEXT
  5
318
330
23C
100
AcDbEntity
  8
0
  6
Continuous
 62
     7
100
AcDbText
 10
157.5010657709
 20
58.6677630015
 30
0.0
 40
0.6666666667
  1
87
  7
TEXTSTYLE_2
100
AcDbText
  0
TEXT
  5
319
330
23C
100
AcDbEntity
  8
0
  6
Continuous
 62
     7
100
AcDbText
 10
157.5010657709
 20
57.6677630015
 30
0.0
 40
0.6666666667
  1
68
  7
TEXTSTYLE_2
100
AcDbText
  0
TEXT
  5
31A
330
23C
100
AcDbEntity
  8
0
  6
Continuous
 62
     7
100
AcDbText
 10
157.5010657709
 20
56.6677630015
 30
0.0
 40
0.6666666667
  1
67
  7
TEXTSTYLE_2
100
AcDbText
  0
TEXT
  5
31B
330
23C
100
AcDbEntity
  8
0
  6
Continuous
 62
     7
100
AcDbText
 10
157.5010657709
 20
55.66776300149999
 30
0.0
 40
0.6666666667
  1
66
  7
TEXTSTYLE_2
100
AcDbText
  0
TEXT
  5
31C
330
23C
100
AcDbEntity
  8
0
  6
Continuous
 62
     7
100
AcDbText
 10
157.5010657709
 20
54.6677630015
 30
0.0
 40
0.6666666667
  1
50
  7
TEXTSTYLE_2
100
AcDbText
  0
TEXT
  5
31D
330
23C
100
AcDbEntity
  8
0
  6
Continuous
 62
     7
100
AcDbText
 10
164.4212717146
 20
58.68484240359999
 30
0.0
 40
0.6666666667
  1
331
  7
TEXTSTYLE_2
100
AcDbText
  0
TEXT
  5
31E
330
23C
100
AcDbEntity
  8
0
  6
Continuous
 62
     7
100
AcDbText
 10
164.4212717146
 20
57.68484240359999
 30
0.0
 40
0.6666666667
  1
257
  7
TEXTSTYLE_2
100
AcDbText
  0
TEXT
  5
31F
330
23C
100
AcDbEntity
  8
0
  6
Continuous
 62
     7
100
AcDbText
 10
164.4212717146
 20
56.68484240359999
 30
0.0
 40
0.6666666667
  1
253
  7
TEXTSTYLE_2
100
AcDbText
  0
TEXT
  5
320
330
23C
100
AcDbEntity
  8
0
  6
Continuous
 62
     7
100
AcDbText
 10
164.4212717146
 20
55.6848424036
 30
0.0
 40
0.6666666667
  1
249
  7
TEXTSTYLE_2
100
AcDbText
  0
TEXT
  5
321
330
23C
100
AcDbEntity
  8
0
  6
Continuous
 62
     7
100
AcDbText
 10
164.4212717146
 20
54.68484240359999
 30
0.0
 40
0.6666666667
  1
191
  7
TEXTSTYLE_2
100
AcDbText
  0
TEXT
  5
322
330
23C
100
AcDbEntity
  8
0
  6
Continuous
 62
     7
100
AcDbText
 10
171.3659106521
 20
58.6677630015
 30
0.0
 40
0.6666666667
  1
73
  7
TEXTSTYLE_2
100
AcDbText
  0
TEXT
  5
323
330
23C
100
AcDbEntity
  8
0
  6
Continuous
 62
     7
100
AcDbText
 10
171.3659106521
 20
57.6677630015
 30
0.0
 40
0.6666666667
  1
56
  7
TEXTSTYLE_2
100
AcDbText
  0
TEXT
  5
324
330
23C
100
AcDbEntity
  8
0
  6
Continuous
 62
     7
100
AcDbText
 10
171.3659106521
 20
56.6677630015
 30
0.0
 40
0.6666666667
  1
56
  7
TEXTSTYLE_2
100
AcDbText
  0
TEXT
  5
325
330
23C
100
AcDbEntity
  8
0
  6
Continuous
 62
     7
100
AcDbText
 10
171.3659106521
 20
55.66776300149999
 30
0.0
 40
0.6666666667
  1
55
  7
TEXTSTYLE_2
100
AcDbText
  0
TEXT
  5
326
330
23C
100
AcDbEntity
  8
0
  6
Continuous
 62
     7
100
AcDbText
 10
171.3659106521
 20
54.6677630015
 30
0.0
 40
0.6666666667
  1
42
  7
TEXTSTYLE_2
100
AcDbText
  0
LINE
  5
327
330
23C
100
AcDbEntity
  8
0
  6
Continuous
 62
     7
100
AcDbLine
 10
144.0017024049
 20
64.00109633479999
 30
0.0
 11
144.0017024049
 21
46.6677630015
 31
0.0
  0
LINE
  5
328
330
23C
100
AcDbEntity
  8
0
  6
Continuous
 62
     7
100
AcDbLine
 10
144.0017024049
 20
64.00109633479999
 30
0.0
 11
177.3350357383
 21
64.00109633479999
 31
0.0
  0
LINE
  5
329
330
23C
100
AcDbEntity
  8
0
  6
Continuous
 62
     7
100
AcDbLine
 10
177.3350357383
 20
64.00109633479999
 30
0.0
 11
177.3350357383
 21
46.6677630015
 31
0.0
  0
LINE
  5
32A
330
23C
100
AcDbEntity
  8
0
  6
Continuous
 62
     7
100
AcDbLine
 10
144.0017024049
 20
46.6677630015
 30
0.0
 11
177.3350357383
 21
46.6677630015
 31
0.0
  0
LINE
  5
32B
330
23C
100
AcDbEntity
  8
0
  6
Continuous
 62
     7
100
AcDbLine
 10
145.3350357383
 20
54.00109633479999
 30
0.0
 11
176.0017024049
 21
54.00109633479999
 31
0.0
  0
LINE
  5
32C
330
23C
100
AcDbEntity
  8
0
  6
Continuous
 62
     7
100
AcDbLine
 10
145.3350357383
 20
61.00109633479999
 30
0.0
 11
176.0017024049
 21
61.00109633479999
 31
0.0
  0
LINE
  5
32D
330
23C
100
AcDbEntity
  8
0
  6
Continuous
 62
     7
100
AcDbLine
 10
144.8106089642
 20
52.3792608391
 30
0.0
 11
144.4415882219
 21
52.01024009680001
 31
0.0
  0
LINE
  5
32E
330
23C
100
AcDbEntity
  8
0
  6
Continuous
 62
     7
100
AcDbLine
 10
145.4772756309
 20
52.3792608391
 30
0.0
 11
144.6792598404
 21
51.58124504869999
 31
0.0
  0
LINE
  5
32F
330
23C
100
AcDbEntity
  8
0
  6
Continuous
 62
     7
100
AcDbLine
 10
146.1439422975
 20
52.3792608391
 30
0.0
 11
145.3459265071
 21
51.58124504869999
 31
0.0
  0
LINE
  5
330
330
23C
100
AcDbEntity
  8
0
  6
Continuous
 62
     7
100
AcDbLine
 10
146.8106089642
 20
52.3792608391
 30
0.0
 11
146.0125931738
 21
51.58124504869999
 31
0.0
  0
LINE
  5
331
330
23C
100
AcDbEntity
  8
0
  6
Continuous
 62
     7
100
AcDbLine
 10
147.4772756309
 20
52.3792608391
 30
0.0
 11
146.6792598404
 21
51.58124504869999
 31
0.0
  0
LINE
  5
332
330
23C
100
AcDbEntity
  8
0
  6
Continuous
 62
     7
100
AcDbLine
 10
148.1439422975
 20
52.3792608391
 30
0.0
 11
147.3459265071
 21
51.58124504869999
 31
0.0
  0
LINE
  5
333
330
23C
100
AcDbEntity
  8
0
  6
Continuous
 62
     7
100
AcDbLine
 10
148.8106089642
 20
52.3792608391
 30
0.0
 11
148.0125931737999
 21
51.58124504869999
 31
0.0
  0
LINE
  5
334
330
23C
100
AcDbEntity
  8
0
  6
Continuous
 62
     7
100
AcDbLine
 10
149.4772756309
 20
52.3792608391
 30
0.0
 11
148.6792598404
 21
51.58124504869999
 31
0.0
  0
LINE
  5
335
330
23C
100
AcDbEntity
  8
0
  6
Continuous
 62
     7
100
AcDbLine
 10
150.1439422975
 20
52.3792608391
 30
0.0
 11
149.3459265071
 21
51.58124504869999
 31
0.0
  0
LINE
  5
336
330
23C
100
AcDbEntity
  8
0
  6
Continuous
 62
     7
100
AcDbLine
 10
150.5874297317
 20
52.1560816066
 30
0.0
 11
150.0125931738
 21
51.58124504869999
 31
0.0
  0
ELLIPSE
  5
337
330
23C
100
AcDbEntity
  8
0
  6
Continuous
 62
     7
100
AcDbEllipse
 10
146.1471048871
 20
50.4320440417
 30
0.0
 11
1.0473539356
 21
0.0
 31
0.0
210
0.0
220
0.0
230
1.0
 40
0.4938647983
 41
0.0
 42
6.283185307179586
  0
ELLIPSE
  5
338
330
23C
100
AcDbEntity
  8
0
  6
Continuous
 62
     7
100
AcDbEllipse
 10
146.1471048871
 20
49.0987107084
 30
0.0
 11
1.0473539356
 21
0.0
 31
0.0
210
0.0
220
0.0
230
1.0
 40
0.4938647983
 41
0.0
 42
6.283185307179586
  0
ELLIPSE
  5
339
330
23C
100
AcDbEntity
  8
0
  6
Continuous
 62
     7
100
AcDbEllipse
 10
146.1471048871
 20
47.76537737509999
 30
0.0
 11
1.0473539356
 21
0.0
 31
0.0
210
0.0
220
0.0
230
1.0
 40
0.4938647983
 41
0.0
 42
6.283185307179586
  0
ELLIPSE
  5
33A
330
23C
100
AcDbEntity
  8
0
  6
Continuous
 62
     7
100
AcDbEllipse
 10
157.1657404682
 20
50.4515653988
 30
0.0
 11
1.0473539356
 21
0.0
 31
0.0
210
0.0
220
0.0
230
1.0
 40
0.4938647983
 41
0.0
 42
6.283185307179586
  0
ENDBLK
  5
33B
330
23C
100
AcDbEntity
  8
0
  6
ByBlock
 62
     0
100
AcDbBlockEnd
  0
ENDSEC
  0
SECTION
  2
ENTITIES
  0
LWPOLYLINE
  5
146F
330
22B
100
AcDbEntity
  8
0
  6
Continuous
 62
     7
100
AcDbPolyline
 90
        6
 70
     0
 43
0.0
 10
76.76251047436934
 20
77.4091185507
 10
76.75795002316935
 20
77.2922875246
 10
76.74452853146934
 20
77.1780209982
 10
76.72295250646934
 20
77.06812697609999
 10
76.69390408596933
 20
76.96292880129999
 10
76.65706253446933
 20
76.86024903509999
  0
LINE
  5
1470
330
22B
100
AcDbEntity
  8
0
  6
Continuous
 62
     7
100
AcDbLine
 10
78.37605647246935
 20
72.54117711319999
 30
0.0
 11
78.37605647246935
 21
72.74030692
 31
0.0
  0
LINE
  5
1471
330
22B
100
AcDbEntity
  8
0
  6
Continuous
 62
     7
100
AcDbLine
 10
78.30363579496934
 20
72.91617711319999
 30
0.0
 11
78.30363579496934
 21
103.7911647362
 31
0.0
  0
LINE
  5
1472
330
22B
100
AcDbEntity
  8
0
  6
Continuous
 62
     7
100
AcDbLine
 10
78.17846425176934
 20
72.91617711319999
 30
0.0
 11
78.17846425176934
 21
103.7911498234
 31
0.0
  0
LINE
  5
1473
330
22B
100
AcDbEntity
  8
0
  6
Continuous
 62
     7
100
AcDbLine
 10
76.76251047436934
 20
101.4857356758
 30
0.0
 11
76.76251047436934
 21
77.4091185507
 31
0.0
  0
LWPOLYLINE
  5
1474
330
22B
100
AcDbEntity
  8
0
  6
Continuous
 62
     7
100
AcDbPolyline
 90
       19
 70
     0
 43
0.0
 10
76.03384894336933
 20
101.4472542874
 10
76.03095223616934
 20
101.5136080174
 10
76.02256399096933
 20
101.577706604
 10
76.00873813126934
 20
101.6407275004
 10
75.98961517516933
 20
101.7020858794
 10
75.96534234666933
 20
101.7613878222
 10
75.93610766306934
 20
101.8182178282
 10
75.90212613586934
 20
101.8721874682
 10
75.86364174356933
 20
101.9229265531
 10
75.82092479176933
 20
101.9700867394
 10
75.77427079406934
 20
102.0133421336
 10
75.72400010946933
 20
102.0523898116
 10
75.67045504866934
 20
102.0869525868
 10
75.61400859716934
 20
102.1167750745
 10
75.55501529076933
 20
102.1416475879
 10
75.49402112936933
 20
102.1613302929
 10
75.43005534526933
 20
102.1759485261
 10
75.36336404506933
 20
102.1850455311
 10
75.29512747606934
 20
102.1881365336
  0
LWPOLYLINE
  5
1475
330
22B
100
AcDbEntity
  8
0
  6
Continuous
 62
     7
100
AcDbPolyline
 90
        4
 70
     0
 43
0.0
 10
76.72168310106933
 20
101.8320548616
 10
76.74463435686934
 20
101.7161584818
 10
76.75804417826933
 20
101.6013581708
 10
76.76251047436934
 20
101.4857356758
  0
LWPOLYLINE
  5
1476
330
22B
100
AcDbEntity
  8
0
  6
Continuous
 62
     7
100
AcDbPolyline
 90
       15
 70
     0
 43
0.0
 10
76.65706250146934
 20
76.8602490918
 10
76.62964583826934
 20
76.78499187879999
 10
76.59020877176934
 20
76.69969132899999
 10
76.54040678896933
 20
76.6116801836
 10
76.48238975996934
 20
76.5258999351
 10
76.41565404666933
 20
76.44227620859999
 10
76.34109940176934
 20
76.3626865465
 10
76.25970763766933
 20
76.2885520281
 10
76.17212839396933
 20
76.2206443364
 10
76.07891397166934
 20
76.1595278229
 10
75.98074653796934
 20
76.1057584565
 10
75.87837665296934
 20
76.05981079819999
 10
75.77249764546934
 20
76.02203221349999
 10
75.66387796846933
 20
75.99271901569998
 10
75.55229402576934
 20
75.9719456518
  0
LWPOLYLINE
  5
1477
330
22B
100
AcDbEntity
  8
0
  6
Continuous
 62
     7
100
AcDbPolyline
 90
       10
 70
     0
 43
0.0
 10
76.18056482336934
 20
77.5591572926
 10
76.19111089376933
 20
78.78021980279999
 10
76.18916256356934
 20
79.8730222012
 10
76.17806346936934
 20
80.8457910883
 10
76.16059954816932
 20
81.70923274489998
 10
76.13885837316934
 20
82.47794134939999
 10
76.11438958126933
 20
83.1639593475
 10
76.08831107046933
 20
83.7780664567
 10
76.06134039986933
 20
84.33107667899999
 10
76.03384893626934
 20
84.8338010538
  0
LINE
  5
1478
330
22B
100
AcDbEntity
  8
0
  6
Continuous
 62
     7
100
AcDbLine
 10
76.03384894056934
 20
84.8338010301
 30
0.0
 11
76.03384894336933
 21
101.4472542874
 31
0.0
  0
LINE
  5
1479
330
22B
100
AcDbEntity
  8
DEFAULT_1
  6
CENTER
 62
     7
100
AcDbLine
 10
75.62605647246932
 20
89.44742711319999
 30
0.0
 11
75.62605647246932
 21
87.2557604466
 31
0.0
  0
LINE
  5
147A
330
22B
100
AcDbEntity
  8
DEFAULT_1
  6
CENTER
 62
     7
100
AcDbLine
 10
75.62605647246932
 20
89.44742711319999
 30
0.0
 11
75.62605647246932
 21
91.6390937799
 31
0.0
  0
LWPOLYLINE
  5
147B
330
22B
100
AcDbEntity
  8
0
  6
Continuous
 62
     7
100
AcDbPolyline
 90
       14
 70
     0
 43
0.0
 10
76.03384894056934
 20
84.8338010301
 10
75.79221026676933
 20
86.09454000339999
 10
75.51071678586933
 20
87.3599951891
 10
75.18876699516934
 20
88.63053978209999
 10
74.82568473886934
 20
89.9066173745
 10
74.42072873056933
 20
91.18867719559998
 10
73.97310570886934
 20
92.4771323659
 10
73.48196811786934
 20
93.7723774172
 10
72.94647519416933
 20
95.07464882569999
 10
72.36562053636934
 20
96.384452513
 10
71.73733989586934
 20
97.70428377340001
 10
71.05849222466933
 20
99.03803439729999
 10
70.32868272566934
 20
100.3837160196
 10
69.54821777156934
 20
101.738565607
  0
LWPOLYLINE
  5
147C
330
22B
100
AcDbEntity
  8
0
  6
Continuous
 62
     7
100
AcDbPolyline
 90
       16
 70
     0
 43
0.0
 10
73.60931414416933
 20
83.69130064550001
 10
73.63284631646934
 20
83.5051429023
 10
73.65644069956933
 20
83.31006300869999
 10
73.67991301716934
 20
83.10618980619999
 10
73.70306577326934
 20
82.89373609550001
 10
73.72569412066933
 20
82.67297294989999
 10
73.74757820746933
 20
82.44434289069999
 10
73.76849527746933
 20
82.2084004971
 10
73.78823722886934
 20
81.96565581760001
 10
73.80660880486934
 20
81.7165952516
 10
73.82341718506933
 20
81.46185166749999
 10
73.83848352626933
 20
81.20211621660001
 10
73.85164349296934
 20
80.9382006128
 10
73.86276326886934
 20
80.6707669158
 10
73.87178828016934
 20
80.3984510779
 10
73.87857379276934
 20
80.1219294678
  0
LWPOLYLINE
  5
147D
330
22B
100
AcDbEntity
  8
0
  6
Continuous
 62
     7
100
AcDbPolyline
 90
        8
 70
     0
 43
0.0
 10
72.02128065836934
 20
90.05333110459998
 10
72.35082617806934
 20
89.12953033139999
 10
72.63715975246933
 20
88.2339174434
 10
72.89006383496934
 20
87.34369029899999
 10
73.11136226446933
 20
86.456048202
 10
73.30501976316934
 20
85.5552476665
 10
73.47191586186934
 20
84.63121474700001
 10
73.60931414416933
 20
83.69130064550001
  0
LWPOLYLINE
  5
147E
330
22B
100
AcDbEntity
  8
0
  6
Continuous
 62
     7
100
AcDbPolyline
 90
        5
 70
     0
 43
0.0
 10
69.54821777156934
 20
101.738565607
 10
69.46964678236934
 20
101.8616014942
 10
69.38527041766935
 20
101.9764151593
 10
69.29373858616934
 20
102.0854101999
 10
69.19544928116934
 20
102.1881365785
  0
LWPOLYLINE
  5
147F
330
22B
100
AcDbEntity
  8
0
  6
Continuous
 62
     7
100
AcDbPolyline
 90
       45
 70
     0
 43
0.0
 10
69.52745651246934
 20
89.44742711319999
 10
69.52220753606933
 20
89.3035922237
 10
69.50650306116934
 20
89.1606089343
 10
69.48067152846935
 20
89.02023028059998
 10
69.44517662356934
 20
88.88342928629999
 10
69.39997241496934
 20
88.74942507530001
 10
69.34532581246933
 20
88.61899604879999
 10
69.28147099436933
 20
88.4926913448
 10
69.20866480756934
 20
88.37106249959999
 10
69.12725312136934
 20
88.2547455901
 10
69.03765434956934
 20
88.14438082329999
 10
68.94030706076934
 20
88.0405405411
 10
68.83567492736934
 20
87.94375148729999
 10
68.72428006096933
 20
87.85452845040001
 10
68.60669876106934
 20
87.7733581432
 10
68.48352175066934
 20
87.70066819649999
 10
68.35533437366933
 20
87.6368281374
 10
68.22272606526934
 20
87.58215714299998
 10
68.08630019676934
 20
87.53693580489999
 10
67.94682501286934
 20
87.5014457862
 10
67.80525182246933
 20
87.47596290229999
 10
67.66260602106934
 20
87.4606613063
 10
67.51985642026934
 20
87.4555828857
 10
67.37783749026934
 20
87.4606738099
 10
67.23722934196934
 20
87.47583937779999
 10
67.09863546286934
 20
87.5009470124
 10
66.96253046396932
 20
87.53584282850001
 10
66.82923332886933
 20
87.58037992930001
 10
66.69919950846935
 20
87.6344116775
 10
66.57310708966933
 20
87.6976997733
 10
66.45170676216934
 20
87.7699109499
 10
66.33567697126934
 20
87.85066443049998
 10
66.22563406636934
 20
87.93954375870001
 10
66.12213620596934
 20
88.0361083444
 10
66.02569666216933
 20
88.13989583360001
 10
65.93680428156933
 20
88.25040632069999
 10
65.85592152926934
 20
88.36709529610001
 10
65.78348590646934
 20
88.4893635263
 10
65.71989961676933
 20
88.61655519860001
 10
65.66549546886934
 20
88.7480197234
 10
65.62053291866934
 20
88.8831710308
 10
65.58525246426933
 20
89.0213866768
 10
65.55988840826933
 20
89.16185533149999
 10
65.54460472446933
 20
89.30358798879998
 10
65.53943592736934
 20
89.44742711319999
  0
LWPOLYLINE
  5
1480
330
22B
100
AcDbEntity
  8
0
  6
Continuous
 62
     7
100
AcDbPolyline
 90
       37
 70
     0
 43
0.0
 10
66.95319238616933
 20
98.87430208059999
 10
67.15636247346933
 20
98.61669806709999
 10
67.34255825006934
 20
98.3763199406
 10
67.51685310406934
 20
98.14743038030002
 10
67.68257106186934
 20
97.92619220909999
 10
67.84292255466934
 20
97.7086380112
 10
68.00113395816933
 20
97.4905041182
 10
68.15878735726933
 20
97.26956462629999
 10
68.31208121106934
 20
97.0511780584
 10
68.45524864586933
 20
96.84392488350001
 10
68.58688950426934
 20
96.65043970540001
 10
68.70867990636934
 20
96.46884827940001
 10
68.82260968766934
 20
96.29665222299999
 10
68.93028010476934
 20
96.13179241220001
 10
69.02951405316933
 20
95.97797354639999
 10
69.11915819596933
 20
95.8374332284
 10
69.20383589726933
 20
95.7032625299
 10
69.28828069826934
 20
95.5680570182
 10
69.37270703336934
 20
95.43144548489999
 10
69.45615702056933
 20
95.294968222
 10
69.53906337366934
 20
95.1579204937
 10
69.62367055526934
 20
95.01651909139999
 10
69.71393891756934
 20
94.86388663459999
 10
69.81423424686933
 20
94.6920860015
 10
69.92664634436933
 20
94.49665623280001
 10
70.04921201676933
 20
94.27996608249999
 10
70.17910997776934
 20
94.0460087495
 10
70.31552615486933
 20
93.7952924454
 10
70.45909066556934
 20
93.52556379209998
 10
70.61087718986934
 20
93.23341759839999
 10
70.77228534186933
 20
92.9143350766
 10
70.94515552486933
 20
92.56220287540001
 10
71.13138307446934
 20
92.16974225989998
 10
71.33241667476934
 20
91.7291984484
 10
71.54850730436933
 20
91.23371097219999
 10
71.77873730646934
 20
90.67715085280001
 10
72.02128065836934
 20
90.05333110459998
  0
LWPOLYLINE
  5
1481
330
22B
100
AcDbEntity
  8
0
  6
Continuous
 62
     7
100
AcDbPolyline
 90
       12
 70
     0
 43
0.0
 10
66.81996032126933
 20
99.10899687629999
 10
66.72757910086933
 20
99.2114284248
 10
66.62755180446933
 20
99.3064958243
 10
66.52050059236933
 20
99.39360776450001
 10
66.40709131326935
 20
99.47222241690001
 10
66.28802936216934
 20
99.5418508056
 10
66.16405529326934
 20
99.6020598481
 10
66.03594021366934
 20
99.65247504950001
 10
65.90448098746932
 20
99.6927828315
 10
65.77049527886933
 20
99.72273248299998
 10
65.63481646676933
 20
99.7421377194
 10
65.49828838496932
 20
99.75087784350002
  0
LINE
  5
1482
330
22B
100
AcDbEntity
  8
DEFAULT_1
  6
CENTER
 62
     7
100
AcDbLine
 10
67.55483362916933
 20
89.44742711319999
 30
0.0
 11
67.55483362916933
 21
85.2116916299
 31
0.0
  0
LINE
  5
1483
330
22B
100
AcDbEntity
  8
DEFAULT_1
  6
CENTER
 62
     7
100
AcDbLine
 10
67.55483362916933
 20
89.44742711319999
 30
0.0
 11
67.55483362916933
 21
93.6831625966
 31
0.0
  0
LWPOLYLINE
  5
1484
330
22B
100
AcDbEntity
  8
0
  6
Continuous
 62
     7
100
AcDbPolyline
 90
       15
 70
     0
 43
0.0
 10
21.21008406926934
 20
75.97993528179999
 10
21.09676241206934
 20
76.00434402339999
 10
20.98498894296934
 20
76.0378158874
 10
20.87759364626933
 20
76.0794948579
 10
20.77618763266933
 20
76.1283344145
 10
20.67972365366933
 20
76.1844852778
 10
20.58879606696934
 20
76.2474603813
 10
20.50395110446934
 20
76.31671547109999
 10
20.42576210406934
 20
76.39157684369999
 10
20.35465151346933
 20
76.4713931663
 10
20.29108879246934
 20
76.5553466562
 10
20.23574811646934
 20
76.6421105415
 10
20.18931275176933
 20
76.72989151109999
 10
20.15276251186934
 20
76.8154898823
 10
20.12698271646934
 20
76.8939542571
  0
LWPOLYLINE
  5
1485
330
22B
100
AcDbEntity
  8
0
  6
Continuous
 62
     7
100
AcDbPolyline
 90
       45
 70
     0
 43
0.0
 10
65.53943592736934
 20
89.44742711319999
 10
65.54473119236934
 20
89.59301297320001
 10
65.56055888256934
 20
89.73761726239999
 10
65.58657307346933
 20
89.8794910958
 10
65.62229527716934
 20
90.01765174379999
 10
65.66774441766934
 20
90.15283879829999
 10
65.72262172366933
 20
90.28424050129999
 10
65.78664577346933
 20
90.41126301790001
 10
65.85951387416933
 20
90.5333371626
 10
65.94084742206934
 20
90.6498392691
 10
66.03019662326935
 20
90.7601433193
 10
66.12707942786935
 20
90.86368177629999
 10
66.23099016756933
 20
90.95994498999999
 10
66.34140368926932
 20
91.0484706126
 10
66.45777391696933
 20
91.12883629629999
 10
66.57950921206932
 20
91.2006439542
 10
66.70595960556934
 20
91.2635231744
 10
66.83641319226933
 20
91.31714574959998
 10
66.97011934986933
 20
91.3612325537
 10
67.10639138476934
 20
91.3955858958
 10
67.24474463956934
 20
91.4200846267
 10
67.38474665776934
 20
91.4346639428
 10
67.52593095976934
 20
91.43926301609999
 10
67.66778832016933
 20
91.4338165831
 10
67.80965746356933
 20
91.4182543903
 10
67.95069030406934
 20
91.39256575759999
 10
68.08995811586934
 20
91.35684453489998
 10
68.22647172826933
 20
91.3113019098
 10
68.35922969556934
 20
91.2562509033
 10
68.48747087366934
 20
91.19203517569999
 10
68.61061525546934
 20
91.11898670189999
 10
68.72810944436934
 20
91.0374689274
 10
68.83939199666933
 20
90.9478940147
 10
68.94390355586934
 20
90.85073195360001
 10
69.04110318906933
 20
90.74651099120002
 10
69.13050575286934
 20
90.63578473499999
 10
69.21168633836933
 20
90.5191150793
 10
69.28424821456933
 20
90.39710660110001
 10
69.34782079986934
 20
90.27043117700001
 10
69.40210542626934
 20
90.1397543965
 10
69.44688908336934
 20
90.00564601509999
 10
69.48197833276933
 20
89.86868453680001
 10
69.50717281856933
 20
89.72964770950001
 10
69.52233477646934
 20
89.589510199
 10
69.52745651246934
 20
89.44742711319999
  0
LWPOLYLINE
  5
1486
330
22B
100
AcDbEntity
  8
0
  6
Continuous
 62
     7
100
AcDbPolyline
 90
        3
 70
     0
 43
0.0
 10
19.15437146406933
 20
72.50886491760001
 10
19.07839698226934
 20
72.5122041235
 10
19.00539392486933
 20
72.51540958140001
  0
LWPOLYLINE
  5
1487
330
22B
100
AcDbEntity
  8
0
  6
Continuous
 62
     7
100
AcDbPolyline
 90
        4
 70
     0
 43
0.0
 10
19.53616814146934
 20
72.492091899
 10
19.42688257256934
 20
72.4968871729
 10
19.32579254116933
 20
72.5013283046
 10
19.15437146406933
 20
72.50886491760001
  0
LINE
  5
1488
330
22B
100
AcDbEntity
  8
0
  6
Continuous
 62
     7
100
AcDbLine
 10
19.00539392486933
 20
72.51540958140001
 30
0.0
 11
18.86621681086933
 21
72.5215023382
 31
0.0
  0
LWPOLYLINE
  5
1489
330
22B
100
AcDbEntity
  8
0
  6
Continuous
 62
     7
100
AcDbPolyline
 90
        3
 70
     0
 43
0.0
 10
19.88160798526934
 20
72.4769939512
 10
19.76464755596933
 20
72.4820942922
 10
19.53616814146934
 20
72.492091899
  0
LWPOLYLINE
  5
148A
330
22B
100
AcDbEntity
  8
0
  6
Continuous
 62
     7
100
AcDbPolyline
 90
       10
 70
     0
 43
0.0
 10
18.86621681086933
 20
72.5215023382
 10
18.73725625616933
 20
72.52710401899999
 10
18.67664669946933
 20
72.5297096637
 10
18.61896340766934
 20
72.53216301489999
 10
18.56556281106934
 20
72.53439960129999
 10
18.52005822056934
 20
72.53626499399999
 10
18.48046294246933
 20
72.53783982289999
 10
18.45694309016933
 20
72.5387418152
 10
18.42451062606933
 20
72.5399156512
 10
18.37605647246933
 20
72.54117711319999
  0
LWPOLYLINE
  5
148B
330
22B
100
AcDbEntity
  8
0
  6
Continuous
 62
     7
100
AcDbPolyline
 90
        3
 70
     0
 43
0.0
 10
20.24003161406934
 20
72.4614503856
 10
20.11954466076934
 20
72.46666018399999
 10
19.88160798526934
 20
72.4769939512
  0
LINE
  5
148C
330
22B
100
AcDbEntity
  8
0
  6
Continuous
 62
     7
100
AcDbLine
 10
20.48307372646934
 20
72.45099129819999
 30
0.0
 11
20.24003161406934
 21
72.4614503856
 31
0.0
  0
LWPOLYLINE
  5
148D
330
22B
100
AcDbEntity
  8
0
  6
Continuous
 62
     7
100
AcDbPolyline
 90
       44
 70
     0
 43
0.0
 10
19.91794576866933
 20
72.54114053249999
 10
20.91461930786933
 20
72.5410677463
 10
21.94937455486934
 20
72.5409372318
 10
22.99793950866933
 20
72.54073257359999
 10
24.04186693646933
 20
72.54043854229999
 10
25.07928023616934
 20
72.5400374227
 10
26.11558542196933
 20
72.53950754209999
 10
27.16373883376933
 20
72.5388190466
 10
28.23748586006934
 20
72.5379339622
 10
29.35049991686934
 20
72.53680597589999
 10
30.51491532216934
 20
72.5353832033
 10
31.73722280716933
 20
72.5336192931
 10
33.02085495786933
 20
72.53148139
 10
34.36111218516933
 20
72.52897266720001
 10
35.74419748626934
 20
72.5261508145
 10
37.15142851456934
 20
72.52312630510001
 10
38.55949391916933
 20
72.5200538381
 10
39.96353864276935
 20
72.51706316039999
 10
41.37362090986933
 20
72.5142555309
 10
42.79275031066934
 20
72.51174752229999
 10
44.21979828516934
 20
72.509658319
 10
45.65255799756934
 20
72.5080955959
 10
47.08878686806934
 20
72.5071452134
 10
48.52726365436934
 20
72.5068686325
 10
49.96581249476934
 20
72.5072909485
 10
51.39864550176934
 20
72.5083733977
 10
52.82119577336933
 20
72.5100412259
 10
54.23486611886933
 20
72.5122041314
 10
55.64270531296934
 20
72.51476112659999
 10
57.04866805336934
 20
72.51760609729998
 10
58.45506882956933
 20
72.5206246171
 10
59.86192474846934
 20
72.5236947134
 10
61.26823705636933
 20
72.526696298
 10
62.67218630306934
 20
72.52951980679999
 10
64.07040491016934
 20
72.53207321409999
 10
65.45939340606934
 20
72.53429243640001
 10
66.83946243246933
 20
72.5361505595
 10
68.21358246046933
 20
72.5376506634
 10
69.59054305766933
 20
72.53882064379999
 10
70.97428186626934
 20
72.53969571449999
 10
72.33720387786934
 20
72.54030787859999
 10
73.68684575846933
 20
72.540716532
 10
75.14112028386934
 20
72.5409869313
 10
76.83495548576934
 20
72.5411405727
  0
LINE
  5
148E
330
22B
100
AcDbEntity
  8
0
  6
Continuous
 62
     7
100
AcDbLine
 10
18.84398421216933
 20
72.54117435729999
 30
0.0
 11
19.91794576866933
 21
72.54114053249999
 31
0.0
  0
LINE
  5
148F
330
22B
100
AcDbEntity
  8
0
  6
Continuous
 62
     7
100
AcDbLine
 10
76.83495548576934
 20
72.5411405727
 30
0.0
 11
77.90810690586933
 21
72.5411743571
 31
0.0
  0
LINE
  5
1490
330
22B
100
AcDbEntity
  8
0
  6
Continuous
 62
     7
100
AcDbLine
 10
78.37605647246935
 20
72.54117711319999
 30
0.0
 11
77.90810690586933
 21
72.5411743571
 31
0.0
  0
LINE
  5
1491
330
22B
100
AcDbEntity
  8
0
  6
Continuous
 62
     7
100
AcDbLine
 10
18.84398421216933
 20
72.54117435729999
 30
0.0
 11
18.37605647246933
 21
72.54117711319999
 31
0.0
  0
LINE
  5
1492
330
22B
100
AcDbEntity
  8
0
  6
Continuous
 62
     7
100
AcDbLine
 10
77.90810690586933
 20
72.54117711319999
 30
0.0
 11
76.83495548576934
 21
72.54117711319999
 31
0.0
  0
LWPOLYLINE
  5
1493
330
22B
100
AcDbEntity
  8
0
  6
Continuous
 62
     7
100
AcDbPolyline
 90
      174
 70
     0
 43
0.0
 10
78.37605647246935
 20
72.54117711319999
 10
78.32622224816933
 20
72.5398681004
 10
78.29208839676934
 20
72.53862553659999
 10
78.27121837416934
 20
72.537822992
 10
78.23408241926934
 20
72.5363469328
 10
78.19022899366934
 20
72.5345520379
 10
78.13847937306935
 20
72.5323879828
 10
78.07777871566933
 20
72.5298085831
 10
77.99983246146934
 20
72.5264548303
 10
77.86739694216933
 20
72.5206945463
 10
77.65412381486934
 20
72.51134324479998
 10
77.35657163876934
 20
72.4982635997
 10
76.96346720206934
 20
72.4810467528
 10
76.54714928356934
 20
72.4629650512
 10
76.12063670126933
 20
72.44463886390001
 10
75.68934120426934
 20
72.42632810669999
 10
75.25335403056934
 20
72.40805206640001
 10
74.80742266066933
 20
72.3896064322
 10
74.34562090776933
 20
72.37076978560001
 10
73.87293808316934
 20
72.3517697725
 10
73.39066230146933
 20
72.3326767156
 10
72.89918434606933
 20
72.3135231968
 10
72.39825520686934
 20
72.2943167467
 10
71.88693457036933
 20
72.2750400818
 10
71.36352649936933
 20
72.25565116270001
 10
70.82612773746934
 20
72.2361057386
 10
70.27194445996933
 20
72.2163343152
 10
69.69547726126933
 20
72.1961831096
 10
69.09050699806934
 20
72.17549244189999
 10
68.29191434866934
 20
72.1488998214
 10
67.49075977796934
 20
72.12305106310001
 10
66.76852908606933
 20
72.1004667517
 10
66.07911404096933
 20
72.07954981109999
 10
65.39149417026933
 20
72.0593175841
 10
64.70339493236934
 20
72.0397083062
 10
64.01560930416934
 20
72.0207524449
 10
63.32884102666934
 20
72.00247581540001
 10
62.64371096866934
 20
71.98490007720001
 10
61.96076349166933
 20
71.9680432065
 10
61.28047277436934
 20
71.951919942
 10
60.60324906186933
 20
71.936542203
 10
59.92944480696934
 20
71.9219194775
 10
59.25936067646933
 20
71.90805918079999
 10
58.59325139776934
 20
71.8949669833
 10
57.93133142366933
 20
71.8826471066
 10
57.27378039876933
 20
71.8711025888
 10
56.62074840976933
 20
71.8603355189
 10
55.97236100756934
 20
71.8503472399
 10
55.32872398856934
 20
71.8411385214
 10
54.68992792546933
 20
71.83270970249999
 10
54.05605244076934
 20
71.8250608053
 10
53.42717021346934
 20
71.8181916192
 10
52.80335071556933
 20
71.8121017582
 10
52.18466367246933
 20
71.80679069029999
 10
51.57118224416933
 20
71.8022577415
 10
50.96298592456933
 20
71.798502074
 10
50.36142472226934
 20
71.7955280913
 10
49.77334381146934
 20
71.7933504277
 10
49.20689247156933
 20
71.79195184539999
 10
48.67021177396934
 20
71.7912749969
 10
48.19536050096933
 20
71.79121411199999
 10
47.78687309086933
 20
71.7915681003
 10
47.39456284496934
 20
71.7922559131
 10
47.01518918076933
 20
71.79323969169999
 10
46.64595463446933
 20
71.7944931816
 10
46.28406199986932
 20
71.7960007109
 10
45.92671435226933
 20
71.7977562471
 10
45.57149011696933
 20
71.79976043279999
 10
45.21783688926933
 20
71.80200871609999
 10
44.86571596336933
 20
71.8044945371
 10
44.51508652206933
 20
71.8072116651
 10
44.16590906426933
 20
71.8101541624
 10
43.81814547786933
 20
71.81331636659999
 10
43.47175910886933
 20
71.8166928731
 10
43.12671482596933
 20
71.8202785193
 10
42.78297908146934
 20
71.82406836840001
 10
42.44051996906933
 20
71.8280576943
 10
42.09930727826933
 20
71.8322419676
 10
41.75931254456933
 20
71.8366168406
 10
41.42050909836934
 20
71.84117813510001
 10
41.08287210976934
 20
71.84592182819999
 10
40.74637863096934
 20
71.8508440408
 10
40.41100763656933
 20
71.85594102520001
 10
40.07674006066934
 20
71.8612091534
 10
39.74355883216933
 20
71.8666449063
 10
39.41144890806934
 20
71.87224486239999
 10
39.08039730396934
 20
71.87800568810001
 10
38.75039312296934
 20
71.88392412729999
 10
38.42142758316934
 20
71.8899969915
 10
38.09349404186934
 20
71.896221151
 10
37.76658801966934
 20
71.9025935254
 10
37.44070722176934
 20
71.9091110754
 10
37.11585155816934
 20
71.9157707937
 10
36.79202316176934
 20
71.92256969739999
 10
36.46922640536934
 20
71.9295048198
 10
36.14746791716934
 20
71.93657320319999
 10
35.82675659456934
 20
71.94377189089999
 10
35.50710361676934
 20
71.9510979208
 10
35.18852245586933
 20
71.95854831770001
 10
34.87102888636934
 20
71.9661200875
 10
34.55464099426933
 20
71.97381021019999
 10
34.23937918356934
 20
71.9816156336
 10
33.92526618236933
 20
71.98953326779999
 10
33.61232704776934
 20
71.9975599789
 10
33.30058916876934
 20
72.00569258359999
 10
32.99008226866933
 20
72.0139278437
 10
32.68083840566934
 20
72.0222624611
 10
32.37289197306934
 20
72.03069307220001
 10
32.06627969696933
 20
72.0392162437
 10
31.76104063406933
 20
72.04782846749999
 10
31.45721616746934
 20
72.05652615609999
 10
31.15485000126934
 20
72.0653056389
 10
30.85398815456934
 20
72.07416315729999
 10
30.55467895356934
 20
72.083094861
 10
30.25692577846934
 20
72.09209824220001
 10
29.96106138396934
 20
72.1011606851
 10
29.66792061296934
 20
72.1102534378
 10
29.37836154466933
 20
72.11934579779999
 10
29.09325076276934
 20
72.1284055837
 10
28.81346278626934
 20
72.1373991918
 10
28.53987905056934
 20
72.1462916758
 10
28.27338648746934
 20
72.1550468525
 10
28.01816810416934
 20
72.16351760720001
 10
27.80055842596934
 20
72.1708063998
 10
27.61596365866933
 20
72.1770370963
 10
27.44091360106934
 20
72.1829860351
 10
27.26845245876933
 20
72.188885405
 10
27.09841399716933
 20
72.1947391818
 10
26.93066157456933
 20
72.20055048829999
 10
26.76506127546934
 20
72.2063224963
 10
26.60148163616934
 20
72.2120584289
 10
26.43979341126934
 20
72.2177615617
 10
26.27986937686934
 20
72.2234352243
 10
26.12158416946933
 20
72.22908279959999
 10
25.96481415756934
 20
72.234707724
 10
25.80943734616933
 20
72.2403134858
 10
25.65533330986934
 20
72.2459036237
 10
25.50238324886934
 20
72.25148172049999
 10
25.35059065546934
 20
72.2570469641
 10
25.19997900836934
 20
72.2625978084
 10
25.05048351776934
 20
72.26813597520001
 10
24.90204532606934
 20
72.2736630212
 10
24.75461132446934
 20
72.27918033769999
 10
24.60813398046933
 20
72.2846891514
 10
24.46257117296934
 20
72.2901905243
 10
24.31788603676934
 20
72.2956853541
 10
24.17404681456934
 20
72.3011743743
 10
24.03102671716934
 20
72.3066581544
 10
23.88880379206934
 20
72.31213710029999
 10
23.74736079846934
 20
72.3176114538
 10
23.60668509026934
 20
72.323081293
 10
23.46676850656934
 20
72.3285465318
 10
23.32760726806935
 20
72.33400691989999
 10
23.18920188106934
 20
72.3394620423
 10
23.05155704826933
 20
72.3449113187
 10
22.91468158546934
 20
72.35035400310001
 10
22.77858834496933
 20
72.3557891827
 10
22.64329414556934
 20
72.361215777
 10
22.50881970876934
 20
72.36663253679999
 10
22.37518960066934
 20
72.37203804279999
 10
22.24243218056934
 20
72.37743070409999
 10
22.11057955536933
 20
72.3828087564
 10
21.97986684316935
 20
72.3881620815
 10
21.85079144216934
 20
72.39346959799999
 10
21.72310998696934
 20
72.39874054170001
 10
21.59656241506934
 20
72.4039850011
 10
21.47092372276934
 20
72.40921176739999
 10
21.34600388416934
 20
72.414428305
 10
21.22164781996934
 20
72.4196407202
 10
21.09773540116933
 20
72.42485373
 10
20.97418147686934
 20
72.430070628
 10
20.85093591046933
 20
72.43529325189999
 10
20.72798361106933
 20
72.4405219489
 10
20.48307372646934
 20
72.45099129819999
  0
LWPOLYLINE
  5
1494
330
22B
100
AcDbEntity
  8
0
  6
Continuous
 62
     7
100
AcDbPolyline
 90
        4
 70
     0
 43
0.0
 10
75.55229402576934
 20
75.9719456518
 10
75.47798853356933
 20
75.96258254449999
 10
75.40349689156933
 20
75.95698667
 10
75.32885395846934
 20
75.9551251794
  0
LINE
  5
1495
330
22B
100
AcDbEntity
  8
0
  6
Continuous
 62
     7
100
AcDbLine
 10
76.18056527556934
 20
77.55915747479999
 30
0.0
 11
73.87857380746933
 21
80.1219294514
 31
0.0
  0
LWPOLYLINE
  5
1496
330
22B
100
AcDbEntity
  8
0
  6
Continuous
 62
     7
100
AcDbPolyline
 90
        4
 70
     0
 43
0.0
 10
21.48880207176934
 20
75.9551251794
 10
21.39532370326933
 20
75.95787396209999
 10
21.30239907876934
 20
75.96612811140001
 10
21.21008406926934
 20
75.97993528179999
  0
LWPOLYLINE
  5
1497
330
22B
100
AcDbEntity
  8
0
  6
Continuous
 62
     7
100
AcDbPolyline
 90
       21
 70
     0
 43
0.0
 10
46.88457150476934
 20
101.8846685158
 10
46.88600707306934
 20
101.8838467372
 10
46.89032905996933
 20
101.8818526928
 10
46.89539283326933
 20
101.8799120032
 10
46.90117670896934
 20
101.8780329788
 10
46.90765591986933
 20
101.8762236657
 10
46.91480272076932
 20
101.8744918118
 10
46.92258650806933
 20
101.8728448331
 10
46.93097395046933
 20
101.8712897822
 10
46.93992913146934
 20
101.8698333181
 10
46.94941370376933
 20
101.8684816776
 10
46.95938705286933
 20
101.8672406487
 10
46.96980647146934
 20
101.8661155455
 10
46.98062734216933
 20
101.865111186
 10
46.99180332796934
 20
101.864231871
 10
47.00328657136934
 20
101.8634813658
 10
47.01502789986933
 20
101.8628628843
 10
47.02697703586934
 20
101.8623790748
 10
47.03908281056934
 20
101.8620320091
 10
47.05129338526933
 20
101.8618231735
 10
47.06355647246933
 20
101.8617534621
  0
LWPOLYLINE
  5
1498
330
22B
100
AcDbEntity
  8
0
  6
Continuous
 62
     7
100
AcDbPolyline
 90
       19
 70
     0
 43
0.0
 10
26.04366466966934
 20
79.0499380568
 10
25.96290158586934
 20
79.0576697959
 10
25.88271407406933
 20
79.0723648348
 10
25.80367360096933
 20
79.0939184478
 10
25.72634347846933
 20
79.1221770237
 10
25.65127478236933
 20
79.1569391846
 10
25.57900252826933
 20
79.1979571816
 10
25.51004176876934
 20
79.244938696
 10
25.44488396336934
 20
79.29754890709999
 10
25.38399347076934
 20
79.3554128791
 10
25.32780423836934
 20
79.41811823390001
 10
25.27671670866933
 20
79.4852180906
 10
25.23109496566934
 20
79.5562342501
 10
25.19126414006934
 20
79.6306606045
 10
25.15750809726934
 20
79.7079667304
 10
25.13006739186935
 20
79.78760172859999
 10
25.10913760056934
 20
79.86899802359999
 10
25.09486787546933
 20
79.9515755531
 10
25.08735991366933
 20
80.0347458106
  0
LINE
  5
1499
330
22B
100
AcDbEntity
  8
0
  6
Continuous
 62
     7
100
AcDbLine
 10
75.32885395846934
 20
75.9551251794
 30
0.0
 11
21.48880207176934
 21
75.9551251794
 31
0.0
  0
LWPOLYLINE
  5
149A
330
22B
100
AcDbEntity
  8
0
  6
Continuous
 62
     7
100
AcDbPolyline
 90
       19
 70
     0
 43
0.0
 10
72.89088546256934
 20
79.13712169829999
 10
72.97551423776933
 20
79.1430329572
 10
73.05952100586933
 20
79.1561388901
 10
73.14228834426933
 20
79.1763431725
 10
73.22320790936934
 20
79.2034973005
 10
73.30168500206934
 20
79.23740171209999
 10
73.37714279536934
 20
79.27780720279999
 10
73.44902670576934
 20
79.32441680720001
 10
73.51680840036934
 20
79.37688795390001
 10
73.57998969896934
 20
79.4348349918
 10
73.63810623306934
 20
79.49783202279999
 10
73.69073085876934
 20
79.56541603249999
 10
73.73747679676933
 20
79.6370902937
 10
73.77800047406933
 20
79.7123280145
 10
73.81200405636935
 20
79.7905762288
 10
73.83923761026934
 20
79.8712597917
 10
73.85950099036934
 20
79.9537857387
 10
73.87264525816934
 20
80.03754750069999
 10
73.87857380746933
 20
80.1219294514
  0
LWPOLYLINE
  5
149B
330
22B
100
AcDbEntity
  8
0
  6
Continuous
 62
     7
100
AcDbPolyline
 90
        3
 70
     0
 43
0.0
 10
72.88117390076934
 20
79.1463664099
 10
72.88636919436934
 20
79.14175722680001
 10
72.89088541076934
 20
79.137121756
  0
LINE
  5
149C
330
22B
100
AcDbEntity
  8
DEFAULT_1
  6
CENTER
 62
     7
100
AcDbLine
 10
21.37605647246933
 20
98.6036771132
 30
0.0
 11
23.56772313916933
 21
98.6036771132
 31
0.0
  0
LINE
  5
149D
330
22B
100
AcDbEntity
  8
DEFAULT_1
  6
CENTER
 62
     7
100
AcDbLine
 10
21.37605647246933
 20
98.6036771132
 30
0.0
 11
19.18438980576933
 21
98.6036771132
 31
0.0
  0
LWPOLYLINE
  5
149E
330
22B
100
AcDbEntity
  8
0
  6
Continuous
 62
     7
100
AcDbPolyline
 90
       20
 70
     0
 43
0.0
 10
67.98957605416934
 20
79.14980177380001
 10
68.11945919746932
 20
79.1500468385
 10
68.24930290656934
 20
79.150272555
 10
68.38085168286934
 20
79.15048245979999
 10
68.51840241616933
 20
79.1506823441
 10
68.66764333636933
 20
79.15087663760001
 10
68.83372674846933
 20
79.15106505899998
 10
69.01953293436934
 20
79.15124094800001
 10
69.22474352006934
 20
79.1513920633
 10
69.44673064916933
 20
79.15150437520001
 10
69.68232103346934
 20
79.15156538789999
 10
69.92948725136933
 20
79.15156495779999
 10
70.18959636246933
 20
79.1514930843
 10
70.46806170846934
 20
79.15133461599999
 10
70.77226489666933
 20
79.1510646265
 10
71.10928698106933
 20
79.15064680499999
 10
71.48479009796933
 20
79.1500335409
 10
71.90300054606933
 20
79.14916596399999
 10
72.36726771896933
 20
79.1479729487
 10
72.88117390076934
 20
79.1463664099
  0
LINE
  5
149F
330
22B
100
AcDbEntity
  8
0
  6
Continuous
 62
     7
100
AcDbLine
 10
67.72975412816933
 20
79.14925648489999
 30
0.0
 11
67.98957605416934
 21
79.14980177380001
 31
0.0
  0
LINE
  5
14A0
330
22B
100
AcDbEntity
  8
0
  6
Continuous
 62
     7
100
AcDbLine
 10
34.77930430276934
 20
79.07083167729999
 30
0.0
 11
62.66040294806934
 21
79.1372413441
 31
0.0
  0
LINE
  5
14A1
330
22B
100
AcDbEntity
  8
0
  6
Continuous
 62
     7
100
AcDbLine
 10
26.04366467476935
 20
79.0499380597
 30
0.0
 11
34.77930430276934
 21
79.07083167729999
 31
0.0
  0
LINE
  5
14A2
330
22B
100
AcDbEntity
  8
0
  6
Continuous
 62
     7
100
AcDbLine
 10
62.66040294806934
 20
79.1372413441
 30
0.0
 11
66.76637179006934
 21
79.1469855363
 31
0.0
  0
LWPOLYLINE
  5
14A3
330
22B
100
AcDbEntity
  8
0
  6
Continuous
 62
     7
100
AcDbPolyline
 90
        6
 70
     0
 43
0.0
 10
66.76637179006934
 20
79.1469855363
 10
67.07329222106934
 20
79.14771157779999
 10
67.20880469016933
 20
79.1480333364
 10
67.34011132706934
 20
79.1483472708
 10
67.47015748396933
 20
79.1486576503
 10
67.72975412816933
 20
79.14925648489999
  0
LWPOLYLINE
  5
14A4
330
22B
100
AcDbEntity
  8
0
  6
Continuous
 62
     7
100
AcDbPolyline
 90
       19
 70
     0
 43
0.0
 10
66.81996032126933
 20
99.10899687629999
 10
66.81768798526935
 20
99.105364955
 10
66.81668926986933
 20
99.10044077569999
 10
66.81690978646933
 20
99.0941781523
 10
66.81835194616934
 20
99.08661270320001
 10
66.82101041046934
 20
99.07778078059999
 10
66.82487287396932
 20
99.06772708049999
 10
66.82992021316933
 20
99.0565026083
 10
66.83612630406933
 20
99.04416515059999
 10
66.84345813406934
 20
99.0307788776
 10
66.85187602436933
 20
99.0164139146
 10
66.86133379086934
 20
99.00114609920001
 10
66.87177920056933
 20
98.98505629849999
 10
66.88315319036934
 20
98.968231626
 10
66.89539541776934
 20
98.95075745820001
 10
66.90842068976933
 20
98.9327505429
 10
66.92245562776934
 20
98.91390935770001
 10
66.93745176896934
 20
98.8943263096
 10
66.95319238616933
 20
98.87430208059999
  0
LWPOLYLINE
  5
14A5
330
22B
100
AcDbEntity
  8
0
  6
Continuous
 62
     7
100
AcDbPolyline
 90
        6
 70
     0
 43
0.0
 10
67.64413969326934
 20
102.3250573737
 10
67.27158048036933
 20
101.8829683374
 10
66.87367449236933
 20
101.4088125633
 10
66.44521781946933
 20
100.8957158833
 10
65.98619543606933
 20
100.3427657994
 10
65.49828846116934
 20
99.75087784160001
  0
LWPOLYLINE
  5
14A6
330
22B
100
AcDbEntity
  8
0
  6
Continuous
 62
     7
100
AcDbPolyline
 90
       31
 70
     0
 43
0.0
 10
50.37605647246934
 20
101.9337048055
 10
50.37590142736934
 20
101.9357271952
 10
50.37466172556934
 20
101.9397662419
 10
50.37218583606934
 20
101.9437881068
 10
50.36848077696934
 20
101.9477813895
 10
50.36355705076933
 20
101.9517347707
 10
50.35742861426934
 20
101.9556370439
 10
50.35011283916933
 20
101.9594771478
 10
50.34163046276933
 20
101.9632441971
 10
50.33200552946933
 20
101.9669275139
 10
50.32126532196933
 20
101.9705166573
 10
50.30944028466933
 20
101.9740014535
 10
50.29656393696933
 20
101.9773720245
 10
50.28267277816934
 20
101.980618816
 10
50.26780618426934
 20
101.9837326247
 10
50.25200629636934
 20
101.986704624
 10
50.23531790086933
 20
101.9895263896
 10
50.21778830286933
 20
101.9921899229
 10
50.19946719186934
 20
101.9946876737
 10
50.18040650106934
 20
101.997012562
 10
50.16066026016933
 20
101.9991579976
 10
50.14028444186934
 20
102.001117899
 10
50.11933680376934
 20
102.0028867106
 10
50.09787672416933
 20
102.0044594186
 10
50.07596503396934
 20
102.005831565
 10
50.05366384436934
 20
102.0069992602
 10
50.03103637026934
 20
102.0079591944
 10
50.00814675196934
 20
102.0087086464
 10
49.98505987246933
 20
102.0092454919
 10
49.96184117396934
 20
102.0095682091
 10
49.93855647246934
 20
102.0096758832
  0
LWPOLYLINE
  5
14A7
330
22B
100
AcDbEntity
  8
0
  6
Continuous
 62
     7
100
AcDbPolyline
 90
       31
 70
     0
 43
0.0
 10
50.37605647246934
 20
101.9570939896
 10
50.37545689396934
 20
101.9610700086
 10
50.37365980166933
 20
101.9650351296
 10
50.37067012146934
 20
101.9689784845
 10
50.36649604776934
 20
101.9728892648
 10
50.36114902146934
 20
101.9767567514
 10
50.35464369836933
 20
101.9805703437
 10
50.34699790906933
 20
101.984319589
 10
50.33823261016934
 20
101.9879942107
 10
50.32837182676933
 20
101.9915841372
 10
50.31744258666933
 20
101.9950795285
 10
50.30547484596933
 20
101.9984708041
 10
50.29250140746933
 20
102.0017486687
 10
50.27855783056934
 20
102.004904138
 10
50.26368233366933
 20
102.0079285629
 10
50.24791568926933
 20
102.0108136539
 10
50.23130111276934
 20
102.0135515029
 10
50.21388414356934
 20
102.0161346059
 10
50.19571252036933
 20
102.0185558826
 10
50.17683605026935
 20
102.0208086965
 10
50.15730647246933
 20
102.0228868729
 10
50.13717731606934
 20
102.0247847155
 10
50.11650375386934
 20
102.0264970226
 10
50.09534245036934
 20
102.0280191008
 10
50.07375140746933
 20
102.0293467781
 10
50.05178980466934
 20
102.0304764157
 10
50.02951783716934
 20
102.031404917
 10
50.00699655096934
 20
102.0321297373
 10
49.98428767516934
 20
102.0326488898
 10
49.96145345336934
 20
102.0329609516
 10
49.93855647246934
 20
102.0330650674
  0
LINE
  5
14A8
330
22B
100
AcDbEntity
  8
0
  6
Continuous
 62
     7
100
AcDbLine
 10
50.37605647246934
 20
101.9337048055
 30
0.0
 11
50.37605647246934
 21
101.9570939896
 31
0.0
  0
LINE
  5
14A9
330
22B
100
AcDbEntity
  8
0
  6
Continuous
 62
     7
100
AcDbLine
 10
49.93855647246934
 20
102.0330650674
 30
0.0
 11
49.93855647246934
 21
101.9285839681
 31
0.0
  0
LINE
  5
14AA
330
22B
100
AcDbEntity
  8
0
  6
Continuous
 62
     7
100
AcDbLine
 10
49.93855647246934
 20
101.7998891002
 30
0.0
 11
49.93855647246934
 21
101.8009525575
 31
0.0
  0
LINE
  5
14AB
330
22B
100
AcDbEntity
  8
0
  6
Continuous
 62
     7
100
AcDbLine
 10
49.68855647246933
 20
101.8269997841
 30
0.0
 11
49.68855647246933
 21
101.9025367414
 31
0.0
  0
LINE
  5
14AC
330
22B
100
AcDbEntity
  8
0
  6
Continuous
 62
     7
100
AcDbLine
 10
47.06355647246933
 20
101.8269997841
 30
0.0
 11
47.06355647246933
 21
101.9025367414
 31
0.0
  0
LINE
  5
14AD
330
22B
100
AcDbEntity
  8
0
  6
Continuous
 62
     7
100
AcDbLine
 10
46.81355647246934
 20
102.0330650674
 30
0.0
 11
46.81355647246934
 21
101.9285839681
 31
0.0
  0
LINE
  5
14AE
330
22B
100
AcDbEntity
  8
0
  6
Continuous
 62
     7
100
AcDbLine
 10
46.81355647246934
 20
101.7998891002
 30
0.0
 11
46.81355647246934
 21
101.8009525575
 31
0.0
  0
LINE
  5
14AF
330
22B
100
AcDbEntity
  8
0
  6
Continuous
 62
     7
100
AcDbLine
 10
46.37605647246934
 20
101.9570939896
 30
0.0
 11
46.37605647246934
 21
101.9337048055
 31
0.0
  0
LINE
  5
14B0
330
22B
100
AcDbEntity
  8
DEFAULT_1
  6
CENTER
 62
     7
100
AcDbLine
 10
75.62605647246932
 20
89.44742711319999
 30
0.0
 11
77.81772313916935
 21
89.44742711319999
 31
0.0
  0
LINE
  5
14B1
330
22B
100
AcDbEntity
  8
DEFAULT_1
  6
CENTER
 62
     7
100
AcDbLine
 10
67.55483362916933
 20
89.44742711319999
 30
0.0
 11
69.35562577426934
 21
89.44742711319999
 31
0.0
  0
LINE
  5
14B2
330
22B
100
AcDbEntity
  8
DEFAULT_1
  6
CENTER
 62
     7
100
AcDbLine
 10
70.46536980816933
 20
89.44742711319999
 30
0.0
 11
75.62605647246932
 21
89.44742711319999
 31
0.0
  0
LINE
  5
14B3
330
22B
100
AcDbEntity
  8
DEFAULT_1
  6
CENTER
 62
     7
100
AcDbLine
 10
77.81772313916935
 20
89.44742711319999
 30
0.0
 11
79.67829873526934
 21
89.44742711319999
 31
0.0
  0
LINE
  5
14B4
330
22B
100
AcDbEntity
  8
0
  6
Continuous
 62
     7
100
AcDbLine
 10
70.46536980816933
 20
89.44742711319999
 30
0.0
 11
69.35562577426934
 21
89.44742711319999
 31
0.0
  0
LINE
  5
14B5
330
22B
100
AcDbEntity
  8
DEFAULT_1
  6
CENTER
 62
     7
100
AcDbLine
 10
67.55483362916933
 20
89.44742711319999
 30
0.0
 11
65.71100926626934
 21
89.44742711319999
 31
0.0
  0
LINE
  5
14B6
330
22B
100
AcDbEntity
  8
DEFAULT_1
  6
CENTER
 62
     7
100
AcDbLine
 10
52.44412149776934
 20
89.44742711319999
 30
0.0
 11
17.61672643196932
 21
89.44742711319999
 31
0.0
  0
LINE
  5
14B7
330
22B
100
AcDbEntity
  8
0
  6
Continuous
 62
     7
100
AcDbLine
 10
65.71100926626934
 20
89.44742711319999
 30
0.0
 11
52.44412149776934
 21
89.44742711319999
 31
0.0
  0
LWPOLYLINE
  5
14B8
330
22B
100
AcDbEntity
  8
0
  6
Continuous
 62
     7
100
AcDbPolyline
 90
       31
 70
     0
 43
0.0
 10
46.37605647246934
 20
101.9570939896
 10
46.37665605106934
 20
101.9610700086
 10
46.37845314326933
 20
101.9650351296
 10
46.38144282346933
 20
101.9689784845
 10
46.38561689716933
 20
101.9728892648
 10
46.39096392346933
 20
101.9767567514
 10
46.39746924656932
 20
101.9805703437
 10
46.40511503586933
 20
101.984319589
 10
46.41388033476934
 20
101.9879942107
 10
46.42374111816933
 20
101.9915841372
 10
46.43467035836933
 20
101.9950795285
 10
46.44663809896933
 20
101.9984708041
 10
46.45961153746934
 20
102.0017486687
 10
46.47355511436933
 20
102.004904138
 10
46.48843061136934
 20
102.0079285629
 10
46.50419725566933
 20
102.0108136539
 10
46.52081183216933
 20
102.0135515029
 10
46.53822880136933
 20
102.0161346059
 10
46.55640042456933
 20
102.0185558826
 10
46.57527689466934
 20
102.0208086965
 10
46.59480647246933
 20
102.0228868729
 10
46.61493562886934
 20
102.0247847155
 10
46.63560919116933
 20
102.0264970226
 10
46.65677049456934
 20
102.0280191008
 10
46.67836153746933
 20
102.0293467781
 10
46.70032314026934
 20
102.0304764157
 10
46.72259510776934
 20
102.031404917
 10
46.74511639406933
 20
102.0321297373
 10
46.76782526976934
 20
102.0326488898
 10
46.79065949166933
 20
102.0329609516
 10
46.81355647246934
 20
102.0330650674
  0
LWPOLYLINE
  5
14B9
330
22B
100
AcDbEntity
  8
0
  6
Continuous
 62
     7
100
AcDbPolyline
 90
        4
 70
     0
 43
0.0
 10
25.12702166126934
 20
98.82825021770001
 10
25.11394457296933
 20
98.84078128459998
 10
25.10072040176934
 20
98.8514033458
 10
25.08735987846935
 20
98.86010843610002
  0
LWPOLYLINE
  5
14BA
330
22B
100
AcDbEntity
  8
0
  6
Continuous
 62
     7
100
AcDbPolyline
 90
        4
 70
     0
 43
0.0
 10
25.12701486506934
 20
80.0665974039
 10
25.11394381966933
 20
80.05407227860001
 10
25.10072004806934
 20
80.0434506236
 10
25.08735988106935
 20
80.0347457918
  0
LINE
  5
14BB
330
22B
100
AcDbEntity
  8
0
  6
Continuous
 62
     7
100
AcDbLine
 10
26.04366469616933
 20
99.84491615440001
 30
0.0
 11
35.44353934976934
 21
99.8224355017
 31
0.0
  0
LINE
  5
14BC
330
22B
100
AcDbEntity
  8
0
  6
Continuous
 62
     7
100
AcDbLine
 10
35.44353934976934
 20
99.8224355017
 30
0.0
 11
44.16870891596934
 21
99.8016105225
 31
0.0
  0
LWPOLYLINE
  5
14BD
330
22B
100
AcDbEntity
  8
0
  6
Continuous
 62
     7
100
AcDbPolyline
 90
        3
 70
     0
 43
0.0
 10
44.16870891596934
 20
99.8016105225
 10
49.31667397586934
 20
99.7893428599
 10
65.49828846116934
 20
99.75087784160001
  0
LWPOLYLINE
  5
14BE
330
22B
100
AcDbEntity
  8
0
  6
Continuous
 62
     7
100
AcDbPolyline
 90
        6
 70
     0
 43
0.0
 10
50.04028486196933
 20
101.9260903127
 10
50.02032384156933
 20
101.9269843347
 10
50.00010517286933
 20
101.9276826074
 10
49.97969390426934
 20
101.9281828944
 10
49.95915144576933
 20
101.9284836806
 10
49.93855647246934
 20
101.9285839681
  0
LWPOLYLINE
  5
14BF
330
22B
100
AcDbEntity
  8
0
  6
Continuous
 62
     7
100
AcDbPolyline
 90
        4
 70
     0
 43
0.0
 10
75.33163520736934
 20
102.9207154942
 10
75.44643349136933
 20
102.9162669576
 10
75.55845490576934
 20
102.9032201135
 10
75.66575225946934
 20
102.8823749189
  0
LWPOLYLINE
  5
14C0
330
22B
100
AcDbEntity
  8
0
  6
Continuous
 62
     7
100
AcDbPolyline
 90
       25
 70
     0
 43
0.0
 10
49.68855647246933
 20
101.902080974
 10
49.70170575766934
 20
101.9020101891
 10
49.71479728026935
 20
101.9017982435
 10
49.72777307456933
 20
101.9014463813
 10
49.74057541806934
 20
101.9009567023
 10
49.75314694586933
 20
101.9003321927
 10
49.76543075486933
 20
101.899576774
 10
49.77737049736933
 20
101.8986953718
 10
49.78891046066934
 20
101.8976940149
 10
49.79999563846934
 20
101.8965799716
 10
49.81057179956933
 20
101.8953619379
 10
49.82058557446933
 20
101.8940502929
 10
49.82998469966934
 20
101.892657426
 10
49.83871853336934
 20
101.8911981324
 10
49.84673740046933
 20
101.8896903767
 10
49.85399469526934
 20
101.8881558081
 10
49.86044811946933
 20
101.8866205699
 10
49.86606271696933
 20
101.8851158695
 10
49.87081506216934
 20
101.883678157
 10
49.87469595456933
 20
101.8823494518
 10
49.87772076336933
 20
101.8811741874
 10
49.87993003966934
 20
101.8801973327
 10
49.88139338046933
 20
101.8794592105
 10
49.88220293746934
 20
101.8789927224
 10
49.88233199306933
 20
101.8789108275
  0
LWPOLYLINE
  5
14C1
330
22B
100
AcDbEntity
  8
0
  6
Continuous
 62
     7
100
AcDbPolyline
 90
       35
 70
     0
 43
0.0
 10
46.81355647246934
 20
101.7998891002
 10
46.79192864546933
 20
101.799996158
 10
46.77035788836933
 20
101.8003172127
 10
46.74890004816933
 20
101.8008519455
 10
46.72761013466933
 20
101.8015998859
 10
46.70654223316934
 20
101.8025604656
 10
46.68574861246933
 20
101.8037331351
 10
46.66527851176933
 20
101.8051175757
 10
46.64517845976933
 20
101.8067138909
 10
46.62549108696933
 20
101.8085229665
 10
46.60625486116933
 20
101.8105468865
 10
46.58750103266934
 20
101.812789836
 10
46.56925142416933
 20
101.8152593475
 10
46.55151650516933
 20
101.8179680753
 10
46.53428955986933
 20
101.8209371195
 10
46.51753787536933
 20
101.8242018703
 10
46.50118702386933
 20
101.827823196
 10
46.48509163836933
 20
101.8319105273
 10
46.46898389246933
 20
101.8366723382
 10
46.45381324846933
 20
101.8419844091
 10
46.44125076206933
 20
101.8472224681
 10
46.43069474636933
 20
101.8524381678
 10
46.42173306496933
 20
101.8576616448
 10
46.41404099656933
 20
101.8629273745
 10
46.40727772856934
 20
101.8683522058
 10
46.40131268256933
 20
101.8739603844
 10
46.39610432806934
 20
101.8797105462
 10
46.39153572706933
 20
101.8856623106
 10
46.38755839796933
 20
101.891839337
 10
46.38416553436933
 20
101.8982262352
 10
46.38129183126934
 20
101.9049748486
 10
46.37905605296934
 20
101.9118266463
 10
46.37739613286933
 20
101.9190184231
 10
46.37639778996933
 20
101.9262719024
 10
46.37605647246934
 20
101.9337048055
  0
LINE
  5
14C2
330
22B
100
AcDbEntity
  8
0
  6
Continuous
 62
     7
100
AcDbLine
 10
46.81355647246934
 20
101.7998891002
 30
0.0
 11
49.93855647246934
 21
101.7998891002
 31
0.0
  0
LINE
  5
14C3
330
22B
100
AcDbEntity
  8
0
  6
Continuous
 62
     7
100
AcDbLine
 10
46.81355647246934
 20
101.8009525575
 30
0.0
 11
49.93855647246934
 21
101.8009525575
 31
0.0
  0
LINE
  5
14C4
330
22B
100
AcDbEntity
  8
0
  6
Continuous
 62
     7
100
AcDbLine
 10
47.06355647246933
 20
101.8269997841
 30
0.0
 11
49.68855647246933
 21
101.8269997841
 31
0.0
  0
LINE
  5
14C5
330
22B
100
AcDbEntity
  8
0
  6
Continuous
 62
     7
100
AcDbLine
 10
47.06355647246933
 20
101.8617534621
 30
0.0
 11
49.68855647246933
 21
101.8617534621
 31
0.0
  0
LINE
  5
14C6
330
22B
100
AcDbEntity
  8
0
  6
Continuous
 62
     7
100
AcDbLine
 10
49.68855647246933
 20
101.902080974
 30
0.0
 11
47.06355647246933
 21
101.902080974
 31
0.0
  0
LINE
  5
14C7
330
22B
100
AcDbEntity
  8
0
  6
Continuous
 62
     7
100
AcDbLine
 10
49.68855647246933
 20
101.9025367414
 30
0.0
 11
47.06355647246933
 21
101.9025367414
 31
0.0
  0
LINE
  5
14C8
330
22B
100
AcDbEntity
  8
0
  6
Continuous
 62
     7
100
AcDbLine
 10
49.93855647246934
 20
101.9285839681
 30
0.0
 11
46.81355647246934
 21
101.9285839681
 31
0.0
  0
LINE
  5
14C9
330
22B
100
AcDbEntity
  8
0
  6
Continuous
 62
     7
100
AcDbLine
 10
49.93855647246934
 20
102.0096758832
 30
0.0
 11
46.81355647246934
 21
102.0096758832
 31
0.0
  0
LINE
  5
14CA
330
22B
100
AcDbEntity
  8
0
  6
Continuous
 62
     7
100
AcDbLine
 10
49.93855647246934
 20
102.0330650674
 30
0.0
 11
46.81355647246934
 21
102.0330650674
 31
0.0
  0
LINE
  5
14CB
330
22B
100
AcDbEntity
  8
0
  6
Continuous
 62
     7
100
AcDbLine
 10
75.29512747606934
 20
102.1881365336
 30
0.0
 11
69.19544928116934
 21
102.1881365785
 31
0.0
  0
LINE
  5
14CC
330
22B
100
AcDbEntity
  8
0
  6
Continuous
 62
     7
100
AcDbLine
 10
21.48343340616934
 20
102.9207154942
 30
0.0
 11
75.33163520736934
 21
102.9207154942
 31
0.0
  0
LWPOLYLINE
  5
14CD
330
22B
100
AcDbEntity
  8
0
  6
Continuous
 62
     7
100
AcDbPolyline
 90
       31
 70
     0
 43
0.0
 10
46.81355647246934
 20
102.0096758832
 10
46.79027177096934
 20
102.0095682091
 10
46.76705307256933
 20
102.0092454919
 10
46.74396619296934
 20
102.0087086464
 10
46.72107657466933
 20
102.0079591944
 10
46.69844910066934
 20
102.0069992602
 10
46.67614791096934
 20
102.005831565
 10
46.65423622076933
 20
102.0044594186
 10
46.63277614116933
 20
102.0028867106
 10
46.61182850306934
 20
102.001117899
 10
46.59145268486933
 20
101.9991579976
 10
46.57170644386933
 20
101.997012562
 10
46.55264575316934
 20
101.9946876737
 10
46.53432464216933
 20
101.9921899229
 10
46.51679504406933
 20
101.9895263896
 10
46.50010664856934
 20
101.986704624
 10
46.48430676066934
 20
101.9837326247
 10
46.46944016676934
 20
101.980618816
 10
46.45554900806934
 20
101.9773720245
 10
46.44267266026933
 20
101.9740014535
 10
46.43084762296934
 20
101.9705166573
 10
46.42010741556934
 20
101.9669275139
 10
46.41048248216933
 20
101.9632441971
 10
46.40200010576933
 20
101.9594771478
 10
46.39468433066934
 20
101.9556370439
 10
46.38855589416933
 20
101.9517347707
 10
46.38363216796934
 20
101.9477813895
 10
46.37992710886933
 20
101.9437881068
 10
46.37745121936934
 20
101.9397662419
 10
46.37621151756934
 20
101.9357271952
 10
46.37605647246934
 20
101.9337048055
  0
LWPOLYLINE
  5
14CE
330
22B
100
AcDbEntity
  8
0
  6
Continuous
 62
     7
100
AcDbPolyline
 90
       52
 70
     0
 43
0.0
 10
49.93855647246934
 20
101.8009525575
 10
49.95915144136933
 20
101.8010528449
 10
49.97969390086933
 20
101.8013536311
 10
50.00010516996933
 20
101.8018539181
 10
50.02032383826933
 20
101.8025521907
 10
50.04028485906933
 20
101.8034462127
 10
50.05992591636934
 20
101.8045331895
 10
50.07918504636934
 20
101.8058096931
 10
50.09800170206933
 20
101.8072717099
 10
50.11631666166934
 20
101.8089146388
 10
50.13407230166933
 20
101.8107333107
 10
50.15121275296934
 20
101.8127220028
 10
50.16768408366933
 20
101.814874458
 10
50.18343446676933
 20
101.8171839035
 10
50.19841434386933
 20
101.8196430727
 10
50.21257658096934
 20
101.8222442278
 10
50.22587661666933
 20
101.8249791843
 10
50.23827260276934
 20
101.8278393367
 10
50.24972553516934
 20
101.8308156856
 10
50.26019937746934
 20
101.8338988659
 10
50.26966117386933
 20
101.8370791765
 10
50.27808115296934
 20
101.8403466104
 10
50.28543282116933
 20
101.8436908868
 10
50.29169304676933
 20
101.847101483
 10
50.29684213186934
 20
101.8505676675
 10
50.30086387506933
 20
101.854078534
 10
50.30374562186934
 20
101.8576230356
 10
50.30547830496933
 20
101.8611900196
 10
50.30605647246933
 20
101.8647682625
 10
50.30547830516933
 20
101.8683465054
 10
50.30374562226934
 20
101.8719134894
 10
50.30086387556934
 20
101.875457991
 10
50.29684213266934
 20
101.8789688576
 10
50.29169304766934
 20
101.8824350421
 10
50.28543282226934
 20
101.8858456382
 10
50.27808115416934
 20
101.8891899146
 10
50.26966117526934
 20
101.8924573486
 10
50.26019937906934
 20
101.8956376591
 10
50.24972553686934
 20
101.8987208395
 10
50.23827260456933
 20
101.9016971884
 10
50.22587661866933
 20
101.9045573408
 10
50.21257658306933
 20
101.9072922974
 10
50.19841434606934
 20
101.9098934525
 10
50.18343446906933
 20
101.9123526217
 10
50.16768408616933
 20
101.9146620672
 10
50.15121275556934
 20
101.9168145224
 10
50.13407230436934
 20
101.9188032146
 10
50.11631666446933
 20
101.9206218864
 10
50.09800170496934
 20
101.9222648154
 10
50.07918504926934
 20
101.9237268323
 10
50.05992591946933
 20
101.9250033359
 10
50.04028486196933
 20
101.9260903127
  0
LWPOLYLINE
  5
14CF
330
22B
100
AcDbEntity
  8
0
  6
Continuous
 62
     7
100
AcDbPolyline
 90
        5
 70
     0
 43
0.0
 10
46.81355647246934
 20
101.9285839681
 10
46.79296149916933
 20
101.9284836806
 10
46.77241904076933
 20
101.9281828944
 10
46.75200777206933
 20
101.9276826074
 10
46.73178910336933
 20
101.9269843347
  0
LWPOLYLINE
  5
14D0
330
22B
100
AcDbEntity
  8
0
  6
Continuous
 62
     7
100
AcDbPolyline
 90
       35
 70
     0
 43
0.0
 10
49.93855647246934
 20
101.7998891002
 10
49.96018429946933
 20
101.799996158
 10
49.98175505656933
 20
101.8003172127
 10
50.00321289676933
 20
101.8008519455
 10
50.02450281026934
 20
101.8015998859
 10
50.04557071176933
 20
101.8025604656
 10
50.06636433246933
 20
101.8037331351
 10
50.08683443316934
 20
101.8051175757
 10
50.10693448526934
 20
101.8067138909
 10
50.12662185796934
 20
101.8085229665
 10
50.14585808386933
 20
101.8105468865
 10
50.16461191226934
 20
101.812789836
 10
50.18286152086933
 20
101.8152593475
 10
50.20059643986932
 20
101.8179680753
 10
50.21782338506934
 20
101.8209371195
 10
50.23457506956933
 20
101.8242018703
 10
50.25092592106934
 20
101.827823196
 10
50.26702130666933
 20
101.8319105273
 10
50.28312905256933
 20
101.8366723382
 10
50.29829969646934
 20
101.8419844091
 10
50.31086218286933
 20
101.8472224681
 10
50.32141819856934
 20
101.8524381678
 10
50.33037987996934
 20
101.8576616448
 10
50.33807194836933
 20
101.8629273745
 10
50.34483521636934
 20
101.8683522058
 10
50.35080026236933
 20
101.8739603844
 10
50.35600861686933
 20
101.8797105462
 10
50.36057721786933
 20
101.8856623106
 10
50.36455454696933
 20
101.891839337
 10
50.36794741056933
 20
101.8982262352
 10
50.37082111366934
 20
101.9049748486
 10
50.37305689196934
 20
101.9118266463
 10
50.37471681206934
 20
101.9190184231
 10
50.37571515496933
 20
101.9262719024
 10
50.37605647246934
 20
101.9337048055
  0
LWPOLYLINE
  5
14D1
330
22B
100
AcDbEntity
  8
0
  6
Continuous
 62
     7
100
AcDbPolyline
 90
       51
 70
     0
 43
0.0
 10
49.68855647246933
 20
101.8269997841
 10
49.70220301016934
 20
101.827074198
 10
49.71580735236933
 20
101.8272974003
 10
49.72930267606933
 20
101.8276684619
 10
49.74263797756933
 20
101.8281859694
 10
49.75575963886933
 20
101.828847852
 10
49.76861611476934
 20
101.8296515074
 10
49.78115660116934
 20
101.8305937605
 10
49.79333161446933
 20
101.831670893
 10
49.80509310206933
 20
101.8328786536
 10
49.81639464546933
 20
101.8342122758
 10
49.82719163916933
 20
101.8356664961
 10
49.83744146916933
 20
101.8372355747
 10
49.84710368186934
 20
101.8389133189
 10
49.85614014266934
 20
101.8406931071
 10
49.86451518656934
 20
101.8425679148
 10
49.87219575906934
 20
101.8445303425
 10
49.87915154656933
 20
101.846572645
 10
49.88535509606934
 20
101.8486867616
 10
49.89078192346934
 20
101.8508643485
 10
49.89541061026934
 20
101.8530968112
 10
49.89922288796933
 20
101.8553753386
 10
49.90220371036933
 20
101.8576909379
 10
49.90434131276934
 20
101.8600344699
 10
49.90562725866933
 20
101.8623966851
 10
49.90605647246933
 20
101.8647682604
 10
49.90562726036934
 20
101.8671398358
 10
49.90434131616933
 20
101.8695020511
 10
49.90220371536933
 20
101.8718455831
 10
49.89922289466933
 20
101.8741611824
 10
49.89541061856934
 20
101.8764397099
 10
49.89078193336933
 20
101.8786721727
 10
49.88535510746934
 20
101.8808497597
 10
49.87915155956933
 20
101.8829638765
 10
49.87219577356934
 20
101.8850061791
 10
49.86451520246934
 20
101.886968607
 10
49.85614015986933
 20
101.8888434148
 10
49.84710370026935
 20
101.8906232032
 10
49.83744148886934
 20
101.8923009477
 10
49.82719165986933
 20
101.8938700265
 10
49.81639466726933
 20
101.895324247
 10
49.80509312486933
 20
101.8966578694
 10
49.79333163816934
 20
101.8978656303
 10
49.78115662546933
 20
101.8989427631
 10
49.76861614006933
 20
101.8998850164
 10
49.75575966366933
 20
101.9006886721
 10
49.74263800556934
 20
101.9013505549
 10
49.72930269966933
 20
101.9018680628
 10
49.71580738136934
 20
101.9022391246
 10
49.70220304696933
 20
101.9024623271
 10
49.68855647246933
 20
101.9025367414
  0
LWPOLYLINE
  5
14D2
330
22B
100
AcDbEntity
  8
0
  6
Continuous
 62
     7
100
AcDbPolyline
 90
       25
 70
     0
 43
0.0
 10
47.06355647246933
 20
101.902080974
 10
47.05040718726933
 20
101.9020101891
 10
47.03731566466934
 20
101.9017982435
 10
47.02433987036933
 20
101.9014463813
 10
47.01153752686933
 20
101.9009567023
 10
46.99896599916933
 20
101.9003321927
 10
46.98668219006933
 20
101.899576774
 10
46.97474244766933
 20
101.8986953718
 10
46.96320248426934
 20
101.8976940149
 10
46.95211730646934
 20
101.8965799716
 10
46.94154114546933
 20
101.8953619379
 10
46.93152737056934
 20
101.8940502929
 10
46.92212824526934
 20
101.892657426
 10
46.91339441156933
 20
101.8911981324
 10
46.90537554446932
 20
101.8896903767
 10
46.89811824966933
 20
101.8881558081
 10
46.89166482546933
 20
101.8866205699
 10
46.88605022806934
 20
101.8851158695
 10
46.88129788286933
 20
101.883678157
 10
46.87741699046934
 20
101.8823494518
 10
46.87439218156933
 20
101.8811741874
 10
46.87218290526934
 20
101.8801973327
 10
46.87071956456933
 20
101.8794592105
 10
46.86991000746933
 20
101.8789927224
 10
46.86978095186933
 20
101.8789108275
  0
LWPOLYLINE
  5
14D3
330
22B
100
AcDbEntity
  8
0
  6
Continuous
 62
     7
100
AcDbPolyline
 90
       51
 70
     0
 43
0.0
 10
47.06355647246933
 20
101.9025367414
 10
47.04990989806933
 20
101.9024623271
 10
47.03630556366933
 20
101.9022391246
 10
47.02281024536933
 20
101.9018680628
 10
47.00947493946933
 20
101.9013505549
 10
46.99635328126933
 20
101.9006886721
 10
46.98349680486933
 20
101.8998850164
 10
46.97095631946933
 20
101.8989427631
 10
46.95878130676933
 20
101.8978656303
 10
46.94701982016933
 20
101.8966578694
 10
46.93571827776934
 20
101.895324247
 10
46.92492128506933
 20
101.8938700265
 10
46.91467145616933
 20
101.8923009477
 10
46.90500924466934
 20
101.8906232032
 10
46.89597278516933
 20
101.8888434149
 10
46.88759774256933
 20
101.886968607
 10
46.87991717146934
 20
101.8850061791
 10
46.87296138546933
 20
101.8829638765
 10
46.86675783746934
 20
101.8808497597
 10
46.86133101156933
 20
101.8786721727
 10
46.85670232646933
 20
101.8764397099
 10
46.85289005036933
 20
101.8741611824
 10
46.84990922956933
 20
101.8718455831
 10
46.84777162876933
 20
101.8695020511
 10
46.84648568466934
 20
101.8671398358
 10
46.84605647246933
 20
101.8647682605
 10
46.84648568626933
 20
101.8623966851
 10
46.84777163216933
 20
101.8600344699
 10
46.84990923456933
 20
101.8576909379
 10
46.85289005696932
 20
101.8553753386
 10
46.85670233476933
 20
101.8530968112
 10
46.86133102146934
 20
101.8508643485
 10
46.86675784886934
 20
101.8486867616
 10
46.87296139836933
 20
101.846572645
 10
46.87991718586934
 20
101.8445303425
 10
46.88759775836934
 20
101.8425679148
 10
46.89597280226934
 20
101.8406931071
 10
46.90500926306934
 20
101.8389133189
 10
46.91467147576933
 20
101.8372355747
 10
46.92492130576932
 20
101.8356664961
 10
46.93571829946932
 20
101.8342122759
 10
46.94701984286933
 20
101.8328786536
 10
46.95878133036933
 20
101.831670893
 10
46.97095634366934
 20
101.8305937605
 10
46.98349683016934
 20
101.8296515074
 10
46.99635330606933
 20
101.828847852
 10
47.00947496726934
 20
101.8281859694
 10
47.02281026876933
 20
101.8276684619
 10
47.03630559256933
 20
101.8272974003
 10
47.04990993466934
 20
101.827074198
 10
47.06355647246933
 20
101.8269997841
  0
LWPOLYLINE
  5
14D4
330
22B
100
AcDbEntity
  8
0
  6
Continuous
 62
     7
100
AcDbPolyline
 90
       21
 70
     0
 43
0.0
 10
49.68855647246933
 20
101.8617534621
 10
49.70081955966933
 20
101.8618231735
 10
49.71303013436934
 20
101.8620320091
 10
49.72513590916933
 20
101.8623790748
 10
49.73708504506934
 20
101.8628628843
 10
49.74882637366933
 20
101.8634813658
 10
49.76030961696933
 20
101.864231871
 10
49.77148560276933
 20
101.865111186
 10
49.78230647346934
 20
101.8661155455
 10
49.79272589206933
 20
101.8672406487
 10
49.80269924116933
 20
101.8684816776
 10
49.81218381346934
 20
101.8698333181
 10
49.82113899456933
 20
101.8712897822
 10
49.82952643686934
 20
101.8728448331
 10
49.83731022416933
 20
101.8744918118
 10
49.84445702506934
 20
101.8762236657
 10
49.85093623596934
 20
101.8780329788
 10
49.85672011176934
 20
101.8799120032
 10
49.86178388496933
 20
101.8818526928
 10
49.86610587186934
 20
101.8838467372
 10
49.86754144026934
 20
101.8846685158
  0
LWPOLYLINE
  5
14D5
330
22B
100
AcDbEntity
  8
0
  6
Continuous
 62
     7
100
AcDbPolyline
 90
       53
 70
     0
 43
0.0
 10
46.73178910336933
 20
101.9269843347
 10
46.71182808296933
 20
101.9260903127
 10
46.69218702556934
 20
101.9250033359
 10
46.67292789566934
 20
101.9237268323
 10
46.65411123996933
 20
101.9222648154
 10
46.63579628046933
 20
101.9206218864
 10
46.61804064056934
 20
101.9188032146
 10
46.60090018936934
 20
101.9168145224
 10
46.58442885876933
 20
101.9146620672
 10
46.56867847586933
 20
101.9123526217
 10
46.55369859886934
 20
101.9098934525
 10
46.53953636186933
 20
101.9072922974
 10
46.52623632626933
 20
101.9045573408
 10
46.51384034036933
 20
101.9016971884
 10
46.50238740806933
 20
101.8987208395
 10
46.49191356586934
 20
101.8956376591
 10
46.48245176966933
 20
101.8924573486
 10
46.47403179076933
 20
101.8891899146
 10
46.46668012266934
 20
101.8858456382
 10
46.46041989726934
 20
101.8824350421
 10
46.45527081236934
 20
101.8789688576
 10
46.45124906936934
 20
101.875457991
 10
46.44836732266933
 20
101.8719134894
 10
46.44663463976933
 20
101.8683465054
 10
46.44605647246933
 20
101.8647682625
 10
46.44663463996933
 20
101.8611900196
 10
46.44836732306933
 20
101.8576230356
 10
46.45124906986933
 20
101.854078534
 10
46.45527081306934
 20
101.8505676675
 10
46.46041989816934
 20
101.847101483
 10
46.46668012376934
 20
101.8436908868
 10
46.47403179206933
 20
101.8403466104
 10
46.48245177106934
 20
101.8370791765
 10
46.49191356746933
 20
101.8338988659
 10
46.50238740976933
 20
101.8308156856
 10
46.51384034226934
 20
101.8278393367
 10
46.52623632826933
 20
101.8249791843
 10
46.53953636406933
 20
101.8222442278
 10
46.55369860116933
 20
101.8196430727
 10
46.56867847826933
 20
101.8171839035
 10
46.58442886126933
 20
101.814874458
 10
46.60090019196933
 20
101.8127220028
 10
46.61804064326933
 20
101.8107333107
 10
46.63579628326933
 20
101.8089146388
 10
46.65411124286933
 20
101.8072717099
 10
46.67292789866933
 20
101.8058096931
 10
46.69218702856934
 20
101.8045331895
 10
46.71182808596934
 20
101.8034462127
 10
46.73178910676933
 20
101.8025521907
 10
46.75200777496933
 20
101.8018539181
 10
46.77241904406932
 20
101.8013536311
 10
46.79296150356933
 20
101.8010528449
 10
46.81355647246934
 20
101.8009525575
  0
LWPOLYLINE
  5
14D6
330
22B
100
AcDbEntity
  8
0
  6
Continuous
 62
     7
100
AcDbPolyline
 90
       11
 70
     0
 43
0.0
 10
69.19544922736934
 20
102.1881366313
 10
69.09903470756933
 20
102.2068559476
 10
68.99749159806933
 20
102.2255416855
 10
68.88695982016933
 20
102.2446522622
 10
68.76611199806934
 20
102.2639772444
 10
68.63212977566934
 20
102.283274315
 10
68.48085216756934
 20
102.3019938304
 10
68.30829730786934
 20
102.3187483991
 10
68.11148909786933
 20
102.3309393047
 10
67.88723267786934
 20
102.3346060937
 10
67.64413969326934
 20
102.3250573529
  0
LINE
  5
14D7
330
22B
100
AcDbEntity
  8
0
  6
Continuous
 62
     7
100
AcDbLine
 10
77.62602918316933
 20
104.3435848925
 30
0.0
 11
19.12608376106934
 21
104.3435848925
 31
0.0
  0
LINE
  5
14D8
330
22B
100
AcDbEntity
  8
0
  6
Continuous
 62
     7
100
AcDbLine
 10
77.62604409576933
 20
104.4687564358
 30
0.0
 11
19.12606884836933
 21
104.4687564358
 31
0.0
  0
LWPOLYLINE
  5
14D9
330
22B
100
AcDbEntity
  8
0
  6
Continuous
 62
     7
100
AcDbPolyline
 90
       16
 70
     0
 43
0.0
 10
75.66575225946934
 20
102.8823749189
 10
75.76770895006934
 20
102.857103059
 10
75.86975728866933
 20
102.82283298
 10
75.96758099916934
 20
102.7810423875
 10
76.05959802596934
 20
102.7330182116
 10
76.14849778286934
 20
102.6776397046
 10
76.23318826006934
 20
102.6154602368
 10
76.31305303276933
 20
102.5468839715
 10
76.38750920476933
 20
102.4723895798
 10
76.45609483346934
 20
102.3924326427
 10
76.51837983676934
 20
102.3075082917
 10
76.57393504076934
 20
102.2182126096
 10
76.62233873536933
 20
102.1252796084
 10
76.66321021376933
 20
102.0295952899
 10
76.69624372716933
 20
101.9321762699
 10
76.72168310106933
 20
101.8320548616
  0
LWPOLYLINE
  5
14DA
330
22B
100
AcDbEntity
  8
0
  6
Continuous
 62
     7
100
AcDbPolyline
 90
        5
 70
     0
 43
0.0
 10
21.10047329956933
 20
102.8727609314
 10
21.19641403886934
 20
102.8941036413
 10
21.29147125006934
 20
102.9089278266
 10
21.38675755716933
 20
102.9177488603
 10
21.48343340616934
 20
102.9207154942
  0
LWPOLYLINE
  5
14DB
330
22B
100
AcDbEntity
  8
0
  6
Continuous
 62
     7
100
AcDbPolyline
 90
        4
 70
     0
 43
0.0
 10
25.13103551776935
 20
89.44742711319999
 10
25.13049845846933
 20
86.01404639360001
 10
25.12909547266934
 20
82.92556872490001
 10
25.12701486506934
 20
80.0665974039
  0
LWPOLYLINE
  5
14DC
330
22B
100
AcDbEntity
  8
0
  6
Continuous
 62
     7
100
AcDbPolyline
 90
        4
 70
     0
 43
0.0
 10
25.12702166126934
 20
98.82825021770001
 10
25.12930197756934
 20
95.61291989009999
 10
25.13058905996934
 20
92.577956071
 10
25.13103551776935
 20
89.44742711319999
  0
LWPOLYLINE
  5
14DD
330
22B
100
AcDbEntity
  8
0
  6
Continuous
 62
     7
100
AcDbPolyline
 90
       19
 70
     0
 43
0.0
 10
25.08735991366933
 20
98.8601084158
 10
25.09486787536933
 20
98.94327867219999
 10
25.10913760016933
 20
99.02585620069999
 10
25.13006739336933
 20
99.1072525026
 10
25.15750808966934
 20
99.1868874763
 10
25.19126413976934
 20
99.2641936214
 10
25.23109496526934
 20
99.33861997560001
 10
25.27671670806935
 20
99.40963613500001
 10
25.32780423716933
 20
99.4767359911
 10
25.38399346846934
 20
99.539441345
 10
25.44488395976934
 20
99.59730531620001
 10
25.51004176456934
 20
99.64991552729999
 10
25.57900252466934
 20
99.69689704270001
 10
25.65127477936935
 20
99.73791504030002
 10
25.72634347606935
 20
99.77267720180002
 10
25.80367359916933
 20
99.80093577799999
 10
25.88271407286934
 20
99.82248939139999
 10
25.96290158526934
 20
99.83718443049999
 10
26.04366466966934
 20
99.8449161697
  0
LINE
  5
14DE
330
22B
100
AcDbEntity
  8
DEFAULT_1
  6
CENTER
 62
     7
100
AcDbLine
 10
21.37605647246933
 20
98.6036771132
 30
0.0
 11
21.37605647246933
 21
100.7953437798
 31
0.0
  0
LINE
  5
14DF
330
22B
100
AcDbEntity
  8
DEFAULT_1
  6
CENTER
 62
     7
100
AcDbLine
 10
21.37605647246933
 20
98.6036771132
 30
0.0
 11
21.37605647246933
 21
96.41201044649999
 31
0.0
  0
LINE
  5
14E0
330
22B
100
AcDbEntity
  8
0
  6
Continuous
 62
     7
100
AcDbLine
 10
20.04251897826933
 20
77.3740391906
 30
0.0
 11
20.04251897826933
 21
101.5208150358
 31
0.0
  0
LWPOLYLINE
  5
14E1
330
22B
100
AcDbEntity
  8
0
  6
Continuous
 62
     7
100
AcDbPolyline
 90
        4
 70
     0
 43
0.0
 10
20.04251897826933
 20
101.5208150358
 10
20.04600427806933
 20
101.620479511
 10
20.05645636796933
 20
101.7193440662
 10
20.07392248356933
 20
101.8173298794
  0
LINE
  5
14E2
330
22B
100
AcDbEntity
  8
0
  6
Continuous
 62
     7
100
AcDbLine
 10
18.57364869316934
 20
103.7911498259
 30
0.0
 11
18.57364869316934
 21
72.91617711319999
 31
0.0
  0
LINE
  5
14E3
330
22B
100
AcDbEntity
  8
0
  6
Continuous
 62
     7
100
AcDbLine
 10
18.44847714996933
 20
103.7911647383
 30
0.0
 11
18.44847714996933
 21
72.91617711319999
 31
0.0
  0
LINE
  5
14E4
330
22B
100
AcDbEntity
  8
0
  6
Continuous
 62
     7
100
AcDbLine
 10
18.37605647246933
 20
72.54117711319999
 30
0.0
 11
18.37605647246933
 21
72.74030692
 31
0.0
  0
LWPOLYLINE
  5
14E5
330
22B
100
AcDbEntity
  8
0
  6
Continuous
 62
     7
100
AcDbPolyline
 90
        6
 70
     0
 43
0.0
 10
20.12698266616934
 20
76.8939541715
 10
20.09680671186933
 20
76.9864237195
 10
20.07308310206934
 20
77.0814484477
 10
20.05612229566934
 20
77.1778829842
 10
20.04595398416933
 20
77.2750940367
 10
20.04251897826933
 20
77.3740391906
  0
LWPOLYLINE
  5
14E6
330
22B
100
AcDbEntity
  8
0
  6
Continuous
 62
     7
100
AcDbPolyline
 90
       16
 70
     0
 43
0.0
 10
20.07392248356933
 20
101.8173298794
 10
20.09707193176934
 20
101.9183468612
 10
20.12895550976934
 20
102.0188516393
 10
20.16817621306934
 20
102.1149033577
 10
20.21355684096933
 20
102.2052464359
 10
20.26622132416934
 20
102.2926977563
 10
20.32570201876934
 20
102.3762562008
 10
20.39168705966934
 20
102.4553771111
 10
20.46377375406934
 20
102.5295021772
 10
20.54158037486933
 20
102.5981804856
 10
20.62472114996933
 20
102.6610059121
 10
20.71272791116934
 20
102.7175560508
 10
20.80495778856934
 20
102.7673667197
 10
20.90059291366933
 20
102.8099892578
 10
20.99873640556933
 20
102.8450588666
 10
21.10047329956933
 20
102.8727609314
  0
CIRCLE
  5
1631
330
22B
100
AcDbEntity
  8
DEFAULT_2
  6
HIDDEN
 62
     7
100
AcDbCircle
 10
21.37605647246933
 20
98.6036771132
 30
0.0
 40
1.125
  0
CIRCLE
  5
1632
330
22B
100
AcDbEntity
  8
DEFAULT_2
  6
HIDDEN
 62
     7
100
AcDbCircle
 10
75.62605647246932
 20
89.44742711319999
 30
0.0
 40
1.125
  0
CIRCLE
  5
1635
330
22B
100
AcDbEntity
  8
DEFAULT_2
  6
HIDDEN
 62
     7
100
AcDbCircle
 10
21.37605647246933
 20
98.6036771132
 30
0.0
 40
0.9375
  0
CIRCLE
  5
1636
330
22B
100
AcDbEntity
  8
DEFAULT_2
  6
HIDDEN
 62
     7
100
AcDbCircle
 10
75.62605647246932
 20
89.44742711319999
 30
0.0
 40
0.9375
  0
CIRCLE
  5
1644
330
22B
100
AcDbEntity
  8
0
  6
Continuous
 62
     7
100
AcDbCircle
 10
67.55483362916933
 20
89.44742711319999
 30
0.0
 40
1.448223304699999
  0
ARC
  5
1645
330
22B
100
AcDbEntity
  8
0
  6
Continuous
 62
     7
100
AcDbCircle
 10
19.12605647246933
 20
103.7911771132
 30
0.0
 40
0.6775793225
100
AcDbArc
 50
89.99760154399981
 51
180.0023983279
  0
ARC
  5
1646
330
22B
100
AcDbEntity
  8
0
  6
Continuous
 62
     7
100
AcDbCircle
 10
77.62605647246934
 20
103.7911771132
 30
0.0
 40
0.6775793225
100
AcDbArc
 50
359.9976014099
 51
90.00239854199994
  0
ARC
  5
1647
330
22B
100
AcDbEntity
  8
0
  6
Continuous
 62
     7
100
AcDbCircle
 10
77.62605647246934
 20
103.7911771132
 30
0.0
 40
0.5524077793
100
AcDbArc
 50
359.9967300679
 51
90.00326986829987
  0
ARC
  5
1648
330
22B
100
AcDbEntity
  8
0
  6
Continuous
 62
     7
100
AcDbCircle
 10
19.12605647246933
 20
103.7911771132
 30
0.0
 40
0.5524077793
100
AcDbArc
 50
89.9967301927
 51
180.0032696679
  0
ELLIPSE
  5
165F
330
22B
100
AcDbEntity
  8
0
  6
Continuous
 62
     7
100
AcDbEllipse
 10
18.19813406346934
 20
72.91617711319999
 30
0.0
 11
-0.2503430865
 21
0.0
 31
0.0
210
0.0
220
0.0
230
-1.0
 40
0.9986295348
 41
3.1415926536
 42
3.9218759255
  0
ELLIPSE
  5
1660
330
22B
100
AcDbEntity
  8
0
  6
Continuous
 62
     7
100
AcDbEllipse
 10
78.55397888146933
 20
72.91617711319999
 30
0.0
 11
-0.2503430865
 21
0.0
 31
0.0
210
0.0
220
0.0
230
-1.0
 40
0.9986295348
 41
-0.7802832719000001
 42
0.0
  0
ELLIPSE
  5
1661
330
22B
100
AcDbEntity
  8
0
  6
Continuous
 62
     7
100
AcDbEllipse
 10
78.55397888146933
 20
72.91617711319999
 30
0.0
 11
-0.3755146297
 21
0.0
 31
0.0
210
0.0
220
0.0
230
-1.0
 40
0.9986295348
 41
-1.077184634199999
 42
0.0
  0
ELLIPSE
  5
1662
330
22B
100
AcDbEntity
  8
0
  6
Continuous
 62
     7
100
AcDbEllipse
 10
18.19813406346934
 20
72.91617711319999
 30
0.0
 11
-0.3755146297
 21
0.0
 31
0.0
210
0.0
220
0.0
230
-1.0
 40
0.9986295348
 41
3.1415926536
 42
4.2187772878
  0
ENDSEC
  0
SECTION
  2
OBJECTS
  0
DICTIONARY
  5
C
330
0
100
AcDbDictionary
281
     1
  3
ACAD_COLOR
350
1699
  3
ACAD_GROUP
350
D
  3
ACAD_LAYOUT
350
1A
  3
ACAD_MATERIAL
350
166C
  3
ACAD_MLEADERSTYLE
350
16BE
  3
ACAD_MLINESTYLE
350
17
  3
ACAD_PLOTSETTINGS
350
19
  3
ACAD_PLOTSTYLENAME
350
E
  3
ACAD_SCALELIST
350
169C
  3
ACAD_TABLESTYLE
350
169A
  3
ACAD_VISUALSTYLE
350
1685
  3
ACDB_RECOMPOSE_DATA
350
16C2
  3
AcDbVariableDictionary
350
16F4
  0
DICTIONARY
  5
16C3
330
8
100
AcDbDictionary
280
     1
281
     1
  0
DICTIONARY
  5
1703
330
10
100
AcDbDictionary
280
     1
281
     1
  3
ADSK_XREC_LAYER_RECONCILED
360
1704
  0
DICTIONARY
  5
1705
330
1FA
100
AcDbDictionary
280
     1
281
     1
  3
ADSK_XREC_LAYER_RECONCILED
360
1706
  0
DICTIONARY
  5
1707
330
1FB
100
AcDbDictionary
280
     1
281
     1
  3
ADSK_XREC_LAYER_RECONCILED
360
1708
  0
DICTIONARY
  5
1709
330
1FC
100
AcDbDictionary
280
     1
281
     1
  3
ADSK_XREC_LAYER_RECONCILED
360
170A
  0
DICTIONARY
  5
170B
330
1FD
100
AcDbDictionary
280
     1
281
     1
  3
ADSK_XREC_LAYER_RECONCILED
360
170C
  0
DICTIONARY
  5
170D
330
1FE
100
AcDbDictionary
280
     1
281
     1
  3
ADSK_XREC_LAYER_RECONCILED
360
170E
  0
DICTIONARY
  5
170F
330
1FF
100
AcDbDictionary
280
     1
281
     1
  3
ADSK_XREC_LAYER_RECONCILED
360
1710
  0
DICTIONARY
  5
1711
330
200
100
AcDbDictionary
280
     1
281
     1
  3
ADSK_XREC_LAYER_RECONCILED
360
1712
  0
DICTIONARY
  5
1713
330
201
100
AcDbDictionary
280
     1
281
     1
  3
ADSK_XREC_LAYER_RECONCILED
360
1714
  0
DICTIONARY
  5
1715
330
202
100
AcDbDictionary
280
     1
281
     1
  3
ADSK_XREC_LAYER_RECONCILED
360
1716
  0
DICTIONARY
  5
1717
330
203
100
AcDbDictionary
280
     1
281
     1
  3
ADSK_XREC_LAYER_RECONCILED
360
1718
  0
DICTIONARY
  5
1719
330
204
100
AcDbDictionary
280
     1
281
     1
  3
ADSK_XREC_LAYER_RECONCILED
360
171A
  0
DICTIONARY
  5
171B
330
205
100
AcDbDictionary
280
     1
281
     1
  3
ADSK_XREC_LAYER_RECONCILED
360
171C
  0
DICTIONARY
  5
171D
330
206
100
AcDbDictionary
280
     1
281
     1
  3
ADSK_XREC_LAYER_RECONCILED
360
171E
  0
DICTIONARY
  5
171F
330
207
100
AcDbDictionary
280
     1
281
     1
  3
ADSK_XREC_LAYER_RECONCILED
360
1720
  0
DICTIONARY
  5
1721
330
208
100
AcDbDictionary
280
     1
281
     1
  3
ADSK_XREC_LAYER_RECONCILED
360
1722
  0
DICTIONARY
  5
1723
330
209
100
AcDbDictionary
280
     1
281
     1
  3
ADSK_XREC_LAYER_RECONCILED
360
1724
  0
DICTIONARY
  5
1725
330
20A
100
AcDbDictionary
280
     1
281
     1
  3
ADSK_XREC_LAYER_RECONCILED
360
1726
  0
DICTIONARY
  5
1727
330
20B
100
AcDbDictionary
280
     1
281
     1
  3
ADSK_XREC_LAYER_RECONCILED
360
1728
  0
DICTIONARY
  5
1729
330
20C
100
AcDbDictionary
280
     1
281
     1
  3
ADSK_XREC_LAYER_RECONCILED
360
172A
  0
DICTIONARY
  5
172B
330
20D
100
AcDbDictionary
280
     1
281
     1
  3
ADSK_XREC_LAYER_RECONCILED
360
172C
  0
DICTIONARY
  5
172D
330
20E
100
AcDbDictionary
280
     1
281
     1
  3
ADSK_XREC_LAYER_RECONCILED
360
172E
  0
DICTIONARY
  5
172F
330
20F
100
AcDbDictionary
280
     1
281
     1
  3
ADSK_XREC_LAYER_RECONCILED
360
1730
  0
DICTIONARY
  5
1731
330
210
100
AcDbDictionary
280
     1
281
     1
  3
ADSK_XREC_LAYER_RECONCILED
360
1732
  0
DICTIONARY
  5
1733
330
211
100
AcDbDictionary
280
     1
281
     1
  3
ADSK_XREC_LAYER_RECONCILED
360
1734
  0
DICTIONARY
  5
1735
330
212
100
AcDbDictionary
280
     1
281
     1
  3
ADSK_XREC_LAYER_RECONCILED
360
1736
  0
DICTIONARY
  5
1737
330
213
100
AcDbDictionary
280
     1
281
     1
  3
ADSK_XREC_LAYER_RECONCILED
360
1738
  0
DICTIONARY
  5
1739
330
214
100
AcDbDictionary
280
     1
281
     1
  3
ADSK_XREC_LAYER_RECONCILED
360
173A
  0
DICTIONARY
  5
173B
330
215
100
AcDbDictionary
280
     1
281
     1
  3
ADSK_XREC_LAYER_RECONCILED
360
173C
  0
DICTIONARY
  5
173D
330
216
100
AcDbDictionary
280
     1
281
     1
  3
ADSK_XREC_LAYER_RECONCILED
360
173E
  0
DICTIONARY
  5
173F
330
217
100
AcDbDictionary
280
     1
281
     1
  3
ADSK_XREC_LAYER_RECONCILED
360
1740
  0
DICTIONARY
  5
1741
330
218
100
AcDbDictionary
280
     1
281
     1
  3
ADSK_XREC_LAYER_RECONCILED
360
1742
  0
DICTIONARY
  5
1743
330
219
100
AcDbDictionary
280
     1
281
     1
  3
ADSK_XREC_LAYER_RECONCILED
360
1744
  0
DICTIONARY
  5
1745
330
21A
100
AcDbDictionary
280
     1
281
     1
  3
ADSK_XREC_LAYER_RECONCILED
360
1746
  0
DICTIONARY
  5
1747
330
21B
100
AcDbDictionary
280
     1
281
     1
  3
ADSK_XREC_LAYER_RECONCILED
360
1748
  0
DICTIONARY
  5
1749
330
21C
100
AcDbDictionary
280
     1
281
     1
  3
ADSK_XREC_LAYER_RECONCILED
360
174A
  0
DICTIONARY
  5
174B
330
21D
100
AcDbDictionary
280
     1
281
     1
  3
ADSK_XREC_LAYER_RECONCILED
360
174C
  0
DICTIONARY
  5
174D
330
21E
100
AcDbDictionary
280
     1
281
     1
  3
ADSK_XREC_LAYER_RECONCILED
360
174E
  0
DICTIONARY
  5
174F
330
21F
100
AcDbDictionary
280
     1
281
     1
  3
ADSK_XREC_LAYER_RECONCILED
360
1750
  0
DICTIONARY
  5
1751
330
220
100
AcDbDictionary
280
     1
281
     1
  3
ADSK_XREC_LAYER_RECONCILED
360
1752
  0
DICTIONARY
  5
1753
330
221
100
AcDbDictionary
280
     1
281
     1
  3
ADSK_XREC_LAYER_RECONCILED
360
1754
  0
DICTIONARY
  5
1755
330
222
100
AcDbDictionary
280
     1
281
     1
  3
ADSK_XREC_LAYER_RECONCILED
360
1756
  0
DICTIONARY
  5
1699
102
{ACAD_REACTORS
330
C
102
}
330
C
100
AcDbDictionary
281
     1
  0
DICTIONARY
  5
D
102
{ACAD_REACTORS
330
C
102
}
330
C
100
AcDbDictionary
281
     1
  0
DICTIONARY
  5
1A
102
{ACAD_REACTORS
330
C
102
}
330
C
100
AcDbDictionary
281
     1
  3
Layout1
350
1669
  3
Model
350
1668
  0
DICTIONARY
  5
166C
102
{ACAD_REACTORS
330
C
102
}
330
C
100
AcDbDictionary
281
     1
  3
ByBlock
350
1675
  3
ByLayer
350
166D
  3
Global
350
167D
  0
DICTIONARY
  5
16BE
102
{ACAD_REACTORS
330
C
102
}
330
C
100
AcDbDictionary
281
     1
  3
Standard
350
16BF
  0
DICTIONARY
  5
17
102
{ACAD_REACTORS
330
C
102
}
330
C
100
AcDbDictionary
281
     1
  3
Standard
350
18
  0
DICTIONARY
  5
19
102
{ACAD_REACTORS
330
C
102
}
330
C
100
AcDbDictionary
281
     1
  0
ACDBDICTIONARYWDFLT
  5
E
102
{ACAD_REACTORS
330
C
102
}
330
C
100
AcDbDictionary
281
     1
  3
Normal
350
F
100
AcDbDictionaryWithDefault
340
F
  0
DICTIONARY
  5
169C
102
{ACAD_REACTORS
330
C
102
}
330
C
100
AcDbDictionary
281
     1
  3
A0
350
169D
  3
A1
350
169E
  3
A2
350
169F
  3
A3
350
16A0
  3
A4
350
16A1
  3
A5
350
16A2
  3
A6
350
16A3
  3
A7
350
16A4
  3
A8
350
16A5
  3
A9
350
16A6
  3
B0
350
16A7
  3
B1
350
16A8
  3
B2
350
16A9
  3
B3
350
16AA
  3
B4
350
16AB
  3
B5
350
16AC
  3
B6
350
16AD
  3
B7
350
16AE
  3
B8
350
16AF
  3
B9
350
16B0
  3
C0
350
16B1
  3
C1
350
16B2
  3
C2
350
16B3
  3
C3
350
16B4
  3
C4
350
16B5
  3
C5
350
16B6
  3
C6
350
16B7
  3
C7
350
16B8
  3
C8
350
16B9
  3
C9
350
16BA
  3
D0
350
16BB
  3
D1
350
16BC
  3
D2
350
16BD
  0
DICTIONARY
  5
169A
102
{ACAD_REACTORS
330
C
102
}
330
C
100
AcDbDictionary
281
     1
  3
Standard
350
169B
  0
DICTIONARY
  5
1685
102
{ACAD_REACTORS
330
C
102
}
330
C
100
AcDbDictionary
281
     1
  3
2dWireframe
350
168B
  3
3D Hidden
350
168D
  3
3dWireframe
350
168C
  3
Basic
350
168A
  3
Brighten
350
1691
  3
ColorChange
350
1695
  3
Conceptual
350
168E
  3
Dim
350
1690
  3
EdgeColorOff
350
1698
  3
Facepattern
350
1694
  3
Flat
350
1686
  3
FlatWithEdges
350
1687
  3
Gouraud
350
1688
  3
GouraudWithEdges
350
1689
  3
JitterOff
350
1696
  3
Linepattern
350
1693
  3
OverhangOff
350
1697
  3
Realistic
350
168F
  3
Thicken
350
1692
  0
XRECORD
  5
16C2
102
{ACAD_REACTORS
330
C
102
}
330
C
100
AcDbXrecord
280
     1
 90
        1
330
169B
  0
DICTIONARY
  5
16F4
102
{ACAD_REACTORS
330
C
102
}
330
C
100
AcDbDictionary
281
     1
  3
CANNOSCALE
350
16F7
  3
CMLEADERSTYLE
350
16F6
  3
CTABLESTYLE
350
16F5
  3
DIMASSOC
350
16FA
  3
INDEXCTL
350
16F9
  3
LAYEREVAL
350
175A
  3
LAYERNOTIFY
350
175B
  3
LIGHTINGUNITS
350
1759
  3
MSLTSCALE
350
1758
  3
SORTENTS
350
16F8
  3
XCLIPFRAME
350
16FB
  0
XRECORD
  5
1704
102
{ACAD_REACTORS
330
1703
102
}
330
1703
100
AcDbXrecord
280
     1
290
     1
  0
XRECORD
  5
1706
102
{ACAD_REACTORS
330
1705
102
}
330
1705
100
AcDbXrecord
280
     1
290
     1
  0
XRECORD
  5
1708
102
{ACAD_REACTORS
330
1707
102
}
330
1707
100
AcDbXrecord
280
     1
290
     1
  0
XRECORD
  5
170A
102
{ACAD_REACTORS
330
1709
102
}
330
1709
100
AcDbXrecord
280
     1
290
     1
  0
XRECORD
  5
170C
102
{ACAD_REACTORS
330
170B
102
}
330
170B
100
AcDbXrecord
280
     1
290
     1
  0
XRECORD
  5
170E
102
{ACAD_REACTORS
330
170D
102
}
330
170D
100
AcDbXrecord
280
     1
290
     1
  0
XRECORD
  5
1710
102
{ACAD_REACTORS
330
170F
102
}
330
170F
100
AcDbXrecord
280
     1
290
     1
  0
XRECORD
  5
1712
102
{ACAD_REACTORS
330
1711
102
}
330
1711
100
AcDbXrecord
280
     1
290
     1
  0
XRECORD
  5
1714
102
{ACAD_REACTORS
330
1713
102
}
330
1713
100
AcDbXrecord
280
     1
290
     1
  0
XRECORD
  5
1716
102
{ACAD_REACTORS
330
1715
102
}
330
1715
100
AcDbXrecord
280
     1
290
     1
  0
XRECORD
  5
1718
102
{ACAD_REACTORS
330
1717
102
}
330
1717
100
AcDbXrecord
280
     1
290
     1
  0
XRECORD
  5
171A
102
{ACAD_REACTORS
330
1719
102
}
330
1719
100
AcDbXrecord
280
     1
290
     1
  0
XRECORD
  5
171C
102
{ACAD_REACTORS
330
171B
102
}
330
171B
100
AcDbXrecord
280
     1
290
     1
  0
XRECORD
  5
171E
102
{ACAD_REACTORS
330
171D
102
}
330
171D
100
AcDbXrecord
280
     1
290
     1
  0
XRECORD
  5
1720
102
{ACAD_REACTORS
330
171F
102
}
330
171F
100
AcDbXrecord
280
     1
290
     1
  0
XRECORD
  5
1722
102
{ACAD_REACTORS
330
1721
102
}
330
1721
100
AcDbXrecord
280
     1
290
     1
  0
XRECORD
  5
1724
102
{ACAD_REACTORS
330
1723
102
}
330
1723
100
AcDbXrecord
280
     1
290
     1
  0
XRECORD
  5
1726
102
{ACAD_REACTORS
330
1725
102
}
330
1725
100
AcDbXrecord
280
     1
290
     1
  0
XRECORD
  5
1728
102
{ACAD_REACTORS
330
1727
102
}
330
1727
100
AcDbXrecord
280
     1
290
     1
  0
XRECORD
  5
172A
102
{ACAD_REACTORS
330
1729
102
}
330
1729
100
AcDbXrecord
280
     1
290
     1
  0
XRECORD
  5
172C
102
{ACAD_REACTORS
330
172B
102
}
330
172B
100
AcDbXrecord
280
     1
290
     1
  0
XRECORD
  5
172E
102
{ACAD_REACTORS
330
172D
102
}
330
172D
100
AcDbXrecord
280
     1
290
     1
  0
XRECORD
  5
1730
102
{ACAD_REACTORS
330
172F
102
}
330
172F
100
AcDbXrecord
280
     1
290
     1
  0
XRECORD
  5
1732
102
{ACAD_REACTORS
330
1731
102
}
330
1731
100
AcDbXrecord
280
     1
290
     1
  0
XRECORD
  5
1734
102
{ACAD_REACTORS
330
1733
102
}
330
1733
100
AcDbXrecord
280
     1
290
     1
  0
XRECORD
  5
1736
102
{ACAD_REACTORS
330
1735
102
}
330
1735
100
AcDbXrecord
280
     1
290
     1
  0
XRECORD
  5
1738
102
{ACAD_REACTORS
330
1737
102
}
330
1737
100
AcDbXrecord
280
     1
290
     1
  0
XRECORD
  5
173A
102
{ACAD_REACTORS
330
1739
102
}
330
1739
100
AcDbXrecord
280
     1
290
     1
  0
XRECORD
  5
173C
102
{ACAD_REACTORS
330
173B
102
}
330
173B
100
AcDbXrecord
280
     1
290
     1
  0
XRECORD
  5
173E
102
{ACAD_REACTORS
330
173D
102
}
330
173D
100
AcDbXrecord
280
     1
290
     1
  0
XRECORD
  5
1740
102
{ACAD_REACTORS
330
173F
102
}
330
173F
100
AcDbXrecord
280
     1
290
     1
  0
XRECORD
  5
1742
102
{ACAD_REACTORS
330
1741
102
}
330
1741
100
AcDbXrecord
280
     1
290
     1
  0
XRECORD
  5
1744
102
{ACAD_REACTORS
330
1743
102
}
330
1743
100
AcDbXrecord
280
     1
290
     1
  0
XRECORD
  5
1746
102
{ACAD_REACTORS
330
1745
102
}
330
1745
100
AcDbXrecord
280
     1
290
     1
  0
XRECORD
  5
1748
102
{ACAD_REACTORS
330
1747
102
}
330
1747
100
AcDbXrecord
280
     1
290
     1
  0
XRECORD
  5
174A
102
{ACAD_REACTORS
330
1749
102
}
330
1749
100
AcDbXrecord
280
     1
290
     1
  0
XRECORD
  5
174C
102
{ACAD_REACTORS
330
174B
102
}
330
174B
100
AcDbXrecord
280
     1
290
     1
  0
XRECORD
  5
174E
102
{ACAD_REACTORS
330
174D
102
}
330
174D
100
AcDbXrecord
280
     1
290
     1
  0
XRECORD
  5
1750
102
{ACAD_REACTORS
330
174F
102
}
330
174F
100
AcDbXrecord
280
     1
290
     1
  0
XRECORD
  5
1752
102
{ACAD_REACTORS
330
1751
102
}
330
1751
100
AcDbXrecord
280
     1
290
     1
  0
XRECORD
  5
1754
102
{ACAD_REACTORS
330
1753
102
}
330
1753
100
AcDbXrecord
280
     1
290
     1
  0
XRECORD
  5
1756
102
{ACAD_REACTORS
330
1755
102
}
330
1755
100
AcDbXrecord
280
     1
290
     1
  0
LAYOUT
  5
1669
102
{ACAD_REACTORS
330
1A
102
}
330
1A
100
AcDbPlotSettings
  1

  2
none_device
  4
ANSI_B_(17.00_x_11.00_Inches)
  6

 40
0.0
 41
0.0
 42
0.0
 43
0.0
 44
431.8
 45
279.4
 46
0.0
 47
0.0
 48
0.0
 49
0.0
140
0.0
141
0.0
142
1.0
143
1.0
 70
     0
 72
     0
 73
     0
 74
     0
  7

 75
     0
147
1.0
 76
     0
 77
     2
 78
   300
148
0.0
149
0.0
100
AcDbLayout
  1
Layout1
 70
     1
 71
     1
 10
0.0
 20
0.0
 11
12.0
 21
9.0
 12
0.0
 22
0.0
 32
0.0
 14
1.000000000000000E+20
 24
1.000000000000000E+20
 34
1.000000000000000E+20
 15
-1.000000000000000E+20
 25
-1.000000000000000E+20
 35
-1.000000000000000E+20
146
0.0
 13
0.0
 23
0.0
 33
0.0
 16
1.0
 26
0.0
 36
0.0
 17
0.0
 27
1.0
 37
0.0
 76
     0
330
22C
  0
LAYOUT
  5
1668
102
{ACAD_REACTORS
330
1A
102
}
330
1A
100
AcDbPlotSettings
  1

  2
none_device
  4
ANSI_B_(17.00_x_11.00_Inches)
  6

 40
0.0
 41
0.0
 42
0.0
 43
0.0
 44
431.8
 45
279.4
 46
0.0
 47
0.0
 48
0.0
 49
0.0
140
0.0
141
0.0
142
1.0
143
1.0
 70
  1024
 72
     0
 73
     0
 74
     0
  7

 75
     0
147
1.0
 76
     0
 77
     2
 78
   300
148
0.0
149
0.0
100
AcDbLayout
  1
Model
 70
     0
 71
     0
 10
0.0
 20
0.0
 11
17.0
 21
11.0
 12
0.0
 22
0.0
 32
0.0
 14
0.0
 24
0.0
 34
0.0
 15
0.0
 25
0.0
 35
0.0
146
0.0
 13
0.0
 23
0.0
 33
0.0
 16
1.0
 26
0.0
 36
0.0
 17
0.0
 27
1.0
 37
0.0
 76
     0
330
22B
331
1F4
  0
MATERIAL
  5
1675
102
{ACAD_XDICTIONARY
360
1676
102
}
102
{ACAD_REACTORS
330
166C
102
}
330
166C
100
AcDbMaterial
  1
ByBlock
 72
     0
 43
0.0208333333333333
 43
0.0
 43
0.0
 43
0.0
 43
0.0
 43
0.0208333333333333
 43
0.0
 43
0.0
 43
0.0
 43
0.0
 43
1.0
 43
0.0
 43
0.0
 43
0.0
 43
0.0
 43
1.0
 77
     0
 47
0.0208333333333333
 47
0.0
 47
0.0
 47
0.0
 47
0.0
 47
0.0208333333333333
 47
0.0
 47
0.0
 47
0.0
 47
0.0
 47
1.0
 47
0.0
 47
0.0
 47
0.0
 47
0.0
 47
1.0
171
     0
 49
0.0208333333333333
 49
0.0
 49
0.0
 49
0.0
 49
0.0
 49
0.0208333333333333
 49
0.0
 49
0.0
 49
0.0
 49
0.0
 49
1.0
 49
0.0
 49
0.0
 49
0.0
 49
0.0
 49
1.0
175
     0
142
0.0208333333333333
142
0.0
142
0.0
142
0.0
142
0.0
142
0.0208333333333333
142
0.0
142
0.0
142
0.0
142
0.0
142
1.0
142
0.0
142
0.0
142
0.0
142
0.0
142
1.0
179
     0
144
0.0208333333333333
144
0.0
144
0.0
144
0.0
144
0.0
144
0.0208333333333333
144
0.0
144
0.0
144
0.0
144
0.0
144
1.0
144
0.0
144
0.0
144
0.0
144
0.0
144
1.0
147
0.0208333333333333
147
0.0
147
0.0
147
0.0
147
0.0
147
0.0208333333333333
147
0.0
147
0.0
147
0.0
147
0.0
147
1.0
147
0.0
147
0.0
147
0.0
147
0.0
147
1.0
  0
MATERIAL
  5
166D
102
{ACAD_XDICTIONARY
360
166E
102
}
102
{ACAD_REACTORS
330
166C
102
}
330
166C
100
AcDbMaterial
  1
ByLayer
 72
     0
 43
0.0208333333333333
 43
0.0
 43
0.0
 43
0.0
 43
0.0
 43
0.0208333333333333
 43
0.0
 43
0.0
 43
0.0
 43
0.0
 43
1.0
 43
0.0
 43
0.0
 43
0.0
 43
0.0
 43
1.0
 77
     0
 47
0.0208333333333333
 47
0.0
 47
0.0
 47
0.0
 47
0.0
 47
0.0208333333333333
 47
0.0
 47
0.0
 47
0.0
 47
0.0
 47
1.0
 47
0.0
 47
0.0
 47
0.0
 47
0.0
 47
1.0
171
     0
 49
0.0208333333333333
 49
0.0
 49
0.0
 49
0.0
 49
0.0
 49
0.0208333333333333
 49
0.0
 49
0.0
 49
0.0
 49
0.0
 49
1.0
 49
0.0
 49
0.0
 49
0.0
 49
0.0
 49
1.0
175
     0
142
0.0208333333333333
142
0.0
142
0.0
142
0.0
142
0.0
142
0.0208333333333333
142
0.0
142
0.0
142
0.0
142
0.0
142
1.0
142
0.0
142
0.0
142
0.0
142
0.0
142
1.0
179
     0
144
0.0208333333333333
144
0.0
144
0.0
144
0.0
144
0.0
144
0.0208333333333333
144
0.0
144
0.0
144
0.0
144
0.0
144
1.0
144
0.0
144
0.0
144
0.0
144
0.0
144
1.0
147
0.0208333333333333
147
0.0
147
0.0
147
0.0
147
0.0
147
0.0208333333333333
147
0.0
147
0.0
147
0.0
147
0.0
147
1.0
147
0.0
147
0.0
147
0.0
147
0.0
147
1.0
  0
MATERIAL
  5
167D
102
{ACAD_XDICTIONARY
360
167E
102
}
102
{ACAD_REACTORS
330
166C
102
}
330
166C
100
AcDbMaterial
  1
Global
 72
     0
 43
0.0208333333333333
 43
0.0
 43
0.0
 43
0.0
 43
0.0
 43
0.0208333333333333
 43
0.0
 43
0.0
 43
0.0
 43
0.0
 43
1.0
 43
0.0
 43
0.0
 43
0.0
 43
0.0
 43
1.0
 77
     0
 47
0.0208333333333333
 47
0.0
 47
0.0
 47
0.0
 47
0.0
 47
0.0208333333333333
 47
0.0
 47
0.0
 47
0.0
 47
0.0
 47
1.0
 47
0.0
 47
0.0
 47
0.0
 47
0.0
 47
1.0
171
     0
 49
0.0208333333333333
 49
0.0
 49
0.0
 49
0.0
 49
0.0
 49
0.0208333333333333
 49
0.0
 49
0.0
 49
0.0
 49
0.0
 49
1.0
 49
0.0
 49
0.0
 49
0.0
 49
0.0
 49
1.0
175
     0
142
0.0208333333333333
142
0.0
142
0.0
142
0.0
142
0.0
142
0.0208333333333333
142
0.0
142
0.0
142
0.0
142
0.0
142
1.0
142
0.0
142
0.0
142
0.0
142
0.0
142
1.0
179
     0
144
0.0208333333333333
144
0.0
144
0.0
144
0.0
144
0.0
144
0.0208333333333333
144
0.0
144
0.0
144
0.0
144
0.0
144
1.0
144
0.0
144
0.0
144
0.0
144
0.0
144
1.0
147
0.0208333333333333
147
0.0
147
0.0
147
0.0
147
0.0
147
0.0208333333333333
147
0.0
147
0.0
147
0.0
147
0.0
147
1.0
147
0.0
147
0.0
147
0.0
147
0.0
147
1.0
  0
MLEADERSTYLE
  5
16BF
102
{ACAD_REACTORS
330
16BE
102
}
330
16BE
100
AcDbMLeaderStyle
170
     2
171
     1
172
     0
 90
        2
 40
0.0
 41
0.0
173
     1
 91
-1056964608
340
14
 92
       -2
290
     1
 42
0.09
291
     1
 43
0.36
  3
Standard
 44
0.18
300

342
11
174
     1
178
     6
175
     1
176
     0
 93
-1056964608
 45
0.18
292
     0
297
     0
 46
0.18
 94
-1056964608
 47
1.0
 49
1.0
140
1.0
293
     1
141
0.0
294
     1
177
     0
142
1.0
295
     0
296
     0
143
0.125
1001
ACAD_MLEADERVER
1070
     2
  0
MLINESTYLE
  5
18
102
{ACAD_REACTORS
330
17
102
}
330
17
100
AcDbMlineStyle
  2
STANDARD
 70
     0
  3

 62
   256
 51
90.0
 52
90.0
 71
     2
 49
0.5
 62
   256
  6
BYLAYER
 49
-0.5
 62
   256
  6
BYLAYER
  0
ACDBPLACEHOLDER
  5
F
102
{ACAD_REACTORS
330
E
102
}
330
E
  0
SCALE
  5
169D
102
{ACAD_REACTORS
330
169C
102
}
330
169C
100
AcDbScale
 70
     0
300
1:1
140
1.0
141
1.0
290
     1
  0
SCALE
  5
169E
102
{ACAD_REACTORS
330
169C
102
}
330
169C
100
AcDbScale
 70
     0
300
1:2
140
1.0
141
2.0
290
     0
  0
SCALE
  5
169F
102
{ACAD_REACTORS
330
169C
102
}
330
169C
100
AcDbScale
 70
     0
300
1:4
140
1.0
141
4.0
290
     0
  0
SCALE
  5
16A0
102
{ACAD_REACTORS
330
169C
102
}
330
169C
100
AcDbScale
 70
     0
300
1:5
140
1.0
141
5.0
290
     0
  0
SCALE
  5
16A1
102
{ACAD_REACTORS
330
169C
102
}
330
169C
100
AcDbScale
 70
     0
300
1:8
140
1.0
141
8.0
290
     0
  0
SCALE
  5
16A2
102
{ACAD_REACTORS
330
169C
102
}
330
169C
100
AcDbScale
 70
     0
300
1:10
140
1.0
141
10.0
290
     0
  0
SCALE
  5
16A3
102
{ACAD_REACTORS
330
169C
102
}
330
169C
100
AcDbScale
 70
     0
300
1:16
140
1.0
141
16.0
290
     0
  0
SCALE
  5
16A4
102
{ACAD_REACTORS
330
169C
102
}
330
169C
100
AcDbScale
 70
     0
300
1:20
140
1.0
141
20.0
290
     0
  0
SCALE
  5
16A5
102
{ACAD_REACTORS
330
169C
102
}
330
169C
100
AcDbScale
 70
     0
300
1:30
140
1.0
141
30.0
290
     0
  0
SCALE
  5
16A6
102
{ACAD_REACTORS
330
169C
102
}
330
169C
100
AcDbScale
 70
     0
300
1:40
140
1.0
141
40.0
290
     0
  0
SCALE
  5
16A7
102
{ACAD_REACTORS
330
169C
102
}
330
169C
100
AcDbScale
 70
     0
300
1:50
140
1.0
141
50.0
290
     0
  0
SCALE
  5
16A8
102
{ACAD_REACTORS
330
169C
102
}
330
169C
100
AcDbScale
 70
     0
300
1:100
140
1.0
141
100.0
290
     0
  0
SCALE
  5
16A9
102
{ACAD_REACTORS
330
169C
102
}
330
169C
100
AcDbScale
 70
     0
300
2:1
140
2.0
141
1.0
290
     0
  0
SCALE
  5
16AA
102
{ACAD_REACTORS
330
169C
102
}
330
169C
100
AcDbScale
 70
     0
300
4:1
140
4.0
141
1.0
290
     0
  0
SCALE
  5
16AB
102
{ACAD_REACTORS
330
169C
102
}
330
169C
100
AcDbScale
 70
     0
300
8:1
140
8.0
141
1.0
290
     0
  0
SCALE
  5
16AC
102
{ACAD_REACTORS
330
169C
102
}
330
169C
100
AcDbScale
 70
     0
300
10:1
140
10.0
141
1.0
290
     0
  0
SCALE
  5
16AD
102
{ACAD_REACTORS
330
169C
102
}
330
169C
100
AcDbScale
 70
     0
300
100:1
140
100.0
141
1.0
290
     0
  0
SCALE
  5
16AE
102
{ACAD_REACTORS
330
169C
102
}
330
169C
100
AcDbScale
 70
     0
300
1/128" = 1'-0"
140
0.0078125
141
12.0
290
     0
  0
SCALE
  5
16AF
102
{ACAD_REACTORS
330
169C
102
}
330
169C
100
AcDbScale
 70
     0
300
1/64" = 1'-0"
140
0.015625
141
12.0
290
     0
  0
SCALE
  5
16B0
102
{ACAD_REACTORS
330
169C
102
}
330
169C
100
AcDbScale
 70
     0
300
1/32" = 1'-0"
140
0.03125
141
12.0
290
     0
  0
SCALE
  5
16B1
102
{ACAD_REACTORS
330
169C
102
}
330
169C
100
AcDbScale
 70
     0
300
1/16" = 1'-0"
140
0.0625
141
12.0
290
     0
  0
SCALE
  5
16B2
102
{ACAD_REACTORS
330
169C
102
}
330
169C
100
AcDbScale
 70
     0
300
3/32" = 1'-0"
140
0.09375
141
12.0
290
     0
  0
SCALE
  5
16B3
102
{ACAD_REACTORS
330
169C
102
}
330
169C
100
AcDbScale
 70
     0
300
1/8" = 1'-0"
140
0.125
141
12.0
290
     0
  0
SCALE
  5
16B4
102
{ACAD_REACTORS
330
169C
102
}
330
169C
100
AcDbScale
 70
     0
300
3/16" = 1'-0"
140
0.1875
141
12.0
290
     0
  0
SCALE
  5
16B5
102
{ACAD_REACTORS
330
169C
102
}
330
169C
100
AcDbScale
 70
     0
300
1/4" = 1'-0"
140
0.25
141
12.0
290
     0
  0
SCALE
  5
16B6
102
{ACAD_REACTORS
330
169C
102
}
330
169C
100
AcDbScale
 70
     0
300
3/8" = 1'-0"
140
0.375
141
12.0
290
     0
  0
SCALE
  5
16B7
102
{ACAD_REACTORS
330
169C
102
}
330
169C
100
AcDbScale
 70
     0
300
1/2" = 1'-0"
140
0.5
141
12.0
290
     0
  0
SCALE
  5
16B8
102
{ACAD_REACTORS
330
169C
102
}
330
169C
100
AcDbScale
 70
     0
300
3/4" = 1'-0"
140
0.75
141
12.0
290
     0
  0
SCALE
  5
16B9
102
{ACAD_REACTORS
330
169C
102
}
330
169C
100
AcDbScale
 70
     0
300
1" = 1'-0"
140
1.0
141
12.0
290
     0
  0
SCALE
  5
16BA
102
{ACAD_REACTORS
330
169C
102
}
330
169C
100
AcDbScale
 70
     0
300
1-1/2" = 1'-0"
140
1.5
141
12.0
290
     0
  0
SCALE
  5
16BB
102
{ACAD_REACTORS
330
169C
102
}
330
169C
100
AcDbScale
 70
     0
300
3" = 1'-0"
140
3.0
141
12.0
290
     0
  0
SCALE
  5
16BC
102
{ACAD_REACTORS
330
169C
102
}
330
169C
100
AcDbScale
 70
     0
300
6" = 1'-0"
140
6.0
141
12.0
290
     0
  0
SCALE
  5
16BD
102
{ACAD_REACTORS
330
169C
102
}
330
169C
100
AcDbScale
 70
     0
300
1'-0" = 1'-0"
140
12.0
141
12.0
290
     0
  0
TABLESTYLE
  5
169B
102
{ACAD_XDICTIONARY
360
16C0
102
}
102
{ACAD_REACTORS
330
169A
102
}
330
169A
100
AcDbTableStyle
  3
Standard
 70
     0
 71
     0
 40
0.06
 41
0.06
280
     0
281
     0
  7
STANDARD
140
0.18
170
     2
 62
     0
 63
     7
283
     0
 90
      512
 91
        0
  1

274
    -2
284
     1
 64
     0
275
    -2
285
     1
 65
     0
276
    -2
286
     1
 66
     0
277
    -2
287
     1
 67
     0
278
    -2
288
     1
 68
     0
279
    -2
289
     1
 69
     0
  7
STANDARD
140
0.25
170
     5
 62
     0
 63
     7
283
     0
 90
      512
 91
        0
  1

274
    -2
284
     1
 64
     0
275
    -2
285
     1
 65
     0
276
    -2
286
     1
 66
     0
277
    -2
287
     1
 67
     0
278
    -2
288
     1
 68
     0
279
    -2
289
     1
 69
     0
  7
STANDARD
140
0.18
170
     5
 62
     0
 63
     7
283
     0
 90
      512
 91
        0
  1

274
    -2
284
     1
 64
     0
275
    -2
285
     1
 65
     0
276
    -2
286
     1
 66
     0
277
    -2
287
     1
 67
     0
278
    -2
288
     1
 68
     0
279
    -2
289
     1
 69
     0
  0
VISUALSTYLE
  5
168B
102
{ACAD_XDICTIONARY
360
16D6
102
}
102
{ACAD_REACTORS
330
1685
102
}
330
1685
100
AcDbVisualStyle
  2
2dWireframe
 70
     4
 71
     0
 72
     2
 73
     0
 90
        0
 40
-0.6
 41
-30.0
 62
     5
 63
     7
 74
     1
 91
        4
 64
     7
 65
   257
 75
     1
175
     1
 42
1.0
 92
        0
 66
   257
 43
1.0
 76
     1
 77
     6
 78
     2
 67
     7
 79
     5
170
     0
171
     0
290
     0
174
     0
 93
        1
 44
0.0
173
     0
291
     0
 45
0.0
  0
VISUALSTYLE
  5
168D
102
{ACAD_XDICTIONARY
360
16DA
102
}
102
{ACAD_REACTORS
330
1685
102
}
330
1685
100
AcDbVisualStyle
  2
3D Hidden
 70
     6
 71
     1
 72
     2
 73
     2
 90
        0
 40
-0.6
 41
-30.0
 62
     5
 63
     7
 74
     2
 91
        2
 64
     7
 65
   257
 75
     2
175
     1
 42
179.0
 92
        0
 66
   257
 43
1.0
 76
     1
 77
     6
 78
     2
 67
     7
 79
     3
170
     0
171
     0
290
     0
174
     0
 93
        1
 44
0.0
173
     0
291
     0
 45
0.0
  0
VISUALSTYLE
  5
168C
102
{ACAD_XDICTIONARY
360
16D8
102
}
102
{ACAD_REACTORS
330
1685
102
}
330
1685
100
AcDbVisualStyle
  2
3dWireframe
 70
     5
 71
     0
 72
     2
 73
     0
 90
        0
 40
-0.6
 41
-30.0
 62
     5
 63
     7
 74
     1
 91
        4
 64
     7
 65
   257
 75
     1
175
     1
 42
1.0
 92
        0
 66
   257
 43
1.0
 76
     1
 77
     6
 78
     2
 67
     7
 79
     5
170
     0
171
     0
290
     0
174
     0
 93
        1
 44
0.0
173
     0
291
     0
 45
0.0
  0
VISUALSTYLE
  5
168A
102
{ACAD_XDICTIONARY
360
16D4
102
}
102
{ACAD_REACTORS
330
1685
102
}
330
1685
100
AcDbVisualStyle
  2
Basic
 70
     7
 71
     1
 72
     0
 73
     1
 90
        0
 40
-0.6
 41
-30.0
 62
     5
 63
     7
 74
     0
 91
        4
 64
     7
 65
   257
 75
     1
175
     1
 42
1.0
 92
        8
 66
     7
 43
1.0
 76
     1
 77
     6
 78
     2
 67
     7
 79
     5
170
     0
171
     0
290
     0
174
     0
 93
        1
 44
0.0
173
     0
291
     1
 45
0.0
  0
VISUALSTYLE
  5
1691
102
{ACAD_XDICTIONARY
360
16E2
102
}
102
{ACAD_REACTORS
330
1685
102
}
330
1685
100
AcDbVisualStyle
  2
Brighten
 70
    12
 71
     2
 72
     2
 73
     0
 90
        0
 40
-0.6
 41
-30.0
 62
     5
 63
     7
 74
     1
 91
        4
 64
     7
 65
   257
 75
     1
175
     1
 42
1.0
 92
        8
 66
     7
 43
1.0
 76
     1
 77
     6
 78
     2
 67
     7
 79
     5
170
     0
171
     0
290
     0
174
     0
 93
        1
 44
50.0
173
     0
291
     1
 45
0.0
  0
VISUALSTYLE
  5
1695
102
{ACAD_XDICTIONARY
360
16EA
102
}
102
{ACAD_REACTORS
330
1685
102
}
330
1685
100
AcDbVisualStyle
  2
ColorChange
 70
    16
 71
     2
 72
     2
 73
     3
 90
        0
 40
-0.6
 41
-30.0
 62
     5
 63
     8
 74
     1
 91
        4
 64
     7
 65
   257
 75
     1
175
     1
 42
1.0
 92
        8
 66
     8
 43
1.0
 76
     1
 77
     6
 78
     2
 67
     7
 79
     5
170
     0
171
     0
290
     0
174
     0
 93
        1
 44
0.0
173
     0
291
     1
 45
0.0
  0
VISUALSTYLE
  5
168E
102
{ACAD_XDICTIONARY
360
16DC
102
}
102
{ACAD_REACTORS
330
1685
102
}
330
1685
100
AcDbVisualStyle
  2
Conceptual
 70
     9
 71
     3
 72
     2
 73
     0
 90
        0
 40
-0.6
 41
-30.0
 62
     5
 63
     7
 74
     2
 91
        2
 64
     7
 65
   257
 75
     1
175
     1
 42
179.0
 92
        8
 66
     7
 43
1.0
 76
     1
 77
     6
 78
     2
 67
     7
 79
     3
170
     0
171
     0
290
     0
174
     0
 93
        1
 44
0.0
173
     0
291
     0
 45
0.0
  0
VISUALSTYLE
  5
1690
102
{ACAD_XDICTIONARY
360
16E0
102
}
102
{ACAD_REACTORS
330
1685
102
}
330
1685
100
AcDbVisualStyle
  2
Dim
 70
    11
 71
     2
 72
     2
 73
     0
 90
        0
 40
-0.6
 41
-30.0
 62
     5
 63
     7
 74
     1
 91
        4
 64
     7
 65
   257
 75
     1
175
     1
 42
1.0
 92
        8
 66
     7
 43
1.0
 76
     1
 77
     6
 78
     2
 67
     7
 79
     5
170
     0
171
     0
290
     0
174
     0
 93
        1
 44
-50.0
173
     0
291
     1
 45
0.0
  0
VISUALSTYLE
  5
1698
102
{ACAD_XDICTIONARY
360
16F0
102
}
102
{ACAD_REACTORS
330
1685
102
}
330
1685
100
AcDbVisualStyle
  2
EdgeColorOff
 70
    22
 71
     2
 72
     2
 73
     0
 90
        0
 40
-0.6
 41
-30.0
 62
     5
 63
     7
 74
     1
 91
        4
 64
     7
 65
   257
 75
     1
175
     1
 42
1.0
 92
        8
 66
     7
 43
1.0
 76
     1
 77
     6
 78
     2
 67
     7
 79
     5
170
     0
171
     0
290
     0
174
     0
 93
        1
 44
0.0
173
     0
291
     1
 45
0.0
  0
VISUALSTYLE
  5
1694
102
{ACAD_XDICTIONARY
360
16E8
102
}
102
{ACAD_REACTORS
330
1685
102
}
330
1685
100
AcDbVisualStyle
  2
Facepattern
 70
    15
 71
     2
 72
     2
 73
     0
 90
        0
 40
-0.6
 41
-30.0
 62
     5
 63
     7
 74
     1
 91
        4
 64
     7
 65
   257
 75
     1
175
     1
 42
1.0
 92
        8
 66
     7
 43
1.0
 76
     1
 77
     6
 78
     2
 67
     7
 79
     5
170
     0
171
     0
290
     0
174
     0
 93
        1
 44
0.0
173
     0
291
     1
 45
0.0
  0
VISUALSTYLE
  5
1686
102
{ACAD_XDICTIONARY
360
16CC
102
}
102
{ACAD_REACTORS
330
1685
102
}
330
1685
100
AcDbVisualStyle
  2
Flat
 70
     0
 71
     2
 72
     1
 73
     1
 90
        2
 40
-0.6
 41
30.0
 62
     5
 63
     7
 74
     0
 91
        4
 64
     7
 65
   257
 75
     1
175
     1
 42
1.0
 92
        8
 66
     7
 43
1.0
 76
     1
 77
     6
 78
     2
 67
     7
 79
     5
170
     0
171
     0
290
     0
174
     0
 93
       13
 44
0.0
173
     0
291
     1
 45
0.0
  0
VISUALSTYLE
  5
1687
102
{ACAD_XDICTIONARY
360
16CE
102
}
102
{ACAD_REACTORS
330
1685
102
}
330
1685
100
AcDbVisualStyle
  2
FlatWithEdges
 70
     1
 71
     2
 72
     1
 73
     1
 90
        2
 40
-0.6
 41
30.0
 62
     5
 63
     7
 74
     1
 91
        4
 64
     7
 65
   257
 75
     1
175
     1
 42
1.0
 92
        0
 66
   257
 43
1.0
 76
     1
 77
     6
 78
     2
 67
     7
 79
     5
170
     0
171
     0
290
     0
174
     0
 93
       13
 44
0.0
173
     0
291
     1
 45
0.0
  0
VISUALSTYLE
  5
1688
102
{ACAD_XDICTIONARY
360
16D0
102
}
102
{ACAD_REACTORS
330
1685
102
}
330
1685
100
AcDbVisualStyle
  2
Gouraud
 70
     2
 71
     2
 72
     2
 73
     1
 90
        2
 40
-0.6
 41
30.0
 62
     5
 63
     7
 74
     0
 91
        4
 64
     7
 65
   257
 75
     1
175
     1
 42
1.0
 92
        0
 66
     7
 43
1.0
 76
     1
 77
     6
 78
     2
 67
     7
 79
     5
170
     0
171
     0
290
     0
174
     0
 93
       13
 44
0.0
173
     0
291
     1
 45
0.0
  0
VISUALSTYLE
  5
1689
102
{ACAD_XDICTIONARY
360
16D2
102
}
102
{ACAD_REACTORS
330
1685
102
}
330
1685
100
AcDbVisualStyle
  2
GouraudWithEdges
 70
     3
 71
     2
 72
     2
 73
     1
 90
        2
 40
-0.6
 41
30.0
 62
     5
 63
     7
 74
     1
 91
        4
 64
     7
 65
   257
 75
     1
175
     1
 42
1.0
 92
        0
 66
   257
 43
1.0
 76
     1
 77
     6
 78
     2
 67
     7
 79
     5
170
     0
171
     0
290
     0
174
     0
 93
       13
 44
0.0
173
     0
291
     1
 45
0.0
  0
VISUALSTYLE
  5
1696
102
{ACAD_XDICTIONARY
360
16EC
102
}
102
{ACAD_REACTORS
330
1685
102
}
330
1685
100
AcDbVisualStyle
  2
JitterOff
 70
    20
 71
     2
 72
     2
 73
     0
 90
        0
 40
-0.6
 41
-30.0
 62
     5
 63
     7
 74
     1
 91
        4
 64
     7
 65
   257
 75
     1
175
     1
 42
1.0
 92
       10
 66
     7
 43
1.0
 76
     1
 77
     6
 78
     2
 67
     7
 79
     5
170
     0
171
     0
290
     0
174
     0
 93
        1
 44
0.0
173
     0
291
     1
 45
0.0
  0
VISUALSTYLE
  5
1693
102
{ACAD_XDICTIONARY
360
16E6
102
}
102
{ACAD_REACTORS
330
1685
102
}
330
1685
100
AcDbVisualStyle
  2
Linepattern
 70
    14
 71
     2
 72
     2
 73
     0
 90
        0
 40
-0.6
 41
-30.0
 62
     5
 63
     7
 74
     1
 91
        4
 64
     7
 65
   257
 75
     7
175
     7
 42
1.0
 92
        8
 66
     7
 43
1.0
 76
     1
 77
     6
 78
     2
 67
     7
 79
     5
170
     0
171
     0
290
     0
174
     0
 93
        1
 44
0.0
173
     0
291
     1
 45
0.0
  0
VISUALSTYLE
  5
1697
102
{ACAD_XDICTIONARY
360
16EE
102
}
102
{ACAD_REACTORS
330
1685
102
}
330
1685
100
AcDbVisualStyle
  2
OverhangOff
 70
    21
 71
     2
 72
     2
 73
     0
 90
        0
 40
-0.6
 41
-30.0
 62
     5
 63
     7
 74
     1
 91
        4
 64
     7
 65
   257
 75
     1
175
     1
 42
1.0
 92
        9
 66
     7
 43
1.0
 76
     1
 77
     6
 78
     2
 67
     7
 79
     5
170
     0
171
     0
290
     0
174
     0
 93
        1
 44
0.0
173
     0
291
     1
 45
0.0
  0
VISUALSTYLE
  5
168F
102
{ACAD_XDICTIONARY
360
16DE
102
}
102
{ACAD_REACTORS
330
1685
102
}
330
1685
100
AcDbVisualStyle
  2
Realistic
 70
     8
 71
     2
 72
     2
 73
     0
 90
        0
 40
-0.6
 41
-30.0
 62
     5
 63
     7
 74
     1
 91
        0
 64
     7
 65
   257
 75
     1
175
     1
 42
1.0
 92
        8
 66
     8
 43
1.0
 76
     1
 77
     6
 78
     2
 67
     7
 79
     5
170
     0
171
     0
290
     0
174
     0
 93
       13
 44
0.0
173
     0
291
     0
 45
0.0
  0
VISUALSTYLE
  5
1692
102
{ACAD_XDICTIONARY
360
16E4
102
}
102
{ACAD_REACTORS
330
1685
102
}
330
1685
100
AcDbVisualStyle
  2
Thicken
 70
    13
 71
     2
 72
     2
 73
     0
 90
        0
 40
-0.6
 41
-30.0
 62
     5
 63
     7
 74
     1
 91
        4
 64
     7
 65
   257
 75
     1
175
     1
 42
1.0
 92
       12
 66
     7
 43
1.0
 76
     1
 77
     6
 78
     2
 67
     7
 79
     5
170
     0
171
     0
290
     0
174
     0
 93
        1
 44
0.0
173
     0
291
     1
 45
0.0
  0
DICTIONARYVAR
  5
16F7
102
{ACAD_REACTORS
330
16F4
102
}
330
16F4
100
DictionaryVariables
280
     0
  1
1:1
  0
DICTIONARYVAR
  5
16F6
102
{ACAD_REACTORS
330
16F4
102
}
330
16F4
100
DictionaryVariables
280
     0
  1
STANDARD
  0
DICTIONARYVAR
  5
16F5
102
{ACAD_REACTORS
330
16F4
102
}
330
16F4
100
DictionaryVariables
280
     0
  1
STANDARD
  0
DICTIONARYVAR
  5
16FA
102
{ACAD_REACTORS
330
16F4
102
}
330
16F4
100
DictionaryVariables
280
     0
  1
1
  0
DICTIONARYVAR
  5
16F9
102
{ACAD_REACTORS
330
16F4
102
}
330
16F4
100
DictionaryVariables
280
     0
  1
0
  0
DICTIONARYVAR
  5
175A
102
{ACAD_REACTORS
330
16F4
102
}
330
16F4
100
DictionaryVariables
280
     0
  1
1
  0
DICTIONARYVAR
  5
175B
102
{ACAD_REACTORS
330
16F4
102
}
330
16F4
100
DictionaryVariables
280
     0
  1
15
  0
DICTIONARYVAR
  5
1759
102
{ACAD_REACTORS
330
16F4
102
}
330
16F4
100
DictionaryVariables
280
     0
  1
0
  0
DICTIONARYVAR
  5
1758
102
{ACAD_REACTORS
330
16F4
102
}
330
16F4
100
DictionaryVariables
280
     0
  1
0
  0
DICTIONARYVAR
  5
16F8
102
{ACAD_REACTORS
330
16F4
102
}
330
16F4
100
DictionaryVariables
280
     0
  1
127
  0
DICTIONARYVAR
  5
16FB
102
{ACAD_REACTORS
330
16F4
102
}
330
16F4
100
DictionaryVariables
280
     0
  1
2
  0
DICTIONARY
  5
1676
330
1675
100
AcDbDictionary
280
     1
281
     1
  3
BUMPTILE
360
1678
  3
DIFFUSETILE
360
1677
  3
OPACITYTILE
360
167B
  3
REFLECTIONTILE
360
167A
  3
REFRACTIONTILE
360
167C
  3
SPECULARTILE
360
1679
  0
DICTIONARY
  5
166E
330
166D
100
AcDbDictionary
280
     1
281
     1
  3
BUMPTILE
360
1670
  3
DIFFUSETILE
360
166F
  3
OPACITYTILE
360
1673
  3
REFLECTIONTILE
360
1672
  3
REFRACTIONTILE
360
1674
  3
SPECULARTILE
360
1671
  0
DICTIONARY
  5
167E
330
167D
100
AcDbDictionary
280
     1
281
     1
  3
BUMPTILE
360
1680
  3
DIFFUSETILE
360
167F
  3
OPACITYTILE
360
1683
  3
REFLECTIONTILE
360
1682
  3
REFRACTIONTILE
360
1684
  3
SPECULARTILE
360
1681
  0
DICTIONARY
  5
16C0
330
169B
100
AcDbDictionary
280
     1
281
     1
  3
ACAD_ROUNDTRIP_2008_TABLESTYLE_CELLSTYLEMAP
360
1769
  0
DICTIONARY
  5
16D6
330
168B
100
AcDbDictionary
280
     1
281
     1
  3
ACAD_XREC_ROUNDTRIP
360
16D7
  0
DICTIONARY
  5
16DA
330
168D
100
AcDbDictionary
280
     1
281
     1
  3
ACAD_XREC_ROUNDTRIP
360
16DB
  0
DICTIONARY
  5
16D8
330
168C
100
AcDbDictionary
280
     1
281
     1
  3
ACAD_XREC_ROUNDTRIP
360
16D9
  0
DICTIONARY
  5
16D4
330
168A
100
AcDbDictionary
280
     1
281
     1
  3
ACAD_XREC_ROUNDTRIP
360
16D5
  0
DICTIONARY
  5
16E2
330
1691
100
AcDbDictionary
280
     1
281
     1
  3
ACAD_XREC_ROUNDTRIP
360
16E3
  0
DICTIONARY
  5
16EA
330
1695
100
AcDbDictionary
280
     1
281
     1
  3
ACAD_XREC_ROUNDTRIP
360
16EB
  0
DICTIONARY
  5
16DC
330
168E
100
AcDbDictionary
280
     1
281
     1
  3
ACAD_XREC_ROUNDTRIP
360
16DD
  0
DICTIONARY
  5
16E0
330
1690
100
AcDbDictionary
280
     1
281
     1
  3
ACAD_XREC_ROUNDTRIP
360
16E1
  0
DICTIONARY
  5
16F0
330
1698
100
AcDbDictionary
280
     1
281
     1
  3
ACAD_XREC_ROUNDTRIP
360
16F1
  0
DICTIONARY
  5
16E8
330
1694
100
AcDbDictionary
280
     1
281
     1
  3
ACAD_XREC_ROUNDTRIP
360
16E9
  0
DICTIONARY
  5
16CC
330
1686
100
AcDbDictionary
280
     1
281
     1
  3
ACAD_XREC_ROUNDTRIP
360
16CD
  0
DICTIONARY
  5
16CE
330
1687
100
AcDbDictionary
280
     1
281
     1
  3
ACAD_XREC_ROUNDTRIP
360
16CF
  0
DICTIONARY
  5
16D0
330
1688
100
AcDbDictionary
280
     1
281
     1
  3
ACAD_XREC_ROUNDTRIP
360
16D1
  0
DICTIONARY
  5
16D2
330
1689
100
AcDbDictionary
280
     1
281
     1
  3
ACAD_XREC_ROUNDTRIP
360
16D3
  0
DICTIONARY
  5
16EC
330
1696
100
AcDbDictionary
280
     1
281
     1
  3
ACAD_XREC_ROUNDTRIP
360
16ED
  0
DICTIONARY
  5
16E6
330
1693
100
AcDbDictionary
280
     1
281
     1
  3
ACAD_XREC_ROUNDTRIP
360
16E7
  0
DICTIONARY
  5
16EE
330
1697
100
AcDbDictionary
280
     1
281
     1
  3
ACAD_XREC_ROUNDTRIP
360
16EF
  0
DICTIONARY
  5
16DE
330
168F
100
AcDbDictionary
280
     1
281
     1
  3
ACAD_XREC_ROUNDTRIP
360
16DF
  0
DICTIONARY
  5
16E4
330
1692
100
AcDbDictionary
280
     1
281
     1
  3
ACAD_XREC_ROUNDTRIP
360
16E5
  0
XRECORD
  5
1678
102
{ACAD_REACTORS
330
1676
102
}
330
1676
100
AcDbXrecord
280
     1
270
     1
271
     1
  0
XRECORD
  5
1677
102
{ACAD_REACTORS
330
1676
102
}
330
1676
100
AcDbXrecord
280
     1
270
     1
271
     1
  0
XRECORD
  5
167B
102
{ACAD_REACTORS
330
1676
102
}
330
1676
100
AcDbXrecord
280
     1
270
     1
271
     1
  0
XRECORD
  5
167A
102
{ACAD_REACTORS
330
1676
102
}
330
1676
100
AcDbXrecord
280
     1
270
     1
271
     1
  0
XRECORD
  5
167C
102
{ACAD_REACTORS
330
1676
102
}
330
1676
100
AcDbXrecord
280
     1
270
     1
271
     1
  0
XRECORD
  5
1679
102
{ACAD_REACTORS
330
1676
102
}
330
1676
100
AcDbXrecord
280
     1
270
     1
271
     1
  0
XRECORD
  5
1670
102
{ACAD_REACTORS
330
166E
102
}
330
166E
100
AcDbXrecord
280
     1
270
     1
271
     1
  0
XRECORD
  5
166F
102
{ACAD_REACTORS
330
166E
102
}
330
166E
100
AcDbXrecord
280
     1
270
     1
271
     1
  0
XRECORD
  5
1673
102
{ACAD_REACTORS
330
166E
102
}
330
166E
100
AcDbXrecord
280
     1
270
     1
271
     1
  0
XRECORD
  5
1672
102
{ACAD_REACTORS
330
166E
102
}
330
166E
100
AcDbXrecord
280
     1
270
     1
271
     1
  0
XRECORD
  5
1674
102
{ACAD_REACTORS
330
166E
102
}
330
166E
100
AcDbXrecord
280
     1
270
     1
271
     1
  0
XRECORD
  5
1671
102
{ACAD_REACTORS
330
166E
102
}
330
166E
100
AcDbXrecord
280
     1
270
     1
271
     1
  0
XRECORD
  5
1680
102
{ACAD_REACTORS
330
167E
102
}
330
167E
100
AcDbXrecord
280
     1
270
     1
271
     1
  0
XRECORD
  5
167F
102
{ACAD_REACTORS
330
167E
102
}
330
167E
100
AcDbXrecord
280
     1
270
     1
271
     1
  0
XRECORD
  5
1683
102
{ACAD_REACTORS
330
167E
102
}
330
167E
100
AcDbXrecord
280
     1
270
     1
271
     1
  0
XRECORD
  5
1682
102
{ACAD_REACTORS
330
167E
102
}
330
167E
100
AcDbXrecord
280
     1
270
     1
271
     1
  0
XRECORD
  5
1684
102
{ACAD_REACTORS
330
167E
102
}
330
167E
100
AcDbXrecord
280
     1
270
     1
271
     1
  0
XRECORD
  5
1681
102
{ACAD_REACTORS
330
167E
102
}
330
167E
100
AcDbXrecord
280
     1
270
     1
271
     1
  0
CELLSTYLEMAP
  5
1769
102
{ACAD_REACTORS
330
16C0
102
}
330
16C0
100
AcDbCellStyleMap
 90
        3
300
CELLSTYLE
  1
TABLEFORMAT_BEGIN
 90
        5
170
     1
 91
        0
 92
    32768
 62
   257
 93
        1
300
CONTENTFORMAT
  1
CONTENTFORMAT_BEGIN
 90
        0
 91
        0
 92
      512
 93
        0
300

 40
0.0
140
1.0
 94
        5
 62
     0
340
11
144
0.25
309
CONTENTFORMAT_END
171
     0
 94
        0
309
TABLEFORMAT_END
  1
CELLSTYLE_BEGIN
 90
        1
 91
        1
300
_TITLE
309
CELLSTYLE_END
300
CELLSTYLE
  1
TABLEFORMAT_BEGIN
 90
        5
170
     1
 91
        0
 92
        0
 62
   257
 93
        1
300
CONTENTFORMAT
  1
CONTENTFORMAT_BEGIN
 90
        0
 91
        0
 92
      512
 93
        0
300

 40
0.0
140
1.0
 94
        5
 62
     0
340
11
144
0.18
309
CONTENTFORMAT_END
171
     0
 94
        0
309
TABLEFORMAT_END
  1
CELLSTYLE_BEGIN
 90
        2
 91
        1
300
_HEADER
309
CELLSTYLE_END
300
CELLSTYLE
  1
TABLEFORMAT_BEGIN
 90
        5
170
     1
 91
        0
 92
        0
 62
   257
 93
        1
300
CONTENTFORMAT
  1
CONTENTFORMAT_BEGIN
 90
        0
 91
        0
 92
      512
 93
        0
300

 40
0.0
140
1.0
 94
        2
 62
     0
340
11
144
0.18
309
CONTENTFORMAT_END
171
     0
 94
        0
309
TABLEFORMAT_END
  1
CELLSTYLE_BEGIN
 90
        3
 91
        2
300
_DATA
309
CELLSTYLE_END
  0
XRECORD
  5
16D7
102
{ACAD_REACTORS
330
16D6
102
}
330
16D6
100
AcDbXrecord
280
     1
102
RTVSPropertyOp0
 70
     1
102
RTVSPropertyOp1
 70
     1
102
RTVSPropertyOp2
 70
     1
102
RTVSPropertyOp3
 70
     1
102
RTVSPropertyOp4
 70
     1
102
RTVSPropertyOp5
 70
     1
102
RTVSPropertyOp6
 70
     1
102
RTVSPropertyOp7
 70
     1
102
RTVSPropertyOp8
 70
     1
102
RTVSPropertyOp9
 70
     1
102
RTVSPropertyOp10
 70
     1
102
RTVSPropertyOp11
 70
     1
102
RTVSPropertyOp12
 70
     1
102
RTVSPropertyOp13
 70
     1
102
RTVSPropertyOp14
 70
     1
102
RTVSPropertyOp15
 70
     1
102
RTVSPropertyOp16
 70
     1
102
RTVSPropertyOp17
 70
     1
102
RTVSPropertyOp18
 70
     1
102
RTVSPropertyOp19
 70
     1
102
RTVSPropertyOp20
 70
     1
102
RTVSPropertyOp21
 70
     1
102
RTVSPropertyOp22
 70
     1
102
RTVSPropertyOp23
 70
     1
102
RTVSPropertyOp24
 70
     1
102
RTVSPropertyOp25
 70
     1
102
RTVSPropertyOp26
 70
     1
102
RTVSPropertyOp27
 70
     1
  0
XRECORD
  5
16DB
102
{ACAD_REACTORS
330
16DA
102
}
330
16DA
100
AcDbXrecord
280
     1
102
RTVSPropertyOp0
 70
     1
102
RTVSPropertyOp1
 70
     1
102
RTVSPropertyOp2
 70
     1
102
RTVSPropertyOp3
 70
     1
102
RTVSPropertyOp4
 70
     1
102
RTVSPropertyOp5
 70
     1
102
RTVSPropertyOp6
 70
     1
102
RTVSPropertyOp7
 70
     1
102
RTVSPropertyOp8
 70
     1
102
RTVSPropertyOp9
 70
     1
102
RTVSPropertyOp10
 70
     1
102
RTVSPropertyOp11
 70
     1
102
RTVSPropertyOp12
 70
     1
102
RTVSPropertyOp13
 70
     1
102
RTVSPropertyOp14
 70
     1
102
RTVSPropertyOp15
 70
     1
102
RTVSPropertyOp16
 70
     1
102
RTVSPropertyOp17
 70
     1
102
RTVSPropertyOp18
 70
     1
102
RTVSPropertyOp19
 70
     1
102
RTVSPropertyOp20
 70
     1
102
RTVSPropertyOp21
 70
     1
102
RTVSPropertyOp22
 70
     1
102
RTVSPropertyOp23
 70
     1
102
RTVSPropertyOp24
 70
     1
102
RTVSPropertyOp25
 70
     1
102
RTVSPropertyOp26
 70
     1
102
RTVSPropertyOp27
 70
     1
  0
XRECORD
  5
16D9
102
{ACAD_REACTORS
330
16D8
102
}
330
16D8
100
AcDbXrecord
280
     1
102
RTVSPropertyOp0
 70
     1
102
RTVSPropertyOp1
 70
     1
102
RTVSPropertyOp2
 70
     1
102
RTVSPropertyOp3
 70
     1
102
RTVSPropertyOp4
 70
     1
102
RTVSPropertyOp5
 70
     1
102
RTVSPropertyOp6
 70
     1
102
RTVSPropertyOp7
 70
     1
102
RTVSPropertyOp8
 70
     1
102
RTVSPropertyOp9
 70
     1
102
RTVSPropertyOp10
 70
     1
102
RTVSPropertyOp11
 70
     1
102
RTVSPropertyOp12
 70
     1
102
RTVSPropertyOp13
 70
     1
102
RTVSPropertyOp14
 70
     1
102
RTVSPropertyOp15
 70
     1
102
RTVSPropertyOp16
 70
     1
102
RTVSPropertyOp17
 70
     1
102
RTVSPropertyOp18
 70
     1
102
RTVSPropertyOp19
 70
     1
102
RTVSPropertyOp20
 70
     1
102
RTVSPropertyOp21
 70
     1
102
RTVSPropertyOp22
 70
     1
102
RTVSPropertyOp23
 70
     1
102
RTVSPropertyOp24
 70
     1
102
RTVSPropertyOp25
 70
     1
102
RTVSPropertyOp26
 70
     1
102
RTVSPropertyOp27
 70
     1
  0
XRECORD
  5
16D5
102
{ACAD_REACTORS
330
16D4
102
}
330
16D4
100
AcDbXrecord
280
     1
102
RTVSPropertyOp0
 70
     1
102
RTVSPropertyOp1
 70
     1
102
RTVSPropertyOp2
 70
     1
102
RTVSPropertyOp3
 70
     1
102
RTVSPropertyOp4
 70
     1
102
RTVSPropertyOp5
 70
     1
102
RTVSPropertyOp6
 70
     1
102
RTVSPropertyOp7
 70
     1
102
RTVSPropertyOp8
 70
     1
102
RTVSPropertyOp9
 70
     1
102
RTVSPropertyOp10
 70
     1
102
RTVSPropertyOp11
 70
     1
102
RTVSPropertyOp12
 70
     1
102
RTVSPropertyOp13
 70
     1
102
RTVSPropertyOp14
 70
     1
102
RTVSPropertyOp15
 70
     1
102
RTVSPropertyOp16
 70
     1
102
RTVSPropertyOp17
 70
     1
102
RTVSPropertyOp18
 70
     1
102
RTVSPropertyOp19
 70
     1
102
RTVSPropertyOp20
 70
     1
102
RTVSPropertyOp21
 70
     1
102
RTVSPropertyOp22
 70
     1
102
RTVSPropertyOp23
 70
     1
102
RTVSPropertyOp24
 70
     1
102
RTVSPropertyOp25
 70
     1
102
RTVSPropertyOp26
 70
     1
102
RTVSPropertyOp27
 70
     1
  0
XRECORD
  5
16E3
102
{ACAD_REACTORS
330
16E2
102
}
330
16E2
100
AcDbXrecord
280
     1
102
RTVSPropertyOp0
 70
     1
102
RTVSPropertyOp1
 70
     1
102
RTVSPropertyOp2
 70
     1
102
RTVSPropertyOp3
 70
     1
102
RTVSPropertyOp4
 70
     1
102
RTVSPropertyOp5
 70
     1
102
RTVSPropertyOp6
 70
     1
102
RTVSPropertyOp7
 70
     1
102
RTVSPropertyOp8
 70
     1
102
RTVSPropertyOp9
 70
     1
102
RTVSPropertyOp10
 70
     1
102
RTVSPropertyOp11
 70
     1
102
RTVSPropertyOp12
 70
     1
102
RTVSPropertyOp13
 70
     1
102
RTVSPropertyOp14
 70
     1
102
RTVSPropertyOp15
 70
     1
102
RTVSPropertyOp16
 70
     1
102
RTVSPropertyOp17
 70
     1
102
RTVSPropertyOp18
 70
     1
102
RTVSPropertyOp19
 70
     1
102
RTVSPropertyOp20
 70
     1
102
RTVSPropertyOp21
 70
     1
102
RTVSPropertyOp22
 70
     1
102
RTVSPropertyOp23
 70
     1
102
RTVSPropertyOp24
 70
     1
102
RTVSPropertyOp25
 70
     1
102
RTVSPropertyOp26
 70
     1
102
RTVSPropertyOp27
 70
     1
  0
XRECORD
  5
16EB
102
{ACAD_REACTORS
330
16EA
102
}
330
16EA
100
AcDbXrecord
280
     1
102
RTVSPropertyOp0
 70
     1
102
RTVSPropertyOp1
 70
     1
102
RTVSPropertyOp2
 70
     1
102
RTVSPropertyOp3
 70
     1
102
RTVSPropertyOp4
 70
     1
102
RTVSPropertyOp5
 70
     1
102
RTVSPropertyOp6
 70
     1
102
RTVSPropertyOp7
 70
     1
102
RTVSPropertyOp8
 70
     1
102
RTVSPropertyOp9
 70
     1
102
RTVSPropertyOp10
 70
     1
102
RTVSPropertyOp11
 70
     1
102
RTVSPropertyOp12
 70
     1
102
RTVSPropertyOp13
 70
     1
102
RTVSPropertyOp14
 70
     1
102
RTVSPropertyOp15
 70
     1
102
RTVSPropertyOp16
 70
     1
102
RTVSPropertyOp17
 70
     1
102
RTVSPropertyOp18
 70
     1
102
RTVSPropertyOp19
 70
     1
102
RTVSPropertyOp20
 70
     1
102
RTVSPropertyOp21
 70
     1
102
RTVSPropertyOp22
 70
     1
102
RTVSPropertyOp23
 70
     1
102
RTVSPropertyOp24
 70
     1
102
RTVSPropertyOp25
 70
     1
102
RTVSPropertyOp26
 70
     1
102
RTVSPropertyOp27
 70
     1
  0
XRECORD
  5
16DD
102
{ACAD_REACTORS
330
16DC
102
}
330
16DC
100
AcDbXrecord
280
     1
102
RTVSPropertyOp0
 70
     1
102
RTVSPropertyOp1
 70
     1
102
RTVSPropertyOp2
 70
     1
102
RTVSPropertyOp3
 70
     1
102
RTVSPropertyOp4
 70
     1
102
RTVSPropertyOp5
 70
     1
102
RTVSPropertyOp6
 70
     1
102
RTVSPropertyOp7
 70
     1
102
RTVSPropertyOp8
 70
     1
102
RTVSPropertyOp9
 70
     1
102
RTVSPropertyOp10
 70
     1
102
RTVSPropertyOp11
 70
     1
102
RTVSPropertyOp12
 70
     1
102
RTVSPropertyOp13
 70
     1
102
RTVSPropertyOp14
 70
     1
102
RTVSPropertyOp15
 70
     1
102
RTVSPropertyOp16
 70
     1
102
RTVSPropertyOp17
 70
     1
102
RTVSPropertyOp18
 70
     1
102
RTVSPropertyOp19
 70
     1
102
RTVSPropertyOp20
 70
     1
102
RTVSPropertyOp21
 70
     1
102
RTVSPropertyOp22
 70
     1
102
RTVSPropertyOp23
 70
     1
102
RTVSPropertyOp24
 70
     1
102
RTVSPropertyOp25
 70
     1
102
RTVSPropertyOp26
 70
     1
102
RTVSPropertyOp27
 70
     1
  0
XRECORD
  5
16E1
102
{ACAD_REACTORS
330
16E0
102
}
330
16E0
100
AcDbXrecord
280
     1
102
RTVSPropertyOp0
 70
     1
102
RTVSPropertyOp1
 70
     1
102
RTVSPropertyOp2
 70
     1
102
RTVSPropertyOp3
 70
     1
102
RTVSPropertyOp4
 70
     1
102
RTVSPropertyOp5
 70
     1
102
RTVSPropertyOp6
 70
     1
102
RTVSPropertyOp7
 70
     1
102
RTVSPropertyOp8
 70
     1
102
RTVSPropertyOp9
 70
     1
102
RTVSPropertyOp10
 70
     1
102
RTVSPropertyOp11
 70
     1
102
RTVSPropertyOp12
 70
     1
102
RTVSPropertyOp13
 70
     1
102
RTVSPropertyOp14
 70
     1
102
RTVSPropertyOp15
 70
     1
102
RTVSPropertyOp16
 70
     1
102
RTVSPropertyOp17
 70
     1
102
RTVSPropertyOp18
 70
     1
102
RTVSPropertyOp19
 70
     1
102
RTVSPropertyOp20
 70
     1
102
RTVSPropertyOp21
 70
     1
102
RTVSPropertyOp22
 70
     1
102
RTVSPropertyOp23
 70
     1
102
RTVSPropertyOp24
 70
     1
102
RTVSPropertyOp25
 70
     1
102
RTVSPropertyOp26
 70
     1
102
RTVSPropertyOp27
 70
     1
  0
XRECORD
  5
16F1
102
{ACAD_REACTORS
330
16F0
102
}
330
16F0
100
AcDbXrecord
280
     1
102
RTVSPropertyOp0
 70
     0
102
RTVSPropertyOp1
 70
     0
102
RTVSPropertyOp2
 70
     0
102
RTVSPropertyOp3
 70
     0
102
RTVSPropertyOp4
 70
     0
102
RTVSPropertyOp5
 70
     0
102
RTVSPropertyOp6
 70
     0
102
RTVSPropertyOp7
 70
     0
102
RTVSPropertyOp8
 70
     0
102
RTVSPropertyOp9
 70
     0
102
RTVSPropertyOp10
 70
     0
102
RTVSPropertyOp11
 70
     0
102
RTVSPropertyOp12
 70
     0
102
RTVSPropertyOp13
 70
     0
102
RTVSPropertyOp14
 70
     2
102
RTVSPropertyOp15
 70
     0
102
RTVSPropertyOp16
 70
     0
102
RTVSPropertyOp17
 70
     0
102
RTVSPropertyOp18
 70
     0
102
RTVSPropertyOp19
 70
     0
102
RTVSPropertyOp20
 70
     0
102
RTVSPropertyOp21
 70
     0
102
RTVSPropertyOp22
 70
     0
102
RTVSPropertyOp23
 70
     0
102
RTVSPropertyOp24
 70
     0
102
RTVSPropertyOp25
 70
     0
102
RTVSPropertyOp26
 70
     0
102
RTVSPropertyOp27
 70
     0
  0
XRECORD
  5
16E9
102
{ACAD_REACTORS
330
16E8
102
}
330
16E8
100
AcDbXrecord
280
     1
102
RTVSPropertyOp0
 70
     1
102
RTVSPropertyOp1
 70
     1
102
RTVSPropertyOp2
 70
     1
102
RTVSPropertyOp3
 70
     1
102
RTVSPropertyOp4
 70
     1
102
RTVSPropertyOp5
 70
     1
102
RTVSPropertyOp6
 70
     1
102
RTVSPropertyOp7
 70
     1
102
RTVSPropertyOp8
 70
     1
102
RTVSPropertyOp9
 70
     1
102
RTVSPropertyOp10
 70
     1
102
RTVSPropertyOp11
 70
     1
102
RTVSPropertyOp12
 70
     1
102
RTVSPropertyOp13
 70
     1
102
RTVSPropertyOp14
 70
     1
102
RTVSPropertyOp15
 70
     1
102
RTVSPropertyOp16
 70
     1
102
RTVSPropertyOp17
 70
     1
102
RTVSPropertyOp18
 70
     1
102
RTVSPropertyOp19
 70
     1
102
RTVSPropertyOp20
 70
     1
102
RTVSPropertyOp21
 70
     1
102
RTVSPropertyOp22
 70
     1
102
RTVSPropertyOp23
 70
     1
102
RTVSPropertyOp24
 70
     1
102
RTVSPropertyOp25
 70
     1
102
RTVSPropertyOp26
 70
     1
102
RTVSPropertyOp27
 70
     1
  0
XRECORD
  5
16CD
102
{ACAD_REACTORS
330
16CC
102
}
330
16CC
100
AcDbXrecord
280
     1
102
RTVSPropertyOp0
 70
     1
102
RTVSPropertyOp1
 70
     1
102
RTVSPropertyOp2
 70
     1
102
RTVSPropertyOp3
 70
     1
102
RTVSPropertyOp4
 70
     1
102
RTVSPropertyOp5
 70
     1
102
RTVSPropertyOp6
 70
     1
102
RTVSPropertyOp7
 70
     1
102
RTVSPropertyOp8
 70
     1
102
RTVSPropertyOp9
 70
     1
102
RTVSPropertyOp10
 70
     1
102
RTVSPropertyOp11
 70
     1
102
RTVSPropertyOp12
 70
     1
102
RTVSPropertyOp13
 70
     1
102
RTVSPropertyOp14
 70
     1
102
RTVSPropertyOp15
 70
     1
102
RTVSPropertyOp16
 70
     1
102
RTVSPropertyOp17
 70
     1
102
RTVSPropertyOp18
 70
     1
102
RTVSPropertyOp19
 70
     1
102
RTVSPropertyOp20
 70
     1
102
RTVSPropertyOp21
 70
     1
102
RTVSPropertyOp22
 70
     1
102
RTVSPropertyOp23
 70
     1
102
RTVSPropertyOp24
 70
     1
102
RTVSPropertyOp25
 70
     1
102
RTVSPropertyOp26
 70
     1
102
RTVSPropertyOp27
 70
     1
  0
XRECORD
  5
16CF
102
{ACAD_REACTORS
330
16CE
102
}
330
16CE
100
AcDbXrecord
280
     1
102
RTVSPropertyOp0
 70
     1
102
RTVSPropertyOp1
 70
     1
102
RTVSPropertyOp2
 70
     1
102
RTVSPropertyOp3
 70
     1
102
RTVSPropertyOp4
 70
     1
102
RTVSPropertyOp5
 70
     1
102
RTVSPropertyOp6
 70
     1
102
RTVSPropertyOp7
 70
     1
102
RTVSPropertyOp8
 70
     1
102
RTVSPropertyOp9
 70
     1
102
RTVSPropertyOp10
 70
     1
102
RTVSPropertyOp11
 70
     1
102
RTVSPropertyOp12
 70
     1
102
RTVSPropertyOp13
 70
     1
102
RTVSPropertyOp14
 70
     1
102
RTVSPropertyOp15
 70
     1
102
RTVSPropertyOp16
 70
     1
102
RTVSPropertyOp17
 70
     1
102
RTVSPropertyOp18
 70
     1
102
RTVSPropertyOp19
 70
     1
102
RTVSPropertyOp20
 70
     1
102
RTVSPropertyOp21
 70
     1
102
RTVSPropertyOp22
 70
     1
102
RTVSPropertyOp23
 70
     1
102
RTVSPropertyOp24
 70
     1
102
RTVSPropertyOp25
 70
     1
102
RTVSPropertyOp26
 70
     1
102
RTVSPropertyOp27
 70
     1
  0
XRECORD
  5
16D1
102
{ACAD_REACTORS
330
16D0
102
}
330
16D0
100
AcDbXrecord
280
     1
102
RTVSPropertyOp0
 70
     1
102
RTVSPropertyOp1
 70
     1
102
RTVSPropertyOp2
 70
     1
102
RTVSPropertyOp3
 70
     1
102
RTVSPropertyOp4
 70
     1
102
RTVSPropertyOp5
 70
     1
102
RTVSPropertyOp6
 70
     1
102
RTVSPropertyOp7
 70
     1
102
RTVSPropertyOp8
 70
     1
102
RTVSPropertyOp9
 70
     1
102
RTVSPropertyOp10
 70
     1
102
RTVSPropertyOp11
 70
     1
102
RTVSPropertyOp12
 70
     1
102
RTVSPropertyOp13
 70
     1
102
RTVSPropertyOp14
 70
     1
102
RTVSPropertyOp15
 70
     1
102
RTVSPropertyOp16
 70
     1
102
RTVSPropertyOp17
 70
     1
102
RTVSPropertyOp18
 70
     1
102
RTVSPropertyOp19
 70
     1
102
RTVSPropertyOp20
 70
     1
102
RTVSPropertyOp21
 70
     1
102
RTVSPropertyOp22
 70
     1
102
RTVSPropertyOp23
 70
     1
102
RTVSPropertyOp24
 70
     1
102
RTVSPropertyOp25
 70
     1
102
RTVSPropertyOp26
 70
     1
102
RTVSPropertyOp27
 70
     1
  0
XRECORD
  5
16D3
102
{ACAD_REACTORS
330
16D2
102
}
330
16D2
100
AcDbXrecord
280
     1
102
RTVSPropertyOp0
 70
     1
102
RTVSPropertyOp1
 70
     1
102
RTVSPropertyOp2
 70
     1
102
RTVSPropertyOp3
 70
     1
102
RTVSPropertyOp4
 70
     1
102
RTVSPropertyOp5
 70
     1
102
RTVSPropertyOp6
 70
     1
102
RTVSPropertyOp7
 70
     1
102
RTVSPropertyOp8
 70
     1
102
RTVSPropertyOp9
 70
     1
102
RTVSPropertyOp10
 70
     1
102
RTVSPropertyOp11
 70
     1
102
RTVSPropertyOp12
 70
     1
102
RTVSPropertyOp13
 70
     1
102
RTVSPropertyOp14
 70
     1
102
RTVSPropertyOp15
 70
     1
102
RTVSPropertyOp16
 70
     1
102
RTVSPropertyOp17
 70
     1
102
RTVSPropertyOp18
 70
     1
102
RTVSPropertyOp19
 70
     1
102
RTVSPropertyOp20
 70
     1
102
RTVSPropertyOp21
 70
     1
102
RTVSPropertyOp22
 70
     1
102
RTVSPropertyOp23
 70
     1
102
RTVSPropertyOp24
 70
     1
102
RTVSPropertyOp25
 70
     1
102
RTVSPropertyOp26
 70
     1
102
RTVSPropertyOp27
 70
     1
  0
XRECORD
  5
16ED
102
{ACAD_REACTORS
330
16EC
102
}
330
16EC
100
AcDbXrecord
280
     1
102
RTVSPropertyOp0
 70
     0
102
RTVSPropertyOp1
 70
     0
102
RTVSPropertyOp2
 70
     0
102
RTVSPropertyOp3
 70
     0
102
RTVSPropertyOp4
 70
     0
102
RTVSPropertyOp5
 70
     0
102
RTVSPropertyOp6
 70
     0
102
RTVSPropertyOp7
 70
     0
102
RTVSPropertyOp8
 70
     0
102
RTVSPropertyOp9
 70
     0
102
RTVSPropertyOp10
 70
     0
102
RTVSPropertyOp11
 70
     0
102
RTVSPropertyOp12
 70
     0
102
RTVSPropertyOp13
 70
     0
102
RTVSPropertyOp14
 70
     2
102
RTVSPropertyOp15
 70
     0
102
RTVSPropertyOp16
 70
     0
102
RTVSPropertyOp17
 70
     0
102
RTVSPropertyOp18
 70
     0
102
RTVSPropertyOp19
 70
     0
102
RTVSPropertyOp20
 70
     0
102
RTVSPropertyOp21
 70
     0
102
RTVSPropertyOp22
 70
     0
102
RTVSPropertyOp23
 70
     0
102
RTVSPropertyOp24
 70
     0
102
RTVSPropertyOp25
 70
     0
102
RTVSPropertyOp26
 70
     0
102
RTVSPropertyOp27
 70
     0
  0
XRECORD
  5
16E7
102
{ACAD_REACTORS
330
16E6
102
}
330
16E6
100
AcDbXrecord
280
     1
102
RTVSPropertyOp0
 70
     1
102
RTVSPropertyOp1
 70
     1
102
RTVSPropertyOp2
 70
     1
102
RTVSPropertyOp3
 70
     1
102
RTVSPropertyOp4
 70
     1
102
RTVSPropertyOp5
 70
     1
102
RTVSPropertyOp6
 70
     1
102
RTVSPropertyOp7
 70
     1
102
RTVSPropertyOp8
 70
     1
102
RTVSPropertyOp9
 70
     1
102
RTVSPropertyOp10
 70
     1
102
RTVSPropertyOp11
 70
     1
102
RTVSPropertyOp12
 70
     1
102
RTVSPropertyOp13
 70
     1
102
RTVSPropertyOp14
 70
     1
102
RTVSPropertyOp15
 70
     1
102
RTVSPropertyOp16
 70
     1
102
RTVSPropertyOp17
 70
     1
102
RTVSPropertyOp18
 70
     1
102
RTVSPropertyOp19
 70
     1
102
RTVSPropertyOp20
 70
     1
102
RTVSPropertyOp21
 70
     1
102
RTVSPropertyOp22
 70
     1
102
RTVSPropertyOp23
 70
     1
102
RTVSPropertyOp24
 70
     1
102
RTVSPropertyOp25
 70
     1
102
RTVSPropertyOp26
 70
     1
102
RTVSPropertyOp27
 70
     1
  0
XRECORD
  5
16EF
102
{ACAD_REACTORS
330
16EE
102
}
330
16EE
100
AcDbXrecord
280
     1
102
RTVSPropertyOp0
 70
     0
102
RTVSPropertyOp1
 70
     0
102
RTVSPropertyOp2
 70
     0
102
RTVSPropertyOp3
 70
     0
102
RTVSPropertyOp4
 70
     0
102
RTVSPropertyOp5
 70
     0
102
RTVSPropertyOp6
 70
     0
102
RTVSPropertyOp7
 70
     0
102
RTVSPropertyOp8
 70
     0
102
RTVSPropertyOp9
 70
     0
102
RTVSPropertyOp10
 70
     0
102
RTVSPropertyOp11
 70
     0
102
RTVSPropertyOp12
 70
     0
102
RTVSPropertyOp13
 70
     0
102
RTVSPropertyOp14
 70
     2
102
RTVSPropertyOp15
 70
     0
102
RTVSPropertyOp16
 70
     0
102
RTVSPropertyOp17
 70
     0
102
RTVSPropertyOp18
 70
     0
102
RTVSPropertyOp19
 70
     0
102
RTVSPropertyOp20
 70
     0
102
RTVSPropertyOp21
 70
     0
102
RTVSPropertyOp22
 70
     0
102
RTVSPropertyOp23
 70
     0
102
RTVSPropertyOp24
 70
     0
102
RTVSPropertyOp25
 70
     0
102
RTVSPropertyOp26
 70
     0
102
RTVSPropertyOp27
 70
     0
  0
XRECORD
  5
16DF
102
{ACAD_REACTORS
330
16DE
102
}
330
16DE
100
AcDbXrecord
280
     1
102
RTVSPropertyOp0
 70
     1
102
RTVSPropertyOp1
 70
     1
102
RTVSPropertyOp2
 70
     1
102
RTVSPropertyOp3
 70
     1
102
RTVSPropertyOp4
 70
     1
102
RTVSPropertyOp5
 70
     1
102
RTVSPropertyOp6
 70
     1
102
RTVSPropertyOp7
 70
     1
102
RTVSPropertyOp8
 70
     1
102
RTVSPropertyOp9
 70
     1
102
RTVSPropertyOp10
 70
     1
102
RTVSPropertyOp11
 70
     1
102
RTVSPropertyOp12
 70
     1
102
RTVSPropertyOp13
 70
     1
102
RTVSPropertyOp14
 70
     1
102
RTVSPropertyOp15
 70
     1
102
RTVSPropertyOp16
 70
     1
102
RTVSPropertyOp17
 70
     1
102
RTVSPropertyOp18
 70
     1
102
RTVSPropertyOp19
 70
     1
102
RTVSPropertyOp20
 70
     1
102
RTVSPropertyOp21
 70
     1
102
RTVSPropertyOp22
 70
     1
102
RTVSPropertyOp23
 70
     1
102
RTVSPropertyOp24
 70
     1
102
RTVSPropertyOp25
 70
     1
102
RTVSPropertyOp26
 70
     1
102
RTVSPropertyOp27
 70
     1
  0
XRECORD
  5
16E5
102
{ACAD_REACTORS
330
16E4
102
}
330
16E4
100
AcDbXrecord
280
     1
102
RTVSPropertyOp0
 70
     1
102
RTVSPropertyOp1
 70
     1
102
RTVSPropertyOp2
 70
     1
102
RTVSPropertyOp3
 70
     1
102
RTVSPropertyOp4
 70
     1
102
RTVSPropertyOp5
 70
     1
102
RTVSPropertyOp6
 70
     1
102
RTVSPropertyOp7
 70
     1
102
RTVSPropertyOp8
 70
     1
102
RTVSPropertyOp9
 70
     1
102
RTVSPropertyOp10
 70
     1
102
RTVSPropertyOp11
 70
     1
102
RTVSPropertyOp12
 70
     1
102
RTVSPropertyOp13
 70
     1
102
RTVSPropertyOp14
 70
     1
102
RTVSPropertyOp15
 70
     1
102
RTVSPropertyOp16
 70
     1
102
RTVSPropertyOp17
 70
     1
102
RTVSPropertyOp18
 70
     1
102
RTVSPropertyOp19
 70
     1
102
RTVSPropertyOp20
 70
     1
102
RTVSPropertyOp21
 70
     1
102
RTVSPropertyOp22
 70
     1
102
RTVSPropertyOp23
 70
     1
102
RTVSPropertyOp24
 70
     1
102
RTVSPropertyOp25
 70
     1
102
RTVSPropertyOp26
 70
     1
102
RTVSPropertyOp27
 70
     1
  0
ENDSEC
  0
EOF
