  0
SECTION
  2
HEADER
  9
$ACADVER
  1
AC1021
  9
$ACADMAINTVER
 70
    50
  9
$DWGCODEPAGE
  3
ANSI_1252
  9
$LASTSAVEDBY
  1
francoisbu
  9
$INSBASE
 10
0.0
 20
0.0
 30
0.0
  9
$EXTMIN
 10
89.35237682828637
 20
68.11979201913715
 30
-0.0000000349181948
  9
$EXTMAX
 10
151.6635746063816
 20
100.8745119727487
 30
0.0000000814935746
  9
$LIMMIN
 10
0.0
 20
0.0
  9
$LIMMAX
 10
181.3333333333
 20
117.3333333333
  9
$ORTHOMODE
 70
     1
  9
$REGENMODE
 70
     1
  9
$FILLMODE
 70
     1
  9
$QTEXTMODE
 70
     0
  9
$MIRRTEXT
 70
     0
  9
$LTSCALE
 40
9.973333333300001
  9
$ATTMODE
 70
     1
  9
$TEXTSIZE
 40
0.2
  9
$TRACEWID
 40
0.05
  9
$TEXTSTYLE
  7
STANDARD
  9
$CLAYER
  8
0
  9
$CELTYPE
  6
BYLAYER
  9
$CECOLOR
 62
   256
  9
$CELTSCALE
 40
1.0
  9
$DISPSILH
 70
     0
  9
$DIMSCALE
 40
1.0
  9
$DIMASZ
 40
2.0
  9
$DIMEXO
 40
0.0625
  9
$DIMDLI
 40
6.890666666699999
  9
$DIMRND
 40
0.0
  9
$DIMDLE
 40
0.0
  9
$DIMEXE
 40
0.125
  9
$DIMTP
 40
0.00001
  9
$DIMTM
 40
0.00001
  9
$DIMTXT
 40
1.333333333299999
  9
$DIMCEN
 40
1.631999999999999
  9
$DIMTSZ
 40
0.0
  9
$DIMTOL
 70
     1
  9
$DIMLIM
 70
     0
  9
$DIMTIH
 70
     1
  9
$DIMTOH
 70
     1
  9
$DIMSE1
 70
     0
  9
$DIMSE2
 70
     0
  9
$DIMTAD
 70
     0
  9
$DIMZIN
 70
     0
  9
$DIMBLK
  1
_FILLED
  9
$DIMASO
 70
     1
  9
$DIMSHO
 70
     1
  9
$DIMPOST
  1

  9
$DIMAPOST
  1

  9
$DIMALT
 70
     0
  9
$DIMALTD
 70
     2
  9
$DIMALTF
 40
25.4
  9
$DIMLFAC
 40
1.0
  9
$DIMTOFL
 70
     0
  9
$DIMTVP
 40
0.0
  9
$DIMTIX
 70
     0
  9
$DIMSOXD
 70
     0
  9
$DIMSAH
 70
     0
  9
$DIMBLK1
  1

  9
$DIMBLK2
  1

  9
$DIMSTYLE
  2
STANDARD
  9
$DIMCLRD
 70
     0
  9
$DIMCLRE
 70
     0
  9
$DIMCLRT
 70
     0
  9
$DIMTFAC
 40
1.0
  9
$DIMGAP
 40
0.09
  9
$DIMJUST
 70
     0
  9
$DIMSD1
 70
     0
  9
$DIMSD2
 70
     0
  9
$DIMTOLJ
 70
     1
  9
$DIMTZIN
 70
     0
  9
$DIMALTZ
 70
     0
  9
$DIMALTTZ
 70
     0
  9
$DIMUPT
 70
     0
  9
$DIMDEC
 70
     4
  9
$DIMTDEC
 70
     4
  9
$DIMALTU
 70
     2
  9
$DIMALTTD
 70
     2
  9
$DIMTXSTY
  7
STANDARD
  9
$DIMAUNIT
 70
     0
  9
$DIMADEC
 70
     0
  9
$DIMALTRND
 40
0.0
  9
$DIMAZIN
 70
     0
  9
$DIMDSEP
 70
    46
  9
$DIMATFIT
 70
     3
  9
$DIMFRAC
 70
     0
  9
$DIMLDRBLK
  1

  9
$DIMLUNIT
 70
     2
  9
$DIMLWD
 70
    -2
  9
$DIMLWE
 70
    -2
  9
$DIMTMOVE
 70
     0
  9
$DIMFXL
 40
1.0
  9
$DIMFXLON
 70
     0
  9
$DIMJOGANG
 40
0.7853981633974483
  9
$DIMTFILL
 70
     0
  9
$DIMTFILLCLR
 70
     0
  9
$DIMARCSYM
 70
     0
  9
$DIMLTYPE
  6

  9
$DIMLTEX1
  6

  9
$DIMLTEX2
  6

  9
$LUNITS
 70
     2
  9
$LUPREC
 70
     4
  9
$SKETCHINC
 40
0.1
  9
$FILLETRAD
 40
0.0
  9
$AUNITS
 70
     0
  9
$AUPREC
 70
     0
  9
$MENU
  1
.
  9
$ELEVATION
 40
0.0
  9
$PELEVATION
 40
0.0
  9
$THICKNESS
 40
0.0
  9
$LIMCHECK
 70
     0
  9
$CHAMFERA
 40
0.0
  9
$CHAMFERB
 40
0.0
  9
$CHAMFERC
 40
0.0
  9
$CHAMFERD
 40
0.0
  9
$SKPOLY
 70
     0
  9
$TDCREATE
 40
2456638.634747315
  9
$TDUCREATE
 40
2456638.843080648
  9
$TDUPDATE
 40
2456645.378875474
  9
$TDUUPDATE
 40
2456645.587208808
  9
$TDINDWG
 40
0.0114795255
  9
$TDUSRTIMER
 40
0.0114795255
  9
$USRTIMER
 70
     1
  9
$ANGBASE
 50
0.0
  9
$ANGDIR
 70
     0
  9
$PDMODE
 70
     3
  9
$PDSIZE
 40
0.03125
  9
$PLINEWID
 40
0.0
  9
$SPLFRAME
 70
     0
  9
$SPLINETYPE
 70
     6
  9
$SPLINESEGS
 70
     8
  9
$HANDSEED
  5
1800
  9
$SURFTAB1
 70
     6
  9
$SURFTAB2
 70
     6
  9
$SURFTYPE
 70
     6
  9
$SURFU
 70
     6
  9
$SURFV
 70
     6
  9
$UCSBASE
  2

  9
$UCSNAME
  2

  9
$UCSORG
 10
0.0
 20
0.0
 30
0.0
  9
$UCSXDIR
 10
1.0
 20
0.0
 30
0.0
  9
$UCSYDIR
 10
0.0
 20
1.0
 30
0.0
  9
$UCSORTHOREF
  2

  9
$UCSORTHOVIEW
 70
     0
  9
$UCSORGTOP
 10
0.0
 20
0.0
 30
0.0
  9
$UCSORGBOTTOM
 10
0.0
 20
0.0
 30
0.0
  9
$UCSORGLEFT
 10
0.0
 20
0.0
 30
0.0
  9
$UCSORGRIGHT
 10
0.0
 20
0.0
 30
0.0
  9
$UCSORGFRONT
 10
0.0
 20
0.0
 30
0.0
  9
$UCSORGBACK
 10
0.0
 20
0.0
 30
0.0
  9
$PUCSBASE
  2

  9
$PUCSNAME
  2

  9
$PUCSORG
 10
0.0
 20
0.0
 30
0.0
  9
$PUCSXDIR
 10
1.0
 20
0.0
 30
0.0
  9
$PUCSYDIR
 10
0.0
 20
1.0
 30
0.0
  9
$PUCSORTHOREF
  2

  9
$PUCSORTHOVIEW
 70
     0
  9
$PUCSORGTOP
 10
0.0
 20
0.0
 30
0.0
  9
$PUCSORGBOTTOM
 10
0.0
 20
0.0
 30
0.0
  9
$PUCSORGLEFT
 10
0.0
 20
0.0
 30
0.0
  9
$PUCSORGRIGHT
 10
0.0
 20
0.0
 30
0.0
  9
$PUCSORGFRONT
 10
0.0
 20
0.0
 30
0.0
  9
$PUCSORGBACK
 10
0.0
 20
0.0
 30
0.0
  9
$USERI1
 70
     0
  9
$USERI2
 70
     0
  9
$USERI3
 70
     0
  9
$USERI4
 70
     0
  9
$USERI5
 70
     0
  9
$USERR1
 40
0.0
  9
$USERR2
 40
0.0
  9
$USERR3
 40
0.0
  9
$USERR4
 40
0.0
  9
$USERR5
 40
0.0
  9
$WORLDVIEW
 70
     1
  9
$SHADEDGE
 70
     3
  9
$SHADEDIF
 70
    70
  9
$TILEMODE
 70
     1
  9
$MAXACTVP
 70
    64
  9
$PINSBASE
 10
0.0
 20
0.0
 30
0.0
  9
$PLIMCHECK
 70
     0
  9
$PEXTMIN
 10
1.000000000000000E+20
 20
1.000000000000000E+20
 30
1.000000000000000E+20
  9
$PEXTMAX
 10
-1.000000000000000E+20
 20
-1.000000000000000E+20
 30
-1.000000000000000E+20
  9
$PLIMMIN
 10
0.0
 20
0.0
  9
$PLIMMAX
 10
12.0
 20
9.0
  9
$UNITMODE
 70
     0
  9
$VISRETAIN
 70
     1
  9
$PLINEGEN
 70
     0
  9
$PSLTSCALE
 70
     1
  9
$TREEDEPTH
 70
  3020
  9
$CMLSTYLE
  2
Standard
  9
$CMLJUST
 70
     0
  9
$CMLSCALE
 40
1.0
  9
$PROXYGRAPHICS
 70
     1
  9
$MEASUREMENT
 70
     0
  9
$CELWEIGHT
370
    -1
  9
$ENDCAPS
280
     0
  9
$JOINSTYLE
280
     0
  9
$LWDISPLAY
290
     0
  9
$INSUNITS
 70
     1
  9
$HYPERLINKBASE
  1

  9
$STYLESHEET
  1

  9
$XEDIT
290
     1
  9
$CEPSNTYPE
380
     0
  9
$PSTYLEMODE
290
     1
  9
$FINGERPRINTGUID
  2
{0AEA682C-ADCF-4887-A010-D663D1ECA4A6}
  9
$VERSIONGUID
  2
{30888F4B-BB73-4CFD-A31C-0983848CDF4E}
  9
$EXTNAMES
290
     1
  9
$PSVPSCALE
 40
0.0
  9
$OLESTARTUP
290
     0
  9
$SORTENTS
280
   127
  9
$INDEXCTL
280
     0
  9
$HIDETEXT
280
     0
  9
$XCLIPFRAME
290
     0
  9
$HALOGAP
280
     0
  9
$OBSCOLOR
 70
   257
  9
$OBSLTYPE
280
     0
  9
$INTERSECTIONDISPLAY
280
     0
  9
$INTERSECTIONCOLOR
 70
   257
  9
$DIMASSOC
280
     1
  9
$PROJECTNAME
  1

  9
$CAMERADISPLAY
290
     0
  9
$LENSLENGTH
 40
50.0
  9
$CAMERAHEIGHT
 40
0.0
  9
$STEPSPERSEC
 40
2.0
  9
$STEPSIZE
 40
6.0
  9
$3DDWFPREC
 40
2.0
  9
$PSOLWIDTH
 40
0.25
  9
$PSOLHEIGHT
 40
4.0
  9
$LOFTANG1
 40
1.570796326794896
  9
$LOFTANG2
 40
1.570796326794896
  9
$LOFTMAG1
 40
0.0
  9
$LOFTMAG2
 40
0.0
  9
$LOFTPARAM
 70
     7
  9
$LOFTNORMALS
280
     1
  9
$LATITUDE
 40
37.795
  9
$LONGITUDE
 40
-122.394
  9
$NORTHDIRECTION
 40
0.0
  9
$TIMEZONE
 70
 -8000
  9
$LIGHTGLYPHDISPLAY
280
     1
  9
$TILEMODELIGHTSYNCH
280
     1
  9
$CMATERIAL
347
16FF
  9
$SOLIDHIST
280
     1
  9
$SHOWHIST
280
     1
  9
$DWFFRAME
280
     2
  9
$DGNFRAME
280
     0
  9
$REALWORLDSCALE
290
     1
  9
$INTERFERECOLOR
 62
     1
  9
$INTERFEREOBJVS
345
1721
  9
$INTERFEREVPVS
346
171E
  9
$CSHADOW
280
     0
  9
$SHADOWPLANELOCATION
 40
0.0
  0
ENDSEC
  0
SECTION
  2
CLASSES
  0
CLASS
  1
ACDBDICTIONARYWDFLT
  2
AcDbDictionaryWithDefault
  3
ObjectDBX Classes
 90
        0
 91
        1
280
     0
281
     0
  0
CLASS
  1
MATERIAL
  2
AcDbMaterial
  3
ObjectDBX Classes
 90
     1153
 91
        3
280
     0
281
     0
  0
CLASS
  1
VISUALSTYLE
  2
AcDbVisualStyle
  3
ObjectDBX Classes
 90
     4095
 91
       19
280
     0
281
     0
  0
CLASS
  1
TABLESTYLE
  2
AcDbTableStyle
  3
ObjectDBX Classes
 90
     4095
 91
        1
280
     0
281
     0
  0
CLASS
  1
SCALE
  2
AcDbScale
  3
ObjectDBX Classes
 90
     1153
 91
       33
280
     0
281
     0
  0
CLASS
  1
MLEADERSTYLE
  2
AcDbMLeaderStyle
  3
ACDB_MLEADERSTYLE_CLASS
 90
     4095
 91
        1
280
     0
281
     0
  0
CLASS
  1
CELLSTYLEMAP
  2
AcDbCellStyleMap
  3
ObjectDBX Classes
 90
     1152
 91
        3
280
     0
281
     0
  0
CLASS
  1
DICTIONARYVAR
  2
AcDbDictionaryVar
  3
ObjectDBX Classes
 90
        0
 91
       11
280
     0
281
     0
  0
ENDSEC
  0
SECTION
  2
TABLES
  0
TABLE
  2
VPORT
  5
8
102
{ACAD_XDICTIONARY
360
1755
102
}
330
0
100
AcDbSymbolTable
 70
     1
  0
VPORT
  5
1F4
330
8
100
AcDbSymbolTableRecord
100
AcDbViewportTableRecord
  2
*ACTIVE
 70
     0
 10
0.0
 20
0.0
 11
1.0
 21
1.0
 12
116.6686308575974
 22
85.83420077691233
 13
0.0
 23
0.0
 14
1.0
 24
1.0
 15
0.0
 25
0.0
 16
0.0
 26
0.0
 36
1.0
 17
0.0
 27
0.0
 37
0.0
 40
41.698581352409
 41
1.957300275482093
 42
50.0
 43
0.0
 44
0.0
 50
0.0
 51
0.0
 71
     0
 72
   100
 73
     1
 74
     1
 75
     0
 76
     0
 77
     0
 78
     0
281
     0
 65
     1
110
0.0
120
0.0
130
0.0
111
1.0
121
0.0
131
0.0
112
0.0
122
1.0
132
0.0
 79
     0
146
0.0
348
171D
 60
     3
 61
     5
292
     1
282
     1
141
0.0
142
0.0
 63
   250
421
  3355443
  0
ENDTAB
  0
TABLE
  2
LTYPE
  5
5
330
0
100
AcDbSymbolTable
 70
     6
  0
LTYPE
  5
14
330
5
100
AcDbSymbolTableRecord
100
AcDbLinetypeTableRecord
  2
BYBLOCK
 70
     0
  3

 72
    65
 73
     0
 40
0.0
  0
LTYPE
  5
15
330
5
100
AcDbSymbolTableRecord
100
AcDbLinetypeTableRecord
  2
BYLAYER
 70
     0
  3

 72
    65
 73
     0
 40
0.0
  0
LTYPE
  5
16
330
5
100
AcDbSymbolTableRecord
100
AcDbLinetypeTableRecord
  2
CONTINUOUS
 70
     0
  3
Solid line
 72
    65
 73
     0
 40
0.0
  0
LTYPE
  5
1F5
330
5
100
AcDbSymbolTableRecord
100
AcDbLinetypeTableRecord
  2
CENTER
 70
     0
  3
____ _ ____ _ ____ _ ____ _ ____ _ ____ _ ____
 72
    65
 73
     4
 40
0.6
 49
0.375
 74
     0
 49
-0.075
 74
     0
 49
0.075
 74
     0
 49
-0.075
 74
     0
  0
LTYPE
  5
1F6
330
5
100
AcDbSymbolTableRecord
100
AcDbLinetypeTableRecord
  2
HIDDEN
 70
     0
  3
- - - - - - - - - - - - - - - - - - - -
 72
    65
 73
     2
 40
0.2
 49
0.1
 74
     0
 49
-0.1
 74
     0
  0
LTYPE
  5
1F7
330
5
100
AcDbSymbolTableRecord
100
AcDbLinetypeTableRecord
  2
PHANTOM
 70
     0
  3
_____ _ _ _____ _ _ _____ _ _ _____
 72
    65
 73
     6
 40
0.8
 49
0.45
 74
     0
 49
-0.05
 74
     0
 49
0.1
 74
     0
 49
-0.05
 74
     0
 49
0.1
 74
     0
 49
-0.05
 74
     0
  0
LTYPE
  5
1F8
330
5
100
AcDbSymbolTableRecord
100
AcDbLinetypeTableRecord
  2
DOT
 70
     0
  3
. . . . . . . . . . . . . . . . . . . .
 72
    65
 73
     2
 40
0.2
 49
0.1
 74
     0
 49
-0.1
 74
     0
  0
LTYPE
  5
1F9
330
5
100
AcDbSymbolTableRecord
100
AcDbLinetypeTableRecord
  2
DASHED
 70
     0
  3
- - - - - - - - - - - - - - - - - - - -
 72
    65
 73
     2
 40
0.2
 49
0.1
 74
     0
 49
-0.1
 74
     0
  0
ENDTAB
  0
TABLE
  2
LAYER
  5
2
330
0
100
AcDbSymbolTable
 70
    42
  0
LAYER
  5
10
102
{ACAD_XDICTIONARY
360
1795
102
}
330
2
100
AcDbSymbolTableRecord
100
AcDbLayerTableRecord
  2
0
 70
     0
 62
     7
  6
CONTINUOUS
370
    -3
390
F
347
170F
  0
LAYER
  5
1FA
102
{ACAD_XDICTIONARY
360
1797
102
}
330
2
100
AcDbSymbolTableRecord
100
AcDbLayerTableRecord
  2
DEFAULT_1
 70
     0
 62
     7
  6
CENTER
370
    -3
390
F
347
170F
  0
LAYER
  5
1FB
102
{ACAD_XDICTIONARY
360
1799
102
}
330
2
100
AcDbSymbolTableRecord
100
AcDbLayerTableRecord
  2
DEFAULT_2
 70
     0
 62
     7
  6
HIDDEN
370
    -3
390
F
347
170F
  0
LAYER
  5
1FC
102
{ACAD_XDICTIONARY
360
179B
102
}
330
2
100
AcDbSymbolTableRecord
100
AcDbLayerTableRecord
  2
DEFAULT_3
 70
     0
 62
     7
  6
PHANTOM
370
    -3
390
F
347
170F
  0
LAYER
  5
1FD
102
{ACAD_XDICTIONARY
360
179D
102
}
330
2
100
AcDbSymbolTableRecord
100
AcDbLayerTableRecord
  2
1_CURCES_SPECS_FRONT_GAUCHE_INS
 70
     0
 62
     7
  6
CONTINUOUS
370
    -3
390
F
347
170F
  0
LAYER
  5
1FE
102
{ACAD_XDICTIONARY
360
179F
102
}
330
2
100
AcDbSymbolTableRecord
100
AcDbLayerTableRecord
  2
1_CURVES
 70
     0
 62
     7
  6
CONTINUOUS
370
    -3
390
F
347
170F
  0
LAYER
  5
1FF
102
{ACAD_XDICTIONARY
360
17A1
102
}
330
2
100
AcDbSymbolTableRecord
100
AcDbLayerTableRecord
  2
1_CURVES_CONDUIT
 70
     0
 62
     7
  6
CONTINUOUS
370
    -3
390
F
347
170F
  0
LAYER
  5
200
102
{ACAD_XDICTIONARY
360
17A3
102
}
330
2
100
AcDbSymbolTableRecord
100
AcDbLayerTableRecord
  2
1_CURVES_JETS
 70
     0
 62
     7
  6
CONTINUOUS
370
    -3
390
F
347
170F
  0
LAYER
  5
201
102
{ACAD_XDICTIONARY
360
17A5
102
}
330
2
100
AcDbSymbolTableRecord
100
AcDbLayerTableRecord
  2
1_CURVES_JETS-1
 70
     0
 62
     7
  6
CONTINUOUS
370
    -3
390
F
347
170F
  0
LAYER
  5
202
102
{ACAD_XDICTIONARY
360
17A7
102
}
330
2
100
AcDbSymbolTableRecord
100
AcDbLayerTableRecord
  2
1_CURVES_JETS-2
 70
     0
 62
     7
  6
CONTINUOUS
370
    -3
390
F
347
170F
  0
LAYER
  5
203
102
{ACAD_XDICTIONARY
360
17A9
102
}
330
2
100
AcDbSymbolTableRecord
100
AcDbLayerTableRecord
  2
1_CURVES_PATINS
 70
     0
 62
     7
  6
CONTINUOUS
370
    -3
390
F
347
170F
  0
LAYER
  5
204
102
{ACAD_XDICTIONARY
360
17AB
102
}
330
2
100
AcDbSymbolTableRecord
100
AcDbLayerTableRecord
  2
1_CURVES_RESURFACAGE
 70
     0
 62
     7
  6
CONTINUOUS
370
    -3
390
F
347
170F
  0
LAYER
  5
205
102
{ACAD_XDICTIONARY
360
17AD
102
}
330
2
100
AcDbSymbolTableRecord
100
AcDbLayerTableRecord
  2
1_CURVES_SPECS_FRONT-GAUCHE
 70
     0
 62
     7
  6
CONTINUOUS
370
    -3
390
F
347
170F
  0
LAYER
  5
206
102
{ACAD_XDICTIONARY
360
17AF
102
}
330
2
100
AcDbSymbolTableRecord
100
AcDbLayerTableRecord
  2
1_CURVES_SPECS_RIGHT-GAUCHE
 70
     0
 62
     7
  6
CONTINUOUS
370
    -3
390
F
347
170F
  0
LAYER
  5
207
102
{ACAD_XDICTIONARY
360
17B1
102
}
330
2
100
AcDbSymbolTableRecord
100
AcDbLayerTableRecord
  2
2_PLANES
 70
     0
 62
     7
  6
CONTINUOUS
370
    -3
390
F
347
170F
  0
LAYER
  5
208
102
{ACAD_XDICTIONARY
360
17B3
102
}
330
2
100
AcDbSymbolTableRecord
100
AcDbLayerTableRecord
  2
2_PLANES_JETS-1
 70
     0
 62
     7
  6
CONTINUOUS
370
    -3
390
F
347
170F
  0
LAYER
  5
209
102
{ACAD_XDICTIONARY
360
17B5
102
}
330
2
100
AcDbSymbolTableRecord
100
AcDbLayerTableRecord
  2
2_PLANES_JETS-2
 70
     0
 62
     7
  6
CONTINUOUS
370
    -3
390
F
347
170F
  0
LAYER
  5
20A
102
{ACAD_XDICTIONARY
360
17B7
102
}
330
2
100
AcDbSymbolTableRecord
100
AcDbLayerTableRecord
  2
3_POINTS
 70
     0
 62
     7
  6
CONTINUOUS
370
    -3
390
F
347
170F
  0
LAYER
  5
20B
102
{ACAD_XDICTIONARY
360
17B9
102
}
330
2
100
AcDbSymbolTableRecord
100
AcDbLayerTableRecord
  2
3_POINTS_JETS-1
 70
     0
 62
     7
  6
CONTINUOUS
370
    -3
390
F
347
170F
  0
LAYER
  5
20C
102
{ACAD_XDICTIONARY
360
17BB
102
}
330
2
100
AcDbSymbolTableRecord
100
AcDbLayerTableRecord
  2
3_POINTS_JETS-2
 70
     0
 62
     7
  6
CONTINUOUS
370
    -3
390
F
347
170F
  0
LAYER
  5
20D
102
{ACAD_XDICTIONARY
360
17BD
102
}
330
2
100
AcDbSymbolTableRecord
100
AcDbLayerTableRecord
  2
4_CSYS
 70
     0
 62
     7
  6
CONTINUOUS
370
    -3
390
F
347
170F
  0
LAYER
  5
20E
102
{ACAD_XDICTIONARY
360
17BF
102
}
330
2
100
AcDbSymbolTableRecord
100
AcDbLayerTableRecord
  2
5_AXIS
 70
     0
 62
     7
  6
CONTINUOUS
370
    -3
390
F
347
170F
  0
LAYER
  5
20F
102
{ACAD_XDICTIONARY
360
17C1
102
}
330
2
100
AcDbSymbolTableRecord
100
AcDbLayerTableRecord
  2
5_AXIS_JETS-1
 70
     0
 62
     7
  6
CONTINUOUS
370
    -3
390
F
347
170F
  0
LAYER
  5
210
102
{ACAD_XDICTIONARY
360
17C3
102
}
330
2
100
AcDbSymbolTableRecord
100
AcDbLayerTableRecord
  2
5_AXIS_JETS-2
 70
     0
 62
     7
  6
CONTINUOUS
370
    -3
390
F
347
170F
  0
LAYER
  5
211
102
{ACAD_XDICTIONARY
360
17C5
102
}
330
2
100
AcDbSymbolTableRecord
100
AcDbLayerTableRecord
  2
6_AIRE_CONDUIT
 70
     0
 62
     7
  6
CONTINUOUS
370
    -3
390
F
347
170F
  0
LAYER
  5
212
102
{ACAD_XDICTIONARY
360
17C7
102
}
330
2
100
AcDbSymbolTableRecord
100
AcDbLayerTableRecord
  2
6_SURFACES
 70
     0
 62
     7
  6
CONTINUOUS
370
    -3
390
F
347
170F
  0
LAYER
  5
213
102
{ACAD_XDICTIONARY
360
17C9
102
}
330
2
100
AcDbSymbolTableRecord
100
AcDbLayerTableRecord
  2
6_SURFACES-TOOLING
 70
     0
 62
     7
  6
CONTINUOUS
370
    -3
390
F
347
170F
  0
LAYER
  5
214
102
{ACAD_XDICTIONARY
360
17CB
102
}
330
2
100
AcDbSymbolTableRecord
100
AcDbLayerTableRecord
  2
6_SURFACES_AIRE
 70
     0
 62
     7
  6
CONTINUOUS
370
    -3
390
F
347
170F
  0
LAYER
  5
215
102
{ACAD_XDICTIONARY
360
17CD
102
}
330
2
100
AcDbSymbolTableRecord
100
AcDbLayerTableRecord
  2
6_SURFACES_BAIN_DROIT
 70
     0
 62
     7
  6
CONTINUOUS
370
    -3
390
F
347
170F
  0
LAYER
  5
216
102
{ACAD_XDICTIONARY
360
17CF
102
}
330
2
100
AcDbSymbolTableRecord
100
AcDbLayerTableRecord
  2
6_SURFACES_BAIN_DROIT_INSERT
 70
     0
 62
     7
  6
CONTINUOUS
370
    -3
390
F
347
170F
  0
LAYER
  5
217
102
{ACAD_XDICTIONARY
360
17D1
102
}
330
2
100
AcDbSymbolTableRecord
100
AcDbLayerTableRecord
  2
6_SURFACES_BAIN_GAUCHE
 70
     0
 62
     7
  6
CONTINUOUS
370
    -3
390
F
347
170F
  0
LAYER
  5
218
102
{ACAD_XDICTIONARY
360
17D3
102
}
330
2
100
AcDbSymbolTableRecord
100
AcDbLayerTableRecord
  2
6_SURFACES_BAIN_GAUCHE_INSERT
 70
     0
 62
     7
  6
CONTINUOUS
370
    -3
390
F
347
170F
  0
LAYER
  5
219
102
{ACAD_XDICTIONARY
360
17D5
102
}
330
2
100
AcDbSymbolTableRecord
100
AcDbLayerTableRecord
  2
6_SURFACES_OFFSET_FIBRE_ACRYLIQ
 70
     0
 62
     7
  6
CONTINUOUS
370
    -3
390
F
347
170F
  0
LAYER
  5
21A
102
{ACAD_XDICTIONARY
360
17D7
102
}
330
2
100
AcDbSymbolTableRecord
100
AcDbLayerTableRecord
  2
6_SURFACES_PATINS_SPECS
 70
     0
 62
     7
  6
CONTINUOUS
370
    -3
390
F
347
170F
  0
LAYER
  5
21B
102
{ACAD_XDICTIONARY
360
17D9
102
}
330
2
100
AcDbSymbolTableRecord
100
AcDbLayerTableRecord
  2
6_SURFACES_POUR_CONDUIT
 70
     0
 62
     7
  6
CONTINUOUS
370
    -3
390
F
347
170F
  0
LAYER
  5
21C
102
{ACAD_XDICTIONARY
360
17DB
102
}
330
2
100
AcDbSymbolTableRecord
100
AcDbLayerTableRecord
  2
6_SURFACES_POUR_HFL
 70
     0
 62
     7
  6
CONTINUOUS
370
    -3
390
F
347
170F
  0
LAYER
  5
21D
102
{ACAD_XDICTIONARY
360
17DD
102
}
330
2
100
AcDbSymbolTableRecord
100
AcDbLayerTableRecord
  2
6_SURFACES_POUR_TROP_PLEIN
 70
     0
 62
     7
  6
CONTINUOUS
370
    -3
390
F
347
170F
  0
LAYER
  5
21E
102
{ACAD_XDICTIONARY
360
17DF
102
}
330
2
100
AcDbSymbolTableRecord
100
AcDbLayerTableRecord
  2
6_SURFACES_TOOLING
 70
     0
 62
     7
  6
CONTINUOUS
370
    -3
390
F
347
170F
  0
LAYER
  5
21F
102
{ACAD_XDICTIONARY
360
17E1
102
}
330
2
100
AcDbSymbolTableRecord
100
AcDbLayerTableRecord
  2
7_NOTES
 70
     0
 62
     7
  6
CONTINUOUS
370
    -3
390
F
347
170F
  0
LAYER
  5
220
102
{ACAD_XDICTIONARY
360
17E3
102
}
330
2
100
AcDbSymbolTableRecord
100
AcDbLayerTableRecord
  2
8_TOL_GEOM
 70
     0
 62
     7
  6
CONTINUOUS
370
    -3
390
F
347
170F
  0
LAYER
  5
221
102
{ACAD_XDICTIONARY
360
17E5
102
}
330
2
100
AcDbSymbolTableRecord
100
AcDbLayerTableRecord
  2
NONE
 70
     0
 62
     7
  6
CONTINUOUS
370
    -3
390
F
347
170F
  0
LAYER
  5
222
102
{ACAD_XDICTIONARY
360
17E7
102
}
330
2
100
AcDbSymbolTableRecord
100
AcDbLayerTableRecord
  2
XSEC_DATUMS
 70
     0
 62
     7
  6
CONTINUOUS
370
    -3
390
F
347
170F
  0
ENDTAB
  0
TABLE
  2
STYLE
  5
3
330
0
100
AcDbSymbolTable
 70
     8
  0
STYLE
  5
11
330
3
100
AcDbSymbolTableRecord
100
AcDbTextStyleTableRecord
  2
STANDARD
 70
     0
 40
0.0
 41
0.8
 50
0.0
 71
     0
 42
0.2
  3
txt
  4

  0
STYLE
  5
223
330
3
100
AcDbSymbolTableRecord
100
AcDbTextStyleTableRecord
  2
TEXTSTYLE_1
 70
     0
 40
0.0
 41
0.8
 50
0.0
 71
     0
 42
0.2
  3
gdt
  4

  0
STYLE
  5
224
330
3
100
AcDbSymbolTableRecord
100
AcDbTextStyleTableRecord
  2
TEXTSTYLE_2
 70
     0
 40
0.0
 41
1.0
 50
0.0
 71
     0
 42
0.2
  3
trium.ttf
  4

  0
STYLE
  5
225
330
3
100
AcDbSymbolTableRecord
100
AcDbTextStyleTableRecord
  2
TEXTSTYLE_3
 70
     0
 40
0.0
 41
1.0
 50
0.0
 71
     0
 42
0.2
  3
trium.ttf
  4

  0
STYLE
  5
226
330
3
100
AcDbSymbolTableRecord
100
AcDbTextStyleTableRecord
  2
TEXTSTYLE_4
 70
     0
 40
0.0
 41
1.0
 50
0.0
 71
     0
 42
0.2
  3
txt_____.ttf
  4

1001
ACAD
1000
txt
1071
        2
  0
STYLE
  5
227
330
3
100
AcDbSymbolTableRecord
100
AcDbTextStyleTableRecord
  2
TEXTSTYLE_5
 70
     0
 40
0.0
 41
1.0
 50
0.0
 71
     0
 42
0.2
  3
txt
  4

  0
STYLE
  5
228
330
3
100
AcDbSymbolTableRecord
100
AcDbTextStyleTableRecord
  2
TEXTSTYLE_6
 70
     0
 40
0.0
 41
1.0
 50
0.0
 71
     0
 42
0.2
  3
trium.ttf
  4

  0
STYLE
  5
229
330
3
100
AcDbSymbolTableRecord
100
AcDbTextStyleTableRecord
  2
TEXTSTYLE_7
 70
     0
 40
0.0
 41
0.8
 50
0.0
 71
     0
 42
0.2
  3
txt
  4

  0
ENDTAB
  0
TABLE
  2
VIEW
  5
6
330
0
100
AcDbSymbolTable
 70
     0
  0
ENDTAB
  0
TABLE
  2
UCS
  5
7
330
0
100
AcDbSymbolTable
 70
     0
  0
ENDTAB
  0
TABLE
  2
APPID
  5
9
330
0
100
AcDbSymbolTable
 70
     2
  0
APPID
  5
22A
330
9
100
AcDbSymbolTableRecord
100
AcDbRegAppTableRecord
  2
ACAD
 70
     0
  0
APPID
  5
1785
330
9
100
AcDbSymbolTableRecord
100
AcDbRegAppTableRecord
  2
ACAD_MLEADERVER
 70
     0
  0
ENDTAB
  0
TABLE
  2
DIMSTYLE
  5
A
330
0
100
AcDbSymbolTable
 70
     6
100
AcDbDimStyleTable
 71
     0
  0
DIMSTYLE
105
247
330
A
100
AcDbSymbolTableRecord
100
AcDbDimStyleTableRecord
  2
STANDARD
 70
     0
 41
2.0
 44
0.125
 47
0.00001
 48
0.00001
 71
     1
 78
     4
140
1.333333333299999
271
     5
272
     5
284
     4
340
11
341
22D
342
22D
343
22D
344
22D
  0
DIMSTYLE
105
248
330
A
100
AcDbSymbolTableRecord
100
AcDbDimStyleTableRecord
  2
DIMSTYLE_1
 70
     0
 41
2.0
 44
0.125
 47
0.001
 48
0.001
 78
     4
140
1.333333333299999
147
0.0625
271
     6
272
     6
284
     4
340
11
341
22D
342
22D
343
22D
344
22D
  0
DIMSTYLE
105
249
330
A
100
AcDbSymbolTableRecord
100
AcDbDimStyleTableRecord
  2
DIMSTYLE_2
 70
     0
 41
2.0
 44
0.125
 47
0.001
 48
0.001
 78
     4
140
1.333333333299999
147
0.0625
271
     3
272
     3
284
     4
340
11
341
22D
342
22D
343
22D
344
22D
  0
DIMSTYLE
105
24A
330
A
100
AcDbSymbolTableRecord
100
AcDbDimStyleTableRecord
  2
DIMSTYLE_3
 70
     0
 41
2.0
 44
0.125
 47
0.001
 48
0.001
 78
     4
140
1.333333333299999
147
0.0625
284
     4
340
11
341
22D
342
22D
343
22D
344
22D
  0
DIMSTYLE
105
24B
330
A
100
AcDbSymbolTableRecord
100
AcDbDimStyleTableRecord
  2
DIMSTYLE_4
 70
     0
 41
2.0
 44
0.125
 47
1.0
 48
1.0
 78
     4
140
1.333333333299999
271
     0
272
     0
284
     4
340
11
341
22D
342
22D
343
22D
344
22D
  0
DIMSTYLE
105
24C
330
A
100
AcDbSymbolTableRecord
100
AcDbDimStyleTableRecord
  2
DIMSTYLE_5
 70
     0
 41
2.0
 44
0.125
 47
0.00001
 48
0.00001
 78
     4
140
1.333333333299999
147
0.0625
271
     6
272
     6
284
     4
340
11
341
22D
342
22D
343
22D
344
22D
  0
ENDTAB
  0
TABLE
  2
BLOCK_RECORD
  5
1
330
0
100
AcDbSymbolTable
 70
    26
  0
BLOCK_RECORD
  5
22B
330
1
100
AcDbSymbolTableRecord
100
AcDbBlockTableRecord
  2
*Model_Space
340
16FA
 70
     0
280
     1
281
     0
  0
BLOCK_RECORD
  5
22C
330
1
100
AcDbSymbolTableRecord
100
AcDbBlockTableRecord
  2
*Paper_Space
340
16FB
 70
     0
280
     1
281
     0
  0
BLOCK_RECORD
  5
22D
330
1
100
AcDbSymbolTableRecord
100
AcDbBlockTableRecord
  2
_FILLED
340
0
102
{BLKREFS
331
349
331
34A
331
353
331
354
331
35C
331
35D
331
365
331
366
331
36E
331
36F
331
377
331
378
331
381
331
382
331
38A
331
38B
331
393
331
394
331
39D
331
39E
331
3A6
331
3A7
331
3B6
331
3B7
331
3BF
331
3C0
331
3C8
331
3C9
102
}
 70
     0
280
     1
281
     0
  0
BLOCK_RECORD
  5
23D
330
1
100
AcDbSymbolTableRecord
100
AcDbBlockTableRecord
  2
SYMBOL_25_BL9
340
0
 70
     0
280
     1
281
     0
  0
BLOCK_RECORD
  5
23E
330
1
100
AcDbSymbolTableRecord
100
AcDbBlockTableRecord
  2
SYMBOL_24_BL8
340
0
 70
     0
280
     1
281
     0
  0
BLOCK_RECORD
  5
23F
330
1
100
AcDbSymbolTableRecord
100
AcDbBlockTableRecord
  2
SYMBOL_8_BL7
340
0
 70
     0
280
     1
281
     0
  0
BLOCK_RECORD
  5
240
330
1
100
AcDbSymbolTableRecord
100
AcDbBlockTableRecord
  2
SYMBOL_7_BL6
340
0
 70
     0
280
     1
281
     0
  0
BLOCK_RECORD
  5
241
330
1
100
AcDbSymbolTableRecord
100
AcDbBlockTableRecord
  2
SYMBOL_22_BL5
340
0
 70
     0
280
     1
281
     0
  0
BLOCK_RECORD
  5
242
330
1
100
AcDbSymbolTableRecord
100
AcDbBlockTableRecord
  2
SYMBOL_21_BL4
340
0
 70
     0
280
     1
281
     0
  0
BLOCK_RECORD
  5
243
330
1
100
AcDbSymbolTableRecord
100
AcDbBlockTableRecord
  2
SYMBOL_6_BL3
340
0
 70
     0
280
     1
281
     0
  0
BLOCK_RECORD
  5
244
330
1
100
AcDbSymbolTableRecord
100
AcDbBlockTableRecord
  2
SYMBOL_5_BL2
340
0
 70
     0
280
     1
281
     0
  0
BLOCK_RECORD
  5
245
330
1
100
AcDbSymbolTableRecord
100
AcDbBlockTableRecord
  2
SYMBOL_2_BL1
340
0
 70
     0
280
     1
281
     0
  0
BLOCK_RECORD
  5
246
330
1
100
AcDbSymbolTableRecord
100
AcDbBlockTableRecord
  2
SYMBOL_0_BL0
340
0
 70
     0
280
     1
281
     0
  0
ENDTAB
  0
ENDSEC
  0
SECTION
  2
BLOCKS
  0
BLOCK
  5
20
330
22B
100
AcDbEntity
  8
0
100
AcDbBlockBegin
  2
*Model_Space
 70
     0
 10
0.0
 20
0.0
 30
0.0
  3
*Model_Space
  1

  0
ENDBLK
  5
21
330
22B
100
AcDbEntity
  8
0
100
AcDbBlockEnd
  0
BLOCK
  5
1C
330
22C
100
AcDbEntity
 67
     1
  8
0
100
AcDbBlockBegin
  2
*Paper_Space
 70
     0
 10
0.0
 20
0.0
 30
0.0
  3
*Paper_Space
  1

  0
ENDBLK
  5
1D
330
22C
100
AcDbEntity
 67
     1
  8
0
100
AcDbBlockEnd
  0
BLOCK
  5
340
330
22D
100
AcDbEntity
  8
0
100
AcDbBlockBegin
  2
_FILLED
 70
     0
 10
0.0
 20
0.0
 30
0.0
  3
_FILLED
  1

  0
SOLID
  5
341
330
22D
100
AcDbEntity
  8
0
  6
ByBlock
 62
     0
100
AcDbTrace
 10
0.0
 20
0.0
 30
0.0
 11
-1.0
 21
0.1666666667
 31
0.0
 12
-1.0
 22
-0.1666666667
 32
0.0
 13
-1.0
 23
-0.1666666667
 33
0.0
  0
ENDBLK
  5
342
330
22D
100
AcDbEntity
  8
0
  6
ByBlock
 62
     0
100
AcDbBlockEnd
  0
BLOCK
  5
24D
330
23D
100
AcDbEntity
  8
0
  6
Continuous
 62
     7
100
AcDbBlockBegin
  2
SYMBOL_25_BL9
 70
     0
 10
129.641570543
 20
70.46977435229999
 30
0.0
  3
SYMBOL_25_BL9
  1

  0
TEXT
  5
24E
330
23D
100
AcDbEntity
  8
0
  6
Continuous
 62
     7
100
AcDbText
 10
129.026755489
 20
69.8031074263
 30
0.0
 40
1.333333852099999
  1
A
  7
TEXTSTYLE_2
100
AcDbText
  0
ELLIPSE
  5
24F
330
23D
100
AcDbEntity
  8
0
  6
Continuous
 62
     7
100
AcDbEllipse
 10
129.641570543
 20
70.46977435229999
 30
0.0
 11
-1.942887567899999
 21
0.0
 31
0.0
210
0.0
220
0.0
230
1.0
 40
0.6606458385
 41
0.0
 42
6.283185307179586
  0
ENDBLK
  5
250
330
23D
100
AcDbEntity
  8
0
  6
ByBlock
 62
     0
100
AcDbBlockEnd
  0
BLOCK
  5
251
330
23E
100
AcDbEntity
  8
0
  6
Continuous
 62
     7
100
AcDbBlockBegin
  2
SYMBOL_24_BL8
 70
     0
 10
119.64843757
 20
70.5151668885
 30
0.0
  3
SYMBOL_24_BL8
  1

  0
TEXT
  5
252
330
23E
100
AcDbEntity
  8
0
  6
Continuous
 62
     7
100
AcDbText
 10
118.981770644
 20
69.8484999625
 30
0.0
 40
1.333333852099999
  1
C
  7
TEXTSTYLE_2
100
AcDbText
  0
ELLIPSE
  5
253
330
23E
100
AcDbEntity
  8
0
  6
Continuous
 62
     7
100
AcDbEllipse
 10
119.64843757
 20
70.5151668885
 30
0.0
 11
-1.942887567899999
 21
0.0
 31
0.0
210
0.0
220
0.0
230
1.0
 40
0.6606458385
 41
0.0
 42
6.283185307179586
  0
ENDBLK
  5
254
330
23E
100
AcDbEntity
  8
0
  6
ByBlock
 62
     0
100
AcDbBlockEnd
  0
BLOCK
  5
255
330
23F
100
AcDbEntity
  8
0
  6
Continuous
 62
     7
100
AcDbBlockBegin
  2
SYMBOL_8_BL7
 70
     0
 10
148.6485547499
 20
97.5428180886
 30
0.0
  3
SYMBOL_8_BL7
  1

  0
TEXT
  5
256
330
23F
100
AcDbEntity
  8
0
  6
Continuous
 62
     7
100
AcDbText
 10
148.0990795499
 20
96.86994574860001
 30
0.0
 40
1.333333852099999
  1
L
  7
TEXTSTYLE_2
100
AcDbText
  0
TEXT
  5
257
330
23F
100
AcDbEntity
  8
0
  6
Continuous
 62
     7
100
AcDbText
 10
144.4144932716
 20
96.88235657660001
 30
0.0
 40
1.333333852099999
  1
8
  7
TEXTSTYLE_2
100
AcDbText
  0
TEXT
  5
258
330
23F
100
AcDbEntity
  8
0
  6
Continuous
 62
     7
100
AcDbText
 10
151.8603936083
 20
96.88235657660001
 30
0.0
 40
1.333333852099999
  1
7
  7
TEXTSTYLE_2
100
AcDbText
  0
ELLIPSE
  5
259
330
23F
100
AcDbEntity
  8
0
  6
Continuous
 62
     7
100
AcDbEllipse
 10
148.6274748171999
 20
97.5366126746
 30
0.0
 11
-1.942887567899999
 21
0.0
 31
0.0
210
0.0
220
0.0
230
1.0
 40
0.6606458385
 41
0.0
 42
6.283185307179586
  0
ENDBLK
  5
25A
330
23F
100
AcDbEntity
  8
0
  6
ByBlock
 62
     0
100
AcDbBlockEnd
  0
BLOCK
  5
25B
330
240
100
AcDbEntity
  8
0
  6
Continuous
 62
     7
100
AcDbBlockBegin
  2
SYMBOL_7_BL6
 70
     0
 10
121.589001051
 20
73.8682697456
 30
0.0
  3
SYMBOL_7_BL6
  1

  0
TEXT
  5
25C
330
240
100
AcDbEntity
  8
0
  6
Continuous
 62
     7
100
AcDbText
 10
121.039525851
 20
73.1953974056
 30
0.0
 40
1.333333852099999
  1
L
  7
TEXTSTYLE_2
100
AcDbText
  0
TEXT
  5
25D
330
240
100
AcDbEntity
  8
0
  6
Continuous
 62
     7
100
AcDbText
 10
116.8438282628
 20
73.20780823359999
 30
0.0
 40
1.333333852099999
  1
16
  7
TEXTSTYLE_2
100
AcDbText
  0
TEXT
  5
25E
330
240
100
AcDbEntity
  8
0
  6
Continuous
 62
     7
100
AcDbText
 10
124.2897285995
 20
73.20780823359999
 30
0.0
 40
1.333333852099999
  1
15
  7
TEXTSTYLE_2
100
AcDbText
  0
ELLIPSE
  5
25F
330
240
100
AcDbEntity
  8
0
  6
Continuous
 62
     7
100
AcDbEllipse
 10
121.5679211183
 20
73.86206433159999
 30
0.0
 11
-1.942887567899999
 21
0.0
 31
0.0
210
0.0
220
0.0
230
1.0
 40
0.6606458385
 41
0.0
 42
6.283185307179586
  0
ENDBLK
  5
260
330
240
100
AcDbEntity
  8
0
  6
ByBlock
 62
     0
100
AcDbBlockEnd
  0
BLOCK
  5
261
330
241
100
AcDbEntity
  8
0
  6
Continuous
 62
     7
100
AcDbBlockBegin
  2
SYMBOL_22_BL5
 70
     0
 10
54.11940283959999
 20
70.58639429919999
 30
0.0
  3
SYMBOL_22_BL5
  1

  0
TEXT
  5
262
330
241
100
AcDbEntity
  8
0
  6
Continuous
 62
     7
100
AcDbText
 10
53.5045877856
 20
69.91972737319999
 30
0.0
 40
1.333333852099999
  1
A
  7
TEXTSTYLE_2
100
AcDbText
  0
ELLIPSE
  5
263
330
241
100
AcDbEntity
  8
0
  6
Continuous
 62
     7
100
AcDbEllipse
 10
54.11940283959999
 20
70.58639429919999
 30
0.0
 11
-1.942887567899999
 21
0.0
 31
0.0
210
0.0
220
0.0
230
1.0
 40
0.6606458385
 41
0.0
 42
6.283185307179586
  0
ENDBLK
  5
264
330
241
100
AcDbEntity
  8
0
  6
ByBlock
 62
     0
100
AcDbBlockEnd
  0
BLOCK
  5
265
330
242
100
AcDbEntity
  8
0
  6
Continuous
 62
     7
100
AcDbBlockBegin
  2
SYMBOL_21_BL4
 70
     0
 10
64.09221079640001
 20
70.58639429919999
 30
0.0
  3
SYMBOL_21_BL4
  1

  0
TEXT
  5
266
330
242
100
AcDbEntity
  8
0
  6
Continuous
 62
     7
100
AcDbText
 10
63.42554387039999
 20
69.91972737319999
 30
0.0
 40
1.333333852099999
  1
C
  7
TEXTSTYLE_2
100
AcDbText
  0
ELLIPSE
  5
267
330
242
100
AcDbEntity
  8
0
  6
Continuous
 62
     7
100
AcDbEllipse
 10
64.09221079640001
 20
70.58639429919999
 30
0.0
 11
-1.942887567899999
 21
0.0
 31
0.0
210
0.0
220
0.0
230
1.0
 40
0.6606458385
 41
0.0
 42
6.283185307179586
  0
ENDBLK
  5
268
330
242
100
AcDbEntity
  8
0
  6
ByBlock
 62
     0
100
AcDbBlockEnd
  0
BLOCK
  5
269
330
243
100
AcDbEntity
  8
0
  6
Continuous
 62
     7
100
AcDbBlockBegin
  2
SYMBOL_6_BL3
 70
     0
 10
33.4385583993
 20
73.82690505380001
 30
0.0
  3
SYMBOL_6_BL3
  1

  0
TEXT
  5
26A
330
243
100
AcDbEntity
  8
0
  6
Continuous
 62
     7
100
AcDbText
 10
32.8890831993
 20
73.15403271370001
 30
0.0
 40
1.333333852099999
  1
L
  7
TEXTSTYLE_2
100
AcDbText
  0
TEXT
  5
26B
330
243
100
AcDbEntity
  8
0
  6
Continuous
 62
     7
100
AcDbText
 10
29.204496921
 20
73.16644354170001
 30
0.0
 40
1.333333852099999
  1
7
  7
TEXTSTYLE_2
100
AcDbText
  0
TEXT
  5
26C
330
243
100
AcDbEntity
  8
0
  6
Continuous
 62
     7
100
AcDbText
 10
36.6503972577
 20
73.16644354170001
 30
0.0
 40
1.333333852099999
  1
8
  7
TEXTSTYLE_2
100
AcDbText
  0
ELLIPSE
  5
26D
330
243
100
AcDbEntity
  8
0
  6
Continuous
 62
     7
100
AcDbEllipse
 10
33.4174784666
 20
73.82069963970001
 30
0.0
 11
-1.942887567899999
 21
0.0
 31
0.0
210
0.0
220
0.0
230
1.0
 40
0.6606458385
 41
0.0
 42
6.283185307179586
  0
ENDBLK
  5
26E
330
243
100
AcDbEntity
  8
0
  6
ByBlock
 62
     0
100
AcDbBlockEnd
  0
BLOCK
  5
26F
330
244
100
AcDbEntity
  8
0
  6
Continuous
 62
     7
100
AcDbBlockBegin
  2
SYMBOL_5_BL2
 70
     0
 10
61.5667068575
 20
97.65801435829999
 30
0.0
  3
SYMBOL_5_BL2
  1

  0
TEXT
  5
270
330
244
100
AcDbEntity
  8
0
  6
Continuous
 62
     7
100
AcDbText
 10
61.0172316575
 20
96.98514201830001
 30
0.0
 40
1.333333852099999
  1
L
  7
TEXTSTYLE_2
100
AcDbText
  0
TEXT
  5
271
330
244
100
AcDbEntity
  8
0
  6
Continuous
 62
     7
100
AcDbText
 10
56.8215340692
 20
96.99755284630001
 30
0.0
 40
1.333333852099999
  1
15
  7
TEXTSTYLE_2
100
AcDbText
  0
TEXT
  5
272
330
244
100
AcDbEntity
  8
0
  6
Continuous
 62
     7
100
AcDbText
 10
64.26743440590001
 20
96.99755284630001
 30
0.0
 40
1.333333852099999
  1
16
  7
TEXTSTYLE_2
100
AcDbText
  0
ELLIPSE
  5
273
330
244
100
AcDbEntity
  8
0
  6
Continuous
 62
     7
100
AcDbEllipse
 10
61.5456269247
 20
97.65180894430001
 30
0.0
 11
-1.942887567899999
 21
0.0
 31
0.0
210
0.0
220
0.0
230
1.0
 40
0.6606458385
 41
0.0
 42
6.283185307179586
  0
ENDBLK
  5
274
330
244
100
AcDbEntity
  8
0
  6
ByBlock
 62
     0
100
AcDbBlockEnd
  0
BLOCK
  5
275
330
245
100
AcDbEntity
  8
0
  6
Continuous
 62
     7
100
AcDbBlockBegin
  2
SYMBOL_2_BL1
 70
     0
 10
124.0039900067
 20
49.01303612180001
 30
0.0
  3
SYMBOL_2_BL1
  1

  0
TEXT
  5
276
330
245
100
AcDbEntity
  8
0
  6
Continuous
 62
     7
100
AcDbText
 10
117.6899297049
 20
51.2580701076
 30
0.0
 40
1.1626666667
  1
INTERNAL USE 
 50
10.0
  7
TEXTSTYLE_3
100
AcDbText
  0
TEXT
  5
277
330
245
100
AcDbEntity
  8
0
  6
Continuous
 62
     7
100
AcDbText
 10
116.9462455009
 20
49.25654892989999
 30
0.0
 40
1.1626666667
  1
DOCUMENT ONLY
 50
10.0
  7
TEXTSTYLE_3
100
AcDbText
  0
TEXT
  5
278
330
245
100
AcDbEntity
  8
0
  6
Continuous
 62
     7
100
AcDbText
 10
122.7309730642
 20
49.0081208794
 30
0.0
 40
1.1626666667
  1
 
 50
10.0
  7
TEXTSTYLE_5
100
AcDbText
  0
TEXT
  5
279
330
245
100
AcDbEntity
  8
0
  6
Continuous
 62
     7
100
AcDbText
 10
114.2863251812
 20
44.8310264731
 30
0.0
 40
1.1626666667
  1
DOCUMENT POUR USAGE
 50
10.0
  7
TEXTSTYLE_3
100
AcDbText
  0
TEXT
  5
27A
330
245
100
AcDbEntity
  8
0
  6
Continuous
 62
     7
100
AcDbText
 10
114.7154246272
 20
42.8142780127
 30
0.0
 40
1.1626666667
  1
A L'INTERNE SEULEMENT
 50
10.0
  7
TEXTSTYLE_3
100
AcDbText
  0
LINE
  5
27B
330
245
100
AcDbEntity
  8
0
  6
Continuous
 62
     7
100
AcDbLine
 10
137.86054173
 20
44.6695025038
 30
0.0
 11
137.8673006627
 21
44.6762614365
 31
0.0
  0
LINE
  5
27C
330
245
100
AcDbEntity
  8
0
  6
Continuous
 62
     7
100
AcDbLine
 10
137.1279721636
 20
44.54033072399999
 30
0.0
 11
137.7768536087
 21
45.18921216919999
 31
0.0
  0
LINE
  5
27D
330
245
100
AcDbEntity
  8
0
  6
Continuous
 62
     7
100
AcDbLine
 10
136.3954025972
 20
44.4111589442
 30
0.0
 11
137.6864065548
 21
45.7021629018
 31
0.0
  0
LINE
  5
27E
330
245
100
AcDbEntity
  8
0
  6
Continuous
 62
     7
100
AcDbLine
 10
135.6628330308
 20
44.28198716439999
 30
0.0
 11
137.5959595009
 21
46.21511363449999
 31
0.0
  0
LINE
  5
27F
330
245
100
AcDbEntity
  8
0
  6
Continuous
 62
     7
100
AcDbLine
 10
134.9302634644
 20
44.1528153846
 30
0.0
 11
137.5055124469
 21
46.72806436720001
 31
0.0
  0
LINE
  5
280
330
245
100
AcDbEntity
  8
0
  6
Continuous
 62
     7
100
AcDbLine
 10
134.1976938979
 20
44.02364360479999
 30
0.0
 11
135.7386977127
 21
45.5646474196
 31
0.0
  0
LINE
  5
281
330
245
100
AcDbEntity
  8
0
  6
Continuous
 62
     7
100
AcDbLine
 10
136.3360429054
 20
46.1619926123
 30
0.0
 11
137.415065393
 21
47.24101509979999
 31
0.0
  0
LINE
  5
282
330
245
100
AcDbEntity
  8
0
  6
Continuous
 62
     7
100
AcDbLine
 10
133.4651243315
 20
43.89447182499999
 30
0.0
 11
135.0061281463
 21
45.43547563979999
 31
0.0
  0
LINE
  5
283
330
245
100
AcDbEntity
  8
0
  6
Continuous
 62
     7
100
AcDbLine
 10
136.2455958515
 20
46.674943345
 30
0.0
 11
137.324618339
 21
47.7539658325
 31
0.0
  0
LINE
  5
284
330
245
100
AcDbEntity
  8
0
  6
Continuous
 62
     7
100
AcDbLine
 10
132.7325547651
 20
43.76530004520001
 30
0.0
 11
134.2735585799
 21
45.30630386
 31
0.0
  0
LINE
  5
285
330
245
100
AcDbEntity
  8
0
  6
Continuous
 62
     7
100
AcDbLine
 10
136.1551487976
 20
47.1878940777
 30
0.0
 11
137.2341712851
 21
48.26691656520001
 31
0.0
  0
LINE
  5
286
330
245
100
AcDbEntity
  8
0
  6
Continuous
 62
     7
100
AcDbLine
 10
131.9999851987
 20
43.63612826539999
 30
0.0
 11
133.5409890135
 21
45.1771320802
 31
0.0
  0
LINE
  5
287
330
245
100
AcDbEntity
  8
0
  6
Continuous
 62
     7
100
AcDbLine
 10
136.0647017436
 20
47.70084481029999
 30
0.0
 11
137.1437242311
 21
48.77986729779999
 31
0.0
  0
LINE
  5
288
330
245
100
AcDbEntity
  8
0
  6
Continuous
 62
     7
100
AcDbLine
 10
131.2674156323
 20
43.50695648560001
 30
0.0
 11
132.8084194471
 21
45.0479603004
 31
0.0
  0
LINE
  5
289
330
245
100
AcDbEntity
  8
0
  6
Continuous
 62
     7
100
AcDbLine
 10
135.9742546897
 20
48.213795543
 30
0.0
 11
137.0532771772
 21
49.2928180305
 31
0.0
  0
LINE
  5
28A
330
245
100
AcDbEntity
  8
0
  6
Continuous
 62
     7
100
AcDbLine
 10
130.5348460659
 20
43.37778470579999
 30
0.0
 11
132.0758498806
 21
44.9187885206
 31
0.0
  0
LINE
  5
28B
330
245
100
AcDbEntity
  8
0
  6
Continuous
 62
     7
100
AcDbLine
 10
135.8838076357
 20
48.72674627569999
 30
0.0
 11
136.9628301232
 21
49.8057687632
 31
0.0
  0
LINE
  5
28C
330
245
100
AcDbEntity
  8
0
  6
Continuous
 62
     7
100
AcDbLine
 10
129.8022764994
 20
43.248612926
 30
0.0
 11
131.3432803142
 21
44.78961674079999
 31
0.0
  0
LINE
  5
28D
330
245
100
AcDbEntity
  8
0
  6
Continuous
 62
     7
100
AcDbLine
 10
135.7933605818
 20
49.23969700829999
 30
0.0
 11
136.8723830693
 21
50.3187194959
 31
0.0
  0
LINE
  5
28E
330
245
100
AcDbEntity
  8
0
  6
Continuous
 62
     7
100
AcDbLine
 10
129.069706933
 20
43.1194411462
 30
0.0
 11
130.6107107478
 21
44.660444961
 31
0.0
  0
LINE
  5
28F
330
245
100
AcDbEntity
  8
0
  6
Continuous
 62
     7
100
AcDbLine
 10
135.7029135278
 20
49.75264774100001
 30
0.0
 11
136.7819360154
 21
50.8316702285
 31
0.0
  0
LINE
  5
290
330
245
100
AcDbEntity
  8
0
  6
Continuous
 62
     7
100
AcDbLine
 10
128.3371373666
 20
42.9902693664
 30
0.0
 11
129.8781411814
 21
44.53127318119999
 31
0.0
  0
LINE
  5
291
330
245
100
AcDbEntity
  8
0
  6
Continuous
 62
     7
100
AcDbLine
 10
135.6124664739
 20
50.26559847369999
 30
0.0
 11
136.6914889613999
 21
51.3446209612
 31
0.0
  0
LINE
  5
292
330
245
100
AcDbEntity
  8
0
  6
Continuous
 62
     7
100
AcDbLine
 10
127.6045678002
 20
42.86109758659999
 30
0.0
 11
129.145571615
 21
44.4021014014
 31
0.0
  0
LINE
  5
293
330
245
100
AcDbEntity
  8
0
  6
Continuous
 62
     7
100
AcDbLine
 10
135.3095868741
 20
50.5661166605
 30
0.0
 11
136.6010419075
 21
51.85757169390001
 31
0.0
  0
LINE
  5
294
330
245
100
AcDbEntity
  8
0
  6
Continuous
 62
     7
100
AcDbLine
 10
126.8719982338
 20
42.73192580679999
 30
0.0
 11
128.4130020485
 21
44.2729296215
 31
0.0
  0
LINE
  5
295
330
245
100
AcDbEntity
  8
0
  6
Continuous
 62
     7
100
AcDbLine
 10
134.5770173077
 20
50.43694488069999
 30
0.0
 11
136.5105948535
 21
52.37052242649999
 31
0.0
  0
LINE
  5
296
330
245
100
AcDbEntity
  8
0
  6
Continuous
 62
     7
100
AcDbLine
 10
126.1394286673
 20
42.60275402699999
 30
0.0
 11
127.6804324821
 21
44.1437578417
 31
0.0
  0
LINE
  5
297
330
245
100
AcDbEntity
  8
0
  6
Continuous
 62
     7
100
AcDbLine
 10
133.8444477412
 20
50.3077731008
 30
0.0
 11
134.8717900395
 21
51.33511539909999
 31
0.0
  0
LINE
  5
298
330
245
100
AcDbEntity
  8
0
  6
Continuous
 62
     7
100
AcDbLine
 10
135.3411253121
 20
51.8044506717
 30
0.0
 11
136.4201477996
 21
52.8834731592
 31
0.0
  0
LINE
  5
299
330
245
100
AcDbEntity
  8
0
  6
Continuous
 62
     7
100
AcDbLine
 10
125.4068591009
 20
42.4735822472
 30
0.0
 11
126.9478629157
 21
44.0145860619
 31
0.0
  0
LINE
  5
29A
330
245
100
AcDbEntity
  8
0
  6
Continuous
 62
     7
100
AcDbLine
 10
133.1118781748
 20
50.178601321
 30
0.0
 11
134.1392202635
 21
51.20594340970001
 31
0.0
  0
LINE
  5
29B
330
245
100
AcDbEntity
  8
0
  6
Continuous
 62
     7
100
AcDbLine
 10
135.2506782580999
 20
52.3174014043
 30
0.0
 11
136.3297007456
 21
53.39642389189999
 31
0.0
  0
LINE
  5
29C
330
245
100
AcDbEntity
  8
0
  6
Continuous
 62
     7
100
AcDbLine
 10
124.6742895345
 20
42.34441046739999
 30
0.0
 11
126.2152933493
 21
43.88541428209999
 31
0.0
  0
LINE
  5
29D
330
245
100
AcDbEntity
  8
0
  6
Continuous
 62
     7
100
AcDbLine
 10
132.3793086084
 20
50.0494295412
 30
0.0
 11
133.4066504874
 21
51.0767714203
 31
0.0
  0
LINE
  5
29E
330
245
100
AcDbEntity
  8
0
  6
Continuous
 62
     7
100
AcDbLine
 10
135.1602312042
 20
52.83035213699999
 30
0.0
 11
136.2392536917
 21
53.9093746245
 31
0.0
  0
LINE
  5
29F
330
245
100
AcDbEntity
  8
0
  6
Continuous
 62
     7
100
AcDbLine
 10
123.9417199681
 20
42.2152386875
 30
0.0
 11
125.4827237829
 21
43.75624250229999
 31
0.0
  0
LINE
  5
2A0
330
245
100
AcDbEntity
  8
0
  6
Continuous
 62
     7
100
AcDbLine
 10
131.646739042
 20
49.9202577614
 30
0.0
 11
132.6740807114
 21
50.9475994309
 31
0.0
  0
LINE
  5
2A1
330
245
100
AcDbEntity
  8
0
  6
Continuous
 62
     7
100
AcDbLine
 10
135.0697841502
 20
53.34330286970001
 30
0.0
 11
136.1488066378
 21
54.4223253572
 31
0.0
  0
LINE
  5
2A2
330
245
100
AcDbEntity
  8
0
  6
Continuous
 62
     7
100
AcDbLine
 10
123.2091504017
 20
42.08606690769999
 30
0.0
 11
124.7501542165
 21
43.6270707225
 31
0.0
  0
LINE
  5
2A3
330
245
100
AcDbEntity
  8
0
  6
Continuous
 62
     7
100
AcDbLine
 10
130.9141694756
 20
49.79108598159999
 30
0.0
 11
131.9415109354
 21
50.81842744140001
 31
0.0
  0
LINE
  5
2A4
330
245
100
AcDbEntity
  8
0
  6
Continuous
 62
     7
100
AcDbLine
 10
134.9793370963
 20
53.85625360239999
 30
0.0
 11
136.0583595838
 21
54.9352760899
 31
0.0
  0
LINE
  5
2A5
330
245
100
AcDbEntity
  8
0
  6
Continuous
 62
     7
100
AcDbLine
 10
122.4765808353
 20
41.95689512789999
 30
0.0
 11
124.01758465
 21
43.4978989427
 31
0.0
  0
LINE
  5
2A6
330
245
100
AcDbEntity
  8
0
  6
Continuous
 62
     7
100
AcDbLine
 10
130.1815999091
 20
49.6619142018
 30
0.0
 11
131.2089411594
 21
50.68925545199999
 31
0.0
  0
LINE
  5
2A7
330
245
100
AcDbEntity
  8
0
  6
Continuous
 62
     7
100
AcDbLine
 10
134.8888900423
 20
54.369204335
 30
0.0
 11
135.9679125299
 21
55.4482268225
 31
0.0
  0
LINE
  5
2A8
330
245
100
AcDbEntity
  8
0
  6
Continuous
 62
     7
100
AcDbLine
 10
121.7440112688
 20
41.8277233481
 30
0.0
 11
123.2850150836
 21
43.3687271629
 31
0.0
  0
LINE
  5
2A9
330
245
100
AcDbEntity
  8
0
  6
Continuous
 62
     7
100
AcDbLine
 10
129.4490303427
 20
49.532742422
 30
0.0
 11
130.4763713833
 21
50.5600834626
 31
0.0
  0
LINE
  5
2AA
330
245
100
AcDbEntity
  8
0
  6
Continuous
 62
     7
100
AcDbLine
 10
134.7984429884
 20
54.8821550677
 30
0.0
 11
135.8774654759
 21
55.9611775552
 31
0.0
  0
LINE
  5
2AB
330
245
100
AcDbEntity
  8
0
  6
Continuous
 62
     7
100
AcDbLine
 10
121.0114417024
 20
41.69855156829999
 30
0.0
 11
122.5524455172
 21
43.2395553831
 31
0.0
  0
LINE
  5
2AC
330
245
100
AcDbEntity
  8
0
  6
Continuous
 62
     7
100
AcDbLine
 10
128.7164607763
 20
49.4035706422
 30
0.0
 11
129.7438016073
 21
50.4309114732
 31
0.0
  0
LINE
  5
2AD
330
245
100
AcDbEntity
  8
0
  6
Continuous
 62
     7
100
AcDbLine
 10
134.7079959345
 20
55.39510580039999
 30
0.0
 11
135.787018422
 21
56.4741282879
 31
0.0
  0
LINE
  5
2AE
330
245
100
AcDbEntity
  8
0
  6
Continuous
 62
     7
100
AcDbLine
 10
120.278872136
 20
41.5693797885
 30
0.0
 11
121.8198759508
 21
43.1103836033
 31
0.0
  0
LINE
  5
2AF
330
245
100
AcDbEntity
  8
0
  6
Continuous
 62
     7
100
AcDbLine
 10
127.9838912099
 20
49.2743988624
 30
0.0
 11
129.0112318313
 21
50.30173948379999
 31
0.0
  0
LINE
  5
2B0
330
245
100
AcDbEntity
  8
0
  6
Continuous
 62
     7
100
AcDbLine
 10
134.6175488805
 20
55.908056533
 30
0.0
 11
135.6965713679999
 21
56.9870790205
 31
0.0
  0
LINE
  5
2B1
330
245
100
AcDbEntity
  8
0
  6
Continuous
 62
     7
100
AcDbLine
 10
119.5463025696
 20
41.44020800869999
 30
0.0
 11
121.0873063844
 21
42.9812118235
 31
0.0
  0
LINE
  5
2B2
330
245
100
AcDbEntity
  8
0
  6
Continuous
 62
     7
100
AcDbLine
 10
127.2513216435
 20
49.1452270826
 30
0.0
 11
128.2786620552
 21
50.1725674944
 31
0.0
  0
LINE
  5
2B3
330
245
100
AcDbEntity
  8
0
  6
Continuous
 62
     7
100
AcDbLine
 10
134.4426727791
 20
56.33657821819999
 30
0.0
 11
135.6061243141
 21
57.5000297532
 31
0.0
  0
LINE
  5
2B4
330
245
100
AcDbEntity
  8
0
  6
Continuous
 62
     7
100
AcDbLine
 10
118.8137330032
 20
41.3110362289
 30
0.0
 11
120.3547368179
 21
42.8520400437
 31
0.0
  0
LINE
  5
2B5
330
245
100
AcDbEntity
  8
0
  6
Continuous
 62
     7
100
AcDbLine
 10
126.5187520771
 20
49.0160553028
 30
0.0
 11
127.5460922792
 21
50.0433955049
 31
0.0
  0
LINE
  5
2B6
330
245
100
AcDbEntity
  8
0
  6
Continuous
 62
     7
100
AcDbLine
 10
133.7101032127
 20
56.2074064384
 30
0.0
 11
135.2511070275
 21
57.7484102532
 31
0.0
  0
LINE
  5
2B7
330
245
100
AcDbEntity
  8
0
  6
Continuous
 62
     7
100
AcDbLine
 10
118.0811634368
 20
41.1818644491
 30
0.0
 11
119.6221672515
 21
42.7228682639
 31
0.0
  0
LINE
  5
2B8
330
245
100
AcDbEntity
  8
0
  6
Continuous
 62
     7
100
AcDbLine
 10
125.7861825106
 20
48.886883523
 30
0.0
 11
126.8135225032
 21
49.9142235155
 31
0.0
  0
LINE
  5
2B9
330
245
100
AcDbEntity
  8
0
  6
Continuous
 62
     7
100
AcDbLine
 10
132.9775336463
 20
56.0782346586
 30
0.0
 11
134.518537461
 21
57.6192384734
 31
0.0
  0
LINE
  5
2BA
330
245
100
AcDbEntity
  8
0
  6
Continuous
 62
     7
100
AcDbLine
 10
117.3485938703
 20
41.0526926693
 30
0.0
 11
118.8895976851
 21
42.59369648409999
 31
0.0
  0
LINE
  5
2BB
330
245
100
AcDbEntity
  8
0
  6
Continuous
 62
     7
100
AcDbLine
 10
125.0536129442
 20
48.7577117432
 30
0.0
 11
126.0809527272
 21
49.7850515261
 31
0.0
  0
LINE
  5
2BC
330
245
100
AcDbEntity
  8
0
  6
Continuous
 62
     7
100
AcDbLine
 10
132.2449640798
 20
55.9490628788
 30
0.0
 11
133.7859678946
 21
57.49006669359999
 31
0.0
  0
LINE
  5
2BD
330
245
100
AcDbEntity
  8
0
  6
Continuous
 62
     7
100
AcDbLine
 10
116.6160243039
 20
40.9235208895
 30
0.0
 11
118.1570281187
 21
42.46452470429999
 31
0.0
  0
LINE
  5
2BE
330
245
100
AcDbEntity
  8
0
  6
Continuous
 62
     7
100
AcDbLine
 10
124.3210433778
 20
48.6285399634
 30
0.0
 11
125.3483829511
 21
49.6558795367
 31
0.0
  0
LINE
  5
2BF
330
245
100
AcDbEntity
  8
0
  6
Continuous
 62
     7
100
AcDbLine
 10
131.5123945134
 20
55.819891099
 30
0.0
 11
133.0533983282
 21
57.3608949138
 31
0.0
  0
LINE
  5
2C0
330
245
100
AcDbEntity
  8
0
  6
Continuous
 62
     7
100
AcDbLine
 10
115.8834547375
 20
40.79434910969999
 30
0.0
 11
117.4244585523
 21
42.3353529245
 31
0.0
  0
LINE
  5
2C1
330
245
100
AcDbEntity
  8
0
  6
Continuous
 62
     7
100
AcDbLine
 10
123.5884738114
 20
48.49936818359999
 30
0.0
 11
124.6158131751
 21
49.52670754729999
 31
0.0
  0
LINE
  5
2C2
330
245
100
AcDbEntity
  8
0
  6
Continuous
 62
     7
100
AcDbLine
 10
130.779824947
 20
55.69071931919999
 30
0.0
 11
132.3208287618
 21
57.231723134
 31
0.0
  0
LINE
  5
2C3
330
245
100
AcDbEntity
  8
0
  6
Continuous
 62
     7
100
AcDbLine
 10
115.1508851711
 20
40.66517732989999
 30
0.0
 11
116.6918889859
 21
42.20618114469999
 31
0.0
  0
LINE
  5
2C4
330
245
100
AcDbEntity
  8
0
  6
Continuous
 62
     7
100
AcDbLine
 10
122.855904245
 20
48.3701964038
 30
0.0
 11
123.8832433991
 21
49.3975355579
 31
0.0
  0
LINE
  5
2C5
330
245
100
AcDbEntity
  8
0
  6
Continuous
 62
     7
100
AcDbLine
 10
130.0472553806
 20
55.56154753939999
 30
0.0
 11
131.5882591954
 21
57.1025513542
 31
0.0
  0
LINE
  5
2C6
330
245
100
AcDbEntity
  8
0
  6
Continuous
 62
     7
100
AcDbLine
 10
114.4183156047
 20
40.5360055501
 30
0.0
 11
115.9593194194
 21
42.0770093649
 31
0.0
  0
LINE
  5
2C7
330
245
100
AcDbEntity
  8
0
  6
Continuous
 62
     7
100
AcDbLine
 10
122.1233346785
 20
48.24102462399999
 30
0.0
 11
123.150673623
 21
49.2683635685
 31
0.0
  0
LINE
  5
2C8
330
245
100
AcDbEntity
  8
0
  6
Continuous
 62
     7
100
AcDbLine
 10
129.3146858142
 20
55.4323757596
 30
0.0
 11
130.855689629
 21
56.9733795744
 31
0.0
  0
LINE
  5
2C9
330
245
100
AcDbEntity
  8
0
  6
Continuous
 62
     7
100
AcDbLine
 10
113.6857460382
 20
40.4068337703
 30
0.0
 11
115.226749853
 21
41.947837585
 31
0.0
  0
LINE
  5
2CA
330
245
100
AcDbEntity
  8
0
  6
Continuous
 62
     7
100
AcDbLine
 10
121.3907651121
 20
48.1118528442
 30
0.0
 11
122.418103847
 21
49.139191579
 31
0.0
  0
LINE
  5
2CB
330
245
100
AcDbEntity
  8
0
  6
Continuous
 62
     7
100
AcDbLine
 10
128.5821162478
 20
55.30320397979999
 30
0.0
 11
130.1231200625
 21
56.8442077946
 31
0.0
  0
LINE
  5
2CC
330
245
100
AcDbEntity
  8
0
  6
Continuous
 62
     7
100
AcDbLine
 10
112.9531764718
 20
40.2776619905
 30
0.0
 11
114.4941802866
 21
41.8186658052
 31
0.0
  0
LINE
  5
2CD
330
245
100
AcDbEntity
  8
0
  6
Continuous
 62
     7
100
AcDbLine
 10
120.6581955457
 20
47.9826810644
 30
0.0
 11
121.685534071
 21
49.0100195896
 31
0.0
  0
LINE
  5
2CE
330
245
100
AcDbEntity
  8
0
  6
Continuous
 62
     7
100
AcDbLine
 10
127.8495466813
 20
55.17403220000001
 30
0.0
 11
129.3905504961
 21
56.71503601479999
 31
0.0
  0
LINE
  5
2CF
330
245
100
AcDbEntity
  8
0
  6
Continuous
 62
     7
100
AcDbLine
 10
112.4018556993
 20
40.3297390046
 30
0.0
 11
113.7616107202
 21
41.6894940254
 31
0.0
  0
LINE
  5
2D0
330
245
100
AcDbEntity
  8
0
  6
Continuous
 62
     7
100
AcDbLine
 10
119.9256259793
 20
47.85350928449999
 30
0.0
 11
120.952964295
 21
48.8808476002
 31
0.0
  0
LINE
  5
2D1
330
245
100
AcDbEntity
  8
0
  6
Continuous
 62
     7
100
AcDbLine
 10
127.1169771149
 20
55.0448604202
 30
0.0
 11
128.6579809297
 21
56.5858642349
 31
0.0
  0
LINE
  5
2D2
330
245
100
AcDbEntity
  8
0
  6
Continuous
 62
     7
100
AcDbLine
 10
112.3114086454
 20
40.84268973719999
 30
0.0
 11
113.3904311329
 21
41.92171222469999
 31
0.0
  0
LINE
  5
2D3
330
245
100
AcDbEntity
  8
0
  6
Continuous
 62
     7
100
AcDbLine
 10
119.1930564129
 20
47.7243375047
 30
0.0
 11
120.2203945189
 21
48.7516756108
 31
0.0
  0
LINE
  5
2D4
330
245
100
AcDbEntity
  8
0
  6
Continuous
 62
     7
100
AcDbLine
 10
126.3844075485
 20
54.9156886404
 30
0.0
 11
127.9254113633
 21
56.4566924551
 31
0.0
  0
LINE
  5
2D5
330
245
100
AcDbEntity
  8
0
  6
Continuous
 62
     7
100
AcDbLine
 10
112.2209615914
 20
41.35564046989999
 30
0.0
 11
113.2999840789
 21
42.4346629574
 31
0.0
  0
LINE
  5
2D6
330
245
100
AcDbEntity
  8
0
  6
Continuous
 62
     7
100
AcDbLine
 10
118.4604868465
 20
47.59516572489999
 30
0.0
 11
119.4878247429
 21
48.6225036214
 31
0.0
  0
LINE
  5
2D7
330
245
100
AcDbEntity
  8
0
  6
Continuous
 62
     7
100
AcDbLine
 10
125.6518379821
 20
54.7865168606
 30
0.0
 11
127.1928417969
 21
56.3275206753
 31
0.0
  0
LINE
  5
2D8
330
245
100
AcDbEntity
  8
0
  6
Continuous
 62
     7
100
AcDbLine
 10
112.1305145375
 20
41.8685912026
 30
0.0
 11
113.209537025
 21
42.94761369009999
 31
0.0
  0
LINE
  5
2D9
330
245
100
AcDbEntity
  8
0
  6
Continuous
 62
     7
100
AcDbLine
 10
117.72791728
 20
47.4659939451
 30
0.0
 11
118.7552549669
 21
48.493331632
 31
0.0
  0
LINE
  5
2DA
330
245
100
AcDbEntity
  8
0
  6
Continuous
 62
     7
100
AcDbLine
 10
124.9192684157
 20
54.6573450808
 30
0.0
 11
126.4602722304
 21
56.1983488955
 31
0.0
  0
LINE
  5
2DB
330
245
100
AcDbEntity
  8
0
  6
Continuous
 62
     7
100
AcDbLine
 10
112.0400674835
 20
42.38154193519999
 30
0.0
 11
113.119089971
 21
43.4605644228
 31
0.0
  0
LINE
  5
2DC
330
245
100
AcDbEntity
  8
0
  6
Continuous
 62
     7
100
AcDbLine
 10
116.9953477136
 20
47.3368221653
 30
0.0
 11
118.0226851908
 21
48.3641596425
 31
0.0
  0
LINE
  5
2DD
330
245
100
AcDbEntity
  8
0
  6
Continuous
 62
     7
100
AcDbLine
 10
124.1866988492
 20
54.528173301
 30
0.0
 11
125.727702664
 21
56.06917711569999
 31
0.0
  0
LINE
  5
2DE
330
245
100
AcDbEntity
  8
0
  6
Continuous
 62
     7
100
AcDbLine
 10
111.9496204296
 20
42.8944926679
 30
0.0
 11
113.0286429171
 21
43.9735151554
 31
0.0
  0
LINE
  5
2DF
330
245
100
AcDbEntity
  8
0
  6
Continuous
 62
     7
100
AcDbLine
 10
116.2627781472
 20
47.2076503855
 30
0.0
 11
117.2901154148
 21
48.2349876531
 31
0.0
  0
LINE
  5
2E0
330
245
100
AcDbEntity
  8
0
  6
Continuous
 62
     7
100
AcDbLine
 10
123.4541292828
 20
54.39900152109999
 30
0.0
 11
124.9951330976
 21
55.9400053359
 31
0.0
  0
LINE
  5
2E1
330
245
100
AcDbEntity
  8
0
  6
Continuous
 62
     7
100
AcDbLine
 10
111.8591733756
 20
43.4074434006
 30
0.0
 11
112.9381958632
 21
44.4864658881
 31
0.0
  0
LINE
  5
2E2
330
245
100
AcDbEntity
  8
0
  6
Continuous
 62
     7
100
AcDbLine
 10
115.5302085808
 20
47.0784786057
 30
0.0
 11
116.5575456388
 21
48.1058156637
 31
0.0
  0
LINE
  5
2E3
330
245
100
AcDbEntity
  8
0
  6
Continuous
 62
     7
100
AcDbLine
 10
122.7215597164
 20
54.2698297413
 30
0.0
 11
124.2625635312
 21
55.81083355609999
 31
0.0
  0
LINE
  5
2E4
330
245
100
AcDbEntity
  8
0
  6
Continuous
 62
     7
100
AcDbLine
 10
111.7687263217
 20
43.9203941332
 30
0.0
 11
112.8477488092
 21
44.9994166208
 31
0.0
  0
LINE
  5
2E5
330
245
100
AcDbEntity
  8
0
  6
Continuous
 62
     7
100
AcDbLine
 10
114.7976390144
 20
46.9493068259
 30
0.0
 11
115.8249758628
 21
47.9766436743
 31
0.0
  0
LINE
  5
2E6
330
245
100
AcDbEntity
  8
0
  6
Continuous
 62
     7
100
AcDbLine
 10
121.98899015
 20
54.1406579615
 30
0.0
 11
123.5299939648
 21
55.68166177630001
 31
0.0
  0
LINE
  5
2E7
330
245
100
AcDbEntity
  8
0
  6
Continuous
 62
     7
100
AcDbLine
 10
111.6782792678
 20
44.4333448659
 30
0.0
 11
112.7573017553
 21
45.5123673534
 31
0.0
  0
LINE
  5
2E8
330
245
100
AcDbEntity
  8
0
  6
Continuous
 62
     7
100
AcDbLine
 10
114.065069448
 20
46.8201350461
 30
0.0
 11
115.0924060867
 21
47.8474716849
 31
0.0
  0
LINE
  5
2E9
330
245
100
AcDbEntity
  8
0
  6
Continuous
 62
     7
100
AcDbLine
 10
121.2564205836
 20
54.0114861817
 30
0.0
 11
122.7974243984
 21
55.55248999649999
 31
0.0
  0
LINE
  5
2EA
330
245
100
AcDbEntity
  8
0
  6
Continuous
 62
     7
100
AcDbLine
 10
111.5878322138
 20
44.94629559859999
 30
0.0
 11
112.6668547013
 21
46.02531808609999
 31
0.0
  0
LINE
  5
2EB
330
245
100
AcDbEntity
  8
0
  6
Continuous
 62
     7
100
AcDbLine
 10
113.3324998815
 20
46.6909632663
 30
0.0
 11
114.3598363107
 21
47.7182996955
 31
0.0
  0
LINE
  5
2EC
330
245
100
AcDbEntity
  8
0
  6
Continuous
 62
     7
100
AcDbLine
 10
120.5238510172
 20
53.8823144019
 30
0.0
 11
122.0648548319
 21
55.4233182167
 31
0.0
  0
LINE
  5
2ED
330
245
100
AcDbEntity
  8
0
  6
Continuous
 62
     7
100
AcDbLine
 10
111.4973851599
 20
45.4592463312
 30
0.0
 11
112.5764076474
 21
46.53826881879999
 31
0.0
  0
LINE
  5
2EE
330
245
100
AcDbEntity
  8
0
  6
Continuous
 62
     7
100
AcDbLine
 10
112.5999303151
 20
46.56179148649999
 30
0.0
 11
113.6272665347
 21
47.58912770600001
 31
0.0
  0
LINE
  5
2EF
330
245
100
AcDbEntity
  8
0
  6
Continuous
 62
     7
100
AcDbLine
 10
119.7912814507
 20
53.7531426221
 30
0.0
 11
121.3322852655
 21
55.2941464369
 31
0.0
  0
LINE
  5
2F0
330
245
100
AcDbEntity
  8
0
  6
Continuous
 62
     7
100
AcDbLine
 10
111.4069381059
 20
45.9721970639
 30
0.0
 11
112.8946967586
 21
47.45995571659999
 31
0.0
  0
LINE
  5
2F1
330
245
100
AcDbEntity
  8
0
  6
Continuous
 62
     7
100
AcDbLine
 10
119.0587118843
 20
53.6239708423
 30
0.0
 11
120.5997156991
 21
55.1649746571
 31
0.0
  0
LINE
  5
2F2
330
245
100
AcDbEntity
  8
0
  6
Continuous
 62
     7
100
AcDbLine
 10
111.316491052
 20
46.4851477966
 30
0.0
 11
112.3955135395
 21
47.5641702841
 31
0.0
  0
LINE
  5
2F3
330
245
100
AcDbEntity
  8
0
  6
Continuous
 62
     7
100
AcDbLine
 10
118.3261423179
 20
53.4947990625
 30
0.0
 11
119.8671461327
 21
55.03580287729999
 31
0.0
  0
LINE
  5
2F4
330
245
100
AcDbEntity
  8
0
  6
Continuous
 62
     7
100
AcDbLine
 10
111.226043998
 20
46.9980985293
 30
0.0
 11
112.3050664856
 21
48.07712101679999
 31
0.0
  0
LINE
  5
2F5
330
245
100
AcDbEntity
  8
0
  6
Continuous
 62
     7
100
AcDbLine
 10
117.5935727515
 20
53.3656272827
 30
0.0
 11
119.1345765663
 21
54.90663109749999
 31
0.0
  0
LINE
  5
2F6
330
245
100
AcDbEntity
  8
0
  6
Continuous
 62
     7
100
AcDbLine
 10
111.1355969441
 20
47.5110492619
 30
0.0
 11
112.2146194316
 21
48.5900717494
 31
0.0
  0
LINE
  5
2F7
330
245
100
AcDbEntity
  8
0
  6
Continuous
 62
     7
100
AcDbLine
 10
116.8610031851
 20
53.2364555029
 30
0.0
 11
118.4020069998
 21
54.77745931770001
 31
0.0
  0
LINE
  5
2F8
330
245
100
AcDbEntity
  8
0
  6
Continuous
 62
     7
100
AcDbLine
 10
111.0451498902
 20
48.0239999946
 30
0.0
 11
112.1241723777
 21
49.1030224821
 31
0.0
  0
LINE
  5
2F9
330
245
100
AcDbEntity
  8
0
  6
Continuous
 62
     7
100
AcDbLine
 10
116.1284336187
 20
53.1072837231
 30
0.0
 11
117.6694374334
 21
54.64828753789999
 31
0.0
  0
LINE
  5
2FA
330
245
100
AcDbEntity
  8
0
  6
Continuous
 62
     7
100
AcDbLine
 10
110.9547028362
 20
48.53695072729999
 30
0.0
 11
112.0337253237
 21
49.61597321479999
 31
0.0
  0
LINE
  5
2FB
330
245
100
AcDbEntity
  8
0
  6
Continuous
 62
     7
100
AcDbLine
 10
115.3958640522
 20
52.9781119433
 30
0.0
 11
116.936867867
 21
54.51911575810001
 31
0.0
  0
LINE
  5
2FC
330
245
100
AcDbEntity
  8
0
  6
Continuous
 62
     7
100
AcDbLine
 10
110.8642557823
 20
49.0499014599
 30
0.0
 11
111.9432782698
 21
50.12892394739999
 31
0.0
  0
LINE
  5
2FD
330
245
100
AcDbEntity
  8
0
  6
Continuous
 62
     7
100
AcDbLine
 10
114.6632944858
 20
52.8489401635
 30
0.0
 11
116.2042983006
 21
54.3899439783
 31
0.0
  0
LINE
  5
2FE
330
245
100
AcDbEntity
  8
0
  6
Continuous
 62
     7
100
AcDbLine
 10
110.7738087283
 20
49.5628521926
 30
0.0
 11
111.8528312158
 21
50.6418746801
 31
0.0
  0
LINE
  5
2FF
330
245
100
AcDbEntity
  8
0
  6
Continuous
 62
     7
100
AcDbLine
 10
113.9307249194
 20
52.7197683837
 30
0.0
 11
115.4717287342
 21
54.2607721985
 31
0.0
  0
LINE
  5
300
330
245
100
AcDbEntity
  8
0
  6
Continuous
 62
     7
100
AcDbLine
 10
110.6833616744
 20
50.0758029253
 30
0.0
 11
111.7623841619
 21
51.15482541279999
 31
0.0
  0
LINE
  5
301
330
245
100
AcDbEntity
  8
0
  6
Continuous
 62
     7
100
AcDbLine
 10
113.198155353
 20
52.59059660390001
 30
0.0
 11
114.7391591678
 21
54.13160041859999
 31
0.0
  0
LINE
  5
302
330
245
100
AcDbEntity
  8
0
  6
Continuous
 62
     7
100
AcDbLine
 10
110.5929146204
 20
50.5887536579
 30
0.0
 11
111.6719371079
 21
51.66777614549999
 31
0.0
  0
LINE
  5
303
330
245
100
AcDbEntity
  8
0
  6
Continuous
 62
     7
100
AcDbLine
 10
112.4655857866
 20
52.4614248241
 30
0.0
 11
114.0065896013
 21
54.00242863879999
 31
0.0
  0
LINE
  5
304
330
245
100
AcDbEntity
  8
0
  6
Continuous
 62
     7
100
AcDbLine
 10
110.5024675665
 20
51.1017043906
 30
0.0
 11
111.581490054
 21
52.1807268781
 31
0.0
  0
LINE
  5
305
330
245
100
AcDbEntity
  8
0
  6
Continuous
 62
     7
100
AcDbLine
 10
111.7330162201
 20
52.3322530443
 30
0.0
 11
113.2740200349
 21
53.87325685899999
 31
0.0
  0
LINE
  5
306
330
245
100
AcDbEntity
  8
0
  6
Continuous
 62
     7
100
AcDbLine
 10
110.4120205125
 20
51.6146551233
 30
0.0
 11
112.5414504685
 21
53.7440850792
 31
0.0
  0
LINE
  5
307
330
245
100
AcDbEntity
  8
0
  6
Continuous
 62
     7
100
AcDbLine
 10
110.3215734586
 20
52.1276058559
 30
0.0
 11
111.8088809021
 21
53.61491329939999
 31
0.0
  0
LINE
  5
308
330
245
100
AcDbEntity
  8
0
  6
Continuous
 62
     7
100
AcDbLine
 10
110.2311264047
 20
52.6405565886
 30
0.0
 11
111.0763113357
 21
53.4857415196
 31
0.0
  0
LINE
  5
309
330
245
100
AcDbEntity
  8
0
  6
Continuous
 62
     7
100
AcDbLine
 10
110.1406793507
 20
53.1535073213
 30
0.0
 11
110.3437417693
 21
53.35656973979999
 31
0.0
  0
ENDBLK
  5
30A
330
245
100
AcDbEntity
  8
0
  6
ByBlock
 62
     0
100
AcDbBlockEnd
  0
BLOCK
  5
30B
330
246
100
AcDbEntity
  8
0
  6
Continuous
 62
     7
100
AcDbBlockBegin
  2
SYMBOL_0_BL0
 70
     0
 10
160.6664912223
 20
55.3345526721
 30
0.0
  3
SYMBOL_0_BL0
  1

  0
TEXT
  5
30C
330
246
100
AcDbEntity
  8
0
  6
Continuous
 62
     7
100
AcDbText
 10
144.4187061461
 20
63.10798606319999
 30
0.0
 40
0.5
  1
Infomations Techniques/Technical Infomations
  7
TEXTSTYLE_2
100
AcDbText
  0
TEXT
  5
30D
330
246
100
AcDbEntity
  8
0
  6
Continuous
 62
     7
100
AcDbText
 10
144.6664912222999
 20
61.6678860054
 30
0.0
 40
0.6666666667
  1
NOMBRE DE JETS:     
  7
TEXTSTYLE_2
100
AcDbText
  0
TEXT
  5
30E
330
246
100
AcDbEntity
  8
0
  6
Continuous
 62
     7
100
AcDbText
 10
154.5109356667
 20
61.6678860054
 30
0.0
 40
0.6666666667
  1
44
  7
TEXTSTYLE_2
100
AcDbText
  0
TEXT
  5
30F
330
246
100
AcDbEntity
  8
0
  6
Continuous
 62
     7
100
AcDbText
 10
144.6664912222999
 20
60.6678860054
 30
0.0
 40
0.6666666667
  1
 
  7
TEXTSTYLE_2
100
AcDbText
  0
TEXT
  5
310
330
246
100
AcDbEntity
  8
0
  6
Continuous
 62
     7
100
AcDbText
 10
144.6664912222999
 20
59.6678860054
 30
0.0
 40
0.6666666667
  1
NIVEAU D'EAU              GALLONS(US)        LITRES        GALLONS(UK)
  7
TEXTSTYLE_2
100
AcDbText
  0
TEXT
  5
311
330
246
100
AcDbEntity
  8
0
  6
Continuous
 62
     7
100
AcDbText
 10
144.6664912222999
 20
58.6678860054
 30
0.0
 40
0.6666666667
  1
PLEIN
  7
TEXTSTYLE_2
100
AcDbText
  0
TEXT
  5
312
330
246
100
AcDbEntity
  8
0
  6
Continuous
 62
     7
100
AcDbText
 10
144.6664912222999
 20
57.66788600539999
 30
0.0
 40
0.6666666667
  1
HAUT T.PLEIN
  7
TEXTSTYLE_2
100
AcDbText
  0
TEXT
  5
313
330
246
100
AcDbEntity
  8
0
  6
Continuous
 62
     7
100
AcDbText
 10
144.6664912222999
 20
56.6678860054
 30
0.0
 40
0.6666666667
  1
MILIEU T.PLEIN
  7
TEXTSTYLE_2
100
AcDbText
  0
TEXT
  5
314
330
246
100
AcDbEntity
  8
0
  6
Continuous
 62
     7
100
AcDbText
 10
144.6664912222999
 20
55.6678860054
 30
0.0
 40
0.6666666667
  1
BAS T.PLEIN
  7
TEXTSTYLE_2
100
AcDbText
  0
TEXT
  5
315
330
246
100
AcDbEntity
  8
0
  6
Continuous
 62
     7
100
AcDbText
 10
144.6664912222999
 20
54.6678860054
 30
0.0
 40
0.6666666667
  1
3" EN BAS T.PLEIN
  7
TEXTSTYLE_2
100
AcDbText
  0
TEXT
  5
316
330
246
100
AcDbEntity
  8
0
  6
Continuous
 62
     7
100
AcDbText
 10
144.6664912222999
 20
53.6678860054
 30
0.0
 40
0.6666666667
  1
 
  7
TEXTSTYLE_2
100
AcDbText
  0
TEXT
  5
317
330
246
100
AcDbEntity
  8
0
  6
Continuous
 62
     7
100
AcDbText
 10
144.4663297167
 20
53.1210990806
 30
0.0
 40
0.5
  1
Legende/Legend
  7
TEXTSTYLE_2
100
AcDbText
  0
TEXT
  5
318
330
246
100
AcDbEntity
  8
0
  6
Continuous
 62
     7
100
AcDbText
 10
150.9951646608
 20
51.6098341029
 30
0.0
 40
0.6666666667
  1
ZONE DE ROBINETTERIE
  7
TEXTSTYLE_2
100
AcDbText
  0
TEXT
  5
319
330
246
100
AcDbEntity
  8
0
  6
Continuous
 62
     7
100
AcDbText
 10
145.9154400938
 20
50.1145895885
 30
0.0
 40
0.6666666667
  1
L   :  SYSTEME LED       DC   :  DOUBLE DOSSIER CHAUFFANT
  7
TEXTSTYLE_2
100
AcDbText
  0
TEXT
  5
31A
330
246
100
AcDbEntity
  8
0
  6
Continuous
 62
     7
100
AcDbText
 10
145.9154400938
 20
48.7812562551
 30
0.0
 40
0.6666666667
  1
C   :  CONTROLE
  7
TEXTSTYLE_2
100
AcDbText
  0
TEXT
  5
31B
330
246
100
AcDbEntity
  8
0
  6
Continuous
 62
     7
100
AcDbText
 10
145.9154400938
 20
47.4479229218
 30
0.0
 40
0.6666666667
  1
T   :  MOTEUR
  7
TEXTSTYLE_2
100
AcDbText
  0
TEXT
  5
31C
330
246
100
AcDbEntity
  8
0
  6
Continuous
 62
     7
100
AcDbText
 10
157.4991879216
 20
58.6678860054
 30
0.0
 40
0.6666666667
  1
91
  7
TEXTSTYLE_2
100
AcDbText
  0
TEXT
  5
31D
330
246
100
AcDbEntity
  8
0
  6
Continuous
 62
     7
100
AcDbText
 10
157.4991879216
 20
57.66788600539999
 30
0.0
 40
0.6666666667
  1
71
  7
TEXTSTYLE_2
100
AcDbText
  0
TEXT
  5
31E
330
246
100
AcDbEntity
  8
0
  6
Continuous
 62
     7
100
AcDbText
 10
157.4991879216
 20
56.6678860054
 30
0.0
 40
0.6666666667
  1
70
  7
TEXTSTYLE_2
100
AcDbText
  0
TEXT
  5
31F
330
246
100
AcDbEntity
  8
0
  6
Continuous
 62
     7
100
AcDbText
 10
157.4991879216
 20
55.6678860054
 30
0.0
 40
0.6666666667
  1
69
  7
TEXTSTYLE_2
100
AcDbText
  0
TEXT
  5
320
330
246
100
AcDbEntity
  8
0
  6
Continuous
 62
     7
100
AcDbText
 10
157.4991879216
 20
54.6678860054
 30
0.0
 40
0.6666666667
  1
53
  7
TEXTSTYLE_2
100
AcDbText
  0
TEXT
  5
321
330
246
100
AcDbEntity
  8
0
  6
Continuous
 62
     7
100
AcDbText
 10
164.4193938653
 20
58.6849654075
 30
0.0
 40
0.6666666667
  1
346
  7
TEXTSTYLE_2
100
AcDbText
  0
TEXT
  5
322
330
246
100
AcDbEntity
  8
0
  6
Continuous
 62
     7
100
AcDbText
 10
164.4193938653
 20
57.6849654075
 30
0.0
 40
0.6666666667
  1
269
  7
TEXTSTYLE_2
100
AcDbText
  0
TEXT
  5
323
330
246
100
AcDbEntity
  8
0
  6
Continuous
 62
     7
100
AcDbText
 10
164.4193938653
 20
56.6849654075
 30
0.0
 40
0.6666666667
  1
265
  7
TEXTSTYLE_2
100
AcDbText
  0
TEXT
  5
324
330
246
100
AcDbEntity
  8
0
  6
Continuous
 62
     7
100
AcDbText
 10
164.4193938653
 20
55.6849654075
 30
0.0
 40
0.6666666667
  1
261
  7
TEXTSTYLE_2
100
AcDbText
  0
TEXT
  5
325
330
246
100
AcDbEntity
  8
0
  6
Continuous
 62
     7
100
AcDbText
 10
164.4193938653
 20
54.6849654075
 30
0.0
 40
0.6666666667
  1
200
  7
TEXTSTYLE_2
100
AcDbText
  0
TEXT
  5
326
330
246
100
AcDbEntity
  8
0
  6
Continuous
 62
     7
100
AcDbText
 10
171.3640328028
 20
58.6678860054
 30
0.0
 40
0.6666666667
  1
76
  7
TEXTSTYLE_2
100
AcDbText
  0
TEXT
  5
327
330
246
100
AcDbEntity
  8
0
  6
Continuous
 62
     7
100
AcDbText
 10
171.3640328028
 20
57.66788600539999
 30
0.0
 40
0.6666666667
  1
59
  7
TEXTSTYLE_2
100
AcDbText
  0
TEXT
  5
328
330
246
100
AcDbEntity
  8
0
  6
Continuous
 62
     7
100
AcDbText
 10
171.3640328028
 20
56.6678860054
 30
0.0
 40
0.6666666667
  1
58
  7
TEXTSTYLE_2
100
AcDbText
  0
TEXT
  5
329
330
246
100
AcDbEntity
  8
0
  6
Continuous
 62
     7
100
AcDbText
 10
171.3640328028
 20
55.6678860054
 30
0.0
 40
0.6666666667
  1
57
  7
TEXTSTYLE_2
100
AcDbText
  0
TEXT
  5
32A
330
246
100
AcDbEntity
  8
0
  6
Continuous
 62
     7
100
AcDbText
 10
171.3640328028
 20
54.6678860054
 30
0.0
 40
0.6666666667
  1
44
  7
TEXTSTYLE_2
100
AcDbText
  0
LINE
  5
32B
330
246
100
AcDbEntity
  8
0
  6
Continuous
 62
     7
100
AcDbLine
 10
143.9998245556
 20
64.0012193387
 30
0.0
 11
143.9998245556
 21
46.6678860054
 31
0.0
  0
LINE
  5
32C
330
246
100
AcDbEntity
  8
0
  6
Continuous
 62
     7
100
AcDbLine
 10
143.9998245556
 20
64.0012193387
 30
0.0
 11
177.333157889
 21
64.0012193387
 31
0.0
  0
LINE
  5
32D
330
246
100
AcDbEntity
  8
0
  6
Continuous
 62
     7
100
AcDbLine
 10
177.333157889
 20
64.0012193387
 30
0.0
 11
177.333157889
 21
46.6678860054
 31
0.0
  0
LINE
  5
32E
330
246
100
AcDbEntity
  8
0
  6
Continuous
 62
     7
100
AcDbLine
 10
143.9998245556
 20
46.6678860054
 30
0.0
 11
177.333157889
 21
46.6678860054
 31
0.0
  0
LINE
  5
32F
330
246
100
AcDbEntity
  8
0
  6
Continuous
 62
     7
100
AcDbLine
 10
145.333157889
 20
54.0012193387
 30
0.0
 11
175.9998245556
 21
54.0012193387
 31
0.0
  0
LINE
  5
330
330
246
100
AcDbEntity
  8
0
  6
Continuous
 62
     7
100
AcDbLine
 10
145.333157889
 20
61.00121933869999
 30
0.0
 11
175.9998245556
 21
61.00121933869999
 31
0.0
  0
LINE
  5
331
330
246
100
AcDbEntity
  8
0
  6
Continuous
 62
     7
100
AcDbLine
 10
144.8087311149
 20
52.3793838431
 30
0.0
 11
144.4397103726
 21
52.0103631008
 31
0.0
  0
LINE
  5
332
330
246
100
AcDbEntity
  8
0
  6
Continuous
 62
     7
100
AcDbLine
 10
145.4753977816
 20
52.3793838431
 30
0.0
 11
144.6773819911
 21
51.5813680526
 31
0.0
  0
LINE
  5
333
330
246
100
AcDbEntity
  8
0
  6
Continuous
 62
     7
100
AcDbLine
 10
146.1420644482
 20
52.3793838431
 30
0.0
 11
145.3440486578
 21
51.5813680526
 31
0.0
  0
LINE
  5
334
330
246
100
AcDbEntity
  8
0
  6
Continuous
 62
     7
100
AcDbLine
 10
146.8087311149
 20
52.3793838431
 30
0.0
 11
146.0107153245
 21
51.5813680526
 31
0.0
  0
LINE
  5
335
330
246
100
AcDbEntity
  8
0
  6
Continuous
 62
     7
100
AcDbLine
 10
147.4753977816
 20
52.3793838431
 30
0.0
 11
146.6773819911
 21
51.5813680526
 31
0.0
  0
LINE
  5
336
330
246
100
AcDbEntity
  8
0
  6
Continuous
 62
     7
100
AcDbLine
 10
148.1420644482
 20
52.3793838431
 30
0.0
 11
147.3440486578
 21
51.5813680526
 31
0.0
  0
LINE
  5
337
330
246
100
AcDbEntity
  8
0
  6
Continuous
 62
     7
100
AcDbLine
 10
148.8087311149
 20
52.3793838431
 30
0.0
 11
148.0107153245
 21
51.5813680526
 31
0.0
  0
LINE
  5
338
330
246
100
AcDbEntity
  8
0
  6
Continuous
 62
     7
100
AcDbLine
 10
149.4753977816
 20
52.3793838431
 30
0.0
 11
148.6773819911
 21
51.5813680526
 31
0.0
  0
LINE
  5
339
330
246
100
AcDbEntity
  8
0
  6
Continuous
 62
     7
100
AcDbLine
 10
150.1420644482
 20
52.3793838431
 30
0.0
 11
149.3440486578
 21
51.5813680526
 31
0.0
  0
LINE
  5
33A
330
246
100
AcDbEntity
  8
0
  6
Continuous
 62
     7
100
AcDbLine
 10
150.5855518824
 20
52.15620461060001
 30
0.0
 11
150.0107153245
 21
51.5813680526
 31
0.0
  0
ELLIPSE
  5
33B
330
246
100
AcDbEntity
  8
0
  6
Continuous
 62
     7
100
AcDbEllipse
 10
146.1452270378
 20
50.43216704569999
 30
0.0
 11
1.0473539356
 21
0.0
 31
0.0
210
0.0
220
0.0
230
1.0
 40
0.4938647983
 41
0.0
 42
6.283185307179586
  0
ELLIPSE
  5
33C
330
246
100
AcDbEntity
  8
0
  6
Continuous
 62
     7
100
AcDbEllipse
 10
146.1452270378
 20
49.09883371229999
 30
0.0
 11
1.0473539356
 21
0.0
 31
0.0
210
0.0
220
0.0
230
1.0
 40
0.4938647983
 41
0.0
 42
6.283185307179586
  0
ELLIPSE
  5
33D
330
246
100
AcDbEntity
  8
0
  6
Continuous
 62
     7
100
AcDbEllipse
 10
146.1452270378
 20
47.76550037899999
 30
0.0
 11
1.0473539356
 21
0.0
 31
0.0
210
0.0
220
0.0
230
1.0
 40
0.4938647983
 41
0.0
 42
6.283185307179586
  0
ELLIPSE
  5
33E
330
246
100
AcDbEntity
  8
0
  6
Continuous
 62
     7
100
AcDbEllipse
 10
157.1638626189
 20
50.45168840270001
 30
0.0
 11
1.0473539356
 21
0.0
 31
0.0
210
0.0
220
0.0
230
1.0
 40
0.4938647983
 41
0.0
 42
6.283185307179586
  0
ENDBLK
  5
33F
330
246
100
AcDbEntity
  8
0
  6
ByBlock
 62
     0
100
AcDbBlockEnd
  0
ENDSEC
  0
SECTION
  2
ENTITIES
  0
LINE
  5
459
330
22B
100
AcDbEntity
  8
0
  6
Continuous
 62
     7
100
AcDbLine
 10
150.2544778553351
 20
100.8733965813
 30
0.0
 11
150.2544778553351
 21
68.8733965813
 31
0.0
  0
LINE
  5
5F7
330
22B
100
AcDbEntity
  8
0
  6
Continuous
 62
     7
100
AcDbLine
 10
90.25447785533508
 20
68.8733965813
 30
0.0
 11
90.25447785533508
 21
100.8733965813
 31
0.0
  0
LINE
  5
A2C
330
22B
100
AcDbEntity
  8
0
  6
Continuous
 62
     7
100
AcDbLine
 10
90.25447785533508
 20
100.8733965813
 30
0.0
 11
150.2544778553351
 21
100.8733965813
 31
0.0
  0
LWPOLYLINE
  5
1503
330
22B
100
AcDbEntity
  8
0
  6
Continuous
 62
     7
100
AcDbPolyline
 90
       16
 70
     0
 43
0.0
 10
148.6001044838351
 20
98.1642743297
 10
148.5746651100351
 20
98.264395738
 10
148.5416315966351
 20
98.361814758
 10
148.500760118235
 20
98.45749907650001
 10
148.4523564236351
 20
98.55043207770002
 10
148.396801219635
 20
98.6397277598
 10
148.3345162163351
 20
98.72465211079999
 10
148.265930587535
 20
98.80460904790002
 10
148.1914744155351
 20
98.87910343959999
 10
148.111609642835
 20
98.94767970490001
 10
148.0269191657351
 20
99.00985917260001
 10
147.938019408735
 20
99.06523767959999
 10
147.8460023819351
 20
99.1132618556
 10
147.748178671535
 20
99.15505244809999
 10
147.646130332835
 20
99.1893225271
 10
147.544173642335
 20
99.21459438700001
  0
LINE
  5
1504
330
22B
100
AcDbEntity
  8
0
  6
Continuous
 62
     7
100
AcDbLine
 10
149.5041861157351
 20
100.6347644927
 30
0.0
 11
149.504450566035
 21
100.6758043606
 31
0.0
  0
LINE
  5
1505
330
22B
100
AcDbEntity
  8
0
  6
Continuous
 62
     7
100
AcDbLine
 10
150.0154120975351
 20
99.9145143386
 30
0.0
 11
150.0158457895351
 21
100.1231048366
 31
0.0
  0
LINE
  5
1506
330
22B
100
AcDbEntity
  8
0
  6
Continuous
 62
     7
100
AcDbLine
 10
150.015117590435
 20
99.7481324261
 30
0.0
 11
150.0154120975351
 21
99.9145143386
 31
0.0
  0
LINE
  5
1507
330
22B
100
AcDbEntity
  8
0
  6
Continuous
 62
     7
100
AcDbLine
 10
150.0148395952351
 20
99.55433087839999
 30
0.0
 11
150.015117590435
 21
99.7481324261
 31
0.0
  0
LINE
  5
1508
330
22B
100
AcDbEntity
  8
0
  6
Continuous
 62
     7
100
AcDbLine
 10
150.0146541741351
 20
99.37401843020001
 30
0.0
 11
150.0148395952351
 21
99.55433087839999
 31
0.0
  0
LINE
  5
1509
330
22B
100
AcDbEntity
  8
0
  6
Continuous
 62
     7
100
AcDbLine
 10
150.0145770141351
 20
99.25270053209999
 30
0.0
 11
150.0146541741351
 21
99.37401843020001
 31
0.0
  0
LINE
  5
150A
330
22B
100
AcDbEntity
  8
0
  6
Continuous
 62
     7
100
AcDbLine
 10
150.014546084435
 20
99.12239935069999
 30
0.0
 11
150.0145770141351
 21
99.25270053209999
 31
0.0
  0
LINE
  5
150B
330
22B
100
AcDbEntity
  8
0
  6
Continuous
 62
     7
100
AcDbLine
 10
150.1820571778351
 20
69.2483965813
 30
0.0
 11
150.1820571778351
 21
100.123375648
 31
0.0
  0
LINE
  5
150C
330
22B
100
AcDbEntity
  8
0
  6
Continuous
 62
     7
100
AcDbLine
 10
150.0568856345351
 20
69.2483965813
 30
0.0
 11
150.0568856345351
 21
100.1233692915
 31
0.0
  0
LINE
  5
150D
330
22B
100
AcDbEntity
  8
0
  6
Continuous
 62
     7
100
AcDbLine
 10
148.640931857235
 20
73.74133801880001
 30
0.0
 11
148.640931857235
 21
97.8179551438
 31
0.0
  0
LWPOLYLINE
  5
150E
330
22B
100
AcDbEntity
  8
0
  6
Continuous
 62
     7
100
AcDbPolyline
 90
        3
 70
     0
 43
0.0
 10
150.0145931941351
 20
70.87850453689999
 10
150.014569786135
 20
70.930988032
 10
150.014546084435
 20
99.12239935069999
  0
LINE
  5
150F
330
22B
100
AcDbEntity
  8
0
  6
Continuous
 62
     7
100
AcDbLine
 10
150.014721772235
 20
70.6919745844
 30
0.0
 11
150.0145931941351
 21
70.87850453689999
 31
0.0
  0
LINE
  5
1510
330
22B
100
AcDbEntity
  8
0
  6
Continuous
 62
     7
100
AcDbLine
 10
150.0148599589351
 20
70.54557251760001
 30
0.0
 11
150.014721772235
 21
70.6919745844
 31
0.0
  0
LINE
  5
1511
330
22B
100
AcDbEntity
  8
0
  6
Continuous
 62
     7
100
AcDbLine
 10
150.0150220755351
 20
70.3996305591
 30
0.0
 11
150.0148599589351
 21
70.54557251760001
 31
0.0
  0
LWPOLYLINE
  5
1512
330
22B
100
AcDbEntity
  8
0
  6
Continuous
 62
     7
100
AcDbPolyline
 90
        3
 70
     0
 43
0.0
 10
150.0153276097351
 20
70.1615129892
 10
150.0152160489351
 20
70.24449171399999
 10
150.0150220755351
 20
70.3996305591
  0
LWPOLYLINE
  5
1513
330
22B
100
AcDbEntity
  8
0
  6
Continuous
 62
     7
100
AcDbPolyline
 90
        3
 70
     0
 43
0.0
 10
150.0157218667351
 20
69.89187983409999
 10
150.0155800391351
 20
69.9853909886
 10
150.0153276097351
 20
70.1615129892
  0
LWPOLYLINE
  5
1514
330
22B
100
AcDbEntity
  8
0
  6
Continuous
 62
     7
100
AcDbPolyline
 90
        4
 70
     0
 43
0.0
 10
150.0163868495351
 20
69.4879774216
 10
150.016203506635
 20
69.59474484659999
 10
150.0160336989351
 20
69.6964537421
 10
150.0157218667351
 20
69.89187983409999
  0
LINE
  5
1515
330
22B
100
AcDbEntity
  8
0
  6
Continuous
 62
     7
100
AcDbLine
 10
150.0168158365351
 20
69.2483965813
 30
0.0
 11
150.0163868495351
 21
69.4879774216
 31
0.0
  0
LWPOLYLINE
  5
1516
330
22B
100
AcDbEntity
  8
0
  6
Continuous
 62
     7
100
AcDbPolyline
 90
        4
 70
     0
 43
0.0
 10
148.640931857235
 20
97.8179551438
 10
148.6364655611351
 20
97.93357763879999
 10
148.6230557397351
 20
98.0483779499
 10
148.6001044838351
 20
98.1642743297
  0
LWPOLYLINE
  5
1517
330
22B
100
AcDbEntity
  8
0
  6
Continuous
 62
     7
100
AcDbPolyline
 90
       16
 70
     0
 43
0.0
 10
150.0158458277351
 20
100.1231048372
 10
150.0131093565351
 20
100.1767876421
 10
150.0048100283351
 20
100.2295818315
 10
149.9910354186351
 20
100.2812325217
 10
149.971944130535
 20
100.3311470072
 10
149.9477365620351
 20
100.3788035282
 10
149.9186672050351
 20
100.423689138
 10
149.8850675118351
 20
100.4652865279
 10
149.8473111066351
 20
100.5031368639
 10
149.805804571335
 20
100.5368345416
 10
149.7610167767351
 20
100.5660016938
 10
149.7134299754351
 20
100.590327728
 10
149.663586146735
 20
100.6095405385
 10
149.6117090318351
 20
100.6235065543
 10
149.5583118056351
 20
100.6319818279
 10
149.5041861163351
 20
100.6347645311
  0
LWPOLYLINE
  5
1518
330
22B
100
AcDbEntity
  8
0
  6
Continuous
 62
     7
100
AcDbPolyline
 90
        6
 70
     0
 43
0.0
 10
148.5354839173351
 20
73.19246850319998
 10
148.5723254688351
 20
73.2951482694
 10
148.6013738892351
 20
73.4003464441
 10
148.6229499142351
 20
73.5102404663
 10
148.636371406035
 20
73.6245069927
 10
148.640931857235
 20
73.74133801880001
  0
LWPOLYLINE
  5
151B
330
22B
100
AcDbEntity
  8
0
  6
Continuous
 62
     7
100
AcDbPolyline
 90
        5
 70
     0
 43
0.0
 10
145.7173001752351
 20
85.77964658129999
 10
145.7200508486351
 20
83.31012114569999
 10
145.7276321630351
 20
81.00007023199999
 10
145.7399062802351
 20
78.7239991747
 10
145.756997628635
 20
76.4541462049
  0
LWPOLYLINE
  5
151C
330
22B
100
AcDbEntity
  8
0
  6
Continuous
 62
     7
100
AcDbPolyline
 90
       19
 70
     0
 43
0.0
 10
145.7569951958351
 20
95.1051442494
 10
145.7510666464351
 20
95.1895262014
 10
145.7379223782351
 20
95.27328796469999
 10
145.7176590002351
 20
95.35581390370001
 10
145.6904254358351
 20
95.43649749510001
 10
145.6564218630351
 20
95.51474568499999
 10
145.615898184235
 20
95.5899834088
 10
145.5691522462351
 20
95.6616576695
 10
145.5165276197351
 20
95.72924168
 10
145.4584110845351
 20
95.7922387119
 10
145.3952297844351
 20
95.85018575040001
 10
145.3274480892351
 20
95.90265689709999
 10
145.255564179535
 20
95.94926650049998
 10
145.180106386835
 20
95.98967199049999
 10
145.101629294835
 20
96.02357640139999
 10
145.0207097303351
 20
96.05073052889999
 10
144.9379423926351
 20
96.07093481100001
 10
144.8539356253351
 20
96.0840407436
 10
144.7693068509351
 20
96.08995200249999
  0
LWPOLYLINE
  5
151D
330
22B
100
AcDbEntity
  8
0
  6
Continuous
 62
     7
100
AcDbPolyline
 90
        5
 70
     0
 43
0.0
 10
145.756963748935
 20
95.1051092399
 10
145.740451674635
 20
92.9192930191
 10
145.727887413135
 20
90.6177085174
 10
145.719988563535
 20
88.22109677330001
 10
145.7173001752351
 20
85.77964658129999
  0
LWPOLYLINE
  5
151E
330
22B
100
AcDbEntity
  8
0
  6
Continuous
 62
     7
100
AcDbPolyline
 90
       45
 70
     0
 43
0.0
 10
141.4058778952351
 20
85.77964658129999
 10
141.4007561592351
 20
85.9217296671
 10
141.3855942014351
 20
86.0618671775
 10
141.3603997155351
 20
86.2009040048
 10
141.325310466235
 20
86.33786548319999
 10
141.2805268090351
 20
86.47197386450001
 10
141.2262421826351
 20
86.60265064509999
 10
141.162669597335
 20
86.72932606919999
 10
141.0901077211351
 20
86.85133454729999
 10
141.0089271356351
 20
86.96800420309999
 10
140.919524571835
 20
87.07873045920001
 10
140.8223249386351
 20
87.18295142169999
 10
140.7178133795351
 20
87.28011348269999
 10
140.6065308271351
 20
87.3696883955
 10
140.4890366383351
 20
87.4512061699
 10
140.3658922565351
 20
87.5242546437
 10
140.2376510783351
 20
87.58847037139998
 10
140.104893111135
 20
87.64352137780001
 10
139.968379498635
 20
87.68906400290001
 10
139.8291116869351
 20
87.72478522570001
 10
139.6880788463351
 20
87.7504738584
 10
139.5462097030351
 20
87.7660360512
 10
139.404352342535
 20
87.7714824841
 10
139.2631680405351
 20
87.7668834109
 10
139.1231660224351
 20
87.7523040948
 10
138.9848127675351
 20
87.72780536389999
 10
138.8485407326351
 20
87.6934520218
 10
138.714834575035
 20
87.64936521760001
 10
138.584380988335
 20
87.5957426425
 10
138.457930594935
 20
87.5328634223
 10
138.3361952998351
 20
87.46105576439999
 10
138.2198250721351
 20
87.38069008069999
 10
138.1094115503351
 20
87.29216445809999
 10
138.0055008107351
 20
87.19590124440001
 10
137.9086180060351
 20
87.09236278739998
 10
137.819268804935
 20
86.98205873719999
 10
137.7379352569351
 20
86.8655566306
 10
137.6650671563351
 20
86.74348248600001
 10
137.6010431065351
 20
86.61645996930001
 10
137.5461658004351
 20
86.48505826639999
 10
137.5007166600351
 20
86.3498712119
 10
137.4649944562351
 20
86.2117105639
 10
137.4389802653351
 20
86.06983673049999
 10
137.4231525751351
 20
85.92523244129999
 10
137.4178573102351
 20
85.77964658129999
  0
LINE
  5
151F
330
22B
100
AcDbEntity
  8
DEFAULT_1
  6
CENTER
 62
     7
100
AcDbLine
 10
139.4332550120351
 20
85.77964658129999
 30
0.0
 11
139.4332550120351
 21
80.62468879810001
 31
0.0
  0
LINE
  5
1520
330
22B
100
AcDbEntity
  8
DEFAULT_1
  6
CENTER
 62
     7
100
AcDbLine
 10
139.4332550120351
 20
85.77964658129999
 30
0.0
 11
139.4332550120351
 21
90.9346043645
 31
0.0
  0
LWPOLYLINE
  5
1521
330
22B
100
AcDbEntity
  8
0
  6
Continuous
 62
     7
100
AcDbPolyline
 90
       45
 70
     0
 43
0.0
 10
137.4178573102351
 20
85.77964658129999
 10
137.4230261073351
 20
85.6358074569
 10
137.438309791035
 20
85.4940747995
 10
137.4636738471351
 20
85.3536061449
 10
137.4989543014351
 20
85.2153904989
 10
137.5439168517351
 20
85.0802391915
 10
137.5983209995351
 20
84.94877466670001
 10
137.6619072892351
 20
84.82158299439999
 10
137.7343429120351
 20
84.69931476419999
 10
137.815225664435
 20
84.58262578880001
 10
137.9041180450351
 20
84.47211530169999
 10
138.0005575887351
 20
84.3683278125
 10
138.1040554491351
 20
84.27176322680001
 10
138.214098354135
 20
84.18288389850001
 10
138.330128145035
 20
84.102130418
 10
138.4515284724351
 20
84.02991924140001
 10
138.5776208912351
 20
83.96663114549999
 10
138.707654711735
 20
83.91259939740001
 10
138.8409518468351
 20
83.86806229660001
 10
138.9770568456351
 20
83.8331664805
 10
139.1156507247351
 20
83.80805884590001
 10
139.256258873035
 20
83.79289327790001
 10
139.398277803135
 20
83.7878023538
 10
139.541027403835
 20
83.7928807744
 10
139.6836732053351
 20
83.80818237040001
 10
139.825246395635
 20
83.8336652543
 10
139.9647215795351
 20
83.86915527300001
 10
140.1011474480351
 20
83.9143766111
 10
140.2337557565351
 20
83.9690476055
 10
140.3619431334351
 20
84.03288766459999
 10
140.4851201438351
 20
84.10557761120001
 10
140.602701443735
 20
84.1867479185
 10
140.714096310235
 20
84.27597095539999
 10
140.818728443635
 20
84.37276000909999
 10
140.9160757323351
 20
84.4766002913
 10
141.0056745041351
 20
84.58696505810001
 10
141.087086190335
 20
84.70328196770001
 10
141.159892377135
 20
84.8249108129
 10
141.2237471953351
 20
84.95121551689999
 10
141.2783937978351
 20
85.0816445433
 10
141.3235980063351
 20
85.2156487543
 10
141.359092911235
 20
85.3524497487
 10
141.384924443935
 20
85.4928284024
 10
141.4006289189351
 20
85.63581169169999
 10
141.4058778952351
 20
85.77964658129999
  0
LWPOLYLINE
  5
1522
330
22B
100
AcDbEntity
  8
0
  6
Continuous
 62
     7
100
AcDbPolyline
 90
        4
 70
     0
 43
0.0
 10
93.08850545203508
 20
72.3121547499
 10
93.18082046153508
 20
72.2983475795
 10
93.27374508603508
 20
72.2900934301
 10
93.36722345453507
 20
72.28734464750001
  0
LWPOLYLINE
  5
1523
330
22B
100
AcDbEntity
  8
0
  6
Continuous
 62
     7
100
AcDbPolyline
 90
        3
 70
     0
 43
0.0
 10
91.03279284693508
 20
68.8410843857
 10
90.95681836503507
 20
68.84442359149999
 10
90.88381530773508
 20
68.8476290494
  0
LWPOLYLINE
  5
1524
330
22B
100
AcDbEntity
  8
0
  6
Continuous
 62
     7
100
AcDbPolyline
 90
        4
 70
     0
 43
0.0
 10
91.41458952423509
 20
68.8243113671
 10
91.30530395543507
 20
68.82910664090001
 10
91.20421392403507
 20
68.8335477727
 10
91.03279284693508
 20
68.8410843857
  0
LINE
  5
1525
330
22B
100
AcDbEntity
  8
0
  6
Continuous
 62
     7
100
AcDbLine
 10
90.88381530773508
 20
68.8476290494
 30
0.0
 11
90.74463819373509
 21
68.8537218063
 31
0.0
  0
LWPOLYLINE
  5
1526
330
22B
100
AcDbEntity
  8
0
  6
Continuous
 62
     7
100
AcDbPolyline
 90
        3
 70
     0
 43
0.0
 10
91.76002936803508
 20
68.80921341930001
 10
91.64306893873508
 20
68.8143137603
 10
91.41458952423509
 20
68.8243113671
  0
LWPOLYLINE
  5
1527
330
22B
100
AcDbEntity
  8
0
  6
Continuous
 62
     7
100
AcDbPolyline
 90
       10
 70
     0
 43
0.0
 10
90.74463819373509
 20
68.8537218063
 10
90.61567763893508
 20
68.85932348709999
 10
90.55506808223508
 20
68.8619291318
 10
90.49738479043508
 20
68.864382483
 10
90.44398419383508
 20
68.8666190693
 10
90.39847960343507
 20
68.8684844621
 10
90.35888432533509
 20
68.870059291
 10
90.33536447303509
 20
68.8709612832
 10
90.30293200893508
 20
68.87213511929999
 10
90.25447785533508
 20
68.8733965813
  0
LWPOLYLINE
  5
1528
330
22B
100
AcDbEntity
  8
0
  6
Continuous
 62
     7
100
AcDbPolyline
 90
        3
 70
     0
 43
0.0
 10
92.11845299693507
 20
68.79366985369999
 10
91.99796604353508
 20
68.798879652
 10
91.76002936803508
 20
68.80921341930001
  0
LINE
  5
1529
330
22B
100
AcDbEntity
  8
0
  6
Continuous
 62
     7
100
AcDbLine
 10
92.36149510933508
 20
68.7832107663
 30
0.0
 11
92.11845299693507
 21
68.79366985369999
 31
0.0
  0
LWPOLYLINE
  5
152A
330
22B
100
AcDbEntity
  8
0
  6
Continuous
 62
     7
100
AcDbPolyline
 90
       44
 70
     0
 43
0.0
 10
91.79636715143507
 20
68.8733600006
 10
92.79304069073509
 20
68.87328721439999
 10
93.82779593763508
 20
68.87315669979999
 10
94.87636089143508
 20
68.8729520417
 10
95.92028831923508
 20
68.8726580104
 10
96.95770161893509
 20
68.8722568908
 10
97.99400680483508
 20
68.8717270102
 10
99.04216021653509
 20
68.8710385147
 10
100.1159072429351
 20
68.8701534302
 10
101.2289212997351
 20
68.8690254439
 10
102.393336705035
 20
68.86760267140001
 10
103.615644189935
 20
68.86583876119999
 10
104.8992763406351
 20
68.8637008581
 10
106.239533567935
 20
68.8611921353
 10
107.6226188691351
 20
68.8583702826
 10
109.029849897435
 20
68.8553457732
 10
110.437915301935
 20
68.85227330620001
 10
111.8419600255351
 20
68.8492826285
 10
113.2520422926351
 20
68.84647499899999
 10
114.6711716935351
 20
68.8439669904
 10
116.098219667935
 20
68.841877787
 10
117.530979380335
 20
68.84031506399999
 10
118.967208250935
 20
68.8393646815
 10
120.4056850372351
 20
68.83908810060001
 10
121.844233877635
 20
68.83951041649999
 10
123.2770668845351
 20
68.84059286580001
 10
124.699617156235
 20
68.84226069399999
 10
126.113287501735
 20
68.8444235995
 10
127.5211266958351
 20
68.84698059459999
 10
128.9270894361351
 20
68.84982556539999
 10
130.3334902124351
 20
68.8528440852
 10
131.740346131235
 20
68.85591418149999
 10
133.1466584391351
 20
68.85891576609999
 10
134.5506076859351
 20
68.8617392749
 10
135.9488262930351
 20
68.8642926822
 10
137.3378147888351
 20
68.8665119044
 10
138.7178838153351
 20
68.8683700276
 10
140.0920038432351
 20
68.8698701314
 10
141.4689644404351
 20
68.8710401119
 10
142.8527032491351
 20
68.8719151826
 10
144.215625260735
 20
68.87252734669999
 10
145.5652671413351
 20
68.8729360001
 10
147.019541666735
 20
68.87320639939999
 10
148.713376868635
 20
68.87336004079999
  0
LINE
  5
152B
330
22B
100
AcDbEntity
  8
0
  6
Continuous
 62
     7
100
AcDbLine
 10
90.72240559493508
 20
68.8733938254
 30
0.0
 11
91.79636715143507
 21
68.8733600006
 31
0.0
  0
LINE
  5
152C
330
22B
100
AcDbEntity
  8
0
  6
Continuous
 62
     7
100
AcDbLine
 10
148.713376868635
 20
68.87336004079999
 30
0.0
 11
149.786528288735
 21
68.87339382509999
 31
0.0
  0
LINE
  5
152D
330
22B
100
AcDbEntity
  8
0
  6
Continuous
 62
     7
100
AcDbLine
 10
90.25447785533508
 20
68.8733965813
 30
0.0
 11
90.72240559493508
 21
68.8733938254
 31
0.0
  0
LINE
  5
152E
330
22B
100
AcDbEntity
  8
0
  6
Continuous
 62
     7
100
AcDbLine
 10
149.786528288735
 20
68.87339382509999
 30
0.0
 11
150.2544778553351
 21
68.8733965813
 31
0.0
  0
LINE
  5
152F
330
22B
100
AcDbEntity
  8
0
  6
Continuous
 62
     7
100
AcDbLine
 10
149.786528288735
 20
68.8733965813
 30
0.0
 11
148.713376868635
 21
68.8733965813
 31
0.0
  0
LINE
  5
1530
330
22B
100
AcDbEntity
  8
0
  6
Continuous
 62
     7
100
AcDbLine
 10
90.45207007603508
 20
69.2483965813
 30
0.0
 11
90.49213995173507
 21
69.2483965813
 31
0.0
  0
LINE
  5
1531
330
22B
100
AcDbEntity
  8
0
  6
Continuous
 62
     7
100
AcDbLine
 10
150.0168158365351
 20
69.2483965813
 30
0.0
 11
150.0568856345351
 21
69.2483965813
 31
0.0
  0
LWPOLYLINE
  5
1532
330
22B
100
AcDbEntity
  8
0
  6
Continuous
 62
     7
100
AcDbPolyline
 90
      174
 70
     0
 43
0.0
 10
150.2544778553351
 20
68.8733965813
 10
150.204643630935
 20
68.8720875684
 10
150.170509779635
 20
68.8708450046
 10
150.1496397570351
 20
68.87004246
 10
150.112503802035
 20
68.86856640090001
 10
150.0686503765351
 20
68.866771506
 10
150.0169007559351
 20
68.86460745089999
 10
149.956200098535
 20
68.86202805119999
 10
149.878253844235
 20
68.85867429840001
 10
149.745818324935
 20
68.85291401429999
 10
149.532545197635
 20
68.84356271289999
 10
149.2349930216351
 20
68.83048306780001
 10
148.8418885848351
 20
68.8132662209
 10
148.4255706663351
 20
68.7951845193
 10
147.9990580840351
 20
68.77685833200001
 10
147.567762587135
 20
68.7585475747
 10
147.1317754134351
 20
68.7402715344
 10
146.685844043435
 20
68.7218259003
 10
146.2240422906351
 20
68.7029892537
 10
145.751359466035
 20
68.6839892405
 10
145.2690836842351
 20
68.6648961837
 10
144.7776057288351
 20
68.6457426648
 10
144.2766765896351
 20
68.62653621469999
 10
143.765355953135
 20
68.60725954989999
 10
143.2419478821351
 20
68.5878706308
 10
142.7045491203351
 20
68.56832520659999
 10
142.150365842835
 20
68.54855378329999
 10
141.573898644035
 20
68.5284025776
 10
140.9689283809351
 20
68.50771190989999
 10
140.1703357315351
 20
68.48111928939999
 10
139.3691811607351
 20
68.4552705312
 10
138.6469504688351
 20
68.4326862197
 10
137.9575354237351
 20
68.4117692792
 10
137.2699155531351
 20
68.39153705220001
 10
136.581816315235
 20
68.37192777430001
 10
135.894030687035
 20
68.352971913
 10
135.2072624094351
 20
68.3346952835
 10
134.522132351435
 20
68.3171195453
 10
133.8391848744351
 20
68.3002626746
 10
133.158894157235
 20
68.28413941009999
 10
132.481670444735
 20
68.2687616711
 10
131.8078661897351
 20
68.2541389455
 10
131.137782059235
 20
68.2402786489
 10
130.4716727805351
 20
68.2271864514
 10
129.8097528064351
 20
68.21486657459999
 10
129.1522017815351
 20
68.2033220568
 10
128.4991697926351
 20
68.19255498699999
 10
127.8507823904351
 20
68.182566708
 10
127.2071453713351
 20
68.17335798950001
 10
126.5683493082351
 20
68.1649291706
 10
125.934473823635
 20
68.1572802734
 10
125.3055915963351
 20
68.1504110873
 10
124.6817720984351
 20
68.14432122630001
 10
124.063085055335
 20
68.13901015839999
 10
123.449603626935
 20
68.13447720960001
 10
122.8414073073351
 20
68.13072154210001
 10
122.2398461051351
 20
68.12774755939999
 10
121.6517651943351
 20
68.12556989579999
 10
121.0853138543351
 20
68.1241713135
 10
120.5486331568351
 20
68.12349446489999
 10
120.0737818838351
 20
68.12343357999999
 10
119.665294473635
 20
68.12378756840001
 10
119.272984227835
 20
68.1244753812
 10
118.8936105635351
 20
68.1254591598
 10
118.524376017335
 20
68.12671264969999
 10
118.162483382735
 20
68.128220179
 10
117.8051357350351
 20
68.1299757152
 10
117.4499114997351
 20
68.1319799009
 10
117.096258272035
 20
68.1342281842
 10
116.744137346135
 20
68.1367140051
 10
116.3935079049351
 20
68.1394311331
 10
116.0443304470351
 20
68.14237363050001
 10
115.6965668607351
 20
68.1455358346
 10
115.350180491735
 20
68.1489123412
 10
115.0051362087351
 20
68.1524979874
 10
114.661400464235
 20
68.1562878364
 10
114.318941351935
 20
68.16027716239999
 10
113.9777286610351
 20
68.1644614356
 10
113.637733927335
 20
68.16883630869999
 10
113.2989304811351
 20
68.1733976031
 10
112.961293492535
 20
68.1781412963
 10
112.6248000138351
 20
68.18306350890001
 10
112.2894290194351
 20
68.1881604933
 10
111.9551614434351
 20
68.19342862149999
 10
111.6219802150351
 20
68.1988643743
 10
111.2898702909351
 20
68.2044643305
 10
110.958818686735
 20
68.2102251562
 10
110.6288145058351
 20
68.21614359529999
 10
110.299848965935
 20
68.2222164596
 10
109.9719154246351
 20
68.22844061899999
 10
109.6450094024351
 20
68.2348129935
 10
109.3191286046351
 20
68.24133054349999
 10
108.9942729410351
 20
68.2479902618
 10
108.6704445445351
 20
68.25478916539999
 10
108.3476477881351
 20
68.26172428789999
 10
108.0258892999351
 20
68.2687926713
 10
107.705177977335
 20
68.275991359
 10
107.385524999635
 20
68.2833173888
 10
107.066943838635
 20
68.2907677858
 10
106.7494502692351
 20
68.29833955560001
 10
106.4330623771351
 20
68.30602967819999
 10
106.1178005663351
 20
68.31383510170001
 10
105.8036875652351
 20
68.3217527358
 10
105.4907484306351
 20
68.32977944689999
 10
105.1790105516351
 20
68.3379120516
 10
104.868503651435
 20
68.34614731180001
 10
104.5592597885351
 20
68.3544819291
 10
104.2513133558351
 20
68.3629125403
 10
103.9447010797351
 20
68.3714357118
 10
103.6394620169351
 20
68.3800479355
 10
103.335637550235
 20
68.3887456242
 10
103.033271384135
 20
68.39752510699999
 10
102.732409537435
 20
68.4063826254
 10
102.4331003363351
 20
68.4153143291
 10
102.135347161335
 20
68.4243177103
 10
101.839482766835
 20
68.43338015319999
 10
101.546341995735
 20
68.44247290590001
 10
101.2567829275351
 20
68.4515652659
 10
100.9716721455351
 20
68.4606250518
 10
100.691884169035
 20
68.46961865979999
 10
100.4183004333351
 20
68.4785111439
 10
100.1518078702351
 20
68.48726632059999
 10
99.89658948693508
 20
68.4957370753
 10
99.67897980873509
 20
68.50302586789999
 10
99.49438504143508
 20
68.50925656439999
 10
99.31933498383507
 20
68.5152055031
 10
99.14687384153509
 20
68.521104873
 10
98.97683537993508
 20
68.5269586499
 10
98.80908295743509
 20
68.5327699564
 10
98.64348265823508
 20
68.5385419644
 10
98.47990301903507
 20
68.54427789689999
 10
98.31821479413507
 20
68.54998102979999
 10
98.15829075973509
 20
68.5556546924
 10
98.00000555223508
 20
68.5613022677
 10
97.84323554043508
 20
68.56692719199999
 10
97.68785872893509
 20
68.57253295390001
 10
97.53375469263509
 20
68.57812309180001
 10
97.38080463163507
 20
68.5837011886
 10
97.22901203833508
 20
68.58926643220001
 10
97.07840039113508
 20
68.59481727640001
 10
96.9289049006351
 20
68.6003554433
 10
96.78046670883508
 20
68.6058824892
 10
96.6330327072351
 20
68.6113998058
 10
96.48655536323508
 20
68.61690861949999
 10
96.34099255573508
 20
68.62240999239999
 10
96.19630741963508
 20
68.62790482210001
 10
96.05246819733508
 20
68.63339384229999
 10
95.90944810003508
 20
68.6388776225
 10
95.76722517493507
 20
68.6443565684
 10
95.62578218123508
 20
68.64983092189999
 10
95.48510647313509
 20
68.65530076109999
 10
95.34518988933509
 20
68.66076599989999
 10
95.20602865083509
 20
68.666226388
 10
95.06762326393509
 20
68.67168151040001
 10
94.92997843113506
 20
68.67713078680001
 10
94.79310296823507
 20
68.6825734712
 10
94.65700972773509
 20
68.6880086508
 10
94.52171552843507
 20
68.6934352451
 10
94.38724109163507
 20
68.6988520049
 10
94.25361098353508
 20
68.7042575109
 10
94.12085356343508
 20
68.7096501722
 10
93.98900093823508
 20
68.7150282245
 10
93.85828822603508
 20
68.72038154960001
 10
93.72921282503508
 20
68.725689066
 10
93.60153136983507
 20
68.7309600098
 10
93.47498379783507
 20
68.7362044692
 10
93.34934510553507
 20
68.7414312355
 10
93.22442526703508
 20
68.74664777300001
 10
93.10006920273508
 20
68.7518601883
 10
92.97615678393508
 20
68.757073198
 10
92.85260285973508
 20
68.7622900961
 10
92.72935729333509
 20
68.76751271999999
 10
92.60640499383509
 20
68.77274141699999
 10
92.36149510933508
 20
68.7832107663
  0
LWPOLYLINE
  5
1533
330
22B
100
AcDbEntity
  8
0
  6
Continuous
 62
     7
100
AcDbPolyline
 90
       15
 70
     0
 43
0.0
 10
147.4307154085351
 20
72.30416511979999
 10
147.5422993512351
 20
72.32493848379999
 10
147.6509190282351
 20
72.3542516816
 10
147.7567980358351
 20
72.3920302663
 10
147.8591679207351
 20
72.4379779246
 10
147.9573353545351
 20
72.49174729100001
 10
148.050549776735
 20
72.55286380439999
 10
148.1381290204351
 20
72.62077149619999
 10
148.2195207845351
 20
72.69490601459999
 10
148.2940754294351
 20
72.7744956767
 10
148.3608111427351
 20
72.85811940319999
 10
148.4188281717351
 20
72.94389965170001
 10
148.4686301545351
 20
73.0319107971
 10
148.5080672211351
 20
73.11721134689999
 10
148.5354838842351
 20
73.19246855979999
  0
LWPOLYLINE
  5
1534
330
22B
100
AcDbEntity
  8
0
  6
Continuous
 62
     7
100
AcDbPolyline
 90
        4
 70
     0
 43
0.0
 10
147.2072753413351
 20
72.28734464750001
 10
147.281918274335
 20
72.2892061381
 10
147.3564099164351
 20
72.2948020125
 10
147.4307154085351
 20
72.30416511979999
  0
LWPOLYLINE
  5
1535
330
22B
100
AcDbEntity
  8
0
  6
Continuous
 62
     7
100
AcDbPolyline
 90
        3
 70
     0
 43
0.0
 10
144.7693067936351
 20
75.46934122399999
 10
144.764790577135
 20
75.4739766948
 10
144.7595952836351
 20
75.478585878
  0
LWPOLYLINE
  5
1536
330
22B
100
AcDbEntity
  8
0
  6
Continuous
 62
     7
100
AcDbPolyline
 90
       21
 70
     0
 43
0.0
 10
118.7629928875351
 20
98.21688798389999
 10
118.764428455935
 20
98.2160662052
 10
118.7687504428351
 20
98.21407216090001
 10
118.7738142160351
 20
98.2121314713
 10
118.7795980918351
 20
98.2102524469
 10
118.7860773026351
 20
98.2084431338
 10
118.793224103535
 20
98.20671127989999
 10
118.8010078909351
 20
98.20506430120001
 10
118.809395333235
 20
98.2035092503
 10
118.8183505143351
 20
98.20205278620001
 10
118.8278350866351
 20
98.2007011457
 10
118.8378084357351
 20
98.19946011669999
 10
118.8482278543351
 20
98.19833501360001
 10
118.8590487249351
 20
98.1973306541
 10
118.870224710735
 20
98.19645133899999
 10
118.8817079541351
 20
98.19570083389999
 10
118.8934492826351
 20
98.1950823524
 10
118.905398418635
 20
98.19459854290002
 10
118.917504193435
 20
98.1942514772
 10
118.9297147681351
 20
98.1940426415
 10
118.941977855335
 20
98.1939729301
  0
LINE
  5
1537
330
22B
100
AcDbEntity
  8
0
  6
Continuous
 62
     7
100
AcDbLine
 10
93.36722345453507
 20
72.28734464750001
 30
0.0
 11
147.2072753413351
 21
72.28734464750001
 31
0.0
  0
LWPOLYLINE
  5
1538
330
22B
100
AcDbEntity
  8
0
  6
Continuous
 62
     7
100
AcDbPolyline
 90
       19
 70
     0
 43
0.0
 10
144.769306845435
 20
75.4693411663
 10
144.853935620535
 20
75.47525242529999
 10
144.937942388635
 20
75.4883583582
 10
145.020709727035
 20
75.5085626406
 10
145.1016292921351
 20
75.53571676850001
 10
145.1801063849351
 20
75.5696211802
 10
145.255564178135
 20
75.6100266708
 10
145.3274480886351
 20
75.6566362753
 10
145.3952297831351
 20
75.709107422
 10
145.458411081735
 20
75.7670544598
 10
145.5165276158351
 20
75.8300514909
 10
145.5691522415351
 20
75.8976355006
 10
145.6158981796351
 20
75.96930976180001
 10
145.656421856835
 20
76.0445474826
 10
145.6904254391351
 20
76.1227956968
 10
145.7176589930351
 20
76.20347925979999
 10
145.7379223731351
 20
76.2860052068
 10
145.7510666409351
 20
76.36976696880001
 10
145.7569951902351
 20
76.4541489195
  0
LWPOLYLINE
  5
1539
330
22B
100
AcDbEntity
  8
0
  6
Continuous
 62
     7
100
AcDbPolyline
 90
       20
 70
     0
 43
0.0
 10
144.7595952836351
 20
75.478585878
 10
144.245689101835
 20
75.48019241680001
 10
143.781421928835
 20
75.4813854321
 10
143.3632114808351
 20
75.48225300899999
 10
142.987708363935
 20
75.4828662731
 10
142.650686279535
 20
75.48328409459999
 10
142.3464830912351
 20
75.48355408409999
 10
142.068017745235
 20
75.48371255239999
 10
141.807908634235
 20
75.48378442589999
 10
141.5607424162351
 20
75.483784856
 10
141.3251520320351
 20
75.4837238432
 10
141.1031649029351
 20
75.4836115314
 10
140.8979543171351
 20
75.4834604161
 10
140.7121481313351
 20
75.48328452709999
 10
140.5460647192351
 20
75.4830961056
 10
140.3968237989351
 20
75.4829018122
 10
140.259273065735
 20
75.48270192789999
 10
140.1277242893351
 20
75.4824920231
 10
139.9978805802351
 20
75.4822663066
 10
139.867997436935
 20
75.4820212419
  0
LINE
  5
153C
330
22B
100
AcDbEntity
  8
0
  6
Continuous
 62
     7
100
AcDbLine
 10
139.867997436935
 20
75.4820212419
 30
0.0
 11
139.608175510935
 21
75.481475953
 31
0.0
  0
LINE
  5
153D
330
22B
100
AcDbEntity
  8
0
  6
Continuous
 62
     7
100
AcDbLine
 10
106.6577256855351
 20
75.4030511454
 30
0.0
 11
97.92208605763509
 21
75.38215752780001
 31
0.0
  0
LINE
  5
153E
330
22B
100
AcDbEntity
  8
0
  6
Continuous
 62
     7
100
AcDbLine
 10
138.644793172935
 20
75.4792050043
 30
0.0
 11
106.6577256855351
 21
75.4030511454
 31
0.0
  0
LWPOLYLINE
  5
153F
330
22B
100
AcDbEntity
  8
0
  6
Continuous
 62
     7
100
AcDbPolyline
 90
        6
 70
     0
 43
0.0
 10
139.608175510935
 20
75.481475953
 10
139.3485788668351
 20
75.4808771184
 10
139.218532709935
 20
75.48056673890001
 10
139.087226073035
 20
75.4802528045
 10
138.9517136038351
 20
75.4799310459
 10
138.644793172935
 20
75.4792050043
  0
LWPOLYLINE
  5
1540
330
22B
100
AcDbEntity
  8
0
  6
Continuous
 62
     7
100
AcDbPolyline
 90
        3
 70
     0
 43
0.0
 10
144.7693067983351
 20
96.08995194389999
 10
144.7647892547351
 20
96.0853152015
 10
144.7595957852351
 20
96.08070791590002
  0
LWPOLYLINE
  5
1541
330
22B
100
AcDbEntity
  8
0
  6
Continuous
 62
     7
100
AcDbPolyline
 90
       31
 70
     0
 43
0.0
 10
122.254477855335
 20
98.26592427360001
 10
122.2543228101351
 20
98.2679466633
 10
122.253083108335
 20
98.27198571
 10
122.2506072188351
 20
98.27600757489999
 10
122.246902159835
 20
98.28000085760001
 10
122.241978433635
 20
98.2839542387
 10
122.235849997035
 20
98.28785651190001
 10
122.228534221935
 20
98.29169661579999
 10
122.2200518456351
 20
98.2954636652
 10
122.210426912235
 20
98.29914698200001
 10
122.1996867047351
 20
98.3027361254
 10
122.1878616675351
 20
98.3062209216
 10
122.1749853197351
 20
98.30959149260001
 10
122.1610941609351
 20
98.31283828410001
 10
122.146227567135
 20
98.3159520927
 10
122.1304276791351
 20
98.31892409209999
 10
122.1137392836351
 20
98.32174585770001
 10
122.0962096856351
 20
98.32440939100001
 10
122.0778885746351
 20
98.32690714180001
 10
122.0588278838351
 20
98.3292320301
 10
122.0390816429351
 20
98.3313774656
 10
122.018705824635
 20
98.33333736700001
 10
121.997758186535
 20
98.3351061787
 10
121.9762981069351
 20
98.33667888669999
 10
121.9543864168351
 20
98.3380510331
 10
121.9320852271351
 20
98.3392187283
 10
121.9094577531351
 20
98.3401786625
 10
121.886568134835
 20
98.3409281145
 10
121.8634812552351
 20
98.34146496
 10
121.8402625567351
 20
98.34178767719999
 10
121.816977855335
 20
98.34189535130001
  0
LWPOLYLINE
  5
1542
330
22B
100
AcDbEntity
  8
0
  6
Continuous
 62
     7
100
AcDbPolyline
 90
       31
 70
     0
 43
0.0
 10
122.254477855335
 20
98.28931345770001
 10
122.2538782767351
 20
98.29328947669999
 10
122.2520811845351
 20
98.29725459770001
 10
122.2490915043351
 20
98.30119795260001
 10
122.2449174306351
 20
98.30510873290002
 10
122.2395704043351
 20
98.30897621950001
 10
122.233065081135
 20
98.3127898118
 10
122.2254192918351
 20
98.31653905700001
 10
122.216653993035
 20
98.32021367879999
 10
122.2067932096351
 20
98.3238036052
 10
122.195863969435
 20
98.3272989966
 10
122.1838962287351
 20
98.33069027219998
 10
122.1709227903351
 20
98.33396813680002
 10
122.1569792134351
 20
98.33712360600001
 10
122.1421037164351
 20
98.340148031
 10
122.1263370720351
 20
98.34303312190002
 10
122.1097224955351
 20
98.34577097100002
 10
122.092305526335
 20
98.3483540739
 10
122.0741339031351
 20
98.35077535069999
 10
122.0552574331351
 20
98.3530281646
 10
122.035727855335
 20
98.35510634100002
 10
122.0155986989351
 20
98.35700418360001
 10
121.9949251366351
 20
98.3587164907
 10
121.973763833235
 20
98.36023856879998
 10
121.9521727903351
 20
98.36156624620002
 10
121.9302111875351
 20
98.36269588370001
 10
121.9079392200351
 20
98.36362438510001
 10
121.8854179337351
 20
98.3643492054
 10
121.8627090579351
 20
98.36486835790001
 10
121.839874836135
 20
98.3651804197
 10
121.816977855335
 20
98.36528453540001
  0
LINE
  5
1543
330
22B
100
AcDbEntity
  8
0
  6
Continuous
 62
     7
100
AcDbLine
 10
122.254477855335
 20
98.26592427360001
 30
0.0
 11
122.254477855335
 21
98.28931345770001
 31
0.0
  0
LINE
  5
1544
330
22B
100
AcDbEntity
  8
0
  6
Continuous
 62
     7
100
AcDbLine
 10
121.816977855335
 20
98.36528453540001
 30
0.0
 11
121.816977855335
 21
98.26080343610001
 31
0.0
  0
LINE
  5
1545
330
22B
100
AcDbEntity
  8
0
  6
Continuous
 62
     7
100
AcDbLine
 10
121.816977855335
 20
98.1321085683
 30
0.0
 11
121.816977855335
 21
98.1331720256
 31
0.0
  0
LINE
  5
1546
330
22B
100
AcDbEntity
  8
0
  6
Continuous
 62
     7
100
AcDbLine
 10
121.5669778553351
 20
98.15921925219999
 30
0.0
 11
121.5669778553351
 21
98.2347562095
 31
0.0
  0
LWPOLYLINE
  5
1547
330
22B
100
AcDbEntity
  8
0
  6
Continuous
 62
     7
100
AcDbPolyline
 90
       11
 70
     0
 43
0.0
 10
90.25447785533508
 20
68.89932240479999
 10
90.29511862893508
 20
68.91817731839999
 10
90.33322067333507
 20
68.94175619710001
 10
90.36823891813508
 20
68.9697217323
 10
90.39967240833508
 20
69.001673862
 10
90.42707147083508
 20
69.0371554937
 10
90.45004414733508
 20
69.0756590434
 10
90.46826180123508
 20
69.116633697
 10
90.48146381903507
 20
69.15949329
 10
90.48946133883509
 20
69.2036246926
 10
90.49213995173507
 20
69.2483965813
  0
LINE
  5
1548
330
22B
100
AcDbEntity
  8
0
  6
Continuous
 62
     7
100
AcDbLine
 10
118.941977855335
 20
98.15921925219999
 30
0.0
 11
118.941977855335
 21
98.2347562095
 31
0.0
  0
LINE
  5
1549
330
22B
100
AcDbEntity
  8
0
  6
Continuous
 62
     7
100
AcDbLine
 10
118.691977855335
 20
98.36528453540001
 30
0.0
 11
118.691977855335
 21
98.26080343610001
 31
0.0
  0
LINE
  5
154A
330
22B
100
AcDbEntity
  8
0
  6
Continuous
 62
     7
100
AcDbLine
 10
118.691977855335
 20
98.1321085683
 30
0.0
 11
118.691977855335
 21
98.1331720256
 31
0.0
  0
LINE
  5
154B
330
22B
100
AcDbEntity
  8
0
  6
Continuous
 62
     7
100
AcDbLine
 10
118.254477855335
 20
98.28931345770001
 30
0.0
 11
118.254477855335
 21
98.26592427360001
 31
0.0
  0
LWPOLYLINE
  5
154C
330
22B
100
AcDbEntity
  8
0
  6
Continuous
 62
     7
100
AcDbPolyline
 90
       11
 70
     0
 43
0.0
 10
150.2544778553351
 20
68.89932243539999
 10
150.2138370677351
 20
68.9181773678
 10
150.1757350189351
 20
68.9417562647
 10
150.140716778635
 20
68.96972181489999
 10
150.1092832998351
 20
69.00167395390001
 10
150.081884253535
 20
69.0371555877
 10
150.0589115953351
 20
69.07565913149999
 10
150.0406939593351
 20
69.1166337713
 10
150.027491956235
 20
69.15949334369999
 10
150.019494446135
 20
69.20362472079999
 10
150.0168158365351
 20
69.2483965813
  0
LINE
  5
154D
330
22B
100
AcDbEntity
  8
DEFAULT_1
  6
CENTER
 62
     7
100
AcDbLine
 10
147.504477855335
 20
85.77964658129999
 30
0.0
 11
149.6961445219351
 21
85.77964658129999
 31
0.0
  0
LINE
  5
154E
330
22B
100
AcDbEntity
  8
DEFAULT_1
  6
CENTER
 62
     7
100
AcDbLine
 10
139.4332550120351
 20
85.77964658129999
 30
0.0
 11
141.4058778952351
 21
85.77964658129999
 31
0.0
  0
LINE
  5
154F
330
22B
100
AcDbEntity
  8
DEFAULT_1
  6
CENTER
 62
     7
100
AcDbLine
 10
149.6961445219351
 20
85.77964658129999
 30
0.0
 11
151.6518314122351
 21
85.77964658129999
 31
0.0
  0
LINE
  5
1550
330
22B
100
AcDbEntity
  8
DEFAULT_1
  6
CENTER
 62
     7
100
AcDbLine
 10
143.8833294343351
 20
85.77964658129999
 30
0.0
 11
147.504477855335
 21
85.77964658129999
 31
0.0
  0
LINE
  5
1551
330
22B
100
AcDbEntity
  8
0
  6
Continuous
 62
     7
100
AcDbLine
 10
143.8833294343351
 20
85.77964658129999
 30
0.0
 11
141.4058778952351
 21
85.77964658129999
 31
0.0
  0
LINE
  5
1552
330
22B
100
AcDbEntity
  8
DEFAULT_1
  6
CENTER
 62
     7
100
AcDbLine
 10
139.4332550120351
 20
85.77964658129999
 30
0.0
 11
137.4178573102351
 21
85.77964658129999
 31
0.0
  0
LINE
  5
1553
330
22B
100
AcDbEntity
  8
DEFAULT_1
  6
CENTER
 62
     7
100
AcDbLine
 10
124.3225428806351
 20
85.77964658129999
 30
0.0
 11
89.36133465193508
 21
85.77964658129999
 31
0.0
  0
LINE
  5
1554
330
22B
100
AcDbEntity
  8
0
  6
Continuous
 62
     7
100
AcDbLine
 10
137.4178573102351
 20
85.77964658129999
 30
0.0
 11
124.3225428806351
 21
85.77964658129999
 31
0.0
  0
LWPOLYLINE
  5
1555
330
22B
100
AcDbEntity
  8
0
  6
Continuous
 62
     7
100
AcDbPolyline
 90
        4
 70
     0
 43
0.0
 10
96.96578126123508
 20
95.1923279042
 10
96.97914178453508
 20
95.18362281389999
 10
96.99236595573509
 20
95.1730007527
 10
97.00544304403507
 20
95.16046968579999
  0
LWPOLYLINE
  5
1556
330
22B
100
AcDbEntity
  8
0
  6
Continuous
 62
     7
100
AcDbPolyline
 90
       31
 70
     0
 43
0.0
 10
118.254477855335
 20
98.28931345770001
 10
118.255077433835
 20
98.29328947669999
 10
118.2568745260351
 20
98.29725459770001
 10
118.2598642062351
 20
98.30119795260001
 10
118.2640382799351
 20
98.30510873290002
 10
118.2693853063351
 20
98.30897621950001
 10
118.2758906294351
 20
98.3127898118
 10
118.2835364187351
 20
98.31653905700001
 10
118.2923017175351
 20
98.32021367879999
 10
118.3021625009351
 20
98.3238036052
 10
118.3130917411351
 20
98.3272989966
 10
118.3250594818351
 20
98.33069027219998
 10
118.3380329202351
 20
98.33396813680002
 10
118.351976497135
 20
98.33712360600001
 10
118.3668519941351
 20
98.340148031
 10
118.3826186385351
 20
98.34303312190002
 10
118.3992332150351
 20
98.34577097100002
 10
118.4166501842351
 20
98.3483540739
 10
118.434821807435
 20
98.35077535069999
 10
118.4536982774351
 20
98.3530281646
 10
118.473227855335
 20
98.35510634100002
 10
118.4933570116351
 20
98.35700418360001
 10
118.5140305739351
 20
98.3587164907
 10
118.535191877335
 20
98.36023856879998
 10
118.5567829202351
 20
98.36156624620002
 10
118.5787445230351
 20
98.36269588370001
 10
118.601016490535
 20
98.36362438510001
 10
118.6235377768351
 20
98.3643492054
 10
118.6462466526351
 20
98.36486835790001
 10
118.6690808744351
 20
98.3651804197
 10
118.691977855335
 20
98.36528453540001
  0
LWPOLYLINE
  5
1557
330
22B
100
AcDbEntity
  8
0
  6
Continuous
 62
     7
100
AcDbPolyline
 90
        4
 70
     0
 43
0.0
 10
96.96578126393509
 20
76.3669652599
 10
96.97914143083508
 20
76.3756700917
 10
96.99236520243509
 20
76.3862917467
 10
97.00543624793509
 20
76.39881687199999
  0
LINE
  5
1558
330
22B
100
AcDbEntity
  8
0
  6
Continuous
 62
     7
100
AcDbLine
 10
138.6611689270351
 20
96.0800493808
 30
0.0
 11
138.9253037063351
 21
96.07942463749999
 31
0.0
  0
LWPOLYLINE
  5
1559
330
22B
100
AcDbEntity
  8
0
  6
Continuous
 62
     7
100
AcDbPolyline
 90
        3
 70
     0
 43
0.0
 10
138.9253037063351
 20
96.07942463749999
 10
139.0544027344351
 20
96.07911849530001
 10
139.1836021909351
 20
96.0788100539
  0
LINE
  5
155A
330
22B
100
AcDbEntity
  8
0
  6
Continuous
 62
     7
100
AcDbLine
 10
97.92208607893508
 20
96.17713562250001
 30
0.0
 11
107.688667115435
 21
96.15377890399999
 31
0.0
  0
LINE
  5
155B
330
22B
100
AcDbEntity
  8
0
  6
Continuous
 62
     7
100
AcDbLine
 10
107.688667115435
 20
96.15377890399999
 30
0.0
 11
116.635997780035
 21
96.1324259797
 31
0.0
  0
LWPOLYLINE
  5
155C
330
22B
100
AcDbEntity
  8
0
  6
Continuous
 62
     7
100
AcDbPolyline
 90
        3
 70
     0
 43
0.0
 10
116.635997780035
 20
96.1324259797
 10
120.6760855418351
 20
96.1227984769
 10
138.6611689270351
 20
96.0800493808
  0
LWPOLYLINE
  5
155D
330
22B
100
AcDbEntity
  8
0
  6
Continuous
 62
     7
100
AcDbPolyline
 90
       20
 70
     0
 43
0.0
 10
139.1836021909351
 20
96.0788100539
 10
139.6999704183351
 20
96.07761706219999
 10
139.829061468435
 20
96.07734919129999
 10
139.9596560522351
 20
96.07709693970001
 10
140.0956427767351
 20
96.07685516770001
 10
140.2433283947351
 20
96.07661568610001
 10
140.409053550135
 20
96.07637454689999
 10
140.595268252335
 20
96.07613817509999
 10
140.7996677788351
 20
96.07592117860001
 10
141.0189606205351
 20
96.07573814770001
 10
141.2520128766351
 20
96.07560044719999
 10
141.5004394756351
 20
96.07551821790002
 10
141.7686116782351
 20
96.0755042519
 10
142.0627925336351
 20
96.07557844290001
 10
142.389892945135
 20
96.07577140950001
 10
142.7570625968351
 20
96.07612744139998
 10
143.1717375057351
 20
96.076707928
 10
143.6413920478351
 20
96.0775954814
 10
144.1706152183351
 20
96.0788913298
 10
144.7595957852351
 20
96.08070791590002
  0
LWPOLYLINE
  5
155E
330
22B
100
AcDbEntity
  8
0
  6
Continuous
 62
     7
100
AcDbPolyline
 90
        6
 70
     0
 43
0.0
 10
121.918706244835
 20
98.25830978070001
 10
121.8987452243351
 20
98.25920380280001
 10
121.8785265556351
 20
98.25990207540002
 10
121.858115287035
 20
98.26040236250001
 10
121.8375728285351
 20
98.26070314870001
 10
121.816977855335
 20
98.26080343610001
  0
LINE
  5
155F
330
22B
100
AcDbEntity
  8
0
  6
Continuous
 62
     7
100
AcDbLine
 10
90.49311237193506
 20
100.1231048213
 30
0.0
 11
90.45207007603508
 21
100.123369294
 31
0.0
  0
LWPOLYLINE
  5
1560
330
22B
100
AcDbEntity
  8
0
  6
Continuous
 62
     7
100
AcDbPolyline
 90
       25
 70
     0
 43
0.0
 10
121.5669778553351
 20
98.23430044209999
 10
121.580127140535
 20
98.23422965709999
 10
121.5932186631351
 20
98.2340177116
 10
121.6061944574351
 20
98.23366584940002
 10
121.6189968009351
 20
98.23317617030001
 10
121.631568328635
 20
98.2325516608
 10
121.643852137735
 20
98.23179624209998
 10
121.6557918801351
 20
98.23091483989999
 10
121.6673318434351
 20
98.229913483
 10
121.678417021235
 20
98.22879943970001
 10
121.6889931823351
 20
98.2275814059
 10
121.6990069572351
 20
98.226269761
 10
121.7084060825351
 20
98.22487689409999
 10
121.717139916135
 20
98.22341760040002
 10
121.725158783235
 20
98.2219098448
 10
121.732416078035
 20
98.2203752761
 10
121.738869502235
 20
98.21884003800001
 10
121.7444840997351
 20
98.2173353375
 10
121.749236444935
 20
98.21589762510001
 10
121.7531173373351
 20
98.21456891990001
 10
121.7561421462351
 20
98.2133936555
 10
121.7583514225351
 20
98.21241680079999
 10
121.7598147632351
 20
98.2116786785
 10
121.760624320335
 20
98.21121219049999
 10
121.760753375835
 20
98.21113029560001
  0
LWPOLYLINE
  5
1561
330
22B
100
AcDbEntity
  8
0
  6
Continuous
 62
     7
100
AcDbPolyline
 90
       35
 70
     0
 43
0.0
 10
118.691977855335
 20
98.1321085683
 10
118.6703500283351
 20
98.13221562610001
 10
118.6487792711351
 20
98.13253668080001
 10
118.6273214310351
 20
98.13307141360001
 10
118.606031517435
 20
98.133819354
 10
118.5849636159351
 20
98.13477993360001
 10
118.5641699952351
 20
98.1359526031
 10
118.5436998945351
 20
98.13733704379998
 10
118.5235998425351
 20
98.13893335899999
 10
118.5039124697351
 20
98.14074243450001
 10
118.4846762439351
 20
98.14276635459998
 10
118.4659224155351
 20
98.1450093041
 10
118.447672806935
 20
98.1474788156
 10
118.4299378879351
 20
98.15018754340002
 10
118.4127109427351
 20
98.15315658760001
 10
118.3959592581351
 20
98.15642133829999
 10
118.3796084066351
 20
98.16004266410001
 10
118.3635130211351
 20
98.16412999530001
 10
118.3474052752351
 20
98.16889180620002
 10
118.3322346313351
 20
98.1742038772
 10
118.3196721449351
 20
98.17944193610001
 10
118.3091161291351
 20
98.18465763589999
 10
118.3001544478351
 20
98.18988111290002
 10
118.2924623793351
 20
98.19514684259999
 10
118.2856991114351
 20
98.20057167379999
 10
118.2797340654351
 20
98.20617985250001
 10
118.2745257109351
 20
98.21193001430001
 10
118.2699571098351
 20
98.21788177870001
 10
118.265979780735
 20
98.2240588051
 10
118.2625869172351
 20
98.23044570330001
 10
118.2597132141351
 20
98.23719431669999
 10
118.257477435735
 20
98.24404611440002
 10
118.2558175157351
 20
98.2512378912
 10
118.2548191727351
 20
98.25849137040002
 10
118.254477855335
 20
98.26592427360001
  0
LINE
  5
1562
330
22B
100
AcDbEntity
  8
0
  6
Continuous
 62
     7
100
AcDbLine
 10
118.691977855335
 20
98.1321085683
 30
0.0
 11
121.816977855335
 21
98.1321085683
 31
0.0
  0
LINE
  5
1563
330
22B
100
AcDbEntity
  8
0
  6
Continuous
 62
     7
100
AcDbLine
 10
118.691977855335
 20
98.1331720256
 30
0.0
 11
121.816977855335
 21
98.1331720256
 31
0.0
  0
LINE
  5
1564
330
22B
100
AcDbEntity
  8
0
  6
Continuous
 62
     7
100
AcDbLine
 10
118.941977855335
 20
98.15921925219999
 30
0.0
 11
121.5669778553351
 21
98.15921925219999
 31
0.0
  0
LINE
  5
1565
330
22B
100
AcDbEntity
  8
0
  6
Continuous
 62
     7
100
AcDbLine
 10
118.941977855335
 20
98.1939729301
 30
0.0
 11
121.5669778553351
 21
98.1939729301
 31
0.0
  0
LINE
  5
1566
330
22B
100
AcDbEntity
  8
0
  6
Continuous
 62
     7
100
AcDbLine
 10
121.5669778553351
 20
98.23430044209999
 30
0.0
 11
118.941977855335
 21
98.23430044209999
 31
0.0
  0
LINE
  5
1567
330
22B
100
AcDbEntity
  8
0
  6
Continuous
 62
     7
100
AcDbLine
 10
121.5669778553351
 20
98.2347562095
 30
0.0
 11
118.941977855335
 21
98.2347562095
 31
0.0
  0
LINE
  5
1568
330
22B
100
AcDbEntity
  8
0
  6
Continuous
 62
     7
100
AcDbLine
 10
121.816977855335
 20
98.26080343610001
 30
0.0
 11
118.691977855335
 21
98.26080343610001
 31
0.0
  0
LINE
  5
1569
330
22B
100
AcDbEntity
  8
0
  6
Continuous
 62
     7
100
AcDbLine
 10
121.816977855335
 20
98.34189535130001
 30
0.0
 11
118.691977855335
 21
98.34189535130001
 31
0.0
  0
LINE
  5
156A
330
22B
100
AcDbEntity
  8
0
  6
Continuous
 62
     7
100
AcDbLine
 10
121.816977855335
 20
98.36528453540001
 30
0.0
 11
118.691977855335
 21
98.36528453540001
 31
0.0
  0
LINE
  5
156B
330
22B
100
AcDbEntity
  8
0
  6
Continuous
 62
     7
100
AcDbLine
 10
147.2100565901351
 20
99.2529349622
 30
0.0
 11
93.36185478893508
 21
99.2529349622
 31
0.0
  0
LWPOLYLINE
  5
156C
330
22B
100
AcDbEntity
  8
0
  6
Continuous
 62
     7
100
AcDbPolyline
 90
       31
 70
     0
 43
0.0
 10
118.691977855335
 20
98.34189535130001
 10
118.6686931538351
 20
98.34178767719999
 10
118.6454744553351
 20
98.34146496
 10
118.622387575835
 20
98.3409281145
 10
118.599497957435
 20
98.3401786625
 10
118.5768704834351
 20
98.3392187283
 10
118.554569293835
 20
98.3380510331
 10
118.532657603635
 20
98.33667888669999
 10
118.5111975240351
 20
98.3351061787
 10
118.4902498859351
 20
98.33333736700001
 10
118.4698740676351
 20
98.3313774656
 10
118.450127826735
 20
98.3292320301
 10
118.431067135935
 20
98.32690714180001
 10
118.412746024935
 20
98.32440939100001
 10
118.3952164269351
 20
98.32174585770001
 10
118.3785280314351
 20
98.31892409209999
 10
118.362728143435
 20
98.3159520927
 10
118.3478615496351
 20
98.31283828410001
 10
118.3339703908351
 20
98.30959149260001
 10
118.3210940431351
 20
98.3062209216
 10
118.309269005835
 20
98.3027361254
 10
118.298528798335
 20
98.29914698200001
 10
118.2889038649351
 20
98.2954636652
 10
118.2804214886351
 20
98.29169661579999
 10
118.2731057135351
 20
98.28785651190001
 10
118.2669772770351
 20
98.2839542387
 10
118.262053550735
 20
98.28000085760001
 10
118.2583484917351
 20
98.27600757489999
 10
118.2558726022351
 20
98.27198571
 10
118.254632900435
 20
98.2679466633
 10
118.254477855335
 20
98.26592427360001
  0
LWPOLYLINE
  5
156D
330
22B
100
AcDbEntity
  8
0
  6
Continuous
 62
     7
100
AcDbPolyline
 90
       52
 70
     0
 43
0.0
 10
121.816977855335
 20
98.1331720256
 10
121.8375728242351
 20
98.133272313
 10
121.8581152837351
 20
98.13357309910001
 10
121.878526552835
 20
98.13407338620002
 10
121.8987452210351
 20
98.1347716588
 10
121.9187062418351
 20
98.1356656808
 10
121.9383472991351
 20
98.1367526576
 10
121.957606429135
 20
98.13802916110001
 10
121.9764230849351
 20
98.139491178
 10
121.9947380444351
 20
98.14113410690001
 10
122.0124936845351
 20
98.14295277870002
 10
122.029634135835
 20
98.14494147090002
 10
122.0461054664351
 20
98.14709392610001
 10
122.0618558495351
 20
98.14940337160001
 10
122.0768357266351
 20
98.1518625408
 10
122.0909979637351
 20
98.1544636959
 10
122.1042979995351
 20
98.1571986524
 10
122.1166939855351
 20
98.1600588048
 10
122.128146917935
 20
98.16303515370002
 10
122.1386207603351
 20
98.16611833399999
 10
122.1480825567351
 20
98.16929864450001
 10
122.1565025357351
 20
98.1725660785
 10
122.1638542040351
 20
98.1759103549
 10
122.170114429535
 20
98.17932095100001
 10
122.1752635147351
 20
98.1827871355
 10
122.1792852579351
 20
98.186298002
 10
122.182167004735
 20
98.1898425037
 10
122.183899687835
 20
98.19340948770001
 10
122.1844778553351
 20
98.1969877306
 10
122.1838996879351
 20
98.20056597350001
 10
122.1821670050351
 20
98.2041329575
 10
122.179285258435
 20
98.2076774591
 10
122.1752635154351
 20
98.21118832559999
 10
122.1701144304351
 20
98.2146545101
 10
122.1638542050351
 20
98.21806510629999
 10
122.1565025369351
 20
98.22140938270001
 10
122.1480825581351
 20
98.2246768167
 10
122.1386207618351
 20
98.2278571272
 10
122.1281469197351
 20
98.2309403075
 10
122.116693987435
 20
98.23391665649999
 10
122.1042980015351
 20
98.2367768089
 10
122.090997965835
 20
98.23951176540001
 10
122.0768357289351
 20
98.24211292059999
 10
122.061855851935
 20
98.2445720898
 10
122.0461054689351
 20
98.24688153530001
 10
122.0296341384351
 20
98.2490339905
 10
122.0124936872351
 20
98.25102268270001
 10
121.9947380472351
 20
98.25284135450001
 10
121.9764230878351
 20
98.25448428340001
 10
121.9576064320351
 20
98.25594630030002
 10
121.9383473022351
 20
98.257222804
 10
121.918706244835
 20
98.25830978070001
  0
LWPOLYLINE
  5
156E
330
22B
100
AcDbEntity
  8
0
  6
Continuous
 62
     7
100
AcDbPolyline
 90
        5
 70
     0
 43
0.0
 10
118.691977855335
 20
98.26080343610001
 10
118.671382882035
 20
98.26070314870001
 10
118.6508404235351
 20
98.26040236250001
 10
118.6304291549351
 20
98.25990207540002
 10
118.6102104862351
 20
98.25920380280001
  0
LWPOLYLINE
  5
156F
330
22B
100
AcDbEntity
  8
0
  6
Continuous
 62
     7
100
AcDbPolyline
 90
       35
 70
     0
 43
0.0
 10
121.816977855335
 20
98.1321085683
 10
121.838605682335
 20
98.13221562610001
 10
121.860176439435
 20
98.13253668080001
 10
121.8816342795351
 20
98.13307141360001
 10
121.9029241931351
 20
98.133819354
 10
121.9239920946351
 20
98.13477993360001
 10
121.9447857153351
 20
98.1359526031
 10
121.9652558160351
 20
98.13733704379998
 10
121.985355868035
 20
98.13893335899999
 10
122.005043240835
 20
98.14074243450001
 10
122.024279466635
 20
98.14276635459998
 10
122.0430332950351
 20
98.1450093041
 10
122.061282903635
 20
98.1474788156
 10
122.0790178226351
 20
98.15018754340002
 10
122.096244767835
 20
98.15315658760001
 10
122.1129964524351
 20
98.15642133829999
 10
122.129347303935
 20
98.16004266410001
 10
122.1454426894351
 20
98.16412999530001
 10
122.161550435335
 20
98.16889180620002
 10
122.176721079235
 20
98.1742038772
 10
122.1892835657351
 20
98.17944193610001
 10
122.1998395814351
 20
98.18465763589999
 10
122.208801262835
 20
98.18988111290002
 10
122.2164933312351
 20
98.19514684259999
 10
122.223256599235
 20
98.20057167379999
 10
122.229221645135
 20
98.20617985250001
 10
122.2344299997351
 20
98.21193001430001
 10
122.2389986007351
 20
98.21788177870001
 10
122.242975929835
 20
98.2240588051
 10
122.2463687933351
 20
98.23044570330001
 10
122.249242496435
 20
98.23719431669999
 10
122.2514782748351
 20
98.24404611440002
 10
122.253138194835
 20
98.2512378912
 10
122.2541365378351
 20
98.25849137040002
 10
122.254477855335
 20
98.26592427360001
  0
LWPOLYLINE
  5
1570
330
22B
100
AcDbEntity
  8
0
  6
Continuous
 62
     7
100
AcDbPolyline
 90
       51
 70
     0
 43
0.0
 10
121.5669778553351
 20
98.15921925219999
 10
121.5806243929351
 20
98.15929366610001
 10
121.5942287351351
 20
98.15951686840001
 10
121.607724058935
 20
98.15988793
 10
121.6210593604351
 20
98.1604054375
 10
121.6341810216351
 20
98.1610673201
 10
121.6470374975351
 20
98.16187097549999
 10
121.6595779840351
 20
98.1628132285
 10
121.6717529973351
 20
98.163890361
 10
121.683514484835
 20
98.1650981217
 10
121.694816028235
 20
98.1664317439
 10
121.705613021935
 20
98.16788596409999
 10
121.7158628520351
 20
98.16945504280001
 10
121.725525064635
 20
98.171132787
 10
121.7345615254351
 20
98.1729125752
 10
121.742936569435
 20
98.17478738290001
 10
121.750617141935
 20
98.17674981060001
 10
121.757572929435
 20
98.17879211299999
 10
121.7637764788351
 20
98.1809062297
 10
121.7692033062351
 20
98.18308381660001
 10
121.7738319930351
 20
98.18531627929999
 10
121.777644270735
 20
98.18759480670001
 10
121.7806250931351
 20
98.18991040600002
 10
121.7827626956351
 20
98.1922539379
 10
121.7840486414351
 20
98.19461615320001
 10
121.7844778553351
 20
98.19698772850001
 10
121.7840486431351
 20
98.1993593039
 10
121.782762699035
 20
98.2017215191
 10
121.7806250982351
 20
98.2040650511
 10
121.7776442774351
 20
98.20638065049999
 10
121.7738320013351
 20
98.20865917799999
 10
121.769203316135
 20
98.21089164079999
 10
121.763776490335
 20
98.21306922780001
 10
121.757572942335
 20
98.2151833446
 10
121.7506171563351
 20
98.21722564719999
 10
121.7429365852351
 20
98.21918807510002
 10
121.7345615426351
 20
98.22106288290001
 10
121.725525083135
 20
98.22284267129999
 10
121.715862871635
 20
98.2245204157
 10
121.7056130427351
 20
98.22608949459999
 10
121.6948160500351
 20
98.227543715
 10
121.6835145076351
 20
98.2288773375
 10
121.6717530210351
 20
98.23008509840001
 10
121.659578008335
 20
98.23116223120001
 10
121.6470375229351
 20
98.23210448450002
 10
121.634181046535
 20
98.23290814020001
 10
121.6210593883351
 20
98.23357002299999
 10
121.607724082435
 20
98.23408753089999
 10
121.5942287641351
 20
98.23445859270002
 10
121.580624429735
 20
98.2346817952
 10
121.5669778553351
 20
98.2347562095
  0
LWPOLYLINE
  5
1571
330
22B
100
AcDbEntity
  8
0
  6
Continuous
 62
     7
100
AcDbPolyline
 90
       25
 70
     0
 43
0.0
 10
118.941977855335
 20
98.23430044209999
 10
118.9288285700351
 20
98.23422965709999
 10
118.9157370475351
 20
98.2340177116
 10
118.9027612531351
 20
98.23366584940002
 10
118.8899589096351
 20
98.23317617030001
 10
118.877387381935
 20
98.2325516608
 10
118.8651035729351
 20
98.23179624209998
 10
118.853163830435
 20
98.23091483989999
 10
118.8416238671351
 20
98.229913483
 10
118.8305386893351
 20
98.22879943970001
 10
118.8199625282351
 20
98.2275814059
 10
118.8099487533351
 20
98.226269761
 10
118.8005496280351
 20
98.22487689409999
 10
118.791815794435
 20
98.22341760040002
 10
118.783796927335
 20
98.2219098448
 10
118.776539632535
 20
98.2203752761
 10
118.770086208335
 20
98.21884003800001
 10
118.764471610835
 20
98.2173353375
 10
118.7597192656351
 20
98.21589762510001
 10
118.7558383732351
 20
98.21456891990001
 10
118.7528135643351
 20
98.2133936555
 10
118.7506042881351
 20
98.21241680079999
 10
118.7491409473351
 20
98.2116786785
 10
118.7483313902351
 20
98.21121219049999
 10
118.7482023347351
 20
98.21113029560001
  0
LWPOLYLINE
  5
1572
330
22B
100
AcDbEntity
  8
0
  6
Continuous
 62
     7
100
AcDbPolyline
 90
       51
 70
     0
 43
0.0
 10
118.941977855335
 20
98.2347562095
 10
118.9283312808351
 20
98.2346817952
 10
118.9147269464351
 20
98.23445859270002
 10
118.9012316281351
 20
98.23408753089999
 10
118.8878963222351
 20
98.23357002299999
 10
118.8747746641351
 20
98.23290814020001
 10
118.8619181877351
 20
98.23210448450002
 10
118.8493777023351
 20
98.23116223120001
 10
118.8372026896351
 20
98.23008509840001
 10
118.825441202935
 20
98.2288773375
 10
118.8141396605351
 20
98.227543715
 10
118.8033426679351
 20
98.22608949459999
 10
118.7930928389351
 20
98.2245204158
 10
118.7834306275351
 20
98.22284267129999
 10
118.774394167935
 20
98.22106288290001
 10
118.7660191253351
 20
98.21918807510002
 10
118.758338554235
 20
98.21722564719999
 10
118.751382768235
 20
98.2151833446
 10
118.7451792202351
 20
98.21306922780001
 10
118.7397523944351
 20
98.21089164079999
 10
118.7351237092351
 20
98.20865917799999
 10
118.7313114331351
 20
98.20638065049999
 10
118.728330612335
 20
98.2040650511
 10
118.726193011635
 20
98.2017215191
 10
118.7249070674351
 20
98.1993593039
 10
118.724477855335
 20
98.19698772850001
 10
118.724907069135
 20
98.19461615320001
 10
118.726193014935
 20
98.192253938
 10
118.7283306174351
 20
98.18991040600002
 10
118.7313114398351
 20
98.18759480670001
 10
118.7351237175351
 20
98.18531627929999
 10
118.7397524043351
 20
98.18308381660001
 10
118.7451792317351
 20
98.1809062297
 10
118.7513827811351
 20
98.17879211299999
 10
118.7583385686351
 20
98.17674981060001
 10
118.766019141135
 20
98.17478738290001
 10
118.7743941850351
 20
98.1729125752
 10
118.783430645835
 20
98.171132787
 10
118.7930928585351
 20
98.16945504280001
 10
118.803342688535
 20
98.16788596409999
 10
118.8141396822351
 20
98.1664317439
 10
118.825441225635
 20
98.1650981217
 10
118.8372027132351
 20
98.163890361
 10
118.849377726535
 20
98.1628132285
 10
118.8619182129351
 20
98.16187097549999
 10
118.8747746889351
 20
98.1610673201
 10
118.8878963501351
 20
98.1604054375
 10
118.901231651635
 20
98.15988793
 10
118.914726975335
 20
98.15951686840001
 10
118.9283313175351
 20
98.15929366610001
 10
118.941977855335
 20
98.15921925219999
  0
LWPOLYLINE
  5
1573
330
22B
100
AcDbEntity
  8
0
  6
Continuous
 62
     7
100
AcDbPolyline
 90
       21
 70
     0
 43
0.0
 10
121.5669778553351
 20
98.1939729301
 10
121.5792409424351
 20
98.1940426415
 10
121.5914515171351
 20
98.1942514772
 10
121.6035572919351
 20
98.19459854290002
 10
121.6155064279351
 20
98.1950823524
 10
121.627247756435
 20
98.19570083389999
 10
121.6387309998351
 20
98.19645133899999
 10
121.6499069856351
 20
98.1973306541
 10
121.660727856235
 20
98.19833501360001
 10
121.6711472748351
 20
98.19946011669999
 10
121.6811206239351
 20
98.2007011457
 10
121.6906051962351
 20
98.20205278620001
 10
121.699560377335
 20
98.2035092503
 10
121.707947819635
 20
98.20506430120001
 10
121.7157316070351
 20
98.20671127989999
 10
121.722878407935
 20
98.2084431338
 10
121.7293576187351
 20
98.2102524469
 10
121.7351414945351
 20
98.2121314713
 10
121.7402052678351
 20
98.21407216090001
 10
121.744527254635
 20
98.2160662052
 10
121.7459628230351
 20
98.21688798389999
  0
LINE
  5
1574
330
22B
100
AcDbEntity
  8
0
  6
Continuous
 62
     7
100
AcDbLine
 10
150.0158457895351
 20
100.1231048366
 30
0.0
 11
150.0568856345351
 21
100.1233692915
 31
0.0
  0
LWPOLYLINE
  5
1575
330
22B
100
AcDbEntity
  8
0
  6
Continuous
 62
     7
100
AcDbPolyline
 90
        5
 70
     0
 43
0.0
 10
93.36185478893508
 20
99.2529349622
 10
93.26517894003508
 20
99.2499683283
 10
93.16989263293507
 20
99.24114729460001
 10
93.07483542163508
 20
99.2263231094
 10
92.97889468233508
 20
99.2049803995
  0
LWPOLYLINE
  5
1576
330
22B
100
AcDbEntity
  8
0
  6
Continuous
 62
     7
100
AcDbPolyline
 90
       53
 70
     0
 43
0.0
 10
118.6102104862351
 20
98.25920380280001
 10
118.590249465735
 20
98.25830978070001
 10
118.5706084083351
 20
98.257222804
 10
118.5513492785351
 20
98.25594630030002
 10
118.5325326227351
 20
98.25448428340001
 10
118.514217663335
 20
98.25284135450001
 10
118.4964620233351
 20
98.25102268270001
 10
118.479321572135
 20
98.2490339905
 10
118.462850241635
 20
98.24688153530001
 10
118.4470998586351
 20
98.2445720898
 10
118.432119981635
 20
98.24211292059999
 10
118.417957744735
 20
98.23951176540001
 10
118.404657709035
 20
98.2367768089
 10
118.392261723235
 20
98.23391665649999
 10
118.3808087909351
 20
98.2309403075
 10
118.3703349487351
 20
98.2278571272
 10
118.3608731524351
 20
98.2246768167
 10
118.352453173635
 20
98.22140938270001
 10
118.345101505535
 20
98.21806510629999
 10
118.3388412801351
 20
98.2146545101
 10
118.3336921951351
 20
98.21118832559999
 10
118.329670452135
 20
98.2076774591
 10
118.3267887055351
 20
98.2041329575
 10
118.325056022635
 20
98.20056597350001
 10
118.3244778553351
 20
98.1969877306
 10
118.3250560227351
 20
98.19340948770001
 10
118.3267887058351
 20
98.1898425037
 10
118.3296704527351
 20
98.186298002
 10
118.3336921958351
 20
98.1827871355
 10
118.3388412810351
 20
98.17932095100001
 10
118.345101506535
 20
98.1759103549
 10
118.352453174835
 20
98.1725660785
 10
118.3608731538351
 20
98.16929864450001
 10
118.3703349502351
 20
98.16611833399999
 10
118.3808087926351
 20
98.16303515370002
 10
118.392261725035
 20
98.1600588048
 10
118.404657711035
 20
98.1571986524
 10
118.417957746835
 20
98.1544636959
 10
118.4321199839351
 20
98.1518625408
 10
118.447099861035
 20
98.14940337160001
 10
118.462850244135
 20
98.14709392610001
 10
118.4793215747351
 20
98.14494147090002
 10
118.4964620260351
 20
98.14295277870002
 10
118.5142176661351
 20
98.14113410690001
 10
118.5325326256351
 20
98.139491178
 10
118.5513492814351
 20
98.13802916110001
 10
118.570608411435
 20
98.1367526576
 10
118.5902494687351
 20
98.1356656808
 10
118.6102104895351
 20
98.1347716588
 10
118.630429157735
 20
98.13407338620002
 10
118.6508404268351
 20
98.13357309910001
 10
118.6713828864351
 20
98.133272313
 10
118.691977855335
 20
98.1331720256
  0
LWPOLYLINE
  5
1577
330
22B
100
AcDbEntity
  8
0
  6
Continuous
 62
     7
100
AcDbPolyline
 90
       19
 70
     0
 43
0.0
 10
97.92208605243509
 20
96.17713563770001
 10
97.84132296803509
 20
96.16940389860001
 10
97.76113545563509
 20
96.15470885950001
 10
97.68209498193508
 20
96.13315524610001
 10
97.60476485893509
 20
96.10489666980001
 10
97.52969616213508
 20
96.07013450830001
 10
97.45742390753507
 20
96.0291165107
 10
97.38846314743508
 20
95.98213499539999
 10
97.32330534253508
 20
95.92952478429999
 10
97.26241485133508
 20
95.8716608131
 10
97.20622561993508
 20
95.80895545910001
 10
97.15513809083509
 20
95.74185560309999
 10
97.10951634803508
 20
95.67083944370001
 10
97.06968552263509
 20
95.5964130895
 10
97.03592947243507
 20
95.51910694440001
 10
97.00848877613509
 20
95.4394719707
 10
96.98755898293509
 20
95.3580756688
 10
96.97328925813508
 20
95.27549814030001
 10
96.96578129643508
 20
95.19232788389999
  0
LINE
  5
1578
330
22B
100
AcDbEntity
  8
0
  6
Continuous
 62
     7
100
AcDbLine
 10
91.21575617833508
 20
100.634324622
 30
0.0
 11
91.00476961333509
 21
100.6347629188
 31
0.0
  0
LINE
  5
1579
330
22B
100
AcDbEntity
  8
0
  6
Continuous
 62
     7
100
AcDbLine
 10
91.38371251533508
 20
100.6340286255
 30
0.0
 11
91.21575617833508
 21
100.634324622
 31
0.0
  0
LWPOLYLINE
  5
157A
330
22B
100
AcDbEntity
  8
0
  6
Continuous
 62
     7
100
AcDbPolyline
 90
        3
 70
     0
 43
0.0
 10
91.63729523363507
 20
100.6336836324
 10
91.57770073833509
 20
100.6337526018
 10
91.38371251533508
 20
100.6340286255
  0
LINE
  5
157B
330
22B
100
AcDbEntity
  8
0
  6
Continuous
 62
     7
100
AcDbLine
 10
91.75681596513507
 20
100.6335705503
 30
0.0
 11
91.63729523363507
 21
100.6336836324
 31
0.0
  0
LINE
  5
157C
330
22B
100
AcDbEntity
  8
0
  6
Continuous
 62
     7
100
AcDbLine
 10
91.87727277293509
 20
100.6334950137
 30
0.0
 11
91.75681596513507
 21
100.6335705503
 31
0.0
  0
LINE
  5
157D
330
22B
100
AcDbEntity
  8
0
  6
Continuous
 62
     7
100
AcDbLine
 10
92.00658458053508
 20
100.6334648105
 30
0.0
 11
91.87727277293509
 21
100.6334950137
 31
0.0
  0
LINE
  5
157E
330
22B
100
AcDbEntity
  8
0
  6
Continuous
 62
     7
100
AcDbLine
 10
149.504450566035
 20
100.6758043606
 30
0.0
 11
91.00450514393507
 21
100.6758043606
 31
0.0
  0
LINE
  5
157F
330
22B
100
AcDbEntity
  8
0
  6
Continuous
 62
     7
100
AcDbLine
 10
149.5044569224351
 20
100.8009759038
 30
0.0
 11
91.00449878723507
 21
100.8009759038
 31
0.0
  0
LINE
  5
1580
330
22B
100
AcDbEntity
  8
0
  6
Continuous
 62
     7
100
AcDbLine
 10
148.5851714065351
 20
100.6334771652
 30
0.0
 11
92.00658458053508
 21
100.6334648105
 31
0.0
  0
LINE
  5
1581
330
22B
100
AcDbEntity
  8
0
  6
Continuous
 62
     7
100
AcDbLine
 10
148.7196638133351
 20
100.6335457747
 30
0.0
 11
148.5851714065351
 21
100.6334771652
 31
0.0
  0
LINE
  5
1582
330
22B
100
AcDbEntity
  8
0
  6
Continuous
 62
     7
100
AcDbLine
 10
148.8411823060351
 20
100.6336514805
 30
0.0
 11
148.7196638133351
 21
100.6335457747
 31
0.0
  0
LINE
  5
1583
330
22B
100
AcDbEntity
  8
0
  6
Continuous
 62
     7
100
AcDbLine
 10
149.0229668160351
 20
100.6338744042
 30
0.0
 11
148.8411823060351
 21
100.6336514805
 31
0.0
  0
LINE
  5
1584
330
22B
100
AcDbEntity
  8
0
  6
Continuous
 62
     7
100
AcDbLine
 10
149.2258810724351
 20
100.6342014684
 30
0.0
 11
149.0229668160351
 21
100.6338744042
 31
0.0
  0
LWPOLYLINE
  5
1585
330
22B
100
AcDbEntity
  8
0
  6
Continuous
 62
     7
100
AcDbPolyline
 90
        3
 70
     0
 43
0.0
 10
149.5041861157351
 20
100.6347644927
 10
149.400543192835
 20
100.6345403786
 10
149.2258810724351
 20
100.6342014684
  0
LWPOLYLINE
  5
1586
330
22B
100
AcDbEntity
  8
0
  6
Continuous
 62
     7
100
AcDbPolyline
 90
       16
 70
     0
 43
0.0
 10
91.00476961273509
 20
100.634762957
 10
90.95108896953508
 20
100.6320267363
 10
90.89829805153508
 20
100.6237283295
 10
90.84664618383508
 20
100.609953918
 10
90.79672500993508
 20
100.5908601104
 10
90.74906557913507
 20
100.5666504455
 10
90.70418858003508
 20
100.5375863855
 10
90.66259827073507
 20
100.5039934104
 10
90.62474235323508
 20
100.4662326971
 10
90.59103860353507
 20
100.4247186565
 10
90.56187282073507
 20
100.3799321114
 10
90.53754944063509
 20
100.3323502469
 10
90.51833664393509
 20
100.2825069077
 10
90.50437011093508
 20
100.2306280844
 10
90.49589480343508
 20
100.1772297775
 10
90.49311233313508
 20
100.1231048219
  0
LWPOLYLINE
  5
1587
330
22B
100
AcDbEntity
  8
0
  6
Continuous
 62
     7
100
AcDbPolyline
 90
        4
 70
     0
 43
0.0
 10
147.544173642335
 20
99.21459438700001
 10
147.4368762885351
 20
99.2354395815
 10
147.3248548742351
 20
99.24848642569999
 10
147.2100565901351
 20
99.2529349622
  0
LWPOLYLINE
  5
1588
330
22B
100
AcDbEntity
  8
0
  6
Continuous
 62
     7
100
AcDbPolyline
 90
        4
 70
     0
 43
0.0
 10
97.00543624793509
 20
76.39881687199999
 10
97.00751685553509
 20
79.25778819299999
 10
97.00891984123508
 20
82.3462658617
 10
97.00945690063509
 20
85.77964658129999
  0
LWPOLYLINE
  5
1589
330
22B
100
AcDbEntity
  8
0
  6
Continuous
 62
     7
100
AcDbPolyline
 90
        4
 70
     0
 43
0.0
 10
97.00945690063509
 20
85.77964658129999
 10
97.00901044283508
 20
88.91017553899999
 10
97.00772336033509
 20
91.94513935819999
 10
97.00544304403507
 20
95.16046968579999
  0
LWPOLYLINE
  5
158A
330
22B
100
AcDbEntity
  8
0
  6
Continuous
 62
     7
100
AcDbPolyline
 90
       16
 70
     0
 43
0.0
 10
92.97889468233508
 20
99.2049803995
 10
92.87715778843509
 20
99.17727833469999
 10
92.77901429653509
 20
99.1422087259
 10
92.68337917133507
 20
99.0995861877
 10
92.59114929403507
 20
99.04977551889999
 10
92.50314253283507
 20
98.99322538020001
 10
92.42000175773508
 20
98.93039995370001
 10
92.34219513683509
 20
98.86172164530002
 10
92.27010844253507
 20
98.78759657919999
 10
92.20412340163507
 20
98.70847566889999
 10
92.14464270703507
 20
98.62491722440001
 10
92.09197822383508
 20
98.537465904
 10
92.04659759583508
 20
98.44712282579999
 10
92.00737689263508
 20
98.3510711074
 10
91.97549331463507
 20
98.2505663292
 10
91.95234386633508
 20
98.1495493475
  0
LWPOLYLINE
  5
158B
330
22B
100
AcDbEntity
  8
0
  6
Continuous
 62
     7
100
AcDbPolyline
 90
       19
 70
     0
 43
0.0
 10
96.96578129643508
 20
76.36696527859999
 10
96.97328925833508
 20
76.28379502119999
 10
96.98755898343508
 20
76.2012174916
 10
97.00848877473509
 20
76.1198211967
 10
97.03592948013508
 20
76.04018619850001
 10
97.06968552283507
 20
75.9628800726
 10
97.10951634843508
 20
75.88845371819999
 10
97.15513809143509
 20
75.81743755859999
 10
97.20622562123509
 20
75.7503377019
 10
97.26241485363509
 20
75.68763234720001
 10
97.32330534613508
 20
75.62976837509999
 10
97.38846315163508
 20
75.577158164
 10
97.45742391103508
 20
75.53017664959999
 10
97.52969616513508
 20
75.4891586527
 10
97.60476486123508
 20
75.4543964918
 10
97.68209498383509
 20
75.4261379159
 10
97.76113545693508
 20
75.40458430280001
 10
97.84132296873508
 20
75.3898892639
 10
97.92208605243509
 20
75.38215752479999
  0
LINE
  5
158E
330
22B
100
AcDbEntity
  8
0
  6
Continuous
 62
     7
100
AcDbLine
 10
91.92094036113507
 20
97.85303450389999
 30
0.0
 11
91.92094036113507
 21
73.7062586587
 31
0.0
  0
LWPOLYLINE
  5
158F
330
22B
100
AcDbEntity
  8
0
  6
Continuous
 62
     7
100
AcDbPolyline
 90
        6
 70
     0
 43
0.0
 10
91.92094036113507
 20
73.7062586587
 10
91.92437536693509
 20
73.6073135047
 10
91.93454367843507
 20
73.5101024522
 10
91.95150448483508
 20
73.4136679158
 10
91.97522809463508
 20
73.3186431876
 10
92.00540404893507
 20
73.2261736396
  0
LWPOLYLINE
  5
1590
330
22B
100
AcDbEntity
  8
0
  6
Continuous
 62
     7
100
AcDbPolyline
 90
        3
 70
     0
 43
0.0
 10
90.49264180413507
 20
69.5296202113
 10
90.49240921073508
 20
69.3970185183
 10
90.49213995173507
 20
69.2483965813
  0
LWPOLYLINE
  5
1591
330
22B
100
AcDbEntity
  8
0
  6
Continuous
 62
     7
100
AcDbPolyline
 90
        3
 70
     0
 43
0.0
 10
90.49317979013508
 20
69.855857943
 10
90.49302045293508
 20
69.75586247249999
 10
90.49264180413507
 20
69.5296202113
  0
LWPOLYLINE
  5
1592
330
22B
100
AcDbEntity
  8
0
  6
Continuous
 62
     7
100
AcDbPolyline
 90
        3
 70
     0
 43
0.0
 10
90.49359227093509
 20
70.13356512919999
 10
90.49346422923509
 20
70.04384526239999
 10
90.49317979013508
 20
69.855857943
  0
LINE
  5
1593
330
22B
100
AcDbEntity
  8
0
  6
Continuous
 62
     7
100
AcDbLine
 10
90.49381824823507
 20
70.3027867185
 30
0.0
 11
90.49359227093509
 21
70.13356512919999
 31
0.0
  0
LWPOLYLINE
  5
1594
330
22B
100
AcDbEntity
  8
0
  6
Continuous
 62
     7
100
AcDbPolyline
 90
        3
 70
     0
 43
0.0
 10
90.49408521973509
 20
70.531904888
 10
90.49400597643508
 20
70.45912497429999
 10
90.49381824823507
 20
70.3027867185
  0
LINE
  5
1595
330
22B
100
AcDbEntity
  8
0
  6
Continuous
 62
     7
100
AcDbLine
 10
90.49427723103509
 20
70.74132483300001
 30
0.0
 11
90.49408521973509
 21
70.531904888
 31
0.0
  0
LINE
  5
1596
330
22B
100
AcDbEntity
  8
0
  6
Continuous
 62
     7
100
AcDbLine
 10
90.49439068543508
 20
70.93888448920001
 30
0.0
 11
90.49427723103509
 21
70.74132483300001
 31
0.0
  0
LINE
  5
1597
330
22B
100
AcDbEntity
  8
0
  6
Continuous
 62
     7
100
AcDbLine
 10
90.49440962613507
 20
71.0413485641
 30
0.0
 11
90.49439068543508
 21
70.93888448920001
 31
0.0
  0
LINE
  5
1598
330
22B
100
AcDbEntity
  8
0
  6
Continuous
 62
     7
100
AcDbLine
 10
90.45207007603508
 20
100.123369294
 30
0.0
 11
90.45207007603508
 21
69.2483965813
 31
0.0
  0
LINE
  5
1599
330
22B
100
AcDbEntity
  8
0
  6
Continuous
 62
     7
100
AcDbLine
 10
90.32689853273508
 20
100.1233756506
 30
0.0
 11
90.32689853273508
 21
69.2483965813
 31
0.0
  0
LINE
  5
159A
330
22B
100
AcDbEntity
  8
0
  6
Continuous
 62
     7
100
AcDbLine
 10
90.49439716053509
 20
99.20921377010001
 30
0.0
 11
90.49440962613507
 21
71.0413485641
 31
0.0
  0
LINE
  5
159B
330
22B
100
AcDbEntity
  8
0
  6
Continuous
 62
     7
100
AcDbLine
 10
90.49432785343508
 20
99.34404760520001
 30
0.0
 11
90.49439716053509
 21
99.20921377010001
 31
0.0
  0
LINE
  5
159C
330
22B
100
AcDbEntity
  8
0
  6
Continuous
 62
     7
100
AcDbLine
 10
90.49422106223508
 20
99.46579332909999
 30
0.0
 11
90.49432785343508
 21
99.34404760520001
 31
0.0
  0
LINE
  5
159D
330
22B
100
AcDbEntity
  8
0
  6
Continuous
 62
     7
100
AcDbLine
 10
90.49399595803508
 20
99.64779364340001
 30
0.0
 11
90.49422106223508
 21
99.46579332909999
 31
0.0
  0
LINE
  5
159E
330
22B
100
AcDbEntity
  8
0
  6
Continuous
 62
     7
100
AcDbLine
 10
90.49366920473508
 20
99.84905115930001
 30
0.0
 11
90.49399595803508
 21
99.64779364340001
 31
0.0
  0
LWPOLYLINE
  5
159F
330
22B
100
AcDbEntity
  8
0
  6
Continuous
 62
     7
100
AcDbPolyline
 90
        3
 70
     0
 43
0.0
 10
90.49311237193506
 20
100.1231048213
 10
90.49333361183508
 20
100.0211337284
 10
90.49366920473508
 20
99.84905115930001
  0
LINE
  5
15A0
330
22B
100
AcDbEntity
  8
0
  6
Continuous
 62
     7
100
AcDbLine
 10
91.00476961333509
 20
100.6347629188
 30
0.0
 11
91.00450514393507
 21
100.6758043606
 31
0.0
  0
LWPOLYLINE
  5
15A1
330
22B
100
AcDbEntity
  8
0
  6
Continuous
 62
     7
100
AcDbPolyline
 90
       15
 70
     0
 43
0.0
 10
92.00540409933507
 20
73.22617372519999
 10
92.03118389473507
 20
73.14770935040001
 10
92.06773413453507
 20
73.0621109792
 10
92.11416949923508
 20
72.97433000959999
 10
92.16951017523509
 20
72.88756612430001
 10
92.23307289623507
 20
72.80361263439999
 10
92.30418348693508
 20
72.7237963117
 10
92.38237248733508
 20
72.6489349392
 10
92.46721744983508
 20
72.57967984939999
 10
92.55814503643508
 20
72.5167047459
 10
92.65460901543509
 20
72.4605538826
 10
92.75601502903507
 20
72.41171432600001
 10
92.86341032583507
 20
72.37003535550001
 10
92.97518379483507
 20
72.3365634914
 10
93.08850545203508
 20
72.3121547499
  0
LWPOLYLINE
  5
15A2
330
22B
100
AcDbEntity
  8
0
  6
Continuous
 62
     7
100
AcDbPolyline
 90
        4
 70
     0
 43
0.0
 10
91.95234386633508
 20
98.1495493475
 10
91.93487775083509
 20
98.05156353420001
 10
91.92442566083508
 20
97.95269897909999
 10
91.92094036113507
 20
97.85303450389999
  0
CIRCLE
  5
16D4
330
22B
100
AcDbEntity
  8
0
  6
Continuous
 62
     7
100
AcDbCircle
 10
139.4332550120351
 20
85.77964658129999
 30
0.0
 40
1.448223304699999
  0
ARC
  5
16D5
330
22B
100
AcDbEntity
  8
0
  6
Continuous
 62
     7
100
AcDbCircle
 10
149.504477855335
 20
100.1233965813
 30
0.0
 40
0.6775793225
100
AcDbArc
 50
359.9975052798001
 51
90.00249467050014
  0
ARC
  5
16D6
330
22B
100
AcDbEntity
  8
0
  6
Continuous
 62
     7
100
AcDbCircle
 10
91.00447785533509
 20
100.1233965813
 30
0.0
 40
0.6775793225
100
AcDbArc
 50
89.99750540850056
 51
180.0024944646
  0
ARC
  5
16D7
330
22B
100
AcDbEntity
  8
0
  6
Continuous
 62
     7
100
AcDbCircle
 10
149.504477855335
 20
100.1233965813
 30
0.0
 40
0.5524077793
100
AcDbArc
 50
359.9967300679
 51
90.00326986829987
  0
ARC
  5
16D8
330
22B
100
AcDbEntity
  8
0
  6
Continuous
 62
     7
100
AcDbCircle
 10
91.00447785533509
 20
100.1233965813
 30
0.0
 40
0.5524077793
100
AcDbArc
 50
89.9967301927
 51
180.0032696679
  0
ELLIPSE
  5
16F0
330
22B
100
AcDbEntity
  8
0
  6
Continuous
 62
     7
100
AcDbEllipse
 10
150.4324002643351
 20
69.2483965813
 30
0.0
 11
-0.2503430865
 21
0.0
 31
0.0
210
0.0
220
0.0
230
-1.0
 40
0.9986295348
 41
-0.7802832719000001
 42
0.0
  0
ELLIPSE
  5
16F1
330
22B
100
AcDbEntity
  8
0
  6
Continuous
 62
     7
100
AcDbEllipse
 10
90.07655544623508
 20
69.2483965813
 30
0.0
 11
-0.2503430865
 21
0.0
 31
0.0
210
0.0
220
0.0
230
-1.0
 40
0.9986295348
 41
-3.1415926536
 42
-2.361309381699999
  0
ELLIPSE
  5
16F2
330
22B
100
AcDbEntity
  8
0
  6
Continuous
 62
     7
100
AcDbEllipse
 10
150.4324002643351
 20
69.2483965813
 30
0.0
 11
-0.3755146297
 21
0.0
 31
0.0
210
0.0
220
0.0
230
-1.0
 40
0.9986295348
 41
-1.077184634199999
 42
0.0
  0
ELLIPSE
  5
16F3
330
22B
100
AcDbEntity
  8
0
  6
Continuous
 62
     7
100
AcDbEllipse
 10
90.07655544623508
 20
69.2483965813
 30
0.0
 11
-0.3755146297
 21
0.0
 31
0.0
210
0.0
220
0.0
230
-1.0
 40
0.9986295348
 41
-3.1415926536
 42
-2.0644080194
  0
ENDSEC
  0
SECTION
  2
OBJECTS
  0
DICTIONARY
  5
C
330
0
100
AcDbDictionary
281
     1
  3
ACAD_COLOR
350
172B
  3
ACAD_GROUP
350
D
  3
ACAD_LAYOUT
350
1A
  3
ACAD_MATERIAL
350
16FE
  3
ACAD_MLEADERSTYLE
350
1750
  3
ACAD_MLINESTYLE
350
17
  3
ACAD_PLOTSETTINGS
350
19
  3
ACAD_PLOTSTYLENAME
350
E
  3
ACAD_SCALELIST
350
172E
  3
ACAD_TABLESTYLE
350
172C
  3
ACAD_VISUALSTYLE
350
1717
  3
ACDB_RECOMPOSE_DATA
350
1754
  3
AcDbVariableDictionary
350
1786
  0
DICTIONARY
  5
1755
330
8
100
AcDbDictionary
280
     1
281
     1
  0
DICTIONARY
  5
1795
330
10
100
AcDbDictionary
280
     1
281
     1
  3
ADSK_XREC_LAYER_RECONCILED
360
1796
  0
DICTIONARY
  5
1797
330
1FA
100
AcDbDictionary
280
     1
281
     1
  3
ADSK_XREC_LAYER_RECONCILED
360
1798
  0
DICTIONARY
  5
1799
330
1FB
100
AcDbDictionary
280
     1
281
     1
  3
ADSK_XREC_LAYER_RECONCILED
360
179A
  0
DICTIONARY
  5
179B
330
1FC
100
AcDbDictionary
280
     1
281
     1
  3
ADSK_XREC_LAYER_RECONCILED
360
179C
  0
DICTIONARY
  5
179D
330
1FD
100
AcDbDictionary
280
     1
281
     1
  3
ADSK_XREC_LAYER_RECONCILED
360
179E
  0
DICTIONARY
  5
179F
330
1FE
100
AcDbDictionary
280
     1
281
     1
  3
ADSK_XREC_LAYER_RECONCILED
360
17A0
  0
DICTIONARY
  5
17A1
330
1FF
100
AcDbDictionary
280
     1
281
     1
  3
ADSK_XREC_LAYER_RECONCILED
360
17A2
  0
DICTIONARY
  5
17A3
330
200
100
AcDbDictionary
280
     1
281
     1
  3
ADSK_XREC_LAYER_RECONCILED
360
17A4
  0
DICTIONARY
  5
17A5
330
201
100
AcDbDictionary
280
     1
281
     1
  3
ADSK_XREC_LAYER_RECONCILED
360
17A6
  0
DICTIONARY
  5
17A7
330
202
100
AcDbDictionary
280
     1
281
     1
  3
ADSK_XREC_LAYER_RECONCILED
360
17A8
  0
DICTIONARY
  5
17A9
330
203
100
AcDbDictionary
280
     1
281
     1
  3
ADSK_XREC_LAYER_RECONCILED
360
17AA
  0
DICTIONARY
  5
17AB
330
204
100
AcDbDictionary
280
     1
281
     1
  3
ADSK_XREC_LAYER_RECONCILED
360
17AC
  0
DICTIONARY
  5
17AD
330
205
100
AcDbDictionary
280
     1
281
     1
  3
ADSK_XREC_LAYER_RECONCILED
360
17AE
  0
DICTIONARY
  5
17AF
330
206
100
AcDbDictionary
280
     1
281
     1
  3
ADSK_XREC_LAYER_RECONCILED
360
17B0
  0
DICTIONARY
  5
17B1
330
207
100
AcDbDictionary
280
     1
281
     1
  3
ADSK_XREC_LAYER_RECONCILED
360
17B2
  0
DICTIONARY
  5
17B3
330
208
100
AcDbDictionary
280
     1
281
     1
  3
ADSK_XREC_LAYER_RECONCILED
360
17B4
  0
DICTIONARY
  5
17B5
330
209
100
AcDbDictionary
280
     1
281
     1
  3
ADSK_XREC_LAYER_RECONCILED
360
17B6
  0
DICTIONARY
  5
17B7
330
20A
100
AcDbDictionary
280
     1
281
     1
  3
ADSK_XREC_LAYER_RECONCILED
360
17B8
  0
DICTIONARY
  5
17B9
330
20B
100
AcDbDictionary
280
     1
281
     1
  3
ADSK_XREC_LAYER_RECONCILED
360
17BA
  0
DICTIONARY
  5
17BB
330
20C
100
AcDbDictionary
280
     1
281
     1
  3
ADSK_XREC_LAYER_RECONCILED
360
17BC
  0
DICTIONARY
  5
17BD
330
20D
100
AcDbDictionary
280
     1
281
     1
  3
ADSK_XREC_LAYER_RECONCILED
360
17BE
  0
DICTIONARY
  5
17BF
330
20E
100
AcDbDictionary
280
     1
281
     1
  3
ADSK_XREC_LAYER_RECONCILED
360
17C0
  0
DICTIONARY
  5
17C1
330
20F
100
AcDbDictionary
280
     1
281
     1
  3
ADSK_XREC_LAYER_RECONCILED
360
17C2
  0
DICTIONARY
  5
17C3
330
210
100
AcDbDictionary
280
     1
281
     1
  3
ADSK_XREC_LAYER_RECONCILED
360
17C4
  0
DICTIONARY
  5
17C5
330
211
100
AcDbDictionary
280
     1
281
     1
  3
ADSK_XREC_LAYER_RECONCILED
360
17C6
  0
DICTIONARY
  5
17C7
330
212
100
AcDbDictionary
280
     1
281
     1
  3
ADSK_XREC_LAYER_RECONCILED
360
17C8
  0
DICTIONARY
  5
17C9
330
213
100
AcDbDictionary
280
     1
281
     1
  3
ADSK_XREC_LAYER_RECONCILED
360
17CA
  0
DICTIONARY
  5
17CB
330
214
100
AcDbDictionary
280
     1
281
     1
  3
ADSK_XREC_LAYER_RECONCILED
360
17CC
  0
DICTIONARY
  5
17CD
330
215
100
AcDbDictionary
280
     1
281
     1
  3
ADSK_XREC_LAYER_RECONCILED
360
17CE
  0
DICTIONARY
  5
17CF
330
216
100
AcDbDictionary
280
     1
281
     1
  3
ADSK_XREC_LAYER_RECONCILED
360
17D0
  0
DICTIONARY
  5
17D1
330
217
100
AcDbDictionary
280
     1
281
     1
  3
ADSK_XREC_LAYER_RECONCILED
360
17D2
  0
DICTIONARY
  5
17D3
330
218
100
AcDbDictionary
280
     1
281
     1
  3
ADSK_XREC_LAYER_RECONCILED
360
17D4
  0
DICTIONARY
  5
17D5
330
219
100
AcDbDictionary
280
     1
281
     1
  3
ADSK_XREC_LAYER_RECONCILED
360
17D6
  0
DICTIONARY
  5
17D7
330
21A
100
AcDbDictionary
280
     1
281
     1
  3
ADSK_XREC_LAYER_RECONCILED
360
17D8
  0
DICTIONARY
  5
17D9
330
21B
100
AcDbDictionary
280
     1
281
     1
  3
ADSK_XREC_LAYER_RECONCILED
360
17DA
  0
DICTIONARY
  5
17DB
330
21C
100
AcDbDictionary
280
     1
281
     1
  3
ADSK_XREC_LAYER_RECONCILED
360
17DC
  0
DICTIONARY
  5
17DD
330
21D
100
AcDbDictionary
280
     1
281
     1
  3
ADSK_XREC_LAYER_RECONCILED
360
17DE
  0
DICTIONARY
  5
17DF
330
21E
100
AcDbDictionary
280
     1
281
     1
  3
ADSK_XREC_LAYER_RECONCILED
360
17E0
  0
DICTIONARY
  5
17E1
330
21F
100
AcDbDictionary
280
     1
281
     1
  3
ADSK_XREC_LAYER_RECONCILED
360
17E2
  0
DICTIONARY
  5
17E3
330
220
100
AcDbDictionary
280
     1
281
     1
  3
ADSK_XREC_LAYER_RECONCILED
360
17E4
  0
DICTIONARY
  5
17E5
330
221
100
AcDbDictionary
280
     1
281
     1
  3
ADSK_XREC_LAYER_RECONCILED
360
17E6
  0
DICTIONARY
  5
17E7
330
222
100
AcDbDictionary
280
     1
281
     1
  3
ADSK_XREC_LAYER_RECONCILED
360
17E8
  0
DICTIONARY
  5
172B
102
{ACAD_REACTORS
330
C
102
}
330
C
100
AcDbDictionary
281
     1
  0
DICTIONARY
  5
D
102
{ACAD_REACTORS
330
C
102
}
330
C
100
AcDbDictionary
281
     1
  0
DICTIONARY
  5
1A
102
{ACAD_REACTORS
330
C
102
}
330
C
100
AcDbDictionary
281
     1
  3
Layout1
350
16FB
  3
Model
350
16FA
  0
DICTIONARY
  5
16FE
102
{ACAD_REACTORS
330
C
102
}
330
C
100
AcDbDictionary
281
     1
  3
ByBlock
350
1707
  3
ByLayer
350
16FF
  3
Global
350
170F
  0
DICTIONARY
  5
1750
102
{ACAD_REACTORS
330
C
102
}
330
C
100
AcDbDictionary
281
     1
  3
Standard
350
1751
  0
DICTIONARY
  5
17
102
{ACAD_REACTORS
330
C
102
}
330
C
100
AcDbDictionary
281
     1
  3
Standard
350
18
  0
DICTIONARY
  5
19
102
{ACAD_REACTORS
330
C
102
}
330
C
100
AcDbDictionary
281
     1
  0
ACDBDICTIONARYWDFLT
  5
E
102
{ACAD_REACTORS
330
C
102
}
330
C
100
AcDbDictionary
281
     1
  3
Normal
350
F
100
AcDbDictionaryWithDefault
340
F
  0
DICTIONARY
  5
172E
102
{ACAD_REACTORS
330
C
102
}
330
C
100
AcDbDictionary
281
     1
  3
A0
350
172F
  3
A1
350
1730
  3
A2
350
1731
  3
A3
350
1732
  3
A4
350
1733
  3
A5
350
1734
  3
A6
350
1735
  3
A7
350
1736
  3
A8
350
1737
  3
A9
350
1738
  3
B0
350
1739
  3
B1
350
173A
  3
B2
350
173B
  3
B3
350
173C
  3
B4
350
173D
  3
B5
350
173E
  3
B6
350
173F
  3
B7
350
1740
  3
B8
350
1741
  3
B9
350
1742
  3
C0
350
1743
  3
C1
350
1744
  3
C2
350
1745
  3
C3
350
1746
  3
C4
350
1747
  3
C5
350
1748
  3
C6
350
1749
  3
C7
350
174A
  3
C8
350
174B
  3
C9
350
174C
  3
D0
350
174D
  3
D1
350
174E
  3
D2
350
174F
  0
DICTIONARY
  5
172C
102
{ACAD_REACTORS
330
C
102
}
330
C
100
AcDbDictionary
281
     1
  3
Standard
350
172D
  0
DICTIONARY
  5
1717
102
{ACAD_REACTORS
330
C
102
}
330
C
100
AcDbDictionary
281
     1
  3
2dWireframe
350
171D
  3
3D Hidden
350
171F
  3
3dWireframe
350
171E
  3
Basic
350
171C
  3
Brighten
350
1723
  3
ColorChange
350
1727
  3
Conceptual
350
1720
  3
Dim
350
1722
  3
EdgeColorOff
350
172A
  3
Facepattern
350
1726
  3
Flat
350
1718
  3
FlatWithEdges
350
1719
  3
Gouraud
350
171A
  3
GouraudWithEdges
350
171B
  3
JitterOff
350
1728
  3
Linepattern
350
1725
  3
OverhangOff
350
1729
  3
Realistic
350
1721
  3
Thicken
350
1724
  0
XRECORD
  5
1754
102
{ACAD_REACTORS
330
C
102
}
330
C
100
AcDbXrecord
280
     1
 90
        1
330
172D
  0
DICTIONARY
  5
1786
102
{ACAD_REACTORS
330
C
102
}
330
C
100
AcDbDictionary
281
     1
  3
CANNOSCALE
350
1789
  3
CMLEADERSTYLE
350
1788
  3
CTABLESTYLE
350
1787
  3
DIMASSOC
350
178C
  3
INDEXCTL
350
178B
  3
LAYEREVAL
350
17F6
  3
LAYERNOTIFY
350
17F7
  3
LIGHTINGUNITS
350
17F5
  3
MSLTSCALE
350
17F4
  3
SORTENTS
350
178A
  3
XCLIPFRAME
350
178D
  0
XRECORD
  5
1796
102
{ACAD_REACTORS
330
1795
102
}
330
1795
100
AcDbXrecord
280
     1
290
     1
  0
XRECORD
  5
1798
102
{ACAD_REACTORS
330
1797
102
}
330
1797
100
AcDbXrecord
280
     1
290
     1
  0
XRECORD
  5
179A
102
{ACAD_REACTORS
330
1799
102
}
330
1799
100
AcDbXrecord
280
     1
290
     1
  0
XRECORD
  5
179C
102
{ACAD_REACTORS
330
179B
102
}
330
179B
100
AcDbXrecord
280
     1
290
     1
  0
XRECORD
  5
179E
102
{ACAD_REACTORS
330
179D
102
}
330
179D
100
AcDbXrecord
280
     1
290
     1
  0
XRECORD
  5
17A0
102
{ACAD_REACTORS
330
179F
102
}
330
179F
100
AcDbXrecord
280
     1
290
     1
  0
XRECORD
  5
17A2
102
{ACAD_REACTORS
330
17A1
102
}
330
17A1
100
AcDbXrecord
280
     1
290
     1
  0
XRECORD
  5
17A4
102
{ACAD_REACTORS
330
17A3
102
}
330
17A3
100
AcDbXrecord
280
     1
290
     1
  0
XRECORD
  5
17A6
102
{ACAD_REACTORS
330
17A5
102
}
330
17A5
100
AcDbXrecord
280
     1
290
     1
  0
XRECORD
  5
17A8
102
{ACAD_REACTORS
330
17A7
102
}
330
17A7
100
AcDbXrecord
280
     1
290
     1
  0
XRECORD
  5
17AA
102
{ACAD_REACTORS
330
17A9
102
}
330
17A9
100
AcDbXrecord
280
     1
290
     1
  0
XRECORD
  5
17AC
102
{ACAD_REACTORS
330
17AB
102
}
330
17AB
100
AcDbXrecord
280
     1
290
     1
  0
XRECORD
  5
17AE
102
{ACAD_REACTORS
330
17AD
102
}
330
17AD
100
AcDbXrecord
280
     1
290
     1
  0
XRECORD
  5
17B0
102
{ACAD_REACTORS
330
17AF
102
}
330
17AF
100
AcDbXrecord
280
     1
290
     1
  0
XRECORD
  5
17B2
102
{ACAD_REACTORS
330
17B1
102
}
330
17B1
100
AcDbXrecord
280
     1
290
     1
  0
XRECORD
  5
17B4
102
{ACAD_REACTORS
330
17B3
102
}
330
17B3
100
AcDbXrecord
280
     1
290
     1
  0
XRECORD
  5
17B6
102
{ACAD_REACTORS
330
17B5
102
}
330
17B5
100
AcDbXrecord
280
     1
290
     1
  0
XRECORD
  5
17B8
102
{ACAD_REACTORS
330
17B7
102
}
330
17B7
100
AcDbXrecord
280
     1
290
     1
  0
XRECORD
  5
17BA
102
{ACAD_REACTORS
330
17B9
102
}
330
17B9
100
AcDbXrecord
280
     1
290
     1
  0
XRECORD
  5
17BC
102
{ACAD_REACTORS
330
17BB
102
}
330
17BB
100
AcDbXrecord
280
     1
290
     1
  0
XRECORD
  5
17BE
102
{ACAD_REACTORS
330
17BD
102
}
330
17BD
100
AcDbXrecord
280
     1
290
     1
  0
XRECORD
  5
17C0
102
{ACAD_REACTORS
330
17BF
102
}
330
17BF
100
AcDbXrecord
280
     1
290
     1
  0
XRECORD
  5
17C2
102
{ACAD_REACTORS
330
17C1
102
}
330
17C1
100
AcDbXrecord
280
     1
290
     1
  0
XRECORD
  5
17C4
102
{ACAD_REACTORS
330
17C3
102
}
330
17C3
100
AcDbXrecord
280
     1
290
     1
  0
XRECORD
  5
17C6
102
{ACAD_REACTORS
330
17C5
102
}
330
17C5
100
AcDbXrecord
280
     1
290
     1
  0
XRECORD
  5
17C8
102
{ACAD_REACTORS
330
17C7
102
}
330
17C7
100
AcDbXrecord
280
     1
290
     1
  0
XRECORD
  5
17CA
102
{ACAD_REACTORS
330
17C9
102
}
330
17C9
100
AcDbXrecord
280
     1
290
     1
  0
XRECORD
  5
17CC
102
{ACAD_REACTORS
330
17CB
102
}
330
17CB
100
AcDbXrecord
280
     1
290
     1
  0
XRECORD
  5
17CE
102
{ACAD_REACTORS
330
17CD
102
}
330
17CD
100
AcDbXrecord
280
     1
290
     1
  0
XRECORD
  5
17D0
102
{ACAD_REACTORS
330
17CF
102
}
330
17CF
100
AcDbXrecord
280
     1
290
     1
  0
XRECORD
  5
17D2
102
{ACAD_REACTORS
330
17D1
102
}
330
17D1
100
AcDbXrecord
280
     1
290
     1
  0
XRECORD
  5
17D4
102
{ACAD_REACTORS
330
17D3
102
}
330
17D3
100
AcDbXrecord
280
     1
290
     1
  0
XRECORD
  5
17D6
102
{ACAD_REACTORS
330
17D5
102
}
330
17D5
100
AcDbXrecord
280
     1
290
     1
  0
XRECORD
  5
17D8
102
{ACAD_REACTORS
330
17D7
102
}
330
17D7
100
AcDbXrecord
280
     1
290
     1
  0
XRECORD
  5
17DA
102
{ACAD_REACTORS
330
17D9
102
}
330
17D9
100
AcDbXrecord
280
     1
290
     1
  0
XRECORD
  5
17DC
102
{ACAD_REACTORS
330
17DB
102
}
330
17DB
100
AcDbXrecord
280
     1
290
     1
  0
XRECORD
  5
17DE
102
{ACAD_REACTORS
330
17DD
102
}
330
17DD
100
AcDbXrecord
280
     1
290
     1
  0
XRECORD
  5
17E0
102
{ACAD_REACTORS
330
17DF
102
}
330
17DF
100
AcDbXrecord
280
     1
290
     1
  0
XRECORD
  5
17E2
102
{ACAD_REACTORS
330
17E1
102
}
330
17E1
100
AcDbXrecord
280
     1
290
     1
  0
XRECORD
  5
17E4
102
{ACAD_REACTORS
330
17E3
102
}
330
17E3
100
AcDbXrecord
280
     1
290
     1
  0
XRECORD
  5
17E6
102
{ACAD_REACTORS
330
17E5
102
}
330
17E5
100
AcDbXrecord
280
     1
290
     1
  0
XRECORD
  5
17E8
102
{ACAD_REACTORS
330
17E7
102
}
330
17E7
100
AcDbXrecord
280
     1
290
     1
  0
LAYOUT
  5
16FB
102
{ACAD_REACTORS
330
1A
102
}
330
1A
100
AcDbPlotSettings
  1

  2
none_device
  4
ANSI_B_(17.00_x_11.00_Inches)
  6

 40
0.0
 41
0.0
 42
0.0
 43
0.0
 44
431.8
 45
279.4
 46
0.0
 47
0.0
 48
0.0
 49
0.0
140
0.0
141
0.0
142
1.0
143
1.0
 70
     0
 72
     0
 73
     0
 74
     0
  7

 75
     0
147
1.0
 76
     0
 77
     2
 78
   300
148
0.0
149
0.0
100
AcDbLayout
  1
Layout1
 70
     1
 71
     1
 10
0.0
 20
0.0
 11
12.0
 21
9.0
 12
0.0
 22
0.0
 32
0.0
 14
1.000000000000000E+20
 24
1.000000000000000E+20
 34
1.000000000000000E+20
 15
-1.000000000000000E+20
 25
-1.000000000000000E+20
 35
-1.000000000000000E+20
146
0.0
 13
0.0
 23
0.0
 33
0.0
 16
1.0
 26
0.0
 36
0.0
 17
0.0
 27
1.0
 37
0.0
 76
     0
330
22C
  0
LAYOUT
  5
16FA
102
{ACAD_REACTORS
330
1A
102
}
330
1A
100
AcDbPlotSettings
  1

  2
none_device
  4
ANSI_B_(17.00_x_11.00_Inches)
  6

 40
0.0
 41
0.0
 42
0.0
 43
0.0
 44
431.8
 45
279.4
 46
0.0
 47
0.0
 48
0.0
 49
0.0
140
0.0
141
0.0
142
1.0
143
1.0
 70
  1024
 72
     0
 73
     0
 74
     0
  7

 75
     0
147
1.0
 76
     0
 77
     2
 78
   300
148
0.0
149
0.0
100
AcDbLayout
  1
Model
 70
     0
 71
     0
 10
0.0
 20
0.0
 11
17.0
 21
11.0
 12
0.0
 22
0.0
 32
0.0
 14
0.0
 24
0.0
 34
0.0
 15
0.0
 25
0.0
 35
0.0
146
0.0
 13
0.0
 23
0.0
 33
0.0
 16
1.0
 26
0.0
 36
0.0
 17
0.0
 27
1.0
 37
0.0
 76
     0
330
22B
331
1F4
  0
MATERIAL
  5
1707
102
{ACAD_XDICTIONARY
360
1708
102
}
102
{ACAD_REACTORS
330
16FE
102
}
330
16FE
100
AcDbMaterial
  1
ByBlock
 72
     0
 43
0.0208333333333333
 43
0.0
 43
0.0
 43
0.0
 43
0.0
 43
0.0208333333333333
 43
0.0
 43
0.0
 43
0.0
 43
0.0
 43
1.0
 43
0.0
 43
0.0
 43
0.0
 43
0.0
 43
1.0
 77
     0
 47
0.0208333333333333
 47
0.0
 47
0.0
 47
0.0
 47
0.0
 47
0.0208333333333333
 47
0.0
 47
0.0
 47
0.0
 47
0.0
 47
1.0
 47
0.0
 47
0.0
 47
0.0
 47
0.0
 47
1.0
171
     0
 49
0.0208333333333333
 49
0.0
 49
0.0
 49
0.0
 49
0.0
 49
0.0208333333333333
 49
0.0
 49
0.0
 49
0.0
 49
0.0
 49
1.0
 49
0.0
 49
0.0
 49
0.0
 49
0.0
 49
1.0
175
     0
142
0.0208333333333333
142
0.0
142
0.0
142
0.0
142
0.0
142
0.0208333333333333
142
0.0
142
0.0
142
0.0
142
0.0
142
1.0
142
0.0
142
0.0
142
0.0
142
0.0
142
1.0
179
     0
144
0.0208333333333333
144
0.0
144
0.0
144
0.0
144
0.0
144
0.0208333333333333
144
0.0
144
0.0
144
0.0
144
0.0
144
1.0
144
0.0
144
0.0
144
0.0
144
0.0
144
1.0
147
0.0208333333333333
147
0.0
147
0.0
147
0.0
147
0.0
147
0.0208333333333333
147
0.0
147
0.0
147
0.0
147
0.0
147
1.0
147
0.0
147
0.0
147
0.0
147
0.0
147
1.0
  0
MATERIAL
  5
16FF
102
{ACAD_XDICTIONARY
360
1700
102
}
102
{ACAD_REACTORS
330
16FE
102
}
330
16FE
100
AcDbMaterial
  1
ByLayer
 72
     0
 43
0.0208333333333333
 43
0.0
 43
0.0
 43
0.0
 43
0.0
 43
0.0208333333333333
 43
0.0
 43
0.0
 43
0.0
 43
0.0
 43
1.0
 43
0.0
 43
0.0
 43
0.0
 43
0.0
 43
1.0
 77
     0
 47
0.0208333333333333
 47
0.0
 47
0.0
 47
0.0
 47
0.0
 47
0.0208333333333333
 47
0.0
 47
0.0
 47
0.0
 47
0.0
 47
1.0
 47
0.0
 47
0.0
 47
0.0
 47
0.0
 47
1.0
171
     0
 49
0.0208333333333333
 49
0.0
 49
0.0
 49
0.0
 49
0.0
 49
0.0208333333333333
 49
0.0
 49
0.0
 49
0.0
 49
0.0
 49
1.0
 49
0.0
 49
0.0
 49
0.0
 49
0.0
 49
1.0
175
     0
142
0.0208333333333333
142
0.0
142
0.0
142
0.0
142
0.0
142
0.0208333333333333
142
0.0
142
0.0
142
0.0
142
0.0
142
1.0
142
0.0
142
0.0
142
0.0
142
0.0
142
1.0
179
     0
144
0.0208333333333333
144
0.0
144
0.0
144
0.0
144
0.0
144
0.0208333333333333
144
0.0
144
0.0
144
0.0
144
0.0
144
1.0
144
0.0
144
0.0
144
0.0
144
0.0
144
1.0
147
0.0208333333333333
147
0.0
147
0.0
147
0.0
147
0.0
147
0.0208333333333333
147
0.0
147
0.0
147
0.0
147
0.0
147
1.0
147
0.0
147
0.0
147
0.0
147
0.0
147
1.0
  0
MATERIAL
  5
170F
102
{ACAD_XDICTIONARY
360
1710
102
}
102
{ACAD_REACTORS
330
16FE
102
}
330
16FE
100
AcDbMaterial
  1
Global
 72
     0
 43
0.0208333333333333
 43
0.0
 43
0.0
 43
0.0
 43
0.0
 43
0.0208333333333333
 43
0.0
 43
0.0
 43
0.0
 43
0.0
 43
1.0
 43
0.0
 43
0.0
 43
0.0
 43
0.0
 43
1.0
 77
     0
 47
0.0208333333333333
 47
0.0
 47
0.0
 47
0.0
 47
0.0
 47
0.0208333333333333
 47
0.0
 47
0.0
 47
0.0
 47
0.0
 47
1.0
 47
0.0
 47
0.0
 47
0.0
 47
0.0
 47
1.0
171
     0
 49
0.0208333333333333
 49
0.0
 49
0.0
 49
0.0
 49
0.0
 49
0.0208333333333333
 49
0.0
 49
0.0
 49
0.0
 49
0.0
 49
1.0
 49
0.0
 49
0.0
 49
0.0
 49
0.0
 49
1.0
175
     0
142
0.0208333333333333
142
0.0
142
0.0
142
0.0
142
0.0
142
0.0208333333333333
142
0.0
142
0.0
142
0.0
142
0.0
142
1.0
142
0.0
142
0.0
142
0.0
142
0.0
142
1.0
179
     0
144
0.0208333333333333
144
0.0
144
0.0
144
0.0
144
0.0
144
0.0208333333333333
144
0.0
144
0.0
144
0.0
144
0.0
144
1.0
144
0.0
144
0.0
144
0.0
144
0.0
144
1.0
147
0.0208333333333333
147
0.0
147
0.0
147
0.0
147
0.0
147
0.0208333333333333
147
0.0
147
0.0
147
0.0
147
0.0
147
1.0
147
0.0
147
0.0
147
0.0
147
0.0
147
1.0
  0
MLEADERSTYLE
  5
1751
102
{ACAD_REACTORS
330
1750
102
}
330
1750
100
AcDbMLeaderStyle
170
     2
171
     1
172
     0
 90
        2
 40
0.0
 41
0.0
173
     1
 91
-1056964608
340
14
 92
       -2
290
     1
 42
0.09
291
     1
 43
0.36
  3
Standard
 44
0.18
300

342
11
174
     1
178
     6
175
     1
176
     0
 93
-1056964608
 45
0.18
292
     0
297
     0
 46
0.18
 94
-1056964608
 47
1.0
 49
1.0
140
1.0
293
     1
141
0.0
294
     1
177
     0
142
1.0
295
     0
296
     0
143
0.125
1001
ACAD_MLEADERVER
1070
     2
  0
MLINESTYLE
  5
18
102
{ACAD_REACTORS
330
17
102
}
330
17
100
AcDbMlineStyle
  2
STANDARD
 70
     0
  3

 62
   256
 51
90.0
 52
90.0
 71
     2
 49
0.5
 62
   256
  6
BYLAYER
 49
-0.5
 62
   256
  6
BYLAYER
  0
ACDBPLACEHOLDER
  5
F
102
{ACAD_REACTORS
330
E
102
}
330
E
  0
SCALE
  5
172F
102
{ACAD_REACTORS
330
172E
102
}
330
172E
100
AcDbScale
 70
     0
300
1:1
140
1.0
141
1.0
290
     1
  0
SCALE
  5
1730
102
{ACAD_REACTORS
330
172E
102
}
330
172E
100
AcDbScale
 70
     0
300
1:2
140
1.0
141
2.0
290
     0
  0
SCALE
  5
1731
102
{ACAD_REACTORS
330
172E
102
}
330
172E
100
AcDbScale
 70
     0
300
1:4
140
1.0
141
4.0
290
     0
  0
SCALE
  5
1732
102
{ACAD_REACTORS
330
172E
102
}
330
172E
100
AcDbScale
 70
     0
300
1:5
140
1.0
141
5.0
290
     0
  0
SCALE
  5
1733
102
{ACAD_REACTORS
330
172E
102
}
330
172E
100
AcDbScale
 70
     0
300
1:8
140
1.0
141
8.0
290
     0
  0
SCALE
  5
1734
102
{ACAD_REACTORS
330
172E
102
}
330
172E
100
AcDbScale
 70
     0
300
1:10
140
1.0
141
10.0
290
     0
  0
SCALE
  5
1735
102
{ACAD_REACTORS
330
172E
102
}
330
172E
100
AcDbScale
 70
     0
300
1:16
140
1.0
141
16.0
290
     0
  0
SCALE
  5
1736
102
{ACAD_REACTORS
330
172E
102
}
330
172E
100
AcDbScale
 70
     0
300
1:20
140
1.0
141
20.0
290
     0
  0
SCALE
  5
1737
102
{ACAD_REACTORS
330
172E
102
}
330
172E
100
AcDbScale
 70
     0
300
1:30
140
1.0
141
30.0
290
     0
  0
SCALE
  5
1738
102
{ACAD_REACTORS
330
172E
102
}
330
172E
100
AcDbScale
 70
     0
300
1:40
140
1.0
141
40.0
290
     0
  0
SCALE
  5
1739
102
{ACAD_REACTORS
330
172E
102
}
330
172E
100
AcDbScale
 70
     0
300
1:50
140
1.0
141
50.0
290
     0
  0
SCALE
  5
173A
102
{ACAD_REACTORS
330
172E
102
}
330
172E
100
AcDbScale
 70
     0
300
1:100
140
1.0
141
100.0
290
     0
  0
SCALE
  5
173B
102
{ACAD_REACTORS
330
172E
102
}
330
172E
100
AcDbScale
 70
     0
300
2:1
140
2.0
141
1.0
290
     0
  0
SCALE
  5
173C
102
{ACAD_REACTORS
330
172E
102
}
330
172E
100
AcDbScale
 70
     0
300
4:1
140
4.0
141
1.0
290
     0
  0
SCALE
  5
173D
102
{ACAD_REACTORS
330
172E
102
}
330
172E
100
AcDbScale
 70
     0
300
8:1
140
8.0
141
1.0
290
     0
  0
SCALE
  5
173E
102
{ACAD_REACTORS
330
172E
102
}
330
172E
100
AcDbScale
 70
     0
300
10:1
140
10.0
141
1.0
290
     0
  0
SCALE
  5
173F
102
{ACAD_REACTORS
330
172E
102
}
330
172E
100
AcDbScale
 70
     0
300
100:1
140
100.0
141
1.0
290
     0
  0
SCALE
  5
1740
102
{ACAD_REACTORS
330
172E
102
}
330
172E
100
AcDbScale
 70
     0
300
1/128" = 1'-0"
140
0.0078125
141
12.0
290
     0
  0
SCALE
  5
1741
102
{ACAD_REACTORS
330
172E
102
}
330
172E
100
AcDbScale
 70
     0
300
1/64" = 1'-0"
140
0.015625
141
12.0
290
     0
  0
SCALE
  5
1742
102
{ACAD_REACTORS
330
172E
102
}
330
172E
100
AcDbScale
 70
     0
300
1/32" = 1'-0"
140
0.03125
141
12.0
290
     0
  0
SCALE
  5
1743
102
{ACAD_REACTORS
330
172E
102
}
330
172E
100
AcDbScale
 70
     0
300
1/16" = 1'-0"
140
0.0625
141
12.0
290
     0
  0
SCALE
  5
1744
102
{ACAD_REACTORS
330
172E
102
}
330
172E
100
AcDbScale
 70
     0
300
3/32" = 1'-0"
140
0.09375
141
12.0
290
     0
  0
SCALE
  5
1745
102
{ACAD_REACTORS
330
172E
102
}
330
172E
100
AcDbScale
 70
     0
300
1/8" = 1'-0"
140
0.125
141
12.0
290
     0
  0
SCALE
  5
1746
102
{ACAD_REACTORS
330
172E
102
}
330
172E
100
AcDbScale
 70
     0
300
3/16" = 1'-0"
140
0.1875
141
12.0
290
     0
  0
SCALE
  5
1747
102
{ACAD_REACTORS
330
172E
102
}
330
172E
100
AcDbScale
 70
     0
300
1/4" = 1'-0"
140
0.25
141
12.0
290
     0
  0
SCALE
  5
1748
102
{ACAD_REACTORS
330
172E
102
}
330
172E
100
AcDbScale
 70
     0
300
3/8" = 1'-0"
140
0.375
141
12.0
290
     0
  0
SCALE
  5
1749
102
{ACAD_REACTORS
330
172E
102
}
330
172E
100
AcDbScale
 70
     0
300
1/2" = 1'-0"
140
0.5
141
12.0
290
     0
  0
SCALE
  5
174A
102
{ACAD_REACTORS
330
172E
102
}
330
172E
100
AcDbScale
 70
     0
300
3/4" = 1'-0"
140
0.75
141
12.0
290
     0
  0
SCALE
  5
174B
102
{ACAD_REACTORS
330
172E
102
}
330
172E
100
AcDbScale
 70
     0
300
1" = 1'-0"
140
1.0
141
12.0
290
     0
  0
SCALE
  5
174C
102
{ACAD_REACTORS
330
172E
102
}
330
172E
100
AcDbScale
 70
     0
300
1-1/2" = 1'-0"
140
1.5
141
12.0
290
     0
  0
SCALE
  5
174D
102
{ACAD_REACTORS
330
172E
102
}
330
172E
100
AcDbScale
 70
     0
300
3" = 1'-0"
140
3.0
141
12.0
290
     0
  0
SCALE
  5
174E
102
{ACAD_REACTORS
330
172E
102
}
330
172E
100
AcDbScale
 70
     0
300
6" = 1'-0"
140
6.0
141
12.0
290
     0
  0
SCALE
  5
174F
102
{ACAD_REACTORS
330
172E
102
}
330
172E
100
AcDbScale
 70
     0
300
1'-0" = 1'-0"
140
12.0
141
12.0
290
     0
  0
TABLESTYLE
  5
172D
102
{ACAD_XDICTIONARY
360
1752
102
}
102
{ACAD_REACTORS
330
172C
102
}
330
172C
100
AcDbTableStyle
  3
Standard
 70
     0
 71
     0
 40
0.06
 41
0.06
280
     0
281
     0
  7
STANDARD
140
0.18
170
     2
 62
     0
 63
     7
283
     0
 90
      512
 91
        0
  1

274
    -2
284
     1
 64
     0
275
    -2
285
     1
 65
     0
276
    -2
286
     1
 66
     0
277
    -2
287
     1
 67
     0
278
    -2
288
     1
 68
     0
279
    -2
289
     1
 69
     0
  7
STANDARD
140
0.25
170
     5
 62
     0
 63
     7
283
     0
 90
      512
 91
        0
  1

274
    -2
284
     1
 64
     0
275
    -2
285
     1
 65
     0
276
    -2
286
     1
 66
     0
277
    -2
287
     1
 67
     0
278
    -2
288
     1
 68
     0
279
    -2
289
     1
 69
     0
  7
STANDARD
140
0.18
170
     5
 62
     0
 63
     7
283
     0
 90
      512
 91
        0
  1

274
    -2
284
     1
 64
     0
275
    -2
285
     1
 65
     0
276
    -2
286
     1
 66
     0
277
    -2
287
     1
 67
     0
278
    -2
288
     1
 68
     0
279
    -2
289
     1
 69
     0
  0
VISUALSTYLE
  5
171D
102
{ACAD_XDICTIONARY
360
1768
102
}
102
{ACAD_REACTORS
330
1717
102
}
330
1717
100
AcDbVisualStyle
  2
2dWireframe
 70
     4
 71
     0
 72
     2
 73
     0
 90
        0
 40
-0.6
 41
-30.0
 62
     5
 63
     7
 74
     1
 91
        4
 64
     7
 65
   257
 75
     1
175
     1
 42
1.0
 92
        0
 66
   257
 43
1.0
 76
     1
 77
     6
 78
     2
 67
     7
 79
     5
170
     0
171
     0
290
     0
174
     0
 93
        1
 44
0.0
173
     0
291
     0
 45
0.0
  0
VISUALSTYLE
  5
171F
102
{ACAD_XDICTIONARY
360
176C
102
}
102
{ACAD_REACTORS
330
1717
102
}
330
1717
100
AcDbVisualStyle
  2
3D Hidden
 70
     6
 71
     1
 72
     2
 73
     2
 90
        0
 40
-0.6
 41
-30.0
 62
     5
 63
     7
 74
     2
 91
        2
 64
     7
 65
   257
 75
     2
175
     1
 42
179.0
 92
        0
 66
   257
 43
1.0
 76
     1
 77
     6
 78
     2
 67
     7
 79
     3
170
     0
171
     0
290
     0
174
     0
 93
        1
 44
0.0
173
     0
291
     0
 45
0.0
  0
VISUALSTYLE
  5
171E
102
{ACAD_XDICTIONARY
360
176A
102
}
102
{ACAD_REACTORS
330
1717
102
}
330
1717
100
AcDbVisualStyle
  2
3dWireframe
 70
     5
 71
     0
 72
     2
 73
     0
 90
        0
 40
-0.6
 41
-30.0
 62
     5
 63
     7
 74
     1
 91
        4
 64
     7
 65
   257
 75
     1
175
     1
 42
1.0
 92
        0
 66
   257
 43
1.0
 76
     1
 77
     6
 78
     2
 67
     7
 79
     5
170
     0
171
     0
290
     0
174
     0
 93
        1
 44
0.0
173
     0
291
     0
 45
0.0
  0
VISUALSTYLE
  5
171C
102
{ACAD_XDICTIONARY
360
1766
102
}
102
{ACAD_REACTORS
330
1717
102
}
330
1717
100
AcDbVisualStyle
  2
Basic
 70
     7
 71
     1
 72
     0
 73
     1
 90
        0
 40
-0.6
 41
-30.0
 62
     5
 63
     7
 74
     0
 91
        4
 64
     7
 65
   257
 75
     1
175
     1
 42
1.0
 92
        8
 66
     7
 43
1.0
 76
     1
 77
     6
 78
     2
 67
     7
 79
     5
170
     0
171
     0
290
     0
174
     0
 93
        1
 44
0.0
173
     0
291
     1
 45
0.0
  0
VISUALSTYLE
  5
1723
102
{ACAD_XDICTIONARY
360
1774
102
}
102
{ACAD_REACTORS
330
1717
102
}
330
1717
100
AcDbVisualStyle
  2
Brighten
 70
    12
 71
     2
 72
     2
 73
     0
 90
        0
 40
-0.6
 41
-30.0
 62
     5
 63
     7
 74
     1
 91
        4
 64
     7
 65
   257
 75
     1
175
     1
 42
1.0
 92
        8
 66
     7
 43
1.0
 76
     1
 77
     6
 78
     2
 67
     7
 79
     5
170
     0
171
     0
290
     0
174
     0
 93
        1
 44
50.0
173
     0
291
     1
 45
0.0
  0
VISUALSTYLE
  5
1727
102
{ACAD_XDICTIONARY
360
177C
102
}
102
{ACAD_REACTORS
330
1717
102
}
330
1717
100
AcDbVisualStyle
  2
ColorChange
 70
    16
 71
     2
 72
     2
 73
     3
 90
        0
 40
-0.6
 41
-30.0
 62
     5
 63
     8
 74
     1
 91
        4
 64
     7
 65
   257
 75
     1
175
     1
 42
1.0
 92
        8
 66
     8
 43
1.0
 76
     1
 77
     6
 78
     2
 67
     7
 79
     5
170
     0
171
     0
290
     0
174
     0
 93
        1
 44
0.0
173
     0
291
     1
 45
0.0
  0
VISUALSTYLE
  5
1720
102
{ACAD_XDICTIONARY
360
176E
102
}
102
{ACAD_REACTORS
330
1717
102
}
330
1717
100
AcDbVisualStyle
  2
Conceptual
 70
     9
 71
     3
 72
     2
 73
     0
 90
        0
 40
-0.6
 41
-30.0
 62
     5
 63
     7
 74
     2
 91
        2
 64
     7
 65
   257
 75
     1
175
     1
 42
179.0
 92
        8
 66
     7
 43
1.0
 76
     1
 77
     6
 78
     2
 67
     7
 79
     3
170
     0
171
     0
290
     0
174
     0
 93
        1
 44
0.0
173
     0
291
     0
 45
0.0
  0
VISUALSTYLE
  5
1722
102
{ACAD_XDICTIONARY
360
1772
102
}
102
{ACAD_REACTORS
330
1717
102
}
330
1717
100
AcDbVisualStyle
  2
Dim
 70
    11
 71
     2
 72
     2
 73
     0
 90
        0
 40
-0.6
 41
-30.0
 62
     5
 63
     7
 74
     1
 91
        4
 64
     7
 65
   257
 75
     1
175
     1
 42
1.0
 92
        8
 66
     7
 43
1.0
 76
     1
 77
     6
 78
     2
 67
     7
 79
     5
170
     0
171
     0
290
     0
174
     0
 93
        1
 44
-50.0
173
     0
291
     1
 45
0.0
  0
VISUALSTYLE
  5
172A
102
{ACAD_XDICTIONARY
360
1782
102
}
102
{ACAD_REACTORS
330
1717
102
}
330
1717
100
AcDbVisualStyle
  2
EdgeColorOff
 70
    22
 71
     2
 72
     2
 73
     0
 90
        0
 40
-0.6
 41
-30.0
 62
     5
 63
     7
 74
     1
 91
        4
 64
     7
 65
   257
 75
     1
175
     1
 42
1.0
 92
        8
 66
     7
 43
1.0
 76
     1
 77
     6
 78
     2
 67
     7
 79
     5
170
     0
171
     0
290
     0
174
     0
 93
        1
 44
0.0
173
     0
291
     1
 45
0.0
  0
VISUALSTYLE
  5
1726
102
{ACAD_XDICTIONARY
360
177A
102
}
102
{ACAD_REACTORS
330
1717
102
}
330
1717
100
AcDbVisualStyle
  2
Facepattern
 70
    15
 71
     2
 72
     2
 73
     0
 90
        0
 40
-0.6
 41
-30.0
 62
     5
 63
     7
 74
     1
 91
        4
 64
     7
 65
   257
 75
     1
175
     1
 42
1.0
 92
        8
 66
     7
 43
1.0
 76
     1
 77
     6
 78
     2
 67
     7
 79
     5
170
     0
171
     0
290
     0
174
     0
 93
        1
 44
0.0
173
     0
291
     1
 45
0.0
  0
VISUALSTYLE
  5
1718
102
{ACAD_XDICTIONARY
360
175E
102
}
102
{ACAD_REACTORS
330
1717
102
}
330
1717
100
AcDbVisualStyle
  2
Flat
 70
     0
 71
     2
 72
     1
 73
     1
 90
        2
 40
-0.6
 41
30.0
 62
     5
 63
     7
 74
     0
 91
        4
 64
     7
 65
   257
 75
     1
175
     1
 42
1.0
 92
        8
 66
     7
 43
1.0
 76
     1
 77
     6
 78
     2
 67
     7
 79
     5
170
     0
171
     0
290
     0
174
     0
 93
       13
 44
0.0
173
     0
291
     1
 45
0.0
  0
VISUALSTYLE
  5
1719
102
{ACAD_XDICTIONARY
360
1760
102
}
102
{ACAD_REACTORS
330
1717
102
}
330
1717
100
AcDbVisualStyle
  2
FlatWithEdges
 70
     1
 71
     2
 72
     1
 73
     1
 90
        2
 40
-0.6
 41
30.0
 62
     5
 63
     7
 74
     1
 91
        4
 64
     7
 65
   257
 75
     1
175
     1
 42
1.0
 92
        0
 66
   257
 43
1.0
 76
     1
 77
     6
 78
     2
 67
     7
 79
     5
170
     0
171
     0
290
     0
174
     0
 93
       13
 44
0.0
173
     0
291
     1
 45
0.0
  0
VISUALSTYLE
  5
171A
102
{ACAD_XDICTIONARY
360
1762
102
}
102
{ACAD_REACTORS
330
1717
102
}
330
1717
100
AcDbVisualStyle
  2
Gouraud
 70
     2
 71
     2
 72
     2
 73
     1
 90
        2
 40
-0.6
 41
30.0
 62
     5
 63
     7
 74
     0
 91
        4
 64
     7
 65
   257
 75
     1
175
     1
 42
1.0
 92
        0
 66
     7
 43
1.0
 76
     1
 77
     6
 78
     2
 67
     7
 79
     5
170
     0
171
     0
290
     0
174
     0
 93
       13
 44
0.0
173
     0
291
     1
 45
0.0
  0
VISUALSTYLE
  5
171B
102
{ACAD_XDICTIONARY
360
1764
102
}
102
{ACAD_REACTORS
330
1717
102
}
330
1717
100
AcDbVisualStyle
  2
GouraudWithEdges
 70
     3
 71
     2
 72
     2
 73
     1
 90
        2
 40
-0.6
 41
30.0
 62
     5
 63
     7
 74
     1
 91
        4
 64
     7
 65
   257
 75
     1
175
     1
 42
1.0
 92
        0
 66
   257
 43
1.0
 76
     1
 77
     6
 78
     2
 67
     7
 79
     5
170
     0
171
     0
290
     0
174
     0
 93
       13
 44
0.0
173
     0
291
     1
 45
0.0
  0
VISUALSTYLE
  5
1728
102
{ACAD_XDICTIONARY
360
177E
102
}
102
{ACAD_REACTORS
330
1717
102
}
330
1717
100
AcDbVisualStyle
  2
JitterOff
 70
    20
 71
     2
 72
     2
 73
     0
 90
        0
 40
-0.6
 41
-30.0
 62
     5
 63
     7
 74
     1
 91
        4
 64
     7
 65
   257
 75
     1
175
     1
 42
1.0
 92
       10
 66
     7
 43
1.0
 76
     1
 77
     6
 78
     2
 67
     7
 79
     5
170
     0
171
     0
290
     0
174
     0
 93
        1
 44
0.0
173
     0
291
     1
 45
0.0
  0
VISUALSTYLE
  5
1725
102
{ACAD_XDICTIONARY
360
1778
102
}
102
{ACAD_REACTORS
330
1717
102
}
330
1717
100
AcDbVisualStyle
  2
Linepattern
 70
    14
 71
     2
 72
     2
 73
     0
 90
        0
 40
-0.6
 41
-30.0
 62
     5
 63
     7
 74
     1
 91
        4
 64
     7
 65
   257
 75
     7
175
     7
 42
1.0
 92
        8
 66
     7
 43
1.0
 76
     1
 77
     6
 78
     2
 67
     7
 79
     5
170
     0
171
     0
290
     0
174
     0
 93
        1
 44
0.0
173
     0
291
     1
 45
0.0
  0
VISUALSTYLE
  5
1729
102
{ACAD_XDICTIONARY
360
1780
102
}
102
{ACAD_REACTORS
330
1717
102
}
330
1717
100
AcDbVisualStyle
  2
OverhangOff
 70
    21
 71
     2
 72
     2
 73
     0
 90
        0
 40
-0.6
 41
-30.0
 62
     5
 63
     7
 74
     1
 91
        4
 64
     7
 65
   257
 75
     1
175
     1
 42
1.0
 92
        9
 66
     7
 43
1.0
 76
     1
 77
     6
 78
     2
 67
     7
 79
     5
170
     0
171
     0
290
     0
174
     0
 93
        1
 44
0.0
173
     0
291
     1
 45
0.0
  0
VISUALSTYLE
  5
1721
102
{ACAD_XDICTIONARY
360
1770
102
}
102
{ACAD_REACTORS
330
1717
102
}
330
1717
100
AcDbVisualStyle
  2
Realistic
 70
     8
 71
     2
 72
     2
 73
     0
 90
        0
 40
-0.6
 41
-30.0
 62
     5
 63
     7
 74
     1
 91
        0
 64
     7
 65
   257
 75
     1
175
     1
 42
1.0
 92
        8
 66
     8
 43
1.0
 76
     1
 77
     6
 78
     2
 67
     7
 79
     5
170
     0
171
     0
290
     0
174
     0
 93
       13
 44
0.0
173
     0
291
     0
 45
0.0
  0
VISUALSTYLE
  5
1724
102
{ACAD_XDICTIONARY
360
1776
102
}
102
{ACAD_REACTORS
330
1717
102
}
330
1717
100
AcDbVisualStyle
  2
Thicken
 70
    13
 71
     2
 72
     2
 73
     0
 90
        0
 40
-0.6
 41
-30.0
 62
     5
 63
     7
 74
     1
 91
        4
 64
     7
 65
   257
 75
     1
175
     1
 42
1.0
 92
       12
 66
     7
 43
1.0
 76
     1
 77
     6
 78
     2
 67
     7
 79
     5
170
     0
171
     0
290
     0
174
     0
 93
        1
 44
0.0
173
     0
291
     1
 45
0.0
  0
DICTIONARYVAR
  5
1789
102
{ACAD_REACTORS
330
1786
102
}
330
1786
100
DictionaryVariables
280
     0
  1
1:1
  0
DICTIONARYVAR
  5
1788
102
{ACAD_REACTORS
330
1786
102
}
330
1786
100
DictionaryVariables
280
     0
  1
STANDARD
  0
DICTIONARYVAR
  5
1787
102
{ACAD_REACTORS
330
1786
102
}
330
1786
100
DictionaryVariables
280
     0
  1
STANDARD
  0
DICTIONARYVAR
  5
178C
102
{ACAD_REACTORS
330
1786
102
}
330
1786
100
DictionaryVariables
280
     0
  1
1
  0
DICTIONARYVAR
  5
178B
102
{ACAD_REACTORS
330
1786
102
}
330
1786
100
DictionaryVariables
280
     0
  1
0
  0
DICTIONARYVAR
  5
17F6
102
{ACAD_REACTORS
330
1786
102
}
330
1786
100
DictionaryVariables
280
     0
  1
1
  0
DICTIONARYVAR
  5
17F7
102
{ACAD_REACTORS
330
1786
102
}
330
1786
100
DictionaryVariables
280
     0
  1
15
  0
DICTIONARYVAR
  5
17F5
102
{ACAD_REACTORS
330
1786
102
}
330
1786
100
DictionaryVariables
280
     0
  1
0
  0
DICTIONARYVAR
  5
17F4
102
{ACAD_REACTORS
330
1786
102
}
330
1786
100
DictionaryVariables
280
     0
  1
0
  0
DICTIONARYVAR
  5
178A
102
{ACAD_REACTORS
330
1786
102
}
330
1786
100
DictionaryVariables
280
     0
  1
127
  0
DICTIONARYVAR
  5
178D
102
{ACAD_REACTORS
330
1786
102
}
330
1786
100
DictionaryVariables
280
     0
  1
2
  0
DICTIONARY
  5
1708
330
1707
100
AcDbDictionary
280
     1
281
     1
  3
BUMPTILE
360
170A
  3
DIFFUSETILE
360
1709
  3
OPACITYTILE
360
170D
  3
REFLECTIONTILE
360
170C
  3
REFRACTIONTILE
360
170E
  3
SPECULARTILE
360
170B
  0
DICTIONARY
  5
1700
330
16FF
100
AcDbDictionary
280
     1
281
     1
  3
BUMPTILE
360
1702
  3
DIFFUSETILE
360
1701
  3
OPACITYTILE
360
1705
  3
REFLECTIONTILE
360
1704
  3
REFRACTIONTILE
360
1706
  3
SPECULARTILE
360
1703
  0
DICTIONARY
  5
1710
330
170F
100
AcDbDictionary
280
     1
281
     1
  3
BUMPTILE
360
1712
  3
DIFFUSETILE
360
1711
  3
OPACITYTILE
360
1715
  3
REFLECTIONTILE
360
1714
  3
REFRACTIONTILE
360
1716
  3
SPECULARTILE
360
1713
  0
DICTIONARY
  5
1752
330
172D
100
AcDbDictionary
280
     1
281
     1
  3
ACAD_ROUNDTRIP_2008_TABLESTYLE_CELLSTYLEMAP
360
17FF
  0
DICTIONARY
  5
1768
330
171D
100
AcDbDictionary
280
     1
281
     1
  3
ACAD_XREC_ROUNDTRIP
360
1769
  0
DICTIONARY
  5
176C
330
171F
100
AcDbDictionary
280
     1
281
     1
  3
ACAD_XREC_ROUNDTRIP
360
176D
  0
DICTIONARY
  5
176A
330
171E
100
AcDbDictionary
280
     1
281
     1
  3
ACAD_XREC_ROUNDTRIP
360
176B
  0
DICTIONARY
  5
1766
330
171C
100
AcDbDictionary
280
     1
281
     1
  3
ACAD_XREC_ROUNDTRIP
360
1767
  0
DICTIONARY
  5
1774
330
1723
100
AcDbDictionary
280
     1
281
     1
  3
ACAD_XREC_ROUNDTRIP
360
1775
  0
DICTIONARY
  5
177C
330
1727
100
AcDbDictionary
280
     1
281
     1
  3
ACAD_XREC_ROUNDTRIP
360
177D
  0
DICTIONARY
  5
176E
330
1720
100
AcDbDictionary
280
     1
281
     1
  3
ACAD_XREC_ROUNDTRIP
360
176F
  0
DICTIONARY
  5
1772
330
1722
100
AcDbDictionary
280
     1
281
     1
  3
ACAD_XREC_ROUNDTRIP
360
1773
  0
DICTIONARY
  5
1782
330
172A
100
AcDbDictionary
280
     1
281
     1
  3
ACAD_XREC_ROUNDTRIP
360
1783
  0
DICTIONARY
  5
177A
330
1726
100
AcDbDictionary
280
     1
281
     1
  3
ACAD_XREC_ROUNDTRIP
360
177B
  0
DICTIONARY
  5
175E
330
1718
100
AcDbDictionary
280
     1
281
     1
  3
ACAD_XREC_ROUNDTRIP
360
175F
  0
DICTIONARY
  5
1760
330
1719
100
AcDbDictionary
280
     1
281
     1
  3
ACAD_XREC_ROUNDTRIP
360
1761
  0
DICTIONARY
  5
1762
330
171A
100
AcDbDictionary
280
     1
281
     1
  3
ACAD_XREC_ROUNDTRIP
360
1763
  0
DICTIONARY
  5
1764
330
171B
100
AcDbDictionary
280
     1
281
     1
  3
ACAD_XREC_ROUNDTRIP
360
1765
  0
DICTIONARY
  5
177E
330
1728
100
AcDbDictionary
280
     1
281
     1
  3
ACAD_XREC_ROUNDTRIP
360
177F
  0
DICTIONARY
  5
1778
330
1725
100
AcDbDictionary
280
     1
281
     1
  3
ACAD_XREC_ROUNDTRIP
360
1779
  0
DICTIONARY
  5
1780
330
1729
100
AcDbDictionary
280
     1
281
     1
  3
ACAD_XREC_ROUNDTRIP
360
1781
  0
DICTIONARY
  5
1770
330
1721
100
AcDbDictionary
280
     1
281
     1
  3
ACAD_XREC_ROUNDTRIP
360
1771
  0
DICTIONARY
  5
1776
330
1724
100
AcDbDictionary
280
     1
281
     1
  3
ACAD_XREC_ROUNDTRIP
360
1777
  0
XRECORD
  5
170A
102
{ACAD_REACTORS
330
1708
102
}
330
1708
100
AcDbXrecord
280
     1
270
     1
271
     1
  0
XRECORD
  5
1709
102
{ACAD_REACTORS
330
1708
102
}
330
1708
100
AcDbXrecord
280
     1
270
     1
271
     1
  0
XRECORD
  5
170D
102
{ACAD_REACTORS
330
1708
102
}
330
1708
100
AcDbXrecord
280
     1
270
     1
271
     1
  0
XRECORD
  5
170C
102
{ACAD_REACTORS
330
1708
102
}
330
1708
100
AcDbXrecord
280
     1
270
     1
271
     1
  0
XRECORD
  5
170E
102
{ACAD_REACTORS
330
1708
102
}
330
1708
100
AcDbXrecord
280
     1
270
     1
271
     1
  0
XRECORD
  5
170B
102
{ACAD_REACTORS
330
1708
102
}
330
1708
100
AcDbXrecord
280
     1
270
     1
271
     1
  0
XRECORD
  5
1702
102
{ACAD_REACTORS
330
1700
102
}
330
1700
100
AcDbXrecord
280
     1
270
     1
271
     1
  0
XRECORD
  5
1701
102
{ACAD_REACTORS
330
1700
102
}
330
1700
100
AcDbXrecord
280
     1
270
     1
271
     1
  0
XRECORD
  5
1705
102
{ACAD_REACTORS
330
1700
102
}
330
1700
100
AcDbXrecord
280
     1
270
     1
271
     1
  0
XRECORD
  5
1704
102
{ACAD_REACTORS
330
1700
102
}
330
1700
100
AcDbXrecord
280
     1
270
     1
271
     1
  0
XRECORD
  5
1706
102
{ACAD_REACTORS
330
1700
102
}
330
1700
100
AcDbXrecord
280
     1
270
     1
271
     1
  0
XRECORD
  5
1703
102
{ACAD_REACTORS
330
1700
102
}
330
1700
100
AcDbXrecord
280
     1
270
     1
271
     1
  0
XRECORD
  5
1712
102
{ACAD_REACTORS
330
1710
102
}
330
1710
100
AcDbXrecord
280
     1
270
     1
271
     1
  0
XRECORD
  5
1711
102
{ACAD_REACTORS
330
1710
102
}
330
1710
100
AcDbXrecord
280
     1
270
     1
271
     1
  0
XRECORD
  5
1715
102
{ACAD_REACTORS
330
1710
102
}
330
1710
100
AcDbXrecord
280
     1
270
     1
271
     1
  0
XRECORD
  5
1714
102
{ACAD_REACTORS
330
1710
102
}
330
1710
100
AcDbXrecord
280
     1
270
     1
271
     1
  0
XRECORD
  5
1716
102
{ACAD_REACTORS
330
1710
102
}
330
1710
100
AcDbXrecord
280
     1
270
     1
271
     1
  0
XRECORD
  5
1713
102
{ACAD_REACTORS
330
1710
102
}
330
1710
100
AcDbXrecord
280
     1
270
     1
271
     1
  0
CELLSTYLEMAP
  5
17FF
102
{ACAD_REACTORS
330
1752
102
}
330
1752
100
AcDbCellStyleMap
 90
        3
300
CELLSTYLE
  1
TABLEFORMAT_BEGIN
 90
        5
170
     1
 91
        0
 92
    32768
 62
   257
 93
        1
300
CONTENTFORMAT
  1
CONTENTFORMAT_BEGIN
 90
        0
 91
        0
 92
      512
 93
        0
300

 40
0.0
140
1.0
 94
        5
 62
     0
340
11
144
0.25
309
CONTENTFORMAT_END
171
     0
 94
        0
309
TABLEFORMAT_END
  1
CELLSTYLE_BEGIN
 90
        1
 91
        1
300
_TITLE
309
CELLSTYLE_END
300
CELLSTYLE
  1
TABLEFORMAT_BEGIN
 90
        5
170
     1
 91
        0
 92
        0
 62
   257
 93
        1
300
CONTENTFORMAT
  1
CONTENTFORMAT_BEGIN
 90
        0
 91
        0
 92
      512
 93
        0
300

 40
0.0
140
1.0
 94
        5
 62
     0
340
11
144
0.18
309
CONTENTFORMAT_END
171
     0
 94
        0
309
TABLEFORMAT_END
  1
CELLSTYLE_BEGIN
 90
        2
 91
        1
300
_HEADER
309
CELLSTYLE_END
300
CELLSTYLE
  1
TABLEFORMAT_BEGIN
 90
        5
170
     1
 91
        0
 92
        0
 62
   257
 93
        1
300
CONTENTFORMAT
  1
CONTENTFORMAT_BEGIN
 90
        0
 91
        0
 92
      512
 93
        0
300

 40
0.0
140
1.0
 94
        2
 62
     0
340
11
144
0.18
309
CONTENTFORMAT_END
171
     0
 94
        0
309
TABLEFORMAT_END
  1
CELLSTYLE_BEGIN
 90
        3
 91
        2
300
_DATA
309
CELLSTYLE_END
  0
XRECORD
  5
1769
102
{ACAD_REACTORS
330
1768
102
}
330
1768
100
AcDbXrecord
280
     1
102
RTVSPropertyOp0
 70
     1
102
RTVSPropertyOp1
 70
     1
102
RTVSPropertyOp2
 70
     1
102
RTVSPropertyOp3
 70
     1
102
RTVSPropertyOp4
 70
     1
102
RTVSPropertyOp5
 70
     1
102
RTVSPropertyOp6
 70
     1
102
RTVSPropertyOp7
 70
     1
102
RTVSPropertyOp8
 70
     1
102
RTVSPropertyOp9
 70
     1
102
RTVSPropertyOp10
 70
     1
102
RTVSPropertyOp11
 70
     1
102
RTVSPropertyOp12
 70
     1
102
RTVSPropertyOp13
 70
     1
102
RTVSPropertyOp14
 70
     1
102
RTVSPropertyOp15
 70
     1
102
RTVSPropertyOp16
 70
     1
102
RTVSPropertyOp17
 70
     1
102
RTVSPropertyOp18
 70
     1
102
RTVSPropertyOp19
 70
     1
102
RTVSPropertyOp20
 70
     1
102
RTVSPropertyOp21
 70
     1
102
RTVSPropertyOp22
 70
     1
102
RTVSPropertyOp23
 70
     1
102
RTVSPropertyOp24
 70
     1
102
RTVSPropertyOp25
 70
     1
102
RTVSPropertyOp26
 70
     1
102
RTVSPropertyOp27
 70
     1
  0
XRECORD
  5
176D
102
{ACAD_REACTORS
330
176C
102
}
330
176C
100
AcDbXrecord
280
     1
102
RTVSPropertyOp0
 70
     1
102
RTVSPropertyOp1
 70
     1
102
RTVSPropertyOp2
 70
     1
102
RTVSPropertyOp3
 70
     1
102
RTVSPropertyOp4
 70
     1
102
RTVSPropertyOp5
 70
     1
102
RTVSPropertyOp6
 70
     1
102
RTVSPropertyOp7
 70
     1
102
RTVSPropertyOp8
 70
     1
102
RTVSPropertyOp9
 70
     1
102
RTVSPropertyOp10
 70
     1
102
RTVSPropertyOp11
 70
     1
102
RTVSPropertyOp12
 70
     1
102
RTVSPropertyOp13
 70
     1
102
RTVSPropertyOp14
 70
     1
102
RTVSPropertyOp15
 70
     1
102
RTVSPropertyOp16
 70
     1
102
RTVSPropertyOp17
 70
     1
102
RTVSPropertyOp18
 70
     1
102
RTVSPropertyOp19
 70
     1
102
RTVSPropertyOp20
 70
     1
102
RTVSPropertyOp21
 70
     1
102
RTVSPropertyOp22
 70
     1
102
RTVSPropertyOp23
 70
     1
102
RTVSPropertyOp24
 70
     1
102
RTVSPropertyOp25
 70
     1
102
RTVSPropertyOp26
 70
     1
102
RTVSPropertyOp27
 70
     1
  0
XRECORD
  5
176B
102
{ACAD_REACTORS
330
176A
102
}
330
176A
100
AcDbXrecord
280
     1
102
RTVSPropertyOp0
 70
     1
102
RTVSPropertyOp1
 70
     1
102
RTVSPropertyOp2
 70
     1
102
RTVSPropertyOp3
 70
     1
102
RTVSPropertyOp4
 70
     1
102
RTVSPropertyOp5
 70
     1
102
RTVSPropertyOp6
 70
     1
102
RTVSPropertyOp7
 70
     1
102
RTVSPropertyOp8
 70
     1
102
RTVSPropertyOp9
 70
     1
102
RTVSPropertyOp10
 70
     1
102
RTVSPropertyOp11
 70
     1
102
RTVSPropertyOp12
 70
     1
102
RTVSPropertyOp13
 70
     1
102
RTVSPropertyOp14
 70
     1
102
RTVSPropertyOp15
 70
     1
102
RTVSPropertyOp16
 70
     1
102
RTVSPropertyOp17
 70
     1
102
RTVSPropertyOp18
 70
     1
102
RTVSPropertyOp19
 70
     1
102
RTVSPropertyOp20
 70
     1
102
RTVSPropertyOp21
 70
     1
102
RTVSPropertyOp22
 70
     1
102
RTVSPropertyOp23
 70
     1
102
RTVSPropertyOp24
 70
     1
102
RTVSPropertyOp25
 70
     1
102
RTVSPropertyOp26
 70
     1
102
RTVSPropertyOp27
 70
     1
  0
XRECORD
  5
1767
102
{ACAD_REACTORS
330
1766
102
}
330
1766
100
AcDbXrecord
280
     1
102
RTVSPropertyOp0
 70
     1
102
RTVSPropertyOp1
 70
     1
102
RTVSPropertyOp2
 70
     1
102
RTVSPropertyOp3
 70
     1
102
RTVSPropertyOp4
 70
     1
102
RTVSPropertyOp5
 70
     1
102
RTVSPropertyOp6
 70
     1
102
RTVSPropertyOp7
 70
     1
102
RTVSPropertyOp8
 70
     1
102
RTVSPropertyOp9
 70
     1
102
RTVSPropertyOp10
 70
     1
102
RTVSPropertyOp11
 70
     1
102
RTVSPropertyOp12
 70
     1
102
RTVSPropertyOp13
 70
     1
102
RTVSPropertyOp14
 70
     1
102
RTVSPropertyOp15
 70
     1
102
RTVSPropertyOp16
 70
     1
102
RTVSPropertyOp17
 70
     1
102
RTVSPropertyOp18
 70
     1
102
RTVSPropertyOp19
 70
     1
102
RTVSPropertyOp20
 70
     1
102
RTVSPropertyOp21
 70
     1
102
RTVSPropertyOp22
 70
     1
102
RTVSPropertyOp23
 70
     1
102
RTVSPropertyOp24
 70
     1
102
RTVSPropertyOp25
 70
     1
102
RTVSPropertyOp26
 70
     1
102
RTVSPropertyOp27
 70
     1
  0
XRECORD
  5
1775
102
{ACAD_REACTORS
330
1774
102
}
330
1774
100
AcDbXrecord
280
     1
102
RTVSPropertyOp0
 70
     1
102
RTVSPropertyOp1
 70
     1
102
RTVSPropertyOp2
 70
     1
102
RTVSPropertyOp3
 70
     1
102
RTVSPropertyOp4
 70
     1
102
RTVSPropertyOp5
 70
     1
102
RTVSPropertyOp6
 70
     1
102
RTVSPropertyOp7
 70
     1
102
RTVSPropertyOp8
 70
     1
102
RTVSPropertyOp9
 70
     1
102
RTVSPropertyOp10
 70
     1
102
RTVSPropertyOp11
 70
     1
102
RTVSPropertyOp12
 70
     1
102
RTVSPropertyOp13
 70
     1
102
RTVSPropertyOp14
 70
     1
102
RTVSPropertyOp15
 70
     1
102
RTVSPropertyOp16
 70
     1
102
RTVSPropertyOp17
 70
     1
102
RTVSPropertyOp18
 70
     1
102
RTVSPropertyOp19
 70
     1
102
RTVSPropertyOp20
 70
     1
102
RTVSPropertyOp21
 70
     1
102
RTVSPropertyOp22
 70
     1
102
RTVSPropertyOp23
 70
     1
102
RTVSPropertyOp24
 70
     1
102
RTVSPropertyOp25
 70
     1
102
RTVSPropertyOp26
 70
     1
102
RTVSPropertyOp27
 70
     1
  0
XRECORD
  5
177D
102
{ACAD_REACTORS
330
177C
102
}
330
177C
100
AcDbXrecord
280
     1
102
RTVSPropertyOp0
 70
     1
102
RTVSPropertyOp1
 70
     1
102
RTVSPropertyOp2
 70
     1
102
RTVSPropertyOp3
 70
     1
102
RTVSPropertyOp4
 70
     1
102
RTVSPropertyOp5
 70
     1
102
RTVSPropertyOp6
 70
     1
102
RTVSPropertyOp7
 70
     1
102
RTVSPropertyOp8
 70
     1
102
RTVSPropertyOp9
 70
     1
102
RTVSPropertyOp10
 70
     1
102
RTVSPropertyOp11
 70
     1
102
RTVSPropertyOp12
 70
     1
102
RTVSPropertyOp13
 70
     1
102
RTVSPropertyOp14
 70
     1
102
RTVSPropertyOp15
 70
     1
102
RTVSPropertyOp16
 70
     1
102
RTVSPropertyOp17
 70
     1
102
RTVSPropertyOp18
 70
     1
102
RTVSPropertyOp19
 70
     1
102
RTVSPropertyOp20
 70
     1
102
RTVSPropertyOp21
 70
     1
102
RTVSPropertyOp22
 70
     1
102
RTVSPropertyOp23
 70
     1
102
RTVSPropertyOp24
 70
     1
102
RTVSPropertyOp25
 70
     1
102
RTVSPropertyOp26
 70
     1
102
RTVSPropertyOp27
 70
     1
  0
XRECORD
  5
176F
102
{ACAD_REACTORS
330
176E
102
}
330
176E
100
AcDbXrecord
280
     1
102
RTVSPropertyOp0
 70
     1
102
RTVSPropertyOp1
 70
     1
102
RTVSPropertyOp2
 70
     1
102
RTVSPropertyOp3
 70
     1
102
RTVSPropertyOp4
 70
     1
102
RTVSPropertyOp5
 70
     1
102
RTVSPropertyOp6
 70
     1
102
RTVSPropertyOp7
 70
     1
102
RTVSPropertyOp8
 70
     1
102
RTVSPropertyOp9
 70
     1
102
RTVSPropertyOp10
 70
     1
102
RTVSPropertyOp11
 70
     1
102
RTVSPropertyOp12
 70
     1
102
RTVSPropertyOp13
 70
     1
102
RTVSPropertyOp14
 70
     1
102
RTVSPropertyOp15
 70
     1
102
RTVSPropertyOp16
 70
     1
102
RTVSPropertyOp17
 70
     1
102
RTVSPropertyOp18
 70
     1
102
RTVSPropertyOp19
 70
     1
102
RTVSPropertyOp20
 70
     1
102
RTVSPropertyOp21
 70
     1
102
RTVSPropertyOp22
 70
     1
102
RTVSPropertyOp23
 70
     1
102
RTVSPropertyOp24
 70
     1
102
RTVSPropertyOp25
 70
     1
102
RTVSPropertyOp26
 70
     1
102
RTVSPropertyOp27
 70
     1
  0
XRECORD
  5
1773
102
{ACAD_REACTORS
330
1772
102
}
330
1772
100
AcDbXrecord
280
     1
102
RTVSPropertyOp0
 70
     1
102
RTVSPropertyOp1
 70
     1
102
RTVSPropertyOp2
 70
     1
102
RTVSPropertyOp3
 70
     1
102
RTVSPropertyOp4
 70
     1
102
RTVSPropertyOp5
 70
     1
102
RTVSPropertyOp6
 70
     1
102
RTVSPropertyOp7
 70
     1
102
RTVSPropertyOp8
 70
     1
102
RTVSPropertyOp9
 70
     1
102
RTVSPropertyOp10
 70
     1
102
RTVSPropertyOp11
 70
     1
102
RTVSPropertyOp12
 70
     1
102
RTVSPropertyOp13
 70
     1
102
RTVSPropertyOp14
 70
     1
102
RTVSPropertyOp15
 70
     1
102
RTVSPropertyOp16
 70
     1
102
RTVSPropertyOp17
 70
     1
102
RTVSPropertyOp18
 70
     1
102
RTVSPropertyOp19
 70
     1
102
RTVSPropertyOp20
 70
     1
102
RTVSPropertyOp21
 70
     1
102
RTVSPropertyOp22
 70
     1
102
RTVSPropertyOp23
 70
     1
102
RTVSPropertyOp24
 70
     1
102
RTVSPropertyOp25
 70
     1
102
RTVSPropertyOp26
 70
     1
102
RTVSPropertyOp27
 70
     1
  0
XRECORD
  5
1783
102
{ACAD_REACTORS
330
1782
102
}
330
1782
100
AcDbXrecord
280
     1
102
RTVSPropertyOp0
 70
     0
102
RTVSPropertyOp1
 70
     0
102
RTVSPropertyOp2
 70
     0
102
RTVSPropertyOp3
 70
     0
102
RTVSPropertyOp4
 70
     0
102
RTVSPropertyOp5
 70
     0
102
RTVSPropertyOp6
 70
     0
102
RTVSPropertyOp7
 70
     0
102
RTVSPropertyOp8
 70
     0
102
RTVSPropertyOp9
 70
     0
102
RTVSPropertyOp10
 70
     0
102
RTVSPropertyOp11
 70
     0
102
RTVSPropertyOp12
 70
     0
102
RTVSPropertyOp13
 70
     0
102
RTVSPropertyOp14
 70
     2
102
RTVSPropertyOp15
 70
     0
102
RTVSPropertyOp16
 70
     0
102
RTVSPropertyOp17
 70
     0
102
RTVSPropertyOp18
 70
     0
102
RTVSPropertyOp19
 70
     0
102
RTVSPropertyOp20
 70
     0
102
RTVSPropertyOp21
 70
     0
102
RTVSPropertyOp22
 70
     0
102
RTVSPropertyOp23
 70
     0
102
RTVSPropertyOp24
 70
     0
102
RTVSPropertyOp25
 70
     0
102
RTVSPropertyOp26
 70
     0
102
RTVSPropertyOp27
 70
     0
  0
XRECORD
  5
177B
102
{ACAD_REACTORS
330
177A
102
}
330
177A
100
AcDbXrecord
280
     1
102
RTVSPropertyOp0
 70
     1
102
RTVSPropertyOp1
 70
     1
102
RTVSPropertyOp2
 70
     1
102
RTVSPropertyOp3
 70
     1
102
RTVSPropertyOp4
 70
     1
102
RTVSPropertyOp5
 70
     1
102
RTVSPropertyOp6
 70
     1
102
RTVSPropertyOp7
 70
     1
102
RTVSPropertyOp8
 70
     1
102
RTVSPropertyOp9
 70
     1
102
RTVSPropertyOp10
 70
     1
102
RTVSPropertyOp11
 70
     1
102
RTVSPropertyOp12
 70
     1
102
RTVSPropertyOp13
 70
     1
102
RTVSPropertyOp14
 70
     1
102
RTVSPropertyOp15
 70
     1
102
RTVSPropertyOp16
 70
     1
102
RTVSPropertyOp17
 70
     1
102
RTVSPropertyOp18
 70
     1
102
RTVSPropertyOp19
 70
     1
102
RTVSPropertyOp20
 70
     1
102
RTVSPropertyOp21
 70
     1
102
RTVSPropertyOp22
 70
     1
102
RTVSPropertyOp23
 70
     1
102
RTVSPropertyOp24
 70
     1
102
RTVSPropertyOp25
 70
     1
102
RTVSPropertyOp26
 70
     1
102
RTVSPropertyOp27
 70
     1
  0
XRECORD
  5
175F
102
{ACAD_REACTORS
330
175E
102
}
330
175E
100
AcDbXrecord
280
     1
102
RTVSPropertyOp0
 70
     1
102
RTVSPropertyOp1
 70
     1
102
RTVSPropertyOp2
 70
     1
102
RTVSPropertyOp3
 70
     1
102
RTVSPropertyOp4
 70
     1
102
RTVSPropertyOp5
 70
     1
102
RTVSPropertyOp6
 70
     1
102
RTVSPropertyOp7
 70
     1
102
RTVSPropertyOp8
 70
     1
102
RTVSPropertyOp9
 70
     1
102
RTVSPropertyOp10
 70
     1
102
RTVSPropertyOp11
 70
     1
102
RTVSPropertyOp12
 70
     1
102
RTVSPropertyOp13
 70
     1
102
RTVSPropertyOp14
 70
     1
102
RTVSPropertyOp15
 70
     1
102
RTVSPropertyOp16
 70
     1
102
RTVSPropertyOp17
 70
     1
102
RTVSPropertyOp18
 70
     1
102
RTVSPropertyOp19
 70
     1
102
RTVSPropertyOp20
 70
     1
102
RTVSPropertyOp21
 70
     1
102
RTVSPropertyOp22
 70
     1
102
RTVSPropertyOp23
 70
     1
102
RTVSPropertyOp24
 70
     1
102
RTVSPropertyOp25
 70
     1
102
RTVSPropertyOp26
 70
     1
102
RTVSPropertyOp27
 70
     1
  0
XRECORD
  5
1761
102
{ACAD_REACTORS
330
1760
102
}
330
1760
100
AcDbXrecord
280
     1
102
RTVSPropertyOp0
 70
     1
102
RTVSPropertyOp1
 70
     1
102
RTVSPropertyOp2
 70
     1
102
RTVSPropertyOp3
 70
     1
102
RTVSPropertyOp4
 70
     1
102
RTVSPropertyOp5
 70
     1
102
RTVSPropertyOp6
 70
     1
102
RTVSPropertyOp7
 70
     1
102
RTVSPropertyOp8
 70
     1
102
RTVSPropertyOp9
 70
     1
102
RTVSPropertyOp10
 70
     1
102
RTVSPropertyOp11
 70
     1
102
RTVSPropertyOp12
 70
     1
102
RTVSPropertyOp13
 70
     1
102
RTVSPropertyOp14
 70
     1
102
RTVSPropertyOp15
 70
     1
102
RTVSPropertyOp16
 70
     1
102
RTVSPropertyOp17
 70
     1
102
RTVSPropertyOp18
 70
     1
102
RTVSPropertyOp19
 70
     1
102
RTVSPropertyOp20
 70
     1
102
RTVSPropertyOp21
 70
     1
102
RTVSPropertyOp22
 70
     1
102
RTVSPropertyOp23
 70
     1
102
RTVSPropertyOp24
 70
     1
102
RTVSPropertyOp25
 70
     1
102
RTVSPropertyOp26
 70
     1
102
RTVSPropertyOp27
 70
     1
  0
XRECORD
  5
1763
102
{ACAD_REACTORS
330
1762
102
}
330
1762
100
AcDbXrecord
280
     1
102
RTVSPropertyOp0
 70
     1
102
RTVSPropertyOp1
 70
     1
102
RTVSPropertyOp2
 70
     1
102
RTVSPropertyOp3
 70
     1
102
RTVSPropertyOp4
 70
     1
102
RTVSPropertyOp5
 70
     1
102
RTVSPropertyOp6
 70
     1
102
RTVSPropertyOp7
 70
     1
102
RTVSPropertyOp8
 70
     1
102
RTVSPropertyOp9
 70
     1
102
RTVSPropertyOp10
 70
     1
102
RTVSPropertyOp11
 70
     1
102
RTVSPropertyOp12
 70
     1
102
RTVSPropertyOp13
 70
     1
102
RTVSPropertyOp14
 70
     1
102
RTVSPropertyOp15
 70
     1
102
RTVSPropertyOp16
 70
     1
102
RTVSPropertyOp17
 70
     1
102
RTVSPropertyOp18
 70
     1
102
RTVSPropertyOp19
 70
     1
102
RTVSPropertyOp20
 70
     1
102
RTVSPropertyOp21
 70
     1
102
RTVSPropertyOp22
 70
     1
102
RTVSPropertyOp23
 70
     1
102
RTVSPropertyOp24
 70
     1
102
RTVSPropertyOp25
 70
     1
102
RTVSPropertyOp26
 70
     1
102
RTVSPropertyOp27
 70
     1
  0
XRECORD
  5
1765
102
{ACAD_REACTORS
330
1764
102
}
330
1764
100
AcDbXrecord
280
     1
102
RTVSPropertyOp0
 70
     1
102
RTVSPropertyOp1
 70
     1
102
RTVSPropertyOp2
 70
     1
102
RTVSPropertyOp3
 70
     1
102
RTVSPropertyOp4
 70
     1
102
RTVSPropertyOp5
 70
     1
102
RTVSPropertyOp6
 70
     1
102
RTVSPropertyOp7
 70
     1
102
RTVSPropertyOp8
 70
     1
102
RTVSPropertyOp9
 70
     1
102
RTVSPropertyOp10
 70
     1
102
RTVSPropertyOp11
 70
     1
102
RTVSPropertyOp12
 70
     1
102
RTVSPropertyOp13
 70
     1
102
RTVSPropertyOp14
 70
     1
102
RTVSPropertyOp15
 70
     1
102
RTVSPropertyOp16
 70
     1
102
RTVSPropertyOp17
 70
     1
102
RTVSPropertyOp18
 70
     1
102
RTVSPropertyOp19
 70
     1
102
RTVSPropertyOp20
 70
     1
102
RTVSPropertyOp21
 70
     1
102
RTVSPropertyOp22
 70
     1
102
RTVSPropertyOp23
 70
     1
102
RTVSPropertyOp24
 70
     1
102
RTVSPropertyOp25
 70
     1
102
RTVSPropertyOp26
 70
     1
102
RTVSPropertyOp27
 70
     1
  0
XRECORD
  5
177F
102
{ACAD_REACTORS
330
177E
102
}
330
177E
100
AcDbXrecord
280
     1
102
RTVSPropertyOp0
 70
     0
102
RTVSPropertyOp1
 70
     0
102
RTVSPropertyOp2
 70
     0
102
RTVSPropertyOp3
 70
     0
102
RTVSPropertyOp4
 70
     0
102
RTVSPropertyOp5
 70
     0
102
RTVSPropertyOp6
 70
     0
102
RTVSPropertyOp7
 70
     0
102
RTVSPropertyOp8
 70
     0
102
RTVSPropertyOp9
 70
     0
102
RTVSPropertyOp10
 70
     0
102
RTVSPropertyOp11
 70
     0
102
RTVSPropertyOp12
 70
     0
102
RTVSPropertyOp13
 70
     0
102
RTVSPropertyOp14
 70
     2
102
RTVSPropertyOp15
 70
     0
102
RTVSPropertyOp16
 70
     0
102
RTVSPropertyOp17
 70
     0
102
RTVSPropertyOp18
 70
     0
102
RTVSPropertyOp19
 70
     0
102
RTVSPropertyOp20
 70
     0
102
RTVSPropertyOp21
 70
     0
102
RTVSPropertyOp22
 70
     0
102
RTVSPropertyOp23
 70
     0
102
RTVSPropertyOp24
 70
     0
102
RTVSPropertyOp25
 70
     0
102
RTVSPropertyOp26
 70
     0
102
RTVSPropertyOp27
 70
     0
  0
XRECORD
  5
1779
102
{ACAD_REACTORS
330
1778
102
}
330
1778
100
AcDbXrecord
280
     1
102
RTVSPropertyOp0
 70
     1
102
RTVSPropertyOp1
 70
     1
102
RTVSPropertyOp2
 70
     1
102
RTVSPropertyOp3
 70
     1
102
RTVSPropertyOp4
 70
     1
102
RTVSPropertyOp5
 70
     1
102
RTVSPropertyOp6
 70
     1
102
RTVSPropertyOp7
 70
     1
102
RTVSPropertyOp8
 70
     1
102
RTVSPropertyOp9
 70
     1
102
RTVSPropertyOp10
 70
     1
102
RTVSPropertyOp11
 70
     1
102
RTVSPropertyOp12
 70
     1
102
RTVSPropertyOp13
 70
     1
102
RTVSPropertyOp14
 70
     1
102
RTVSPropertyOp15
 70
     1
102
RTVSPropertyOp16
 70
     1
102
RTVSPropertyOp17
 70
     1
102
RTVSPropertyOp18
 70
     1
102
RTVSPropertyOp19
 70
     1
102
RTVSPropertyOp20
 70
     1
102
RTVSPropertyOp21
 70
     1
102
RTVSPropertyOp22
 70
     1
102
RTVSPropertyOp23
 70
     1
102
RTVSPropertyOp24
 70
     1
102
RTVSPropertyOp25
 70
     1
102
RTVSPropertyOp26
 70
     1
102
RTVSPropertyOp27
 70
     1
  0
XRECORD
  5
1781
102
{ACAD_REACTORS
330
1780
102
}
330
1780
100
AcDbXrecord
280
     1
102
RTVSPropertyOp0
 70
     0
102
RTVSPropertyOp1
 70
     0
102
RTVSPropertyOp2
 70
     0
102
RTVSPropertyOp3
 70
     0
102
RTVSPropertyOp4
 70
     0
102
RTVSPropertyOp5
 70
     0
102
RTVSPropertyOp6
 70
     0
102
RTVSPropertyOp7
 70
     0
102
RTVSPropertyOp8
 70
     0
102
RTVSPropertyOp9
 70
     0
102
RTVSPropertyOp10
 70
     0
102
RTVSPropertyOp11
 70
     0
102
RTVSPropertyOp12
 70
     0
102
RTVSPropertyOp13
 70
     0
102
RTVSPropertyOp14
 70
     2
102
RTVSPropertyOp15
 70
     0
102
RTVSPropertyOp16
 70
     0
102
RTVSPropertyOp17
 70
     0
102
RTVSPropertyOp18
 70
     0
102
RTVSPropertyOp19
 70
     0
102
RTVSPropertyOp20
 70
     0
102
RTVSPropertyOp21
 70
     0
102
RTVSPropertyOp22
 70
     0
102
RTVSPropertyOp23
 70
     0
102
RTVSPropertyOp24
 70
     0
102
RTVSPropertyOp25
 70
     0
102
RTVSPropertyOp26
 70
     0
102
RTVSPropertyOp27
 70
     0
  0
XRECORD
  5
1771
102
{ACAD_REACTORS
330
1770
102
}
330
1770
100
AcDbXrecord
280
     1
102
RTVSPropertyOp0
 70
     1
102
RTVSPropertyOp1
 70
     1
102
RTVSPropertyOp2
 70
     1
102
RTVSPropertyOp3
 70
     1
102
RTVSPropertyOp4
 70
     1
102
RTVSPropertyOp5
 70
     1
102
RTVSPropertyOp6
 70
     1
102
RTVSPropertyOp7
 70
     1
102
RTVSPropertyOp8
 70
     1
102
RTVSPropertyOp9
 70
     1
102
RTVSPropertyOp10
 70
     1
102
RTVSPropertyOp11
 70
     1
102
RTVSPropertyOp12
 70
     1
102
RTVSPropertyOp13
 70
     1
102
RTVSPropertyOp14
 70
     1
102
RTVSPropertyOp15
 70
     1
102
RTVSPropertyOp16
 70
     1
102
RTVSPropertyOp17
 70
     1
102
RTVSPropertyOp18
 70
     1
102
RTVSPropertyOp19
 70
     1
102
RTVSPropertyOp20
 70
     1
102
RTVSPropertyOp21
 70
     1
102
RTVSPropertyOp22
 70
     1
102
RTVSPropertyOp23
 70
     1
102
RTVSPropertyOp24
 70
     1
102
RTVSPropertyOp25
 70
     1
102
RTVSPropertyOp26
 70
     1
102
RTVSPropertyOp27
 70
     1
  0
XRECORD
  5
1777
102
{ACAD_REACTORS
330
1776
102
}
330
1776
100
AcDbXrecord
280
     1
102
RTVSPropertyOp0
 70
     1
102
RTVSPropertyOp1
 70
     1
102
RTVSPropertyOp2
 70
     1
102
RTVSPropertyOp3
 70
     1
102
RTVSPropertyOp4
 70
     1
102
RTVSPropertyOp5
 70
     1
102
RTVSPropertyOp6
 70
     1
102
RTVSPropertyOp7
 70
     1
102
RTVSPropertyOp8
 70
     1
102
RTVSPropertyOp9
 70
     1
102
RTVSPropertyOp10
 70
     1
102
RTVSPropertyOp11
 70
     1
102
RTVSPropertyOp12
 70
     1
102
RTVSPropertyOp13
 70
     1
102
RTVSPropertyOp14
 70
     1
102
RTVSPropertyOp15
 70
     1
102
RTVSPropertyOp16
 70
     1
102
RTVSPropertyOp17
 70
     1
102
RTVSPropertyOp18
 70
     1
102
RTVSPropertyOp19
 70
     1
102
RTVSPropertyOp20
 70
     1
102
RTVSPropertyOp21
 70
     1
102
RTVSPropertyOp22
 70
     1
102
RTVSPropertyOp23
 70
     1
102
RTVSPropertyOp24
 70
     1
102
RTVSPropertyOp25
 70
     1
102
RTVSPropertyOp26
 70
     1
102
RTVSPropertyOp27
 70
     1
  0
ENDSEC
  0
EOF
