  0
SECTION
  2
HEADER
  9
$ACADVER
  1
AC1014
  9
$ACADMAINTVER
 70
     9
  9
$DWGCODEPAGE
  3
ANSI_1252
  9
$INSBASE
 10
0.0
 20
0.0
 30
0.0
  9
$EXTMIN
 10
0.0
 20
-1.516033490892581
 30
0.0
  9
$EXTMAX
 10
62.7174034352
 20
19.29842486634292
 30
0.0
  9
$LIMMIN
 10
0.0
 20
0.0
  9
$LIMMAX
 10
17.0
 20
11.0
  9
$ORTHOMODE
 70
     1
  9
$REGENMODE
 70
     1
  9
$FILLMODE
 70
     1
  9
$QTEXTMODE
 70
     0
  9
$MIRRTEXT
 70
     1
  9
$DRAGMODE
 70
     2
  9
$LTSCALE
 40
0.9350000000000001
  9
$OSMODE
 70
    37
  9
$ATTMODE
 70
     1
  9
$TEXTSIZE
 40
0.2
  9
$TRACEWID
 40
0.05
  9
$TEXTSTYLE
  7
STANDARD
  9
$CLAYER
  8
0
  9
$CELTYPE
  6
BYLAYER
  9
$CECOLOR
 62
   256
  9
$CELTSCALE
 40
1.0
  9
$DELOBJ
 70
     1
  9
$DISPSILH
 70
     0
  9
$DIMSCALE
 40
1.0
  9
$DIMASZ
 40
0.1875
  9
$DIMEXO
 40
0.10625
  9
$DIMDLI
 40
0.646
  9
$DIMRND
 40
0.0
  9
$DIMDLE
 40
0.0
  9
$DIMEXE
 40
0.306
  9
$DIMTP
 40
0.0
  9
$DIMTM
 40
0.0
  9
$DIMTXT
 40
0.125
  9
$DIMCEN
 40
0.153
  9
$DIMTSZ
 40
0.0
  9
$DIMTOL
 70
     0
  9
$DIMLIM
 70
     0
  9
$DIMTIH
 70
     1
  9
$DIMTOH
 70
     1
  9
$DIMSE1
 70
     0
  9
$DIMSE2
 70
     0
  9
$DIMTAD
 70
     0
  9
$DIMZIN
 70
     0
  9
$DIMBLK
  1
_FILLED
  9
$DIMASO
 70
     1
  9
$DIMSHO
 70
     1
  9
$DIMPOST
  1

  9
$DIMAPOST
  1

  9
$DIMALT
 70
     0
  9
$DIMALTD
 70
     2
  9
$DIMALTF
 40
25.4
  9
$DIMLFAC
 40
1.0
  9
$DIMTOFL
 70
     0
  9
$DIMTVP
 40
0.0
  9
$DIMTIX
 70
     0
  9
$DIMSOXD
 70
     0
  9
$DIMSAH
 70
     0
  9
$DIMBLK1
  1

  9
$DIMBLK2
  1

  9
$DIMSTYLE
  2
STANDARD
  9
$DIMCLRD
 70
     0
  9
$DIMCLRE
 70
     0
  9
$DIMCLRT
 70
     0
  9
$DIMTFAC
 40
1.0
  9
$DIMGAP
 40
0.09
  9
$DIMJUST
 70
     0
  9
$DIMSD1
 70
     0
  9
$DIMSD2
 70
     0
  9
$DIMTOLJ
 70
     1
  9
$DIMTZIN
 70
     0
  9
$DIMALTZ
 70
     0
  9
$DIMALTTZ
 70
     0
  9
$DIMFIT
 70
     3
  9
$DIMUPT
 70
     0
  9
$DIMUNIT
 70
     2
  9
$DIMDEC
 70
     4
  9
$DIMTDEC
 70
     4
  9
$DIMALTU
 70
     2
  9
$DIMALTTD
 70
     2
  9
$DIMTXSTY
  7
STANDARD
  9
$DIMAUNIT
 70
     0
  9
$LUNITS
 70
     2
  9
$LUPREC
 70
     4
  9
$SKETCHINC
 40
0.1
  9
$FILLETRAD
 40
1.0
  9
$AUNITS
 70
     0
  9
$AUPREC
 70
     0
  9
$MENU
  1
acad
  9
$ELEVATION
 40
0.0
  9
$PELEVATION
 40
0.0
  9
$THICKNESS
 40
0.0
  9
$LIMCHECK
 70
     0
  9
$BLIPMODE
 70
     0
  9
$CHAMFERA
 40
0.0
  9
$CHAMFERB
 40
0.0
  9
$CHAMFERC
 40
0.0
  9
$CHAMFERD
 40
0.0
  9
$SKPOLY
 70
     0
  9
$TDCREATE
 40
2454041.682260359
  9
$TDUPDATE
 40
2454043.627074907
  9
$TDINDWG
 40
0.2863173264
  9
$TDUSRTIMER
 40
0.2863173264
  9
$USRTIMER
 70
     1
  9
$ANGBASE
 50
0.0
  9
$ANGDIR
 70
     0
  9
$PDMODE
 70
     3
  9
$PDSIZE
 40
0.03125
  9
$PLINEWID
 40
0.0
  9
$COORDS
 70
     0
  9
$SPLFRAME
 70
     0
  9
$SPLINETYPE
 70
     6
  9
$SPLINESEGS
 70
     8
  9
$ATTDIA
 70
     0
  9
$ATTREQ
 70
     1
  9
$HANDLING
 70
-16383
  9
$HANDSEED
  5
9E1
  9
$SURFTAB1
 70
     6
  9
$SURFTAB2
 70
     6
  9
$SURFTYPE
 70
     6
  9
$SURFU
 70
     6
  9
$SURFV
 70
     6
  9
$UCSNAME
  2

  9
$UCSORG
 10
0.0
 20
0.0
 30
0.0
  9
$UCSXDIR
 10
1.0
 20
0.0
 30
0.0
  9
$UCSYDIR
 10
0.0
 20
1.0
 30
0.0
  9
$PUCSNAME
  2

  9
$PUCSORG
 10
0.0
 20
0.0
 30
0.0
  9
$PUCSXDIR
 10
1.0
 20
0.0
 30
0.0
  9
$PUCSYDIR
 10
0.0
 20
1.0
 30
0.0
  9
$USERI1
 70
     0
  9
$USERI2
 70
     0
  9
$USERI3
 70
     0
  9
$USERI4
 70
     0
  9
$USERI5
 70
     0
  9
$USERR1
 40
0.0
  9
$USERR2
 40
0.0
  9
$USERR3
 40
0.0
  9
$USERR4
 40
0.0
  9
$USERR5
 40
0.0
  9
$WORLDVIEW
 70
     1
  9
$SHADEDGE
 70
     3
  9
$SHADEDIF
 70
    70
  9
$TILEMODE
 70
     1
  9
$MAXACTVP
 70
    16
  9
$PINSBASE
 10
0.0
 20
0.0
 30
0.0
  9
$PLIMCHECK
 70
     0
  9
$PEXTMIN
 10
1.000000000000000E+20
 20
1.000000000000000E+20
 30
1.000000000000000E+20
  9
$PEXTMAX
 10
-1.000000000000000E+20
 20
-1.000000000000000E+20
 30
-1.000000000000000E+20
  9
$PLIMMIN
 10
0.0
 20
0.0
  9
$PLIMMAX
 10
12.0
 20
9.0
  9
$UNITMODE
 70
     0
  9
$VISRETAIN
 70
     0
  9
$PLINEGEN
 70
     1
  9
$PSLTSCALE
 70
     0
  9
$TREEDEPTH
 70
  3020
  9
$PICKSTYLE
 70
     1
  9
$CMLSTYLE
  2
STANDARD
  9
$CMLJUST
 70
     0
  9
$CMLSCALE
 40
1.0
  9
$PROXYGRAPHICS
 70
     0
  9
$MEASUREMENT
 70
     0
  0
ENDSEC
  0
SECTION
  2
CLASSES
  0
CLASS
  1
ACDBDICTIONARYWDFLT
  2
AcDbDictionaryWithDefault
  3
AutoCAD 2000
 90
        0
280
     0
281
     0
  0
CLASS
  1
ACDBPLACEHOLDER
  2
AcDbPlaceHolder
  3
AutoCAD 2000
 90
        0
280
     0
281
     0
  0
CLASS
  1
LAYOUT
  2
AcDbLayout
  3
AutoCAD 2000
 90
        0
280
     0
281
     0
  0
CLASS
  1
LWPOLYLINE
  2
AcDbPolyline
  3
AutoCAD 2000
 90
        0
280
     0
281
     1
  0
CLASS
  1
IMAGE
  2
AcDbRasterImage
  3
ISM
 90
      127
280
     0
281
     1
  0
CLASS
  1
OLE2FRAME
  2
AcDbOle2Frame
  3
AutoCAD 2000
 90
        0
280
     0
281
     1
  0
CLASS
  1
HATCH
  2
AcDbHatch
  3
AutoCAD 2000
 90
        0
280
     0
281
     1
  0
CLASS
  1
DICTIONARYVAR
  2
AcDbDictionaryVar
  3
AutoCAD 2000
 90
        0
280
     0
281
     0
  0
CLASS
  1
RASTERVARIABLES
  2
AcDbRasterVariables
  3
ISM
 90
        0
280
     0
281
     0
  0
CLASS
  1
IMAGEDEF
  2
AcDbRasterImageDef
  3
ISM
 90
        0
280
     0
281
     0
  0
CLASS
  1
IMAGEDEF_REACTOR
  2
AcDbRasterImageDefReactor
  3
ISM
 90
        1
280
     0
281
     0
  0
CLASS
  1
IDBUFFER
  2
AcDbIdBuffer
  3
AutoCAD 2000
 90
        0
280
     0
281
     0
  0
CLASS
  1
SPATIAL_FILTER
  2
AcDbSpatialFilter
  3
AutoCAD 2000
 90
        0
280
     0
281
     0
  0
CLASS
  1
XRECORD
  2
AcDbXrecord
  3
AutoCAD 2000
 90
        0
280
     0
281
     0
  0
CLASS
  1
SORTENTSTABLE
  2
AcDbSortentsTable
  3
AutoCAD 2000
 90
        0
280
     0
281
     0
  0
CLASS
  1
LAYER_INDEX
  2
AcDbLayerIndex
  3
AutoCAD 2000
 90
        0
280
     0
281
     0
  0
CLASS
  1
SPATIAL_INDEX
  2
AcDbSpatialIndex
  3
AutoCAD 2000
 90
        0
280
     0
281
     0
  0
CLASS
  1
OBJECT_PTR
  2
CAseDLPNTableRecord
  3
ASE-LPNTableRecord
 90
        1
280
     0
281
     0
  0
CLASS
  1
PLOTSETTINGS
  2
AcDbPlotSettings
  3
AutoCAD 2000
 90
        0
280
     0
281
     0
  0
CLASS
  1
VBA_PROJECT
  2
AcDbVbaProject
  3
acadvba
 90
        0
280
     0
281
     0
  0
CLASS
  1
WIPEOUT
  2
AcDbWipeout
  3
WipeOut|AutoCAD Express Tool|expresstools@autodesk.com
 90
      127
280
     0
281
     1
  0
CLASS
  1
WIPEOUTVARIABLES
  2
AcDbWipeoutVariables
  3
WipeOut|AutoCAD Express Tool|expresstools@autodesk.com
 90
        0
280
     0
281
     0
  0
CLASS
  1
RTEXT
  2
RText
  3
RText|AutoCAD Express Tool|expresstools@autodesk.com
 90
        0
280
     0
281
     1
  0
CLASS
  1
ARCALIGNEDTEXT
  2
AcDbArcAlignedText
  3
ATEXT|AutoCAD Express Tool|expresstools@autodesk.com
 90
        0
280
     0
281
     1
  0
CLASS
  1
LONG_TRANSACTION
  2
AcDbLongTransaction
  3
AutoCAD 2000
 90
        0
280
     0
281
     0
  0
CLASS
  1
LWPOLYLINE
  2
AcDbPolyline
  3
AutoCAD 2000
 90
        0
280
     0
281
     1
  0
CLASS
  1
HATCH
  2
AcDbHatch
  3
AutoCAD 2000
 90
        0
280
     0
281
     1
  0
CLASS
  1
XRECORD
  2
AcDbXrecord
  3
AutoCAD 2000
 90
        0
280
     0
281
     0
  0
ENDSEC
  0
SECTION
  2
TABLES
  0
TABLE
  2
VPORT
  5
8
330
0
100
AcDbSymbolTable
 70
     3
  0
VPORT
  5
9BB
330
8
100
AcDbSymbolTableRecord
100
AcDbViewportTableRecord
  2
*ACTIVE
 70
     0
 10
0.0
 20
0.0
 11
1.0
 21
1.0
 12
30.8666470047814
 22
10.54899747081269
 13
0.0
 23
0.0
 14
1.0
 24
1.0
 15
0.0
 25
0.0
 16
0.0
 26
0.0
 36
1.0
 17
0.0
 27
0.0
 37
0.0
 40
38.22462102661986
 41
1.745424292845258
 42
50.0
 43
0.0
 44
0.0
 50
0.0
 51
0.0
 71
     0
 72
   100
 73
     1
 74
     1
 75
     0
 76
     0
 77
     0
 78
     0
  0
ENDTAB
  0
TABLE
  2
LTYPE
  5
5
330
0
100
AcDbSymbolTable
 70
     3
  0
LTYPE
  5
14
330
5
100
AcDbSymbolTableRecord
100
AcDbLinetypeTableRecord
  2
BYBLOCK
 70
     0
  3

 72
    65
 73
     0
 40
0.0
  0
LTYPE
  5
15
330
5
100
AcDbSymbolTableRecord
100
AcDbLinetypeTableRecord
  2
BYLAYER
 70
     0
  3

 72
    65
 73
     0
 40
0.0
  0
LTYPE
  5
16
330
5
100
AcDbSymbolTableRecord
100
AcDbLinetypeTableRecord
  2
CONTINUOUS
 70
     0
  3
Solid line
 72
    65
 73
     0
 40
0.0
  0
LTYPE
  5
1F6
330
5
100
AcDbSymbolTableRecord
100
AcDbLinetypeTableRecord
  2
HIDDEN
 70
     0
  3
- - - - - - - - - - - - - - - - - - - -
 72
    65
 73
     2
 40
0.2
 49
0.1
 74
     0
 49
-0.1
 74
     0
  0
LTYPE
  5
910
330
5
100
AcDbSymbolTableRecord
100
AcDbLinetypeTableRecord
  2
CENTERX2
 70
     0
  3
Center (2x) ________  __  ________  __  _____
 72
    65
 73
     4
 40
4.0
 49
2.5
 74
     0
 49
-0.5
 74
     0
 49
0.5
 74
     0
 49
-0.5
 74
     0
  0
ENDTAB
  0
TABLE
  2
LAYER
  5
2
330
0
100
AcDbSymbolTable
 70
     2
  0
LAYER
  5
10
330
2
100
AcDbSymbolTableRecord
100
AcDbLayerTableRecord
  2
0
 70
     0
 62
     7
  6
CONTINUOUS
  0
LAYER
  5
911
330
2
100
AcDbSymbolTableRecord
100
AcDbLayerTableRecord
  2
CENTER
 70
     0
 62
     1
  6
CENTERX2
  0
ENDTAB
  0
TABLE
  2
STYLE
  5
3
330
0
100
AcDbSymbolTable
 70
     2
  0
STYLE
  5
11
330
3
100
AcDbSymbolTableRecord
100
AcDbTextStyleTableRecord
  2
STANDARD
 70
     0
 40
0.0
 41
0.8
 50
0.0
 71
     0
 42
0.2
  3
txt
  4

  0
STYLE
  5
212
330
3
100
AcDbSymbolTableRecord
100
AcDbTextStyleTableRecord
  2
TEXTSTYLE_1
 70
     0
 40
0.0
 41
0.8
 50
0.0
 71
     0
 42
0.2
  3
txt
  4

  0
ENDTAB
  0
TABLE
  2
VIEW
  5
6
330
0
100
AcDbSymbolTable
 70
     0
  0
ENDTAB
  0
TABLE
  2
UCS
  5
7
330
0
100
AcDbSymbolTable
 70
     0
  0
ENDTAB
  0
TABLE
  2
APPID
  5
9
330
0
100
AcDbSymbolTable
 70
     2
  0
APPID
  5
216
330
9
100
AcDbSymbolTableRecord
100
AcDbRegAppTableRecord
  2
ACAD
 70
     0
  0
APPID
  5
90C
330
9
100
AcDbSymbolTableRecord
100
AcDbRegAppTableRecord
  2
DCO15
 70
     0
  0
ENDTAB
  0
TABLE
  2
DIMSTYLE
  5
A
330
0
100
AcDbSymbolTable
 70
     1
  0
DIMSTYLE
105
237
330
A
100
AcDbSymbolTableRecord
100
AcDbDimStyleTableRecord
  2
STANDARD
 70
     0
  3

  4

  5
_FILLED
  6
_FILLED
  7
_FILLED
 40
1.0
 41
0.1875
 42
0.0625
 43
0.38
 44
0.18
 45
0.0
 46
0.0
 47
0.00001
 48
0.00001
140
0.125
141
0.09
142
0.0
143
25.4
144
1.0
145
0.0
146
1.0
147
0.09
 71
     0
 72
     0
 73
     1
 74
     1
 75
     0
 76
     0
 77
     0
 78
     4
170
     0
171
     2
172
     0
173
     0
174
     0
175
     0
176
     0
177
     0
178
     0
270
     2
271
     5
272
     5
273
     2
274
     2
340
11
275
     0
280
     0
281
     0
282
     0
283
     1
284
     4
285
     0
286
     0
287
     3
288
     0
  0
ENDTAB
  0
TABLE
  2
BLOCK_RECORD
  5
1
330
0
100
AcDbSymbolTable
 70
     1
  0
BLOCK_RECORD
  5
1F
102
{ACAD_XDICTIONARY
360
9DF
102
}
330
1
100
AcDbSymbolTableRecord
100
AcDbBlockTableRecord
  2
*MODEL_SPACE
  0
BLOCK_RECORD
  5
1B
102
{ACAD_XDICTIONARY
360
9DD
102
}
330
1
100
AcDbSymbolTableRecord
100
AcDbBlockTableRecord
  2
*PAPER_SPACE
  0
BLOCK_RECORD
  5
217
330
1
100
AcDbSymbolTableRecord
100
AcDbBlockTableRecord
  2
_FILLED
  0
ENDTAB
  0
ENDSEC
  0
SECTION
  2
BLOCKS
  0
BLOCK
  5
20
330
1F
100
AcDbEntity
  8
0
100
AcDbBlockBegin
  2
*MODEL_SPACE
 70
     0
 10
0.0
 20
0.0
 30
0.0
  3
*MODEL_SPACE
  1

  0
ENDBLK
  5
21
330
1F
100
AcDbEntity
  8
0
100
AcDbBlockEnd
  0
BLOCK
  5
1C
330
1B
100
AcDbEntity
 67
     1
  8
0
100
AcDbBlockBegin
  2
*PAPER_SPACE
 70
     0
 10
0.0
 20
0.0
 30
0.0
  3
*PAPER_SPACE
  1

  0
ENDBLK
  5
1D
330
1B
100
AcDbEntity
 67
     1
  8
0
100
AcDbBlockEnd
  0
BLOCK
  5
442
330
217
100
AcDbEntity
  8
0
100
AcDbBlockBegin
  2
_FILLED
 70
     0
 10
0.0
 20
0.0
 30
0.0
  3
_FILLED
  1

  0
SOLID
  5
443
330
217
100
AcDbEntity
  8
0
  6
BYBLOCK
 62
     0
100
AcDbTrace
 10
0.0
 20
0.0
 30
0.0
 11
-1.0
 21
0.1666666667
 31
0.0
 12
-1.0
 22
-0.1666666667
 32
0.0
 13
-1.0
 23
-0.1666666667
 33
0.0
  0
ENDBLK
  5
444
330
217
100
AcDbEntity
  8
0
  6
BYBLOCK
 62
     0
100
AcDbBlockEnd
  0
ENDSEC
  0
SECTION
  2
ENTITIES
  0
MTEXT
  5
4BC
330
1F
100
AcDbEntity
  8
0
  6
CONTINUOUS
 62
     2
100
AcDbMText
 10
15.84375
 20
2.3125
 30
0.0
 40
0.09375
 41
0.075
 71
     2
 72
     1
  1
 \P \P 
  7
TEXTSTYLE_1
1001
ACAD
1000
MTEXTBEGIN
1070
    73
1070
     1
1070
    44
1040
1.0
1070
    74
1070
     0
1000
MTEXTEND
  0
LINE
  5
4E8
330
1F
100
AcDbEntity
  8
0
100
AcDbLine
 10
17.10553658759555
 20
0.6052538839699562
 30
0.0
 11
16.67854916066312
 21
1.599087298027466
 31
0.0
  0
LINE
  5
504
330
1F
100
AcDbEntity
  8
0
100
AcDbLine
 10
51.7503168672
 20
0.0
 30
0.0
 11
18.02432682692072
 21
0.0
 31
0.0
  0
LINE
  5
506
330
1F
100
AcDbEntity
  8
0
100
AcDbLine
 10
52.5967472736
 20
1.221755086400005
 30
0.0
 11
53.27144660959999
 21
1.221755086400005
 31
0.0
  0
LINE
  5
580
330
1F
100
AcDbEntity
  8
0
100
AcDbLine
 10
52.60535548072503
 20
0.5183755117933017
 30
0.0
 11
52.98862138560026
 21
1.221755086400005
 31
0.0
  0
LINE
  5
6BD
330
1F
100
AcDbEntity
  8
0
100
AcDbLine
 10
0.0
 20
17.7530050864
 30
0.0
 11
0.1110042038281547
 21
19.0217889357924
 31
0.0
  0
LWPOLYLINE
  5
6C7
330
1F
100
AcDbEntity
  8
0
100
AcDbPolyline
 90
        3
 70
     0
 43
0.0
 10
9.348131550399997
 20
8.116547016000009
 10
9.435895708799996
 20
7.867798278400005
 10
9.484977187199994
 20
7.693921926400005
  0
LINE
  5
6CA
330
1F
100
AcDbEntity
  8
0
100
AcDbLine
 10
9.484977187199994
 20
7.693921926400005
 30
0.0
 11
9.501285961599997
 21
7.627032414400009
 31
0.0
  0
LINE
  5
6CD
330
1F
100
AcDbEntity
  8
0
100
AcDbLine
 10
10.33285939999999
 20
4.062956102400004
 30
0.0
 11
9.501285961599997
 21
7.627032414400009
 31
0.0
  0
LINE
  5
6D4
330
1F
100
AcDbEntity
  8
0
100
AcDbLine
 10
3.907671927999999
 20
17.7530050864
 30
0.0
 11
9.138652892799996
 21
8.553413340800009
 31
0.0
  0
LWPOLYLINE
  5
6D8
330
1F
100
AcDbEntity
  8
0
100
AcDbPolyline
 90
        3
 70
     0
 43
0.0
 10
9.138652892799996
 20
8.553413340800009
 10
9.254069491199999
 20
8.332272302400003
 10
9.348131550399997
 20
8.116547016000009
  0
LWPOLYLINE
  5
6DB
330
1F
100
AcDbEntity
  8
0
100
AcDbPolyline
 90
        4
 70
     0
 43
0.0
 10
54.5794313824
 20
1.837476537600007
 10
54.3930955088
 20
1.821193675200003
 10
54.2114237072
 20
1.806184155200003
 10
54.03383355359999
 20
1.792530988800006
  0
LINE
  5
6E2
330
1F
100
AcDbEntity
  8
0
100
AcDbLine
 10
50.7285533904
 20
1.221755086400005
 30
0.0
 11
53.27144660959999
 21
1.221755086400005
 31
0.0
  0
LINE
  5
6F9
330
1F
100
AcDbEntity
  8
0
100
AcDbLine
 10
0.0
 20
17.7530050864
 30
0.0
 11
60.0
 21
17.7530050864
 31
0.0
  0
LINE
  5
6FF
330
1F
100
AcDbEntity
  8
CENTER
  6
CENTERX2
100
AcDbLine
 10
53.4427755408
 20
16.2519860112
 30
0.0
 11
62.7174034352
 21
15.1849832048
 31
0.0
  0
LINE
  5
700
330
1F
100
AcDbEntity
  8
0
100
AcDbLine
 10
50.529679608
 20
1.304131304000005
 30
0.0
 11
50.1489536192
 21
1.684857294400007
 31
0.0
  0
LINE
  5
702
330
1F
100
AcDbEntity
  8
0
100
AcDbLine
 10
53.47032039199999
 20
1.304131304000005
 30
0.0
 11
53.89523805919999
 21
1.729048972800004
 31
0.0
  0
LINE
  5
70B
330
1F
100
AcDbEntity
  8
0
100
AcDbLine
 10
58.04157656044711
 20
17.7530050864
 30
0.0
 11
56.41661953119999
 21
3.628513844800007
 31
0.0
  0
LINE
  5
714
330
1F
100
AcDbEntity
  8
0
100
AcDbLine
 10
60.0
 20
17.7530050864
 30
0.0
 11
59.88899579619867
 21
19.02178893578726
 31
0.0
  0
ARC
  5
8D1
330
1F
100
AcDbEntity
  8
0
100
AcDbCircle
 10
51.7322859536
 20
0.9941041136000023
 30
0.0
 40
0.9942676207999999
100
AcDbArc
 50
271.0391084173
 51
331.4143869784999
  0
ARC
  5
8D4
330
1F
100
AcDbEntity
  8
0
100
AcDbCircle
 10
50.7285533904
 20
1.503005086400005
 30
0.0
 40
0.28125
100
AcDbArc
 50
225.0
 51
270.0
  0
ARC
  5
8D5
330
1F
100
AcDbEntity
  8
0
100
AcDbCircle
 10
53.27144660959999
 20
1.503005086400005
 30
0.0
 40
0.28125
100
AcDbArc
 50
270.0
 51
315.0
  0
ARC
  5
8D8
330
1F
100
AcDbEntity
  8
0
100
AcDbCircle
 10
54.39867978719999
 20
3.860668427200007
 30
0.0
 40
2.03125
100
AcDbArc
 50
275.1052406622
 51
353.4372392017
  0
ARC
  5
8D9
330
1F
100
AcDbEntity
  8
0
100
AcDbCircle
 10
54.0499176352
 20
1.574369360000009
 30
0.0
 40
0.2187499984
100
AcDbArc
 50
94.21928055189999
 51
134.9999940838999
  0
ARC
  5
8DA
330
1F
100
AcDbEntity
  8
0
100
AcDbCircle
 10
49.99427402239999
 20
1.530177684800005
 30
0.0
 40
0.21875
100
AcDbArc
 50
45.0000017679
 51
89.03582233279999
  0
ARC
  5
8F7
330
1F
100
AcDbEntity
  8
0
100
AcDbCircle
 10
0.3600528783418646
 20
19.0
 30
0.0
 40
0.25
100
AcDbArc
 50
90.0000000000004
 51
174.9999999757304
  0
LINE
  5
8F9
330
1F
100
AcDbEntity
  8
0
100
AcDbLine
 10
0.3600528783418628
 20
19.25
 30
0.0
 11
59.63994712168451
 21
19.25
 31
0.0
  0
ARC
  5
8FA
330
1F
100
AcDbEntity
  8
0
100
AcDbCircle
 10
59.63994712168451
 20
19.0
 30
0.0
 40
0.25
100
AcDbArc
 50
5.000000023086903
 51
90.0
  0
LINE
  5
8FB
330
1F
100
AcDbEntity
  8
0
100
AcDbLine
 10
12.26419690719999
 20
2.493782075200005
 30
0.0
 11
49.99795499003945
 21
1.74889671226958
 31
0.0
  0
LINE
  5
8FC
330
1F
100
AcDbEntity
  8
0
100
AcDbLine
 10
49.99792669279999
 20
1.748896988800009
 30
0.0
 11
54.03383355359999
 21
1.792530988800006
 31
0.0
  0
LINE
  5
923
330
1F
100
AcDbEntity
  8
CENTER
  6
CENTERX2
100
AcDbLine
 10
51.99999999643466
 20
-1.516033490892581
 30
0.0
 11
52.0
 21
4.592728008255797
 31
0.0
  0
ARC
  5
924
330
1F
100
AcDbEntity
  8
0
100
AcDbCircle
 10
12.31097957988568
 20
4.524493087737734
 30
0.0
 40
2.031249820899836
100
AcDbArc
 50
193.1333523312565
 51
268.6802771861257
  0
LWPOLYLINE
  5
956
330
1F
100
AcDbEntity
  8
0
  6
HIDDEN
 62
     9
100
AcDbPolyline
 90
        8
 70
   128
 43
0.0
 10
3.915917268799994
 20
17.7362043456
 10
3.392044671550868
 20
18.68923640004323
 42
0.2735823126680196
 10
3.246354722921463
 20
18.775402038783
 10
3.22508391081261
 20
18.775402035583
 42
-0.4142135623730974
 10
3.016333910812617
 20
18.984152035583
 10
3.016333910812615
 20
18.9912416808693
 42
0.403092342686282
 10
2.856419651350986
 20
19.15737090987567
 10
0.3600528783418646
 20
19.25
  0
LWPOLYLINE
  5
965
330
1F
100
AcDbEntity
  8
0
  6
HIDDEN
 62
     9
100
AcDbPolyline
 90
        8
 70
   128
 43
0.0
 10
58.0415765604471
 20
17.7530050864
 10
58.14891947628002
 20
18.68605380537597
 42
-0.3810493700448853
 10
58.31408009652524
 20
18.83330284850536
 10
58.3353509086341
 20
18.83330284530536
 42
0.4142135623730802
 10
58.54410090863409
 20
19.04205284530536
 10
58.54410090863409
 20
19.04914249059166
 42
-0.4030923426782495
 10
58.70401516809089
 20
19.21527171959785
 10
59.63994712168451
 20
19.25
  0
ARC
  5
978
330
1F
100
AcDbEntity
  8
0
100
AcDbCircle
 10
18.02432682692072
 20
1.0
 30
0.0
 40
1.0
100
AcDbArc
 50
203.2501409114858
 51
270.0
  0
ARC
  5
97D
330
1F
100
AcDbEntity
  8
0
100
AcDbCircle
 10
15.41521258159102
 20
1.056311388486152
 30
0.0
 40
1.375
100
AcDbArc
 50
23.25014091148605
 51
88.86909634356234
  0
ENDSEC
  0
SECTION
  2
OBJECTS
  0
DICTIONARY
  5
C
330
0
100
AcDbDictionary
  3
ACAD_GROUP
350
D
  3
ACAD_LAYOUT
350
1A
  3
ACAD_MLINESTYLE
350
17
  3
ACAD_PLOTSETTINGS
350
19
  3
ACAD_PLOTSTYLENAME
350
E
  3
ACDBHEADERROUNDTRIPXREC
350
9BC
  0
DICTIONARY
  5
9DF
330
1F
100
AcDbDictionary
280
     1
  3
ACAD_LAYOUTSELFREF
360
9E0
  0
DICTIONARY
  5
9DD
330
1B
100
AcDbDictionary
280
     1
  3
ACAD_LAYOUTSELFREF
360
9DE
  0
DICTIONARY
  5
D
102
{ACAD_REACTORS
330
C
102
}
330
C
100
AcDbDictionary
  0
DICTIONARY
  5
1A
102
{ACAD_REACTORS
330
C
102
}
330
C
100
AcDbDictionary
  0
DICTIONARY
  5
17
102
{ACAD_REACTORS
330
C
102
}
330
C
100
AcDbDictionary
  3
STANDARD
350
18
  0
DICTIONARY
  5
19
102
{ACAD_REACTORS
330
C
102
}
330
C
100
AcDbDictionary
  0
ACDBDICTIONARYWDFLT
  5
E
102
{ACAD_REACTORS
330
C
102
}
330
C
100
AcDbDictionary
281
     1
  3
Normal
350
F
100
AcDbDictionaryWithDefault
340
F
  0
DICTIONARY
  5
9BC
102
{ACAD_REACTORS
330
C
102
}
330
C
100
AcDbDictionary
  3
CEPSNTYPE
350
9C6
  3
DIMSTYLEDATA
350
9CA
  3
FINGERPRINTGUID
350
9C7
  3
HYPERLINKBASE
350
9BF
  3
INSUNITS
350
9C5
  3
LAYOUTDICT
350
9C1
  3
LWETCUNION
350
9C4
  3
PLOTSETDICT
350
9C2
  3
PLOTSTYLNAMDICT
350
9C3
  3
PSVPSCALE
350
9C9
  3
PUCSBASE
350
9CD
  3
PUCSORGBACK
350
9D3
  3
PUCSORGBOTTOM
350
9CF
  3
PUCSORGFRONT
350
9D2
  3
PUCSORGLEFT
350
9D0
  3
PUCSORGRIGHT
350
9D1
  3
PUCSORGTOP
350
9CE
  3
PUCSORTHOREF
350
9CB
  3
PUCSORTHOVIEW
350
9CC
  3
STYLESHEET
350
9C0
  3
TSTACKALIGN
350
9BD
  3
TSTACKSIZE
350
9BE
  3
UCSBASE
350
9D6
  3
UCSORGBACK
350
9DC
  3
UCSORGBOTTOM
350
9D8
  3
UCSORGFRONT
350
9DB
  3
UCSORGLEFT
350
9D9
  3
UCSORGRIGHT
350
9DA
  3
UCSORGTOP
350
9D7
  3
UCSORTHOREF
350
9D4
  3
UCSORTHOVIEW
350
9D5
  3
VERSIONGUID
350
9C8
  0
XRECORD
  5
9E0
102
{ACAD_REACTORS
330
9DF
102
}
330
9DF
100
AcDbXrecord
340
1F
  0
XRECORD
  5
9DE
102
{ACAD_REACTORS
330
9DD
102
}
330
9DD
100
AcDbXrecord
340
1B
  0
MLINESTYLE
  5
18
102
{ACAD_REACTORS
330
17
102
}
330
17
100
AcDbMlineStyle
  2
STANDARD
 70
     0
  3

 62
   256
 51
90.0
 52
90.0
 71
     2
 49
0.5
 62
   256
  6
BYLAYER
 49
-0.5
 62
   256
  6
BYLAYER
  0
ACDBPLACEHOLDER
  5
F
102
{ACAD_REACTORS
330
E
102
}
330
0
100
AcDbPlaceHolder
280
     0
  0
XRECORD
  5
9C6
102
{ACAD_REACTORS
330
9BC
102
}
330
9BC
100
AcDbXrecord
 90
        0
  0
XRECORD
  5
9CA
102
{ACAD_REACTORS
330
9BC
102
}
330
9BC
100
AcDbXrecord
1000
DSTYLE
1002
{
1070
   278
 70
     0
1070
   342
340
217
1070
   371
 70
     0
1070
   372
 70
     0
1002
}
  0
XRECORD
  5
9C7
102
{ACAD_REACTORS
330
9BC
102
}
330
9BC
100
AcDbXrecord
  1

  0
XRECORD
  5
9BF
102
{ACAD_REACTORS
330
9BC
102
}
330
9BC
100
AcDbXrecord
  1

  0
XRECORD
  5
9C5
102
{ACAD_REACTORS
330
9BC
102
}
330
9BC
100
AcDbXrecord
 90
        1
  0
XRECORD
  5
9C1
102
{ACAD_REACTORS
330
9BC
102
}
330
9BC
100
AcDbXrecord
340
1A
  0
XRECORD
  5
9C4
102
{ACAD_REACTORS
330
9BC
102
}
330
9BC
100
AcDbXrecord
 90
    10781
  0
XRECORD
  5
9C2
102
{ACAD_REACTORS
330
9BC
102
}
330
9BC
100
AcDbXrecord
340
19
  0
XRECORD
  5
9C3
102
{ACAD_REACTORS
330
9BC
102
}
330
9BC
100
AcDbXrecord
340
E
  0
XRECORD
  5
9C9
102
{ACAD_REACTORS
330
9BC
102
}
330
9BC
100
AcDbXrecord
 40
0.0
  0
XRECORD
  5
9CD
102
{ACAD_REACTORS
330
9BC
102
}
330
9BC
100
AcDbXrecord
340
0
  0
XRECORD
  5
9D3
102
{ACAD_REACTORS
330
9BC
102
}
330
9BC
100
AcDbXrecord
 10
0.0
 20
0.0
 30
0.0
  0
XRECORD
  5
9CF
102
{ACAD_REACTORS
330
9BC
102
}
330
9BC
100
AcDbXrecord
 10
0.0
 20
0.0
 30
0.0
  0
XRECORD
  5
9D2
102
{ACAD_REACTORS
330
9BC
102
}
330
9BC
100
AcDbXrecord
 10
0.0
 20
0.0
 30
0.0
  0
XRECORD
  5
9D0
102
{ACAD_REACTORS
330
9BC
102
}
330
9BC
100
AcDbXrecord
 10
0.0
 20
0.0
 30
0.0
  0
XRECORD
  5
9D1
102
{ACAD_REACTORS
330
9BC
102
}
330
9BC
100
AcDbXrecord
 10
0.0
 20
0.0
 30
0.0
  0
XRECORD
  5
9CE
102
{ACAD_REACTORS
330
9BC
102
}
330
9BC
100
AcDbXrecord
 10
0.0
 20
0.0
 30
0.0
  0
XRECORD
  5
9CB
102
{ACAD_REACTORS
330
9BC
102
}
330
9BC
100
AcDbXrecord
340
0
  0
XRECORD
  5
9CC
102
{ACAD_REACTORS
330
9BC
102
}
330
9BC
100
AcDbXrecord
 70
     0
  0
XRECORD
  5
9C0
102
{ACAD_REACTORS
330
9BC
102
}
330
9BC
100
AcDbXrecord
  1

  0
XRECORD
  5
9BD
102
{ACAD_REACTORS
330
9BC
102
}
330
9BC
100
AcDbXrecord
 90
        1
  0
XRECORD
  5
9BE
102
{ACAD_REACTORS
330
9BC
102
}
330
9BC
100
AcDbXrecord
 90
       70
  0
XRECORD
  5
9D6
102
{ACAD_REACTORS
330
9BC
102
}
330
9BC
100
AcDbXrecord
340
0
  0
XRECORD
  5
9DC
102
{ACAD_REACTORS
330
9BC
102
}
330
9BC
100
AcDbXrecord
 10
0.0
 20
0.0
 30
0.0
  0
XRECORD
  5
9D8
102
{ACAD_REACTORS
330
9BC
102
}
330
9BC
100
AcDbXrecord
 10
0.0
 20
0.0
 30
0.0
  0
XRECORD
  5
9DB
102
{ACAD_REACTORS
330
9BC
102
}
330
9BC
100
AcDbXrecord
 10
0.0
 20
0.0
 30
0.0
  0
XRECORD
  5
9D9
102
{ACAD_REACTORS
330
9BC
102
}
330
9BC
100
AcDbXrecord
 10
0.0
 20
0.0
 30
0.0
  0
XRECORD
  5
9DA
102
{ACAD_REACTORS
330
9BC
102
}
330
9BC
100
AcDbXrecord
 10
0.0
 20
0.0
 30
0.0
  0
XRECORD
  5
9D7
102
{ACAD_REACTORS
330
9BC
102
}
330
9BC
100
AcDbXrecord
 10
0.0
 20
0.0
 30
0.0
  0
XRECORD
  5
9D4
102
{ACAD_REACTORS
330
9BC
102
}
330
9BC
100
AcDbXrecord
340
0
  0
XRECORD
  5
9D5
102
{ACAD_REACTORS
330
9BC
102
}
330
9BC
100
AcDbXrecord
 70
     0
  0
XRECORD
  5
9C8
102
{ACAD_REACTORS
330
9BC
102
}
330
9BC
100
AcDbXrecord
  1
{0E512EED-4CEC-4FBA-8D78-CEEF58A10655}
  0
ENDSEC
  0
EOF
