  0
SECTION
  2
HEADER
  9
$ACADVER
  1
AC1014
  9
$ACADMAINTVER
 70
     9
  9
$DWGCODEPAGE
  3
ANSI_1252
  9
$INSBASE
 10
0.0
 20
0.0
 30
0.0
  9
$EXTMIN
 10
-33.00872582580638
 20
-1.912906830604764
 30
-0.0015258207003612
  9
$EXTMAX
 10
33.01141401024973
 20
20.81762373085218
 30
0.0000000349246008
  9
$LIMMIN
 10
0.0
 20
0.0
  9
$LIMMAX
 10
17.0
 20
11.0
  9
$ORTHOMODE
 70
     1
  9
$REGENMODE
 70
     1
  9
$FILLMODE
 70
     1
  9
$QTEXTMODE
 70
     0
  9
$MIRRTEXT
 70
     1
  9
$DRAGMODE
 70
     2
  9
$LTSCALE
 40
0.9350000000000001
  9
$OSMODE
 70
    37
  9
$ATTMODE
 70
     1
  9
$TEXTSIZE
 40
0.2
  9
$TRACEWID
 40
0.05
  9
$TEXTSTYLE
  7
STANDARD
  9
$CLAYER
  8
0
  9
$CELTYPE
  6
BYLAYER
  9
$CECOLOR
 62
   256
  9
$CELTSCALE
 40
1.0
  9
$DELOBJ
 70
     1
  9
$DISPSILH
 70
     0
  9
$DIMSCALE
 40
1.0
  9
$DIMASZ
 40
0.1875
  9
$DIMEXO
 40
0.10625
  9
$DIMDLI
 40
0.646
  9
$DIMRND
 40
0.0
  9
$DIMDLE
 40
0.0
  9
$DIMEXE
 40
0.306
  9
$DIMTP
 40
0.0
  9
$DIMTM
 40
0.0
  9
$DIMTXT
 40
0.125
  9
$DIMCEN
 40
0.153
  9
$DIMTSZ
 40
0.0
  9
$DIMTOL
 70
     0
  9
$DIMLIM
 70
     0
  9
$DIMTIH
 70
     1
  9
$DIMTOH
 70
     1
  9
$DIMSE1
 70
     0
  9
$DIMSE2
 70
     0
  9
$DIMTAD
 70
     0
  9
$DIMZIN
 70
     0
  9
$DIMBLK
  1
_FILLED
  9
$DIMASO
 70
     1
  9
$DIMSHO
 70
     1
  9
$DIMPOST
  1

  9
$DIMAPOST
  1

  9
$DIMALT
 70
     0
  9
$DIMALTD
 70
     2
  9
$DIMALTF
 40
25.4
  9
$DIMLFAC
 40
1.0
  9
$DIMTOFL
 70
     0
  9
$DIMTVP
 40
0.0
  9
$DIMTIX
 70
     0
  9
$DIMSOXD
 70
     0
  9
$DIMSAH
 70
     0
  9
$DIMBLK1
  1

  9
$DIMBLK2
  1

  9
$DIMSTYLE
  2
STANDARD
  9
$DIMCLRD
 70
     0
  9
$DIMCLRE
 70
     0
  9
$DIMCLRT
 70
     0
  9
$DIMTFAC
 40
1.0
  9
$DIMGAP
 40
0.09
  9
$DIMJUST
 70
     0
  9
$DIMSD1
 70
     0
  9
$DIMSD2
 70
     0
  9
$DIMTOLJ
 70
     1
  9
$DIMTZIN
 70
     0
  9
$DIMALTZ
 70
     0
  9
$DIMALTTZ
 70
     0
  9
$DIMFIT
 70
     3
  9
$DIMUPT
 70
     0
  9
$DIMUNIT
 70
     2
  9
$DIMDEC
 70
     4
  9
$DIMTDEC
 70
     4
  9
$DIMALTU
 70
     2
  9
$DIMALTTD
 70
     2
  9
$DIMTXSTY
  7
STANDARD
  9
$DIMAUNIT
 70
     0
  9
$LUNITS
 70
     2
  9
$LUPREC
 70
     4
  9
$SKETCHINC
 40
0.1
  9
$FILLETRAD
 40
0.0
  9
$AUNITS
 70
     0
  9
$AUPREC
 70
     0
  9
$MENU
  1
acad
  9
$ELEVATION
 40
0.0
  9
$PELEVATION
 40
0.0
  9
$THICKNESS
 40
0.0
  9
$LIMCHECK
 70
     0
  9
$BLIPMODE
 70
     0
  9
$CHAMFERA
 40
0.0
  9
$CHAMFERB
 40
0.0
  9
$CHAMFERC
 40
0.0
  9
$CHAMFERD
 40
0.0
  9
$SKPOLY
 70
     0
  9
$TDCREATE
 40
2454055.384268935
  9
$TDUPDATE
 40
2454056.661174699
  9
$TDINDWG
 40
0.3233879514
  9
$TDUSRTIMER
 40
0.3233879514
  9
$USRTIMER
 70
     1
  9
$ANGBASE
 50
0.0
  9
$ANGDIR
 70
     0
  9
$PDMODE
 70
     3
  9
$PDSIZE
 40
0.03125
  9
$PLINEWID
 40
0.0
  9
$COORDS
 70
     0
  9
$SPLFRAME
 70
     0
  9
$SPLINETYPE
 70
     6
  9
$SPLINESEGS
 70
     8
  9
$ATTDIA
 70
     0
  9
$ATTREQ
 70
     1
  9
$HANDLING
 70
-16383
  9
$HANDSEED
  5
1E78
  9
$SURFTAB1
 70
     6
  9
$SURFTAB2
 70
     6
  9
$SURFTYPE
 70
     6
  9
$SURFU
 70
     6
  9
$SURFV
 70
     6
  9
$UCSNAME
  2

  9
$UCSORG
 10
0.0
 20
0.0
 30
0.0
  9
$UCSXDIR
 10
1.0
 20
0.0
 30
0.0
  9
$UCSYDIR
 10
0.0
 20
1.0
 30
0.0
  9
$PUCSNAME
  2

  9
$PUCSORG
 10
0.0
 20
0.0
 30
0.0
  9
$PUCSXDIR
 10
1.0
 20
0.0
 30
0.0
  9
$PUCSYDIR
 10
0.0
 20
1.0
 30
0.0
  9
$USERI1
 70
     0
  9
$USERI2
 70
     0
  9
$USERI3
 70
     0
  9
$USERI4
 70
     0
  9
$USERI5
 70
     0
  9
$USERR1
 40
0.0
  9
$USERR2
 40
0.0
  9
$USERR3
 40
0.0
  9
$USERR4
 40
0.0
  9
$USERR5
 40
0.0
  9
$WORLDVIEW
 70
     1
  9
$SHADEDGE
 70
     3
  9
$SHADEDIF
 70
    70
  9
$TILEMODE
 70
     1
  9
$MAXACTVP
 70
    16
  9
$PINSBASE
 10
0.0
 20
0.0
 30
0.0
  9
$PLIMCHECK
 70
     0
  9
$PEXTMIN
 10
1.000000000000000E+20
 20
1.000000000000000E+20
 30
1.000000000000000E+20
  9
$PEXTMAX
 10
-1.000000000000000E+20
 20
-1.000000000000000E+20
 30
-1.000000000000000E+20
  9
$PLIMMIN
 10
0.0
 20
0.0
  9
$PLIMMAX
 10
12.0
 20
9.0
  9
$UNITMODE
 70
     0
  9
$VISRETAIN
 70
     0
  9
$PLINEGEN
 70
     1
  9
$PSLTSCALE
 70
     0
  9
$TREEDEPTH
 70
  3020
  9
$PICKSTYLE
 70
     1
  9
$CMLSTYLE
  2
STANDARD
  9
$CMLJUST
 70
     0
  9
$CMLSCALE
 40
1.0
  9
$PROXYGRAPHICS
 70
     0
  9
$MEASUREMENT
 70
     0
  0
ENDSEC
  0
SECTION
  2
CLASSES
  0
CLASS
  1
ACDBDICTIONARYWDFLT
  2
AcDbDictionaryWithDefault
  3
AutoCAD 2000
 90
        0
280
     0
281
     0
  0
CLASS
  1
ACDBPLACEHOLDER
  2
AcDbPlaceHolder
  3
AutoCAD 2000
 90
        0
280
     0
281
     0
  0
CLASS
  1
LAYOUT
  2
AcDbLayout
  3
AutoCAD 2000
 90
        0
280
     0
281
     0
  0
CLASS
  1
LWPOLYLINE
  2
AcDbPolyline
  3
AutoCAD 2000
 90
        0
280
     0
281
     1
  0
CLASS
  1
IMAGE
  2
AcDbRasterImage
  3
ISM
 90
      127
280
     0
281
     1
  0
CLASS
  1
OLE2FRAME
  2
AcDbOle2Frame
  3
AutoCAD 2000
 90
        0
280
     0
281
     1
  0
CLASS
  1
HATCH
  2
AcDbHatch
  3
AutoCAD 2000
 90
        0
280
     0
281
     1
  0
CLASS
  1
DICTIONARYVAR
  2
AcDbDictionaryVar
  3
AutoCAD 2000
 90
        0
280
     0
281
     0
  0
CLASS
  1
RASTERVARIABLES
  2
AcDbRasterVariables
  3
ISM
 90
        0
280
     0
281
     0
  0
CLASS
  1
IMAGEDEF
  2
AcDbRasterImageDef
  3
ISM
 90
        0
280
     0
281
     0
  0
CLASS
  1
IMAGEDEF_REACTOR
  2
AcDbRasterImageDefReactor
  3
ISM
 90
        1
280
     0
281
     0
  0
CLASS
  1
IDBUFFER
  2
AcDbIdBuffer
  3
AutoCAD 2000
 90
        0
280
     0
281
     0
  0
CLASS
  1
SPATIAL_FILTER
  2
AcDbSpatialFilter
  3
AutoCAD 2000
 90
        0
280
     0
281
     0
  0
CLASS
  1
XRECORD
  2
AcDbXrecord
  3
AutoCAD 2000
 90
        0
280
     0
281
     0
  0
CLASS
  1
SORTENTSTABLE
  2
AcDbSortentsTable
  3
AutoCAD 2000
 90
        0
280
     0
281
     0
  0
CLASS
  1
LAYER_INDEX
  2
AcDbLayerIndex
  3
AutoCAD 2000
 90
        0
280
     0
281
     0
  0
CLASS
  1
SPATIAL_INDEX
  2
AcDbSpatialIndex
  3
AutoCAD 2000
 90
        0
280
     0
281
     0
  0
CLASS
  1
OBJECT_PTR
  2
CAseDLPNTableRecord
  3
ASE-LPNTableRecord
 90
        1
280
     0
281
     0
  0
CLASS
  1
PLOTSETTINGS
  2
AcDbPlotSettings
  3
AutoCAD 2000
 90
        0
280
     0
281
     0
  0
CLASS
  1
VBA_PROJECT
  2
AcDbVbaProject
  3
acadvba
 90
        0
280
     0
281
     0
  0
CLASS
  1
WIPEOUT
  2
AcDbWipeout
  3
WipeOut|AutoCAD Express Tool|expresstools@autodesk.com
 90
      127
280
     0
281
     1
  0
CLASS
  1
WIPEOUTVARIABLES
  2
AcDbWipeoutVariables
  3
WipeOut|AutoCAD Express Tool|expresstools@autodesk.com
 90
        0
280
     0
281
     0
  0
CLASS
  1
RTEXT
  2
RText
  3
RText|AutoCAD Express Tool|expresstools@autodesk.com
 90
        0
280
     0
281
     1
  0
CLASS
  1
ARCALIGNEDTEXT
  2
AcDbArcAlignedText
  3
ATEXT|AutoCAD Express Tool|expresstools@autodesk.com
 90
        0
280
     0
281
     1
  0
CLASS
  1
LONG_TRANSACTION
  2
AcDbLongTransaction
  3
AutoCAD 2000
 90
        0
280
     0
281
     0
  0
CLASS
  1
LWPOLYLINE
  2
AcDbPolyline
  3
AutoCAD 2000
 90
        0
280
     0
281
     1
  0
CLASS
  1
HATCH
  2
AcDbHatch
  3
AutoCAD 2000
 90
        0
280
     0
281
     1
  0
CLASS
  1
XRECORD
  2
AcDbXrecord
  3
AutoCAD 2000
 90
        0
280
     0
281
     0
  0
ENDSEC
  0
SECTION
  2
TABLES
  0
TABLE
  2
VPORT
  5
8
330
0
100
AcDbSymbolTable
 70
     3
  0
VPORT
  5
1E52
330
8
100
AcDbSymbolTableRecord
100
AcDbViewportTableRecord
  2
*ACTIVE
 70
     0
 10
0.0
 20
0.0
 11
1.0
 21
1.0
 12
0.0013440922216692
 22
9.452358450123711
 13
0.0
 23
0.0
 14
1.0
 24
1.0
 15
0.0
 25
0.0
 16
0.0
 26
0.0
 36
1.0
 17
0.0
 27
0.0
 37
0.0
 40
38.04068180683185
 41
1.745424292845258
 42
50.0
 43
0.0
 44
0.0
 50
0.0
 51
0.0
 71
     0
 72
   100
 73
     1
 74
     1
 75
     0
 76
     0
 77
     0
 78
     0
  0
ENDTAB
  0
TABLE
  2
LTYPE
  5
5
330
0
100
AcDbSymbolTable
 70
     4
  0
LTYPE
  5
14
330
5
100
AcDbSymbolTableRecord
100
AcDbLinetypeTableRecord
  2
BYBLOCK
 70
     0
  3

 72
    65
 73
     0
 40
0.0
  0
LTYPE
  5
15
330
5
100
AcDbSymbolTableRecord
100
AcDbLinetypeTableRecord
  2
BYLAYER
 70
     0
  3

 72
    65
 73
     0
 40
0.0
  0
LTYPE
  5
16
330
5
100
AcDbSymbolTableRecord
100
AcDbLinetypeTableRecord
  2
CONTINUOUS
 70
     0
  3
Solid line
 72
    65
 73
     0
 40
0.0
  0
LTYPE
  5
1F6
330
5
100
AcDbSymbolTableRecord
100
AcDbLinetypeTableRecord
  2
HIDDEN
 70
     0
  3
- - - - - - - - - - - - - - - - - - - -
 72
    65
 73
     2
 40
0.2
 49
0.1
 74
     0
 49
-0.1
 74
     0
  0
LTYPE
  5
1F9
330
5
100
AcDbSymbolTableRecord
100
AcDbLinetypeTableRecord
  2
DASHED
 70
     0
  3
- - - - - - - - - - - - - - - - - - - -
 72
    65
 73
     2
 40
0.2
 49
0.1
 74
     0
 49
-0.1
 74
     0
  0
LTYPE
  5
B3D
330
5
100
AcDbSymbolTableRecord
100
AcDbLinetypeTableRecord
  2
CENTERX2
 70
     0
  3
Center (2x) ________  __  ________  __  _____
 72
    65
 73
     4
 40
4.0
 49
2.5
 74
     0
 49
-0.5
 74
     0
 49
0.5
 74
     0
 49
-0.5
 74
     0
  0
ENDTAB
  0
TABLE
  2
LAYER
  5
2
330
0
100
AcDbSymbolTable
 70
     3
  0
LAYER
  5
10
330
2
100
AcDbSymbolTableRecord
100
AcDbLayerTableRecord
  2
0
 70
     0
 62
     7
  6
CONTINUOUS
  0
LAYER
  5
B3E
330
2
100
AcDbSymbolTableRecord
100
AcDbLayerTableRecord
  2
CENTER
 70
     0
 62
     1
  6
CENTERX2
  0
LAYER
  5
1DD1
330
2
100
AcDbSymbolTableRecord
100
AcDbLayerTableRecord
  2
DEFPOINTS
 70
     0
 62
     7
  6
CONTINUOUS
  0
ENDTAB
  0
TABLE
  2
STYLE
  5
3
330
0
100
AcDbSymbolTable
 70
     2
  0
STYLE
  5
11
330
3
100
AcDbSymbolTableRecord
100
AcDbTextStyleTableRecord
  2
STANDARD
 70
     0
 40
0.0
 41
0.8
 50
0.0
 71
     0
 42
0.2
  3
txt
  4

  0
STYLE
  5
21A
330
3
100
AcDbSymbolTableRecord
100
AcDbTextStyleTableRecord
  2
TEXTSTYLE_1
 70
     0
 40
0.0
 41
0.8
 50
0.0
 71
     0
 42
0.2
  3
txt
  4

  0
ENDTAB
  0
TABLE
  2
VIEW
  5
6
330
0
100
AcDbSymbolTable
 70
     0
  0
ENDTAB
  0
TABLE
  2
UCS
  5
7
330
0
100
AcDbSymbolTable
 70
     0
  0
ENDTAB
  0
TABLE
  2
APPID
  5
9
330
0
100
AcDbSymbolTable
 70
     2
  0
APPID
  5
21E
330
9
100
AcDbSymbolTableRecord
100
AcDbRegAppTableRecord
  2
ACAD
 70
     0
  0
APPID
  5
B34
330
9
100
AcDbSymbolTableRecord
100
AcDbRegAppTableRecord
  2
DCO15
 70
     0
  0
ENDTAB
  0
TABLE
  2
DIMSTYLE
  5
A
330
0
100
AcDbSymbolTable
 70
     1
  0
DIMSTYLE
105
240
330
A
100
AcDbSymbolTableRecord
100
AcDbDimStyleTableRecord
  2
STANDARD
 70
     0
  3

  4

  5
_FILLED
  6
_FILLED
  7
_FILLED
 40
1.0
 41
0.1875
 42
0.0625
 43
0.38
 44
0.18
 45
0.0
 46
0.0
 47
0.00001
 48
0.00001
140
0.125
141
0.09
142
0.0
143
25.4
144
1.0
145
0.0
146
1.0
147
0.09
 71
     0
 72
     0
 73
     1
 74
     1
 75
     0
 76
     0
 77
     0
 78
     4
170
     0
171
     2
172
     0
173
     0
174
     0
175
     0
176
     0
177
     0
178
     0
270
     2
271
     5
272
     5
273
     2
274
     2
340
11
275
     0
280
     0
281
     0
282
     0
283
     1
284
     4
285
     0
286
     0
287
     3
288
     0
  0
ENDTAB
  0
TABLE
  2
BLOCK_RECORD
  5
1
330
0
100
AcDbSymbolTable
 70
     1
  0
BLOCK_RECORD
  5
1F
102
{ACAD_XDICTIONARY
360
1E76
102
}
330
1
100
AcDbSymbolTableRecord
100
AcDbBlockTableRecord
  2
*MODEL_SPACE
  0
BLOCK_RECORD
  5
1B
102
{ACAD_XDICTIONARY
360
1E74
102
}
330
1
100
AcDbSymbolTableRecord
100
AcDbBlockTableRecord
  2
*PAPER_SPACE
  0
BLOCK_RECORD
  5
21F
330
1
100
AcDbSymbolTableRecord
100
AcDbBlockTableRecord
  2
_FILLED
  0
ENDTAB
  0
ENDSEC
  0
SECTION
  2
BLOCKS
  0
BLOCK
  5
20
330
1F
100
AcDbEntity
  8
0
100
AcDbBlockBegin
  2
*MODEL_SPACE
 70
     0
 10
0.0
 20
0.0
 30
0.0
  3
*MODEL_SPACE
  1

  0
ENDBLK
  5
21
330
1F
100
AcDbEntity
  8
0
100
AcDbBlockEnd
  0
BLOCK
  5
1C
330
1B
100
AcDbEntity
 67
     1
  8
0
100
AcDbBlockBegin
  2
*PAPER_SPACE
 70
     0
 10
0.0
 20
0.0
 30
0.0
  3
*PAPER_SPACE
  1

  0
ENDBLK
  5
1D
330
1B
100
AcDbEntity
 67
     1
  8
0
100
AcDbBlockEnd
  0
BLOCK
  5
45C
330
21F
100
AcDbEntity
  8
0
100
AcDbBlockBegin
  2
_FILLED
 70
     0
 10
0.0
 20
0.0
 30
0.0
  3
_FILLED
  1

  0
SOLID
  5
45D
330
21F
100
AcDbEntity
  8
0
  6
BYBLOCK
 62
     0
100
AcDbTrace
 10
0.0
 20
0.0
 30
0.0
 11
-1.0
 21
0.1666666667
 31
0.0
 12
-1.0
 22
-0.1666666667
 32
0.0
 13
-1.0
 23
-0.1666666667
 33
0.0
  0
ENDBLK
  5
45E
330
21F
100
AcDbEntity
  8
0
  6
BYBLOCK
 62
     0
100
AcDbBlockEnd
  0
ENDSEC
  0
SECTION
  2
ENTITIES
  0
MTEXT
  5
4D7
330
1F
100
AcDbEntity
  8
0
  6
CONTINUOUS
 62
     2
100
AcDbMText
 10
15.84375
 20
2.3125
 30
0.0
 40
0.09375
 41
0.075
 71
     2
 72
     1
  1
 \P \P 
  7
TEXTSTYLE_1
1001
ACAD
1000
MTEXTBEGIN
1070
    73
1070
     1
1070
    44
1040
1.0
1070
    74
1070
     0
1000
MTEXTEND
  0
LWPOLYLINE
  5
521
330
1F
100
AcDbEntity
  8
0
  6
DASHED
 62
     8
100
AcDbPolyline
 90
       27
 70
     0
 43
0.0
 10
-5.939929276932232
 20
16.53626484799999
 10
-5.800036526532238
 20
16.4800141936
 10
-5.658943550532242
 20
16.4276009168
 10
-5.516749686532236
 20
16.3787705584
 10
-5.373554270532238
 20
16.33326866079999
 10
-5.229456641732241
 20
16.29084076639999
 10
-5.084556137732235
 20
16.251232416
 10
-4.923109864132243
 20
16.2103119744
 10
-4.760934360132239
 20
16.1721970432
 10
-4.598164945732236
 20
16.136540984
 10
-4.434936944132232
 20
16.10299716479999
 10
-4.203749558532237
 20
16.058673264
 10
-3.971963996932231
 20
16.0177332448
 10
-3.739627339332244
 20
15.9800367136
 10
-3.506786670532235
 20
15.94544328
 10
-3.273489073732235
 20
15.91381255519999
 10
-3.039781628932232
 20
15.8850041456
 10
-2.73685194893224
 20
15.8516881952
 10
-2.43341691853223
 20
15.8225582576
 10
-2.129578532932242
 20
15.7973102048
 10
-1.825438785732231
 20
15.77563990559999
 10
-1.521099675332237
 20
15.7572432336
 10
-1.216663196932231
 20
15.7418160576
 10
-0.9122313457322377
 20
15.7290542496
 10
-0.6079061169322415
 20
15.7186536816
 10
-0.3037895057322402
 20
15.710310224
 10
0.0000164894677681
 20
15.7037197472
  0
LWPOLYLINE
  5
522
330
1F
100
AcDbEntity
  8
0
  6
DASHED
 62
     8
100
AcDbPolyline
 90
       30
 70
     0
 43
0.0
 10
-5.093694492932243
 20
17.77811761759999
 10
-4.999307091332241
 20
17.72487986239999
 10
-4.903261697732233
 20
17.6750844944
 10
-4.805699800132231
 20
17.6285416992
 10
-4.706762891332232
 20
17.585061664
 10
-4.600595129732241
 20
17.5421243744
 10
-4.493210939332243
 20
17.5021864064
 10
-4.384778601732236
 20
17.4650220032
 10
-4.275466403332231
 20
17.4304054048
 10
-4.16544262893224
 20
17.39811085279999
 10
-4.01619996333224
 20
17.357886672
 10
-3.866085272132238
 20
17.3211986128
 10
-3.715214433732242
 20
17.28777095679999
 10
-3.563703331332234
 20
17.2573279904
 10
-3.411667843332239
 20
17.2295939968
 10
-3.259223854532237
 20
17.2042932608
 10
-3.061390003332235
 20
17.1747360384
 10
-2.863128784132243
 20
17.1484199744
 10
-2.664503412932234
 20
17.1249690848
 10
-2.465577105732236
 20
17.1040073856
 10
-2.266413075332238
 20
17.0851588928
 10
-2.067074537732239
 20
17.068047624
 10
-1.795172793732234
 20
17.0470382976
 10
-1.523090756932234
 20
17.0287790768
 10
-1.25085491213224
 20
17.0134909344
 10
-0.9784917425322419
 20
17.0013948432
 10
-0.7060277297322415
 20
16.9927117728
 10
-0.4334893601322421
 20
16.9876626992
 10
-0.216744912132242
 20
16.98638847359999
 10
0.0000164894677681
 20
16.9876626992
  0
LWPOLYLINE
  5
523
330
1F
100
AcDbEntity
  8
0
  6
DASHED
 62
     8
100
AcDbPolyline
 90
       30
 70
     0
 43
0.0
 10
-5.094150425732237
 20
17.7783859456
 10
-5.09548875213224
 20
17.7791697968
 10
-5.104338766532237
 20
17.78424564319999
 10
-5.113268659332234
 20
17.78918026239999
 10
-5.122276688132231
 20
17.79397088
 10
-5.131361115332239
 20
17.7986147152
 10
-5.140520200132243
 20
17.8031089936
 10
-5.149752203332241
 20
17.80745093439999
 10
-5.159055384132244
 20
17.81163776
 10
-5.168428003332238
 20
17.8156666944
 10
-5.177868321732233
 20
17.81953496
 10
-5.187419214532241
 20
17.8232565856
 10
-5.197034494532232
 20
17.8268094592
 10
-5.206711972932239
 20
17.8301898096
 10
-5.216449459332238
 20
17.83339386879999
 10
-5.226244764932232
 20
17.8364178656
 10
-5.236095697732238
 20
17.839258032
 10
-5.246000068932232
 20
17.8419105952
 10
-5.255955686532232
 20
17.8443717888
 10
-5.26596036333224
 20
17.84663784
 10
-5.274982598532233
 20
17.84850293599999
 10
-5.284038836932239
 20
17.85020436
 10
-5.293125300932231
 20
17.851738784
 10
-5.302238214532238
 20
17.85310288319999
 10
-5.311373798532244
 20
17.8542933312
 10
-5.320528276932236
 20
17.8553068
 10
-5.329697872132243
 20
17.8561399632
 10
-5.338878804932235
 20
17.856789496
 10
-5.348067300932243
 20
17.85725207199999
 10
-5.357259580932236
 20
17.8575243616
  0
LWPOLYLINE
  5
537
330
1F
100
AcDbEntity
  8
0
  6
DASHED
 62
     8
100
AcDbPolyline
 90
       78
 70
     0
 43
0.0
 10
-5.939929276932232
 20
16.53626484799999
 10
-5.942590163332241
 20
16.53715984799999
 10
-5.976076944132231
 20
16.5489860848
 10
-6.009221944132235
 20
16.56174165119999
 10
-6.041997908932231
 20
16.57541899519999
 10
-6.074377585732236
 20
16.590010568
 10
-6.106333723332241
 20
16.6055088176
 10
-6.137230368132236
 20
16.621579368
 10
-6.167663771332243
 20
16.6385101216
 10
-6.19760412493224
 20
16.6562967776
 10
-6.227021622532234
 20
16.6749350304
 10
-6.255886457732231
 20
16.6944205776
 10
-6.283998553732232
 20
16.7146238832
 10
-6.311497528132235
 20
16.73565560479999
 10
-6.338345718532238
 20
16.757511312
 10
-6.364505459332235
 20
16.7801865712
 10
-6.389939091332237
 20
16.803676952
 10
-6.410764473732243
 20
16.824086576
 10
-6.431018228932231
 20
16.845065896
 10
-6.450670337732233
 20
16.8666097312
 10
-6.469690780932239
 20
16.88871289919999
 10
-6.488049537732237
 20
16.91137021759999
 10
-6.50571659053223
 20
16.9345765072
 10
-6.522706868932232
 20
16.9583930576
 10
-6.538929596932234
 20
16.9827425664
 10
-6.554343041732238
 20
17.0076111248
 10
-6.568905462532242
 20
17.0329848272
 10
-6.582575123332233
 20
17.0588497616
 10
-6.595310288132239
 20
17.0851920208
 10
-6.606022200132244
 20
17.1094969152
 10
-6.615890139332236
 20
17.13415915519999
 10
-6.624874121732233
 20
17.15915443519999
 10
-6.632934168132237
 20
17.1844584496
 10
-6.640030294532238
 20
17.210046888
 10
-6.646122523332238
 20
17.2358954464
 10
-6.650565372932234
 20
17.25852074079999
 10
-6.65419445293223
 20
17.2812929008
 10
-6.656982427332238
 20
17.3041811312
 10
-6.658901952132239
 20
17.3271546464
 10
-6.659925691332233
 20
17.3501826544
 10
-6.66002630413223
 20
17.3732343632
 10
-6.659096540932239
 20
17.3976572864
 10
-6.657077617732241
 20
17.422016152
 10
-6.653948297732242
 20
17.4462548672
 10
-6.649687347332232
 20
17.4703173376
 10
-6.644273528132231
 20
17.49414747039999
 10
-6.638048856132243
 20
17.5165126192
 10
-6.63077047213224
 20
17.53856022719999
 10
-6.622443758532241
 20
17.5602329296
 10
-6.613074092932237
 20
17.5814733616
 10
-6.602666857732231
 20
17.6022241616
 10
-6.591320876932243
 20
17.6222817984
 10
-6.578992078532237
 20
17.6417536528
 10
-6.565714576132236
 20
17.6605928496
 10
-6.551522488132235
 20
17.67875252
 10
-6.536449926532242
 20
17.69618579199999
 10
-6.522617505732242
 20
17.71076011359999
 10
-6.508176184132238
 20
17.72473259039999
 10
-6.493160540932237
 20
17.738089288
 10
-6.477605153732241
 20
17.75081627199999
 10
-6.461544604932242
 20
17.7628996096
 10
-6.445013468932231
 20
17.7743253664
 10
-6.427318153732244
 20
17.78552349919999
 10
-6.409186448132231
 20
17.7959963536
 10
-6.390655696132242
 20
17.80574826879999
 10
-6.371763233732238
 20
17.8147835776
 10
-6.35254640493224
 20
17.8231066176
 10
-6.33304254733224
 20
17.8307217216
 10
-6.308565046532237
 20
17.8391737536
 10
-6.283753921732241
 20
17.8465759248
 10
-6.258657809732241
 20
17.8529555344
 10
-6.233325342532239
 20
17.8583398864
 10
-6.207805153732238
 20
17.86275628
 10
-6.181423993732238
 20
17.8663165168
 10
-6.154933977732241
 20
17.8689154864
 10
-6.128373225732232
 20
17.8705859488
 10
-6.101779862532239
 20
17.8713606624
 10
-6.075192009732234
 20
17.87127238879999
  0
LINE
  5
577
330
1F
100
AcDbEntity
  8
0
  6
DASHED
 62
     8
100
AcDbLine
 10
6.075224990267756
 20
17.87127238879999
 30
0.0
 11
5.357292561467758
 21
17.8575243616
 31
0.0
  0
LINE
  5
57B
330
1F
100
AcDbEntity
  8
0
  6
DASHED
 62
     8
100
AcDbLine
 10
-6.075192009732234
 20
17.87127238879999
 30
0.0
 11
-5.357259580932236
 21
17.8575243616
 31
0.0
  0
LWPOLYLINE
  5
5C3
330
1F
100
AcDbEntity
  8
0
  6
DASHED
 62
     8
100
AcDbPolyline
 90
       30
 70
     0
 43
0.0
 10
5.09418340626776
 20
17.7783859456
 10
5.095521732667762
 20
17.7791697968
 10
5.104371747067759
 20
17.78424564319999
 10
5.113301639867756
 20
17.78918026239999
 10
5.122309668667767
 20
17.79397088
 10
5.131394095867761
 20
17.7986147152
 10
5.140553180667765
 20
17.8031089936
 10
5.149785183867763
 20
17.80745093439999
 10
5.159088364667766
 20
17.81163776
 10
5.16846098386776
 20
17.8156666944
 10
5.177901302267756
 20
17.81953496
 10
5.187452193467763
 20
17.8232565856
 10
5.197067475067768
 20
17.8268094592
 10
5.206744953467762
 20
17.8301898096
 10
5.21648243986776
 20
17.83339386879999
 10
5.226277745467768
 20
17.8364178656
 10
5.23612867826776
 20
17.839258032
 10
5.246033047867769
 20
17.8419105952
 10
5.255988667067768
 20
17.8443717888
 10
5.265993342267762
 20
17.84663784
 10
5.275015577467769
 20
17.84850293599999
 10
5.284071815867761
 20
17.85020436
 10
5.293158281467768
 20
17.851738784
 10
5.30227119506776
 20
17.85310288319999
 10
5.311406779067766
 20
17.8542933312
 10
5.320561257467758
 20
17.8553068
 10
5.329730852667765
 20
17.8561399632
 10
5.338911785467757
 20
17.856789496
 10
5.348100281467765
 20
17.85725207199999
 10
5.357292561467758
 20
17.8575243616
  0
LWPOLYLINE
  5
5C4
330
1F
100
AcDbEntity
  8
0
  6
DASHED
 62
     8
100
AcDbPolyline
 90
       30
 70
     0
 43
0.0
 10
5.093727473467765
 20
17.77811761759999
 10
4.999340071867763
 20
17.72487986239999
 10
4.903294678267755
 20
17.6750844944
 10
4.805732780667767
 20
17.6285416992
 10
4.706795870267768
 20
17.585061664
 10
4.600628110267763
 20
17.5421243744
 10
4.493243919867765
 20
17.5021864064
 10
4.384811582267758
 20
17.4650220032
 10
4.275499383867767
 20
17.4304054048
 10
4.165475609467762
 20
17.39811085279999
 10
4.016232943867763
 20
17.357886672
 10
3.86611825266776
 20
17.3211986128
 10
3.715247414267764
 20
17.28777095679999
 10
3.563736310267756
 20
17.2573279904
 10
3.411700823867761
 20
17.2295939968
 10
3.259256833467759
 20
17.2042932608
 10
3.061422983867757
 20
17.1747360384
 10
2.863161764667765
 20
17.1484199744
 10
2.664536393467756
 20
17.1249690848
 10
2.465610084667758
 20
17.1040073856
 10
2.26644605426776
 20
17.0851588928
 10
2.067107518267761
 20
17.068047624
 10
1.795205772667756
 20
17.0470382976
 10
1.523123737467756
 20
17.0287790768
 10
1.250887892667762
 20
17.0134909344
 10
0.9785247214677639
 20
17.0013948432
 10
0.7060607102677637
 20
16.9927117728
 10
0.4335223390677641
 20
16.9876626992
 10
0.2167778926677641
 20
16.98638847359999
 10
0.0000164894677681
 20
16.9876626992
  0
LWPOLYLINE
  5
5D0
330
1F
100
AcDbEntity
  8
0
  6
DASHED
 62
     8
100
AcDbPolyline
 90
       27
 70
     0
 43
0.0
 10
5.939962257467769
 20
16.53626484799999
 10
5.80006950706776
 20
16.4800141936
 10
5.658976531067764
 20
16.4276009168
 10
5.516782665467758
 20
16.3787705584
 10
5.37358725106776
 20
16.33326866079999
 10
5.229489622267763
 20
16.29084076639999
 10
5.084589118267757
 20
16.251232416
 10
4.923142844667765
 20
16.2103119744
 10
4.760967339067761
 20
16.1721970432
 10
4.598197926267758
 20
16.136540984
 10
4.434969924667768
 20
16.10299716479999
 10
4.203782539067759
 20
16.058673264
 10
3.971996975867767
 20
16.0177332448
 10
3.739660319867766
 20
15.9800367136
 10
3.506819651067758
 20
15.94544328
 10
3.273522052667757
 20
15.91381255519999
 10
3.039814609467768
 20
15.8850041456
 10
2.736884929467763
 20
15.8516881952
 10
2.433449899067767
 20
15.8225582576
 10
2.129611511867764
 20
15.7973102048
 10
1.825471766267767
 20
15.77563990559999
 10
1.521132655867759
 20
15.7572432336
 10
1.216696177467767
 20
15.7418160576
 10
0.9122643262677598
 20
15.7290542496
 10
0.6079390974677637
 20
15.7186536816
 10
0.3038224862677623
 20
15.710310224
 10
0.0000164894677681
 20
15.7037197472
  0
LWPOLYLINE
  5
5E4
330
1F
100
AcDbEntity
  8
0
  6
DASHED
 62
     8
100
AcDbPolyline
 90
       78
 70
     0
 43
0.0
 10
5.939962257467769
 20
16.53626484799999
 10
5.942623143867763
 20
16.53715984799999
 10
5.976109924667767
 20
16.5489860848
 10
6.009254923067757
 20
16.56174165119999
 10
6.042030889467767
 20
16.57541899519999
 10
6.074410566267758
 20
16.590010568
 10
6.106366702267763
 20
16.6055088176
 10
6.137263348667758
 20
16.621579368
 10
6.167696751867765
 20
16.6385101216
 10
6.197637105467762
 20
16.6562967776
 10
6.227054603067756
 20
16.6749350304
 10
6.255919438267767
 20
16.6944205776
 10
6.284031534267768
 20
16.7146238832
 10
6.311530508667757
 20
16.73565560479999
 10
6.33837869746776
 20
16.757511312
 10
6.364538439867757
 20
16.7801865712
 10
6.389972070267759
 20
16.803676952
 10
6.410797452667765
 20
16.824086576
 10
6.431051207867767
 20
16.845065896
 10
6.450703316667755
 20
16.8666097312
 10
6.469723759867761
 20
16.88871289919999
 10
6.488082518267759
 20
16.91137021759999
 10
6.505749571067767
 20
16.9345765072
 10
6.522739847867768
 20
16.9583930576
 10
6.538962577467756
 20
16.9827425664
 10
6.55437602066776
 20
17.0076111248
 10
6.568938441467764
 20
17.0329848272
 10
6.582608103867755
 20
17.0588497616
 10
6.595343267067761
 20
17.0851920208
 10
6.606055180667766
 20
17.1094969152
 10
6.615923118267758
 20
17.13415915519999
 10
6.624907102267755
 20
17.15915443519999
 10
6.632967147067759
 20
17.1844584496
 10
6.64006327506776
 20
17.210046888
 10
6.64615550386776
 20
17.2358954464
 10
6.650598353467756
 20
17.25852074079999
 10
6.654227433467767
 20
17.2812929008
 10
6.65701540786776
 20
17.3041811312
 10
6.658934932667762
 20
17.3271546464
 10
6.659958671867755
 20
17.3501826544
 10
6.660059284667767
 20
17.3732343632
 10
6.659129521467761
 20
17.3976572864
 10
6.657110596667763
 20
17.422016152
 10
6.653981278267764
 20
17.4462548672
 10
6.649720327867768
 20
17.4703173376
 10
6.644306508667767
 20
17.49414747039999
 10
6.638081836667765
 20
17.5165126192
 10
6.630803452667763
 20
17.53856022719999
 10
6.622476739067764
 20
17.5602329296
 10
6.613107073467759
 20
17.5814733616
 10
6.602699838267767
 20
17.6022241616
 10
6.591353857467765
 20
17.6222817984
 10
6.57902505906776
 20
17.6417536528
 10
6.565747556667758
 20
17.6605928496
 10
6.551555467067757
 20
17.67875252
 10
6.536482907067764
 20
17.69618579199999
 10
6.522650486267764
 20
17.71076011359999
 10
6.508209164667761
 20
17.72473259039999
 10
6.493193521467759
 20
17.738089288
 10
6.477638134267763
 20
17.75081627199999
 10
6.461577583867764
 20
17.7628996096
 10
6.445046449467767
 20
17.7743253664
 10
6.427351132667766
 20
17.78552349919999
 10
6.409219428667768
 20
17.7959963536
 10
6.390688675067764
 20
17.80574826879999
 10
6.37179621426776
 20
17.8147835776
 10
6.352579385467763
 20
17.8231066176
 10
6.333075527867762
 20
17.8307217216
 10
6.308598025467759
 20
17.8391737536
 10
6.283786902267763
 20
17.8465759248
 10
6.258690790267763
 20
17.8529555344
 10
6.233358323067761
 20
17.8583398864
 10
6.20783813426776
 20
17.86275628
 10
6.18145697426776
 20
17.8663165168
 10
6.154966956667763
 20
17.8689154864
 10
6.128406206267769
 20
17.8705859488
 10
6.101812843067762
 20
17.8713606624
 10
6.075224990267756
 20
17.87127238879999
  0
LINE
  5
708
330
1F
100
AcDbEntity
  8
0
100
AcDbLine
 10
-32.95087194253223
 20
19.56153625439999
 30
0.0
 11
-32.99999999853223
 21
19.0
 31
0.0
  0
LINE
  5
709
330
1F
100
AcDbEntity
  8
0
100
AcDbLine
 10
-22.15314509783154
 20
9.368579361820676
 30
0.0
 11
-27.62958684333224
 21
19.0
 31
0.0
  0
LWPOLYLINE
  5
70C
330
1F
100
AcDbEntity
  8
0
100
AcDbPolyline
 90
       44
 70
     0
 43
0.0
 10
-20.77561403053223
 20
3.275277262399999
 10
-20.75737259693223
 20
3.229500136000002
 10
-20.69204855213223
 20
3.086995324800003
 10
-20.61810842093223
 20
2.953497486399999
 10
-20.53767919213223
 20
2.830562924800002
 10
-20.45314238093223
 20
2.719292816000002
 10
-20.36617941293223
 20
2.619431932800001
 10
-20.27752600653223
 20
2.5297864624
 10
-20.18757659053223
 20
2.449206454400002
 10
-20.09653593133224
 20
2.376707412799998
 10
-20.00517976173223
 20
2.311936929599998
 10
-19.91462462253223
 20
2.254740654399999
 10
-19.82591179053224
 20
2.2048162112
 10
-19.74007348173223
 20
2.161781198400003
 10
-19.65858448973223
 20
2.125375452800003
 10
-19.58310376013224
 20
2.0952753872
 10
-19.51478753133224
 20
2.070868668799999
 10
-19.45347867053223
 20
2.051145979200004
 10
-19.39732809293223
 20
2.034808302399998
 10
-19.34457607533223
 20
2.020893198399999
 10
-19.29388617133223
 20
2.008766387200001
 10
-19.24504062893223
 20
1.998170920000003
 10
-19.19815792173223
 20
1.988942982400001
 10
-19.15310668653224
 20
1.980879217600001
 10
-19.10950419213223
 20
1.973759006399998
 10
-19.06685139853223
 20
1.967379771200004
 10
-19.02448506413223
 20
1.961552558400004
 10
-18.98174499533223
 20
1.956124657600003
 10
-18.93802540173224
 20
1.9509784016
 10
-18.89277223213223
 20
1.946023268800001
 10
-18.84550000813224
 20
1.941191659200004
 10
-18.79577998893223
 20
1.9364327744
 10
-18.74322478093223
 20
1.931707883200001
 10
-18.68745215533223
 20
1.926984790400002
 10
-18.62806083853223
 20
1.922234966400001
 10
-18.56467691053223
 20
1.917436806400001
 10
-18.49694552333223
 20
1.912573523199998
 10
-18.42451995693223
 20
1.907631902400002
 10
-18.34708473933224
 20
1.902603350400003
 10
-18.26432656173224
 20
1.897481193600004
 10
-18.17593226733223
 20
1.892260539199998
 10
-18.08161542733223
 20
1.886939732799998
 10
-17.98109483533223
 20
1.881519012800001
 10
-17.86333727053223
 20
1.875459235200001
  0
LINE
  5
70E
330
1F
100
AcDbEntity
  8
0
100
AcDbLine
 10
-20.77593812493224
 20
3.276120668799999
 30
0.0
 11
-20.77561403053223
 21
3.275277262399997
 31
0.0
  0
LINE
  5
70F
330
1F
100
AcDbEntity
  8
0
100
AcDbLine
 10
-20.79934036333223
 20
3.340255956800001
 30
0.0
 11
-20.77593812493224
 21
3.276120668799999
 31
0.0
  0
LWPOLYLINE
  5
714
330
1F
100
AcDbEntity
  8
0
100
AcDbPolyline
 90
        4
 70
     0
 43
0.0
 10
-20.87168877613224
 20
3.606588072000004
 10
-20.84534831853223
 20
3.492154867200003
 10
-20.80883347533223
 20
3.368353809599998
 10
-20.79935630573224
 20
3.3403020384
  0
LINE
  5
715
330
1F
100
AcDbEntity
  8
0
100
AcDbLine
 10
-20.87168893613223
 20
3.606588225600001
 30
0.0
 11
-21.87493717207355
 21
8.62312839866869
 31
0.0
  0
LINE
  5
71D
330
1F
100
AcDbEntity
  8
0
100
AcDbLine
 10
-14.25990289505613
 20
1.788769435201038
 30
0.0
 11
-13.59653198944256
 21
0.5329294575151771
 31
0.0
  0
LINE
  5
732
330
1F
100
AcDbEntity
  8
0
100
AcDbLine
 10
-12.71231193292782
 20
0.0
 30
0.0
 11
12.71231193292782
 21
0.0
 31
0.0
  0
LWPOLYLINE
  5
742
330
1F
100
AcDbEntity
  8
0
100
AcDbPolyline
 90
       29
 70
     0
 43
0.0
 10
-1.983487424132235
 20
1.525257960000001
 10
-1.962627169732243
 20
1.527077716800004
 10
-1.933151691332241
 20
1.529103734399999
 10
-1.895170630532234
 20
1.531336249599998
 10
-1.848870072132243
 20
1.5337720576
 10
-1.794401057732244
 20
1.536409340800002
 10
-1.732057801732238
 20
1.539237364799998
 10
-1.662083902532231
 20
1.5422447728
 10
-1.584677880132232
 20
1.545416945599999
 10
-1.501332857732236
 20
1.548682744
 10
-1.414215720132233
 20
1.551947020800003
 10
-1.325186892932237
 20
1.555130433600002
 10
-1.235742868932234
 20
1.558170788800001
 10
-1.146590185732236
 20
1.561036171199997
 10
-1.057948332932241
 20
1.563711360000002
 10
-0.9695676641322421
 20
1.566194263999999
 10
-0.8811540497322312
 20
1.568481297599998
 10
-0.792759774532243
 20
1.570558483199999
 10
-0.7053628769322416
 20
1.572394643200002
 10
-0.6221867665322379
 20
1.573931472000001
 10
-0.5448388417322434
 20
1.575169312000003
 10
-0.4738543505322355
 20
1.576138873599997
 10
-0.4091860609322425
 20
1.576881529599997
 10
-0.3504570049322382
 20
1.577439510400001
 10
-0.2971617457322395
 20
1.577850819199998
 10
-0.2487942673322436
 20
1.578147544
 10
-0.2048153665322445
 20
1.578356387199999
 10
-0.164644689732242
 20
1.5784990416
 10
-0.1276959537322426
 20
1.578592612799997
  0
LINE
  5
76C
330
1F
100
AcDbEntity
  8
0
100
AcDbLine
 10
1.989307833467762
 20
1.521152041599998
 30
0.0
 11
1.989850329467756
 21
1.521163584000001
 31
0.0
  0
LINE
  5
77E
330
1F
100
AcDbEntity
  8
0
100
AcDbLine
 10
-0.1276959537322426
 20
1.578592612799996
 30
0.0
 11
0.0
 21
1.578764916258467
 31
0.0
  0
LINE
  5
77F
330
1F
100
AcDbEntity
  8
0
100
AcDbLine
 10
-1.271446608132237
 20
0.9980935055999982
 30
0.0
 11
1.271446609467759
 21
0.9980935055999982
 31
0.0
  0
LWPOLYLINE
  5
781
330
1F
100
AcDbEntity
  8
0
100
AcDbPolyline
 90
       31
 70
     0
 43
0.0
 10
0.0
 20
1.578719451914031
 10
0.0937914414677579
 20
1.578649820799999
 10
0.1283346974677642
 20
1.578591283200001
 10
0.1655294654677561
 20
1.5784963728
 10
0.2059715806677644
 20
1.578351616000002
 10
0.2502422686677619
 20
1.578139696000004
 10
0.2989164542677685
 20
1.577838699200004
 10
0.3525282414677662
 20
1.577421708799999
 10
0.4115793054677681
 20
1.576856443200004
 10
0.4765733454677559
 20
1.576104703999998
 10
0.5478663134677646
 20
1.575124393600003
 10
0.625456212667757
 20
1.573875046400001
 10
0.7087575326677609
 20
1.572327497600003
 10
0.7960754574677651
 20
1.570484491200001
 10
0.8842919102677626
 20
1.568403640000003
 10
0.9725241230677568
 20
1.5661143168
 10
1.060740911867767
 20
1.5636298416
 10
1.14922162546776
 20
1.560954049600002
 10
1.238214620667761
 20
1.558088955200002
 10
1.327486129467757
 20
1.555050168000004
 10
1.416307127867767
 20
1.551870387200001
 10
1.503186759867759
 20
1.548611654400001
 10
1.586262633467768
 20
1.5453534144
 10
1.663387849467767
 20
1.542190047999998
 10
1.733097015867755
 20
1.539191507199998
 10
1.795203135867765
 20
1.536371803200001
 10
1.849462041467759
 20
1.533742251199999
 10
1.895581868667761
 20
1.531313470400004
 10
1.933413668667768
 20
1.529087196800002
 10
1.962772310267766
 20
1.527066628800003
 10
1.983549430267757
 20
1.525251512
  0
LWPOLYLINE
  5
7A3
330
1F
100
AcDbEntity
  8
0
100
AcDbPolyline
 90
       19
 70
     0
 43
0.0
 10
-7.599880003332231
 20
1.628545606399999
 10
-7.239020769732235
 20
1.621042296000002
 10
-6.88504435053224
 20
1.613722646400002
 10
-6.538218278532241
 20
1.606595864000002
 10
-6.19881898253223
 20
1.599670822400003
 10
-5.867168873732239
 20
1.592956791999998
 10
-5.543644292932242
 20
1.586463553600001
 10
-5.228412216132241
 20
1.580196118399999
 10
-4.920914964932237
 20
1.574144841599999
 10
-4.620587870532233
 20
1.5683001296
 10
-4.326962609732234
 20
1.562654544
 10
-4.03965944813224
 20
1.557202654400004
 10
-3.758381096132239
 20
1.551940931200004
 10
-3.482925124932236
 20
1.546867975999997
 10
-3.213275921732233
 20
1.541986150400003
 10
-2.94926307373224
 20
1.537295382399999
 10
-2.690881201732238
 20
1.5327990864
 10
-2.438367888132233
 20
1.528505343999999
 10
-1.999104646532231
 20
1.522214208000004
  0
LWPOLYLINE
  5
7A4
330
1F
100
AcDbEntity
  8
0
100
AcDbPolyline
 90
       16
 70
     0
 43
0.0
 10
-1.989851384132236
 20
1.521163600000004
 10
-1.989373227332237
 20
1.521153672
 10
-1.987910777732238
 20
1.521106540800001
 10
-1.985369617732231
 20
1.520983916800002
 10
-1.981531200132238
 20
1.520720020800002
 10
-1.976060219332239
 20
1.5201995072
 10
-1.968593070532236
 20
1.519234043200004
 10
-1.958945625732241
 20
1.517565286400003
 10
-1.947189139332238
 20
1.5148922672
 10
-1.93373087693223
 20
1.510950867199998
 10
-1.919050817732241
 20
1.505526260799999
 10
-1.903660443332242
 20
1.498480508800003
 10
-1.887860822532232
 20
1.4896414048
 10
-1.871828140932237
 20
1.478760473600001
 10
-1.85578141293223
 20
1.465557276800002
 10
-1.848008288132234
 20
1.458157620799997
  0
LWPOLYLINE
  5
7C2
330
1F
100
AcDbEntity
  8
0
100
AcDbPolyline
 90
        5
 70
     0
 43
0.0
 10
-1.989837209732243
 20
1.521162164799999
 10
-1.99295121293224
 20
1.521244411199997
 10
-1.996219220932232
 20
1.521457120000004
 10
-1.998173579332231
 20
1.521771614399998
 10
-1.999074787332233
 20
1.522186054399998
  0
LWPOLYLINE
  5
7CC
330
1F
100
AcDbEntity
  8
0
100
AcDbPolyline
 90
        3
 70
     0
 43
0.0
 10
1.983549430267757
 20
1.525251512
 10
1.995697039867764
 20
1.523636387200003
 10
1.999104644667767
 20
1.522214208000004
  0
LINE
  5
7D6
330
1F
100
AcDbEntity
  8
0
100
AcDbLine
 10
-1.470320390532236
 20
1.080469723199998
 30
0.0
 11
-1.848008211332242
 21
1.458157543999996
 31
0.0
  0
LINE
  5
7D7
330
1F
100
AcDbEntity
  8
0
100
AcDbLine
 10
-1.848008211332242
 20
1.458157543999996
 30
0.0
 11
-1.848034358532231
 21
1.458185190399996
 31
0.0
  0
LINE
  5
7D8
330
1F
100
AcDbEntity
  8
0
100
AcDbLine
 10
-1.999074787332233
 20
1.522186054399996
 30
0.0
 11
-1.99909977933224
 21
1.5222146096
 31
0.0
  0
LWPOLYLINE
  5
7E2
330
1F
100
AcDbEntity
  8
0
100
AcDbPolyline
 90
       15
 70
     0
 43
0.0
 10
-3.448475654532231
 20
15.2636578416
 10
-3.81434529293223
 20
14.88613834399999
 10
-4.200554075332235
 20
14.519443488
 10
-4.608815068932244
 20
14.16261079839999
 10
-5.041129444932238
 20
13.8147922224
 10
-5.500267707332241
 20
13.4749341984
 10
-5.989391065732235
 20
13.14218067999999
 10
-6.512108036932232
 20
12.8158624512
 10
-7.072730246532231
 20
12.495390056
 10
-7.677467820932236
 20
12.1797446432
 10
-8.335129720132236
 20
11.8675038208
 10
-9.056055024132234
 20
11.557721488
 10
-9.841982392132237
 20
11.2537899744
 10
-10.65603244333223
 20
10.9713772128
 10
-11.46522519533223
 20
10.7192262224
  0
LWPOLYLINE
  5
81B
330
1F
100
AcDbEntity
  8
0
100
AcDbPolyline
 90
       19
 70
     0
 43
0.0
 10
-1.187499998532231
 20
17.024017672
 10
-1.184394952132237
 20
17.109041896
 10
-1.172165100932232
 20
17.2124496032
 10
-1.150784275332242
 20
17.3142623168
 10
-1.120394353732237
 20
17.41386328639999
 10
-1.081303790532231
 20
17.510289136
 10
-1.033702867332237
 20
17.6030682272
 10
-0.9780657921322415
 20
17.6912551952
 10
-0.9147469281322315
 20
17.7742915712
 10
-0.8443009969322332
 20
17.8514411712
 10
-0.7672935089322408
 20
17.9220991216
 10
-0.684213651332243
 20
17.9858051024
 10
-0.5958027505322434
 20
18.04197613919999
 10
-0.5026690081322443
 20
18.0902166816
 10
-0.4060093393322433
 20
18.129959016
 10
-0.3064948065322426
 20
18.1610311184
 10
-0.2051918833322333
 20
18.1832209584
 10
-0.1027131825322414
 20
18.1965234448
 10
0.0000000014677681
 20
18.20093767679999
  0
LWPOLYLINE
  5
839
330
1F
100
AcDbEntity
  8
0
100
AcDbPolyline
 90
       20
 70
     0
 43
0.0
 10
1.187499999867767
 20
17.02401784
 10
1.187348844667766
 20
17.00529248479999
 10
1.181117891067756
 20
16.90231176
 10
1.165964668667768
 20
16.8011530704
 10
1.142288292667757
 20
16.70273446399999
 10
1.11045025106776
 20
16.6074902496
 10
1.070866227067767
 20
16.5160020432
 10
1.023748039867768
 20
16.4284121872
 10
0.9695003598677658
 20
16.34531632479999
 10
0.908252951867766
 20
16.2668891008
 10
0.8403543870677623
 20
16.1936697792
 10
0.7660268574677645
 20
16.1260466256
 10
0.6854831678677585
 20
16.0644467808
 10
0.5991610350677661
 20
16.0094736752
 10
0.507420524667765
 20
15.9616437472
 10
0.4112864734677686
 20
15.9217228368
 10
0.3114003166677577
 20
15.8901395264
 10
0.2089512702677609
 20
15.8673699776
 10
0.1047617614677563
 20
15.8536288352
 10
0.0000000014677681
 20
15.8490510144
  0
LINE
  5
83C
330
1F
100
AcDbEntity
  8
0
100
AcDbLine
 10
-13.50739671693223
 20
10.18806059839999
 30
0.0
 11
-13.97319970413223
 21
10.08487165919999
 31
0.0
  0
LWPOLYLINE
  5
83E
330
1F
100
AcDbEntity
  8
0
100
AcDbPolyline
 90
       11
 70
     0
 43
0.0
 10
-13.97319970413223
 20
10.0848716592
 10
-14.45194982253223
 20
9.984863142399998
 10
-14.93319379853223
 20
9.890137926399997
 10
-15.41033394573224
 20
9.801620963199997
 10
-15.87844409613223
 20
9.719699427200001
 10
-16.33428518733223
 20
9.644343961600004
 10
-16.77383707533223
 20
9.5755871456
 10
-17.19454829933224
 20
9.513184163199998
 10
-17.59531604973224
 20
9.456687040000002
 10
-17.97596494413223
 20
9.405566728
 10
-18.33663938573224
 20
9.359313779200004
  0
LWPOLYLINE
  5
83F
330
1F
100
AcDbEntity
  8
0
100
AcDbPolyline
 90
        4
 70
     0
 43
0.0
 10
-18.96702073133224
 20
9.289812700800002
 10
-19.20642900973223
 20
9.261828128000001
 10
-19.42228200493223
 20
9.234007424000001
 10
-19.61485477933224
 20
9.208697163200003
  0
LWPOLYLINE
  5
840
330
1F
100
AcDbEntity
  8
0
100
AcDbPolyline
 90
        4
 70
     0
 43
0.0
 10
-18.33668236333223
 20
9.3593911984
 10
-18.55676230573223
 20
9.333824414400002
 10
-18.76657415373223
 20
9.311462646399998
 10
-18.96702073133224
 20
9.289812700800002
  0
LWPOLYLINE
  5
841
330
1F
100
AcDbEntity
  8
0
100
AcDbPolyline
 90
        5
 70
     0
 43
0.0
 10
-19.61485477933224
 20
9.208697163200003
 10
-19.85599368973223
 20
9.181073627200003
 10
-20.08772668493223
 20
9.159554940800003
 10
-20.32162926733223
 20
9.141745020799998
 10
-20.57212144973223
 20
9.124179947200001
  0
LWPOLYLINE
  5
85B
330
1F
100
AcDbEntity
  8
0
100
AcDbPolyline
 90
        3
 70
     0
 43
0.0
 10
-11.46522519533223
 20
10.7192262224
 10
-12.12400811693223
 20
10.5326003168
 10
-12.60035517613224
 20
10.407113016
  0
LINE
  5
85D
330
1F
100
AcDbEntity
  8
0
100
AcDbLine
 10
-12.60035517613224
 20
10.40711301599999
 30
0.0
 11
-13.05408120493223
 21
10.29441719839999
 31
0.0
  0
LINE
  5
85E
330
1F
100
AcDbEntity
  8
0
100
AcDbLine
 10
-13.05408120493223
 20
10.29441719839999
 30
0.0
 11
-13.50739671693223
 21
10.18806059839999
 31
0.0
  0
LINE
  5
873
330
1F
100
AcDbEntity
  8
0
100
AcDbLine
 10
1.999099780667762
 20
1.5222146096
 30
0.0
 11
1.999074788667755
 21
1.522186054399996
 31
0.0
  0
LINE
  5
874
330
1F
100
AcDbEntity
  8
0
100
AcDbLine
 10
1.848034359867767
 20
1.458185190399996
 30
0.0
 11
1.848008212667764
 21
1.458157543999996
 31
0.0
  0
LINE
  5
875
330
1F
100
AcDbEntity
  8
0
100
AcDbLine
 10
1.470320391867758
 20
1.080469723199998
 30
0.0
 11
1.848008212667764
 21
1.458157543999996
 31
0.0
  0
LWPOLYLINE
  5
876
330
1F
100
AcDbEntity
  8
0
100
AcDbPolyline
 90
       15
 70
     0
 43
0.0
 10
1.848008305467757
 20
1.458157636799999
 10
1.855018260667762
 20
1.464862484800004
 10
1.870621027067755
 20
1.477853726400002
 10
1.886497881467761
 20
1.488795582399998
 10
1.902334151867762
 20
1.497803776000001
 10
1.917823763067758
 20
1.505017140800003
 10
1.932545471867769
 20
1.510557340800001
 10
1.945884796667769
 20
1.514551948800001
 10
1.957345300667768
 20
1.517242863999999
 10
1.966751673467769
 20
1.5189519808
 10
1.974343585467764
 20
1.520003142400003
 10
1.980309451067768
 20
1.520618014400003
 10
1.984700353467758
 20
1.520944355200004
 10
1.987638825467769
 20
1.521095675199997
 10
1.989307833467762
 20
1.5211520416
  0
LWPOLYLINE
  5
878
330
1F
100
AcDbEntity
  8
0
100
AcDbPolyline
 90
        3
 70
     0
 43
0.0
 10
-1.999104646532231
 20
1.522214208000004
 10
-1.995682448132242
 20
1.523639220800003
 10
-1.983487424132235
 20
1.525257960000001
  0
LWPOLYLINE
  5
8B0
330
1F
100
AcDbEntity
  8
0
100
AcDbPolyline
 90
       19
 70
     0
 43
0.0
 10
0.0000000014677681
 20
18.20093767679999
 10
0.1027321006677653
 20
18.1965218144
 10
0.2052204206677572
 20
18.183215992
 10
0.3065390846677616
 20
18.1610193856
 10
0.4060626318677692
 20
18.12993978559999
 10
0.5027378942677672
 20
18.09018476
 10
0.5958772286677601
 20
18.0419332976
 10
0.6842836414677578
 20
17.985756176
 10
0.7673602350677556
 20
17.9220431088
 10
0.8443599230677563
 20
17.85138210399999
 10
0.9148061614677658
 20
17.77422063359999
 10
0.9781166846677677
 20
17.6911819312
 10
1.033750435067759
 20
17.602984848
 10
1.08134268626776
 20
17.510204224
 10
1.120426988667759
 20
17.41377122399999
 10
1.150809694267763
 20
17.3141634064
 10
1.172182062267765
 20
17.212346056
 10
1.184402257467766
 20
17.1089420064
 10
1.187499999867767
 20
17.02401784
  0
LWPOLYLINE
  5
8B1
330
1F
100
AcDbEntity
  8
0
100
AcDbPolyline
 90
       20
 70
     0
 43
0.0
 10
0.0000000014677681
 20
15.8490510144
 10
-0.1047610865322355
 20
15.853628776
 10
-0.2089482625322319
 20
15.8673694464
 10
-0.3114039281322363
 20
15.8901404976
 10
-0.4112894017322333
 20
15.9217239056
 10
-0.5074309057322353
 20
15.9616486
 10
-0.5991724497322366
 20
16.0094802736
 10
-0.6854875313322424
 20
16.064449832
 10
-0.7660299489322427
 20
16.126049208
 10
-0.8403513905322341
 20
16.1936668128
 10
-0.9082564913322386
 20
16.2668932608
 10
-0.9695028193322343
 20
16.34531976799999
 10
-1.023754721732231
 20
16.42842343999999
 10
-1.070874188932236
 20
16.5160184896
 10
-1.110458160132239
 20
16.60751091199999
 10
-1.14229728493224
 20
16.70276580159999
 10
-1.165972796932237
 20
16.80119476159999
 10
-1.181125100932234
 20
16.9023803728
 10
-1.187350137732238
 20
17.0053730256
 10
-1.187499998532231
 20
17.024017672
  0
LWPOLYLINE
  5
8D7
330
1F
100
AcDbEntity
  8
0
100
AcDbPolyline
 90
        5
 70
     0
 43
0.0
 10
1.999074788667755
 20
1.522186054399998
 10
1.998169796667767
 20
1.521770625600002
 10
1.996206214267758
 20
1.5214557808
 10
1.992922542267763
 20
1.521243280000003
 10
1.989836086267757
 20
1.521162147199998
  0
LINE
  5
8DB
330
1F
100
AcDbEntity
  8
0
  6
HIDDEN
 62
     8
100
AcDbLine
 10
31.72671146066775
 20
20.65341196319999
 30
0.0
 11
28.85849870866776
 21
20.5386834544
 31
0.0
  0
LINE
  5
8DE
330
1F
100
AcDbEntity
  8
0
100
AcDbLine
 10
-32.99999999853223
 20
19.0
 30
0.0
 11
33.00000000146775
 21
19.0
 31
0.0
  0
LINE
  5
8E1
330
1F
100
AcDbEntity
  8
0
100
AcDbLine
 10
32.76408543826775
 20
19.73269455359999
 30
0.0
 11
32.75511084306776
 21
19.73269455359999
 31
0.0
  0
LINE
  5
8E2
330
1F
100
AcDbEntity
  8
0
100
AcDbLine
 10
32.75511084306776
 20
19.73269455359999
 30
0.0
 11
-32.76408543693223
 21
19.73269455359999
 31
0.0
  0
LINE
  5
8E4
330
1F
100
AcDbEntity
  8
0
  6
HIDDEN
 62
     8
100
AcDbLine
 10
28.35907803186776
 20
20.15434350559999
 30
0.0
 11
28.44750000146776
 21
20.15434350559999
 31
0.0
  0
LINE
  5
8E7
330
1F
100
AcDbEntity
  8
0
100
AcDbLine
 10
-31.98003340493223
 20
20.75
 30
0.0
 11
31.98003340626776
 21
20.75
 31
0.0
  0
LINE
  5
901
330
1F
100
AcDbEntity
  8
0
  6
HIDDEN
 62
     8
100
AcDbLine
 10
28.19608432626776
 20
20.059521984
 30
0.0
 11
27.59363836961169
 21
19.0
 31
0.0
  0
LINE
  5
913
330
1F
100
AcDbEntity
  8
0
100
AcDbLine
 10
32.95087194386776
 20
19.56153625439999
 30
0.0
 11
33.00000000146777
 21
19.0
 31
0.0
  0
ARC
  5
AF1
330
1F
100
AcDbEntity
  8
0
100
AcDbCircle
 10
32.76408543826775
 20
19.54519455359999
 30
0.0
 40
0.1875
100
AcDbArc
 50
5.0
 51
90.0
  0
ARC
  5
AF2
330
1F
100
AcDbEntity
  8
0
100
AcDbCircle
 10
32.75511084306776
 20
19.8076945536
 30
0.0
 40
0.075
100
AcDbArc
 50
180.0
 51
270.0
  0
ARC
  5
AF3
330
1F
100
AcDbEntity
  8
0
100
AcDbCircle
 10
32.05912882066776
 20
19.8076945536
 30
0.0
 40
0.6209820224
100
AcDbArc
 50
0.0
 51
62.5969753296
  0
ARC
  5
AF4
330
1F
100
AcDbEntity
  8
0
100
AcDbCircle
 10
32.37945221586775
 20
20.42558119039999
 30
0.0
 40
0.075
100
AcDbArc
 50
180.0
 51
242.5969753296
  0
ARC
  5
AF5
330
1F
100
AcDbEntity
  8
0
  6
HIDDEN
 62
     8
100
AcDbCircle
 10
31.98003340626776
 20
20.42558119039999
 30
0.0
 40
0.3244188096
100
AcDbArc
 50
90.0
 51
131.3890708287999
  0
ARC
  5
AF6
330
1F
100
AcDbEntity
  8
0
  6
HIDDEN
 62
     8
100
AcDbCircle
 10
28.44750000146776
 20
20.3318435056
 30
0.0
 40
0.1775
100
AcDbArc
 50
270.0
 51
354.844747403
  0
ARC
  5
AF7
330
1F
100
AcDbEntity
  8
0
  6
HIDDEN
 62
     8
100
AcDbCircle
 10
31.72421477266776
 20
20.7158620752
 30
0.0
 40
0.0625
100
AcDbArc
 50
272.2893764324
 51
311.3887350238
  0
ARC
  5
AF8
330
1F
100
AcDbEntity
  8
0
  6
HIDDEN
 62
     8
100
AcDbCircle
 10
28.86829083026777
 20
20.2938792064
 30
0.0
 40
0.2450000336
100
AcDbArc
 50
92.29053874390002
 51
174.8446782521
  0
ARC
  5
B01
330
1F
100
AcDbEntity
  8
0
  6
HIDDEN
 62
     8
100
AcDbCircle
 10
28.35907803186776
 20
19.96684350559999
 30
0.0
 40
0.1875
100
AcDbArc
 50
89.999421477
 51
150.3773713256
  0
ARC
  5
B03
330
1F
100
AcDbEntity
  8
0
100
AcDbCircle
 10
-32.37945221453223
 20
20.42558119039999
 30
0.0
 40
0.075
100
AcDbArc
 50
297.4030246703999
 51
0.0
  0
ARC
  5
B04
330
1F
100
AcDbEntity
  8
0
100
AcDbCircle
 10
-32.05912881773223
 20
19.8076945536
 30
0.0
 40
0.6209820224
100
AcDbArc
 50
117.4030246704
 51
180.0
  0
ARC
  5
B05
330
1F
100
AcDbEntity
  8
0
100
AcDbCircle
 10
-32.75511084013224
 20
19.8076945536
 30
0.0
 40
0.075
100
AcDbArc
 50
270.0
 51
0.0
  0
ARC
  5
B06
330
1F
100
AcDbEntity
  8
0
100
AcDbCircle
 10
-32.76408543693223
 20
19.54519455359999
 30
0.0
 40
0.1875
100
AcDbArc
 50
90.0
 51
175.0
  0
ARC
  5
B07
330
1F
100
AcDbEntity
  8
0
100
AcDbCircle
 10
-31.98003340493223
 20
20.42558119039999
 30
0.0
 40
0.3244188096
100
AcDbArc
 50
90.0
 51
180.0
  0
ARC
  5
B08
330
1F
100
AcDbEntity
  8
0
100
AcDbCircle
 10
-1.271446608132237
 20
1.279343505599998
 30
0.0
 40
0.28125
100
AcDbArc
 50
225.0
 51
270.0
  0
ARC
  5
B09
330
1F
100
AcDbEntity
  8
0
100
AcDbCircle
 10
1.271446609467759
 20
1.279343505599998
 30
0.0
 40
0.28125
100
AcDbArc
 50
270.0
 51
315.0
  0
LINE
  5
B50
330
1F
100
AcDbEntity
  8
CENTER
100
AcDbLine
 10
-3.25
 20
17.02934350559999
 30
0.0
 11
3.25
 21
17.02934350559999
 31
0.0
  0
LINE
  5
B51
330
1F
100
AcDbEntity
  8
CENTER
100
AcDbLine
 10
0.0
 20
13.77934350559999
 30
0.0
 11
0.0
 21
20.27934350559998
 31
0.0
  0
LINE
  5
B54
330
1F
100
AcDbEntity
  8
CENTER
100
AcDbLine
 10
0.0
 20
-1.907754400503478
 30
0.0
 11
0.0
 21
4.592245599496523
 31
0.0
  0
ARC
  5
B58
330
1F
100
AcDbEntity
  8
0
100
AcDbCircle
 10
-12.71231193292782
 20
1.0
 30
0.0
 40
1.0
100
AcDbArc
 50
207.8443065148074
 51
270.0
  0
LINE
  5
B59
330
1F
100
AcDbEntity
  8
0
100
AcDbLine
 10
-5.654078137798002
 20
0.5316681299883417
 30
0.0
 11
-5.099643377719488
 21
1.577662060350995
 31
0.0
  0
ARC
  5
B5A
330
1F
100
AcDbEntity
  8
0
100
AcDbCircle
 10
-6.537630773203147
 20
1.0
 30
0.0
 40
1.0
100
AcDbArc
 50
270.0
 51
332.07393101433
  0
ARC
  5
B5C
330
1F
100
AcDbEntity
  8
0
100
AcDbCircle
 10
-24.32639448077651
 20
8.132866159038856
 30
0.0
 40
2.5
100
AcDbArc
 50
11.30927575811218
 51
29.62263200255494
  0
ARC
  5
B5D
330
1F
100
AcDbEntity
  8
0
100
AcDbCircle
 10
31.98003340626776
 20
20.42558119039999
 30
0.0
 40
0.3244188096
100
AcDbArc
 50
0.0
 51
90.0
  0
LINE
  5
B61
330
1F
100
AcDbEntity
  8
0
100
AcDbLine
 10
-17.86333727053223
 20
1.875459235200001
 30
0.0
 11
-7.599880003332231
 21
1.628545606399999
 31
0.0
  0
LINE
  5
B62
330
1F
100
AcDbEntity
  8
0
100
AcDbLine
 10
20.87168893613224
 20
3.606588225600001
 30
0.0
 11
21.87493717207356
 21
8.62312839866869
 31
0.0
  0
LINE
  5
B63
330
1F
100
AcDbEntity
  8
0
100
AcDbLine
 10
17.86333727053223
 20
1.875459235200001
 30
0.0
 11
7.599880003332231
 21
1.628545606399999
 31
0.0
  0
LWPOLYLINE
  5
B65
330
1F
100
AcDbEntity
  8
0
100
AcDbPolyline
 90
       44
 70
     0
 43
0.0
 10
20.77561403053223
 20
3.275277262399999
 10
20.75737259693224
 20
3.229500136000002
 10
20.69204855213223
 20
3.086995324800003
 10
20.61810842093223
 20
2.953497486399999
 10
20.53767919213222
 20
2.830562924800002
 10
20.45314238093223
 20
2.719292816000002
 10
20.36617941293223
 20
2.619431932800001
 10
20.27752600653224
 20
2.5297864624
 10
20.18757659053224
 20
2.449206454400002
 10
20.09653593133224
 20
2.376707412799998
 10
20.00517976173223
 20
2.311936929599998
 10
19.91462462253224
 20
2.254740654399999
 10
19.82591179053224
 20
2.2048162112
 10
19.74007348173223
 20
2.161781198400003
 10
19.65858448973223
 20
2.125375452800003
 10
19.58310376013224
 20
2.0952753872
 10
19.51478753133224
 20
2.070868668799999
 10
19.45347867053223
 20
2.051145979200004
 10
19.39732809293224
 20
2.034808302399998
 10
19.34457607533224
 20
2.020893198399999
 10
19.29388617133224
 20
2.008766387200001
 10
19.24504062893223
 20
1.998170920000003
 10
19.19815792173224
 20
1.988942982400001
 10
19.15310668653224
 20
1.980879217600001
 10
19.10950419213223
 20
1.973759006399998
 10
19.06685139853223
 20
1.967379771200004
 10
19.02448506413223
 20
1.961552558400004
 10
18.98174499533223
 20
1.956124657600003
 10
18.93802540173224
 20
1.9509784016
 10
18.89277223213223
 20
1.946023268800001
 10
18.84550000813224
 20
1.941191659200004
 10
18.79577998893223
 20
1.9364327744
 10
18.74322478093223
 20
1.931707883200001
 10
18.68745215533223
 20
1.926984790400002
 10
18.62806083853223
 20
1.922234966400001
 10
18.56467691053223
 20
1.917436806400001
 10
18.49694552333223
 20
1.912573523199998
 10
18.42451995693223
 20
1.907631902400002
 10
18.34708473933224
 20
1.902603350400003
 10
18.26432656173224
 20
1.897481193600004
 10
18.17593226733223
 20
1.892260539199998
 10
18.08161542733223
 20
1.886939732799998
 10
17.98109483533223
 20
1.881519012800001
 10
17.86333727053223
 20
1.875459235200001
  0
LWPOLYLINE
  5
B66
330
1F
100
AcDbEntity
  8
0
100
AcDbPolyline
 90
        4
 70
     0
 43
0.0
 10
20.87168877613223
 20
3.606588072000004
 10
20.84534831853224
 20
3.492154867200003
 10
20.80883347533223
 20
3.368353809599998
 10
20.79935630573223
 20
3.3403020384
  0
LINE
  5
B67
330
1F
100
AcDbEntity
  8
0
100
AcDbLine
 10
20.79934036333223
 20
3.340255956800001
 30
0.0
 11
20.77593812493224
 21
3.276120668799999
 31
0.0
  0
LINE
  5
B68
330
1F
100
AcDbEntity
  8
0
100
AcDbLine
 10
20.77593812493224
 20
3.276120668799999
 30
0.0
 11
20.77561403053223
 21
3.275277262399997
 31
0.0
  0
LINE
  5
B69
330
1F
100
AcDbEntity
  8
0
100
AcDbLine
 10
14.25990289505613
 20
1.788769435201038
 30
0.0
 11
13.59653198944256
 21
0.5329294575151771
 31
0.0
  0
ARC
  5
B6A
330
1F
100
AcDbEntity
  8
0
100
AcDbCircle
 10
12.71231193292782
 20
1.0
 30
0.0
 40
1.0
100
AcDbArc
 50
270.0
 51
332.1556934851925
  0
LINE
  5
B6B
330
1F
100
AcDbEntity
  8
0
100
AcDbLine
 10
5.654078137798002
 20
0.5316681299883417
 30
0.0
 11
5.099643377719488
 21
1.577662060350995
 31
0.0
  0
ARC
  5
B6C
330
1F
100
AcDbEntity
  8
0
100
AcDbCircle
 10
6.537630773203147
 20
1.0
 30
0.0
 40
1.0
100
AcDbArc
 50
207.9260689856699
 51
270.0
  0
LWPOLYLINE
  5
B6D
330
1F
100
AcDbEntity
  8
0
100
AcDbPolyline
 90
       19
 70
     0
 43
0.0
 10
7.599880003332231
 20
1.628545606399999
 10
7.239020769732235
 20
1.621042296000002
 10
6.88504435053224
 20
1.613722646400002
 10
6.538218278532241
 20
1.606595864000002
 10
6.19881898253223
 20
1.599670822400003
 10
5.867168873732239
 20
1.592956791999998
 10
5.543644292932242
 20
1.586463553600001
 10
5.228412216132241
 20
1.580196118399999
 10
4.920914964932237
 20
1.574144841599999
 10
4.620587870532233
 20
1.5683001296
 10
4.326962609732234
 20
1.562654544
 10
4.03965944813224
 20
1.557202654400004
 10
3.758381096132239
 20
1.551940931200004
 10
3.482925124932236
 20
1.546867975999997
 10
3.213275921732233
 20
1.541986150400003
 10
2.94926307373224
 20
1.537295382399999
 10
2.690881201732238
 20
1.5327990864
 10
2.438367888132233
 20
1.528505343999999
 10
1.999104644667767
 20
1.522214208000004
  0
LWPOLYLINE
  5
B6E
330
1F
100
AcDbEntity
  8
0
100
AcDbPolyline
 90
       15
 70
     0
 43
0.0
 10
3.448475654532231
 20
15.2636578416
 10
3.81434529293223
 20
14.88613834399999
 10
4.200554075332235
 20
14.519443488
 10
4.608815068932244
 20
14.16261079839999
 10
5.041129444932238
 20
13.8147922224
 10
5.500267707332241
 20
13.4749341984
 10
5.989391065732235
 20
13.14218067999999
 10
6.512108036932232
 20
12.8158624512
 10
7.072730246532231
 20
12.495390056
 10
7.677467820932236
 20
12.1797446432
 10
8.335129720132236
 20
11.8675038208
 10
9.056055024132234
 20
11.557721488
 10
9.841982392132237
 20
11.2537899744
 10
10.65603244333223
 20
10.9713772128
 10
11.46522519533223
 20
10.7192262224
  0
LINE
  5
B6F
330
1F
100
AcDbEntity
  8
0
100
AcDbLine
 10
22.15314509783154
 20
9.368579361820676
 30
0.0
 11
27.62958684333225
 21
19.0
 31
0.0
  0
LWPOLYLINE
  5
B70
330
1F
100
AcDbEntity
  8
0
100
AcDbPolyline
 90
        4
 70
     0
 43
0.0
 10
18.96702073133224
 20
9.289812700800002
 10
19.20642900973223
 20
9.261828128000001
 10
19.42228200493224
 20
9.234007424000001
 10
19.61485477933223
 20
9.208697163200003
  0
ARC
  5
B71
330
1F
100
AcDbEntity
  8
0
100
AcDbCircle
 10
24.32639448077651
 20
8.132866159038856
 30
0.0
 40
2.5
100
AcDbArc
 50
150.377367997445
 51
168.6907242418878
  0
LWPOLYLINE
  5
B72
330
1F
100
AcDbEntity
  8
0
100
AcDbPolyline
 90
        5
 70
     0
 43
0.0
 10
19.61485477933223
 20
9.208697163200003
 10
19.85599368973223
 20
9.181073627200003
 10
20.08772668493223
 20
9.159554940800003
 10
20.32162926733224
 20
9.141745020799998
 10
20.57212144973223
 20
9.124179947200001
  0
LWPOLYLINE
  5
B73
330
1F
100
AcDbEntity
  8
0
100
AcDbPolyline
 90
       11
 70
     0
 43
0.0
 10
13.97319970413223
 20
10.0848716592
 10
14.45194982253223
 20
9.984863142399998
 10
14.93319379853223
 20
9.890137926399997
 10
15.41033394573224
 20
9.801620963199997
 10
15.87844409613223
 20
9.719699427200001
 10
16.33428518733223
 20
9.644343961600004
 10
16.77383707533223
 20
9.5755871456
 10
17.19454829933224
 20
9.513184163199998
 10
17.59531604973224
 20
9.456687040000002
 10
17.97596494413223
 20
9.405566728
 10
18.33663938573224
 20
9.359313779200004
  0
LWPOLYLINE
  5
B74
330
1F
100
AcDbEntity
  8
0
100
AcDbPolyline
 90
        4
 70
     0
 43
0.0
 10
18.33668236333223
 20
9.3593911984
 10
18.55676230573223
 20
9.333824414400002
 10
18.76657415373223
 20
9.311462646399998
 10
18.96702073133224
 20
9.289812700800002
  0
LWPOLYLINE
  5
B75
330
1F
100
AcDbEntity
  8
0
100
AcDbPolyline
 90
        3
 70
     0
 43
0.0
 10
11.46522519533223
 20
10.7192262224
 10
12.12400811693223
 20
10.5326003168
 10
12.60035517613224
 20
10.407113016
  0
LINE
  5
B76
330
1F
100
AcDbEntity
  8
0
100
AcDbLine
 10
13.05408120493223
 20
10.29441719839999
 30
0.0
 11
13.50739671693223
 21
10.18806059839999
 31
0.0
  0
LINE
  5
B77
330
1F
100
AcDbEntity
  8
0
100
AcDbLine
 10
13.50739671693223
 20
10.18806059839999
 30
0.0
 11
13.97319970413223
 21
10.08487165919999
 31
0.0
  0
LINE
  5
B78
330
1F
100
AcDbEntity
  8
0
100
AcDbLine
 10
12.60035517613224
 20
10.40711301599999
 30
0.0
 11
13.05408120493223
 21
10.29441719839999
 31
0.0
  0
LINE
  5
B79
330
1F
100
AcDbEntity
  8
0
  6
HIDDEN
 62
     8
100
AcDbLine
 10
-31.72671146066775
 20
20.65341196319999
 30
0.0
 11
-28.85849870866776
 21
20.5386834544
 31
0.0
  0
ARC
  5
B7A
330
1F
100
AcDbEntity
  8
0
  6
HIDDEN
 62
     8
100
AcDbCircle
 10
-28.86829083026777
 20
20.2938792064
 30
0.0
 40
0.2450000336
100
AcDbArc
 50
5.155321747899991
 51
87.7094612561
  0
LINE
  5
B7B
330
1F
100
AcDbEntity
  8
0
  6
HIDDEN
 62
     8
100
AcDbLine
 10
-28.19608432626776
 20
20.059521984
 30
0.0
 11
-27.59363836961169
 21
19.0
 31
0.0
  0
ARC
  5
B7C
330
1F
100
AcDbEntity
  8
0
  6
HIDDEN
 62
     8
100
AcDbCircle
 10
-28.35907803186776
 20
19.96684350559999
 30
0.0
 40
0.1875
100
AcDbArc
 50
29.62262867440001
 51
90.00057852300001
  0
ARC
  5
B7D
330
1F
100
AcDbEntity
  8
0
  6
HIDDEN
 62
     8
100
AcDbCircle
 10
-28.44750000146776
 20
20.3318435056
 30
0.0
 40
0.1775
100
AcDbArc
 50
185.155252597
 51
270.0
  0
LINE
  5
B7E
330
1F
100
AcDbEntity
  8
0
  6
HIDDEN
 62
     8
100
AcDbLine
 10
-28.35907803186776
 20
20.15434350559999
 30
0.0
 11
-28.44750000146776
 21
20.15434350559999
 31
0.0
  0
ARC
  5
B7F
330
1F
100
AcDbEntity
  8
0
  6
HIDDEN
 62
     8
100
AcDbCircle
 10
-31.72421477266776
 20
20.7158620752
 30
0.0
 40
0.0625
100
AcDbArc
 50
228.6112649761999
 51
267.7106235676
  0
ARC
  5
B80
330
1F
100
AcDbEntity
  8
0
  6
HIDDEN
 62
     8
100
AcDbCircle
 10
-31.98003340626776
 20
20.42558119039999
 30
0.0
 40
0.3244188096
100
AcDbArc
 50
48.61092917120002
 51
90.0
  0
ENDSEC
  0
SECTION
  2
OBJECTS
  0
DICTIONARY
  5
C
330
0
100
AcDbDictionary
  3
ACAD_GROUP
350
D
  3
ACAD_LAYOUT
350
1A
  3
ACAD_MLINESTYLE
350
17
  3
ACAD_PLOTSETTINGS
350
19
  3
ACAD_PLOTSTYLENAME
350
E
  3
ACDBHEADERROUNDTRIPXREC
350
1E53
  0
DICTIONARY
  5
1E76
330
1F
100
AcDbDictionary
280
     1
  3
ACAD_LAYOUTSELFREF
360
1E77
  0
DICTIONARY
  5
1E74
330
1B
100
AcDbDictionary
280
     1
  3
ACAD_LAYOUTSELFREF
360
1E75
  0
DICTIONARY
  5
D
102
{ACAD_REACTORS
330
C
102
}
330
C
100
AcDbDictionary
  0
DICTIONARY
  5
1A
102
{ACAD_REACTORS
330
C
102
}
330
C
100
AcDbDictionary
  0
DICTIONARY
  5
17
102
{ACAD_REACTORS
330
C
102
}
330
C
100
AcDbDictionary
  3
STANDARD
350
18
  0
DICTIONARY
  5
19
102
{ACAD_REACTORS
330
C
102
}
330
C
100
AcDbDictionary
  0
ACDBDICTIONARYWDFLT
  5
E
102
{ACAD_REACTORS
330
C
102
}
330
C
100
AcDbDictionary
281
     1
  3
Normal
350
F
100
AcDbDictionaryWithDefault
340
F
  0
DICTIONARY
  5
1E53
102
{ACAD_REACTORS
330
C
102
}
330
C
100
AcDbDictionary
  3
CEPSNTYPE
350
1E5D
  3
DIMSTYLEDATA
350
1E61
  3
FINGERPRINTGUID
350
1E5E
  3
HYPERLINKBASE
350
1E56
  3
INSUNITS
350
1E5C
  3
LAYOUTDICT
350
1E58
  3
LWETCUNION
350
1E5B
  3
PLOTSETDICT
350
1E59
  3
PLOTSTYLNAMDICT
350
1E5A
  3
PSVPSCALE
350
1E60
  3
PUCSBASE
350
1E64
  3
PUCSORGBACK
350
1E6A
  3
PUCSORGBOTTOM
350
1E66
  3
PUCSORGFRONT
350
1E69
  3
PUCSORGLEFT
350
1E67
  3
PUCSORGRIGHT
350
1E68
  3
PUCSORGTOP
350
1E65
  3
PUCSORTHOREF
350
1E62
  3
PUCSORTHOVIEW
350
1E63
  3
STYLESHEET
350
1E57
  3
TSTACKALIGN
350
1E54
  3
TSTACKSIZE
350
1E55
  3
UCSBASE
350
1E6D
  3
UCSORGBACK
350
1E73
  3
UCSORGBOTTOM
350
1E6F
  3
UCSORGFRONT
350
1E72
  3
UCSORGLEFT
350
1E70
  3
UCSORGRIGHT
350
1E71
  3
UCSORGTOP
350
1E6E
  3
UCSORTHOREF
350
1E6B
  3
UCSORTHOVIEW
350
1E6C
  3
VERSIONGUID
350
1E5F
  0
XRECORD
  5
1E77
102
{ACAD_REACTORS
330
1E76
102
}
330
1E76
100
AcDbXrecord
340
1F
  0
XRECORD
  5
1E75
102
{ACAD_REACTORS
330
1E74
102
}
330
1E74
100
AcDbXrecord
340
1B
  0
MLINESTYLE
  5
18
102
{ACAD_REACTORS
330
17
102
}
330
17
100
AcDbMlineStyle
  2
STANDARD
 70
     0
  3

 62
   256
 51
90.0
 52
90.0
 71
     2
 49
0.5
 62
   256
  6
BYLAYER
 49
-0.5
 62
   256
  6
BYLAYER
  0
ACDBPLACEHOLDER
  5
F
102
{ACAD_REACTORS
330
E
102
}
330
0
100
AcDbPlaceHolder
280
     0
  0
XRECORD
  5
1E5D
102
{ACAD_REACTORS
330
1E53
102
}
330
1E53
100
AcDbXrecord
 90
        0
  0
XRECORD
  5
1E61
102
{ACAD_REACTORS
330
1E53
102
}
330
1E53
100
AcDbXrecord
1000
DSTYLE
1002
{
1070
   278
 70
     0
1070
   342
340
21F
1070
   371
 70
     0
1070
   372
 70
     0
1002
}
  0
XRECORD
  5
1E5E
102
{ACAD_REACTORS
330
1E53
102
}
330
1E53
100
AcDbXrecord
  1

  0
XRECORD
  5
1E56
102
{ACAD_REACTORS
330
1E53
102
}
330
1E53
100
AcDbXrecord
  1

  0
XRECORD
  5
1E5C
102
{ACAD_REACTORS
330
1E53
102
}
330
1E53
100
AcDbXrecord
 90
        1
  0
XRECORD
  5
1E58
102
{ACAD_REACTORS
330
1E53
102
}
330
1E53
100
AcDbXrecord
340
1A
  0
XRECORD
  5
1E5B
102
{ACAD_REACTORS
330
1E53
102
}
330
1E53
100
AcDbXrecord
 90
    10781
  0
XRECORD
  5
1E59
102
{ACAD_REACTORS
330
1E53
102
}
330
1E53
100
AcDbXrecord
340
19
  0
XRECORD
  5
1E5A
102
{ACAD_REACTORS
330
1E53
102
}
330
1E53
100
AcDbXrecord
340
E
  0
XRECORD
  5
1E60
102
{ACAD_REACTORS
330
1E53
102
}
330
1E53
100
AcDbXrecord
 40
0.0
  0
XRECORD
  5
1E64
102
{ACAD_REACTORS
330
1E53
102
}
330
1E53
100
AcDbXrecord
340
0
  0
XRECORD
  5
1E6A
102
{ACAD_REACTORS
330
1E53
102
}
330
1E53
100
AcDbXrecord
 10
0.0
 20
0.0
 30
0.0
  0
XRECORD
  5
1E66
102
{ACAD_REACTORS
330
1E53
102
}
330
1E53
100
AcDbXrecord
 10
0.0
 20
0.0
 30
0.0
  0
XRECORD
  5
1E69
102
{ACAD_REACTORS
330
1E53
102
}
330
1E53
100
AcDbXrecord
 10
0.0
 20
0.0
 30
0.0
  0
XRECORD
  5
1E67
102
{ACAD_REACTORS
330
1E53
102
}
330
1E53
100
AcDbXrecord
 10
0.0
 20
0.0
 30
0.0
  0
XRECORD
  5
1E68
102
{ACAD_REACTORS
330
1E53
102
}
330
1E53
100
AcDbXrecord
 10
0.0
 20
0.0
 30
0.0
  0
XRECORD
  5
1E65
102
{ACAD_REACTORS
330
1E53
102
}
330
1E53
100
AcDbXrecord
 10
0.0
 20
0.0
 30
0.0
  0
XRECORD
  5
1E62
102
{ACAD_REACTORS
330
1E53
102
}
330
1E53
100
AcDbXrecord
340
0
  0
XRECORD
  5
1E63
102
{ACAD_REACTORS
330
1E53
102
}
330
1E53
100
AcDbXrecord
 70
     0
  0
XRECORD
  5
1E57
102
{ACAD_REACTORS
330
1E53
102
}
330
1E53
100
AcDbXrecord
  1

  0
XRECORD
  5
1E54
102
{ACAD_REACTORS
330
1E53
102
}
330
1E53
100
AcDbXrecord
 90
        1
  0
XRECORD
  5
1E55
102
{ACAD_REACTORS
330
1E53
102
}
330
1E53
100
AcDbXrecord
 90
       70
  0
XRECORD
  5
1E6D
102
{ACAD_REACTORS
330
1E53
102
}
330
1E53
100
AcDbXrecord
340
0
  0
XRECORD
  5
1E73
102
{ACAD_REACTORS
330
1E53
102
}
330
1E53
100
AcDbXrecord
 10
0.0
 20
0.0
 30
0.0
  0
XRECORD
  5
1E6F
102
{ACAD_REACTORS
330
1E53
102
}
330
1E53
100
AcDbXrecord
 10
0.0
 20
0.0
 30
0.0
  0
XRECORD
  5
1E72
102
{ACAD_REACTORS
330
1E53
102
}
330
1E53
100
AcDbXrecord
 10
0.0
 20
0.0
 30
0.0
  0
XRECORD
  5
1E70
102
{ACAD_REACTORS
330
1E53
102
}
330
1E53
100
AcDbXrecord
 10
0.0
 20
0.0
 30
0.0
  0
XRECORD
  5
1E71
102
{ACAD_REACTORS
330
1E53
102
}
330
1E53
100
AcDbXrecord
 10
0.0
 20
0.0
 30
0.0
  0
XRECORD
  5
1E6E
102
{ACAD_REACTORS
330
1E53
102
}
330
1E53
100
AcDbXrecord
 10
0.0
 20
0.0
 30
0.0
  0
XRECORD
  5
1E6B
102
{ACAD_REACTORS
330
1E53
102
}
330
1E53
100
AcDbXrecord
340
0
  0
XRECORD
  5
1E6C
102
{ACAD_REACTORS
330
1E53
102
}
330
1E53
100
AcDbXrecord
 70
     0
  0
XRECORD
  5
1E5F
102
{ACAD_REACTORS
330
1E53
102
}
330
1E53
100
AcDbXrecord
  1
{17E63E1F-E47F-43AA-A4BD-44C43772D640}
  0
ENDSEC
  0
EOF
