  0
SECTION
  2
HEADER
  9
$ACADVER
  1
AC1014
  9
$ACADMAINTVER
 70
     9
  9
$DWGCODEPAGE
  3
ANSI_1252
  9
$INSBASE
 10
0.0
 20
0.0
 30
0.0
  9
$EXTMIN
 10
-36.0
 20
-1.981857695087573
 30
0.0
  9
$EXTMAX
 10
80.11328831791415
 20
74.06526775854195
 30
0.0
  9
$LIMMIN
 10
0.0
 20
0.0
  9
$LIMMAX
 10
17.0
 20
11.0
  9
$ORTHOMODE
 70
     1
  9
$REGENMODE
 70
     1
  9
$FILLMODE
 70
     1
  9
$QTEXTMODE
 70
     0
  9
$MIRRTEXT
 70
     1
  9
$DRAGMODE
 70
     2
  9
$LTSCALE
 40
0.9350000000000001
  9
$OSMODE
 70
    37
  9
$ATTMODE
 70
     1
  9
$TEXTSIZE
 40
0.2
  9
$TRACEWID
 40
0.05
  9
$TEXTSTYLE
  7
STANDARD
  9
$CLAYER
  8
0
  9
$CELTYPE
  6
BYLAYER
  9
$CECOLOR
 62
   256
  9
$CELTSCALE
 40
1.0
  9
$DELOBJ
 70
     1
  9
$DISPSILH
 70
     0
  9
$DIMSCALE
 40
1.0
  9
$DIMASZ
 40
0.1875
  9
$DIMEXO
 40
0.10625
  9
$DIMDLI
 40
0.646
  9
$DIMRND
 40
0.0
  9
$DIMDLE
 40
0.0
  9
$DIMEXE
 40
0.306
  9
$DIMTP
 40
0.0
  9
$DIMTM
 40
0.0
  9
$DIMTXT
 40
0.125
  9
$DIMCEN
 40
0.153
  9
$DIMTSZ
 40
0.0
  9
$DIMTOL
 70
     0
  9
$DIMLIM
 70
     0
  9
$DIMTIH
 70
     1
  9
$DIMTOH
 70
     1
  9
$DIMSE1
 70
     0
  9
$DIMSE2
 70
     0
  9
$DIMTAD
 70
     0
  9
$DIMZIN
 70
     0
  9
$DIMBLK
  1
_FILLED
  9
$DIMASO
 70
     1
  9
$DIMSHO
 70
     1
  9
$DIMPOST
  1

  9
$DIMAPOST
  1

  9
$DIMALT
 70
     0
  9
$DIMALTD
 70
     2
  9
$DIMALTF
 40
25.4
  9
$DIMLFAC
 40
1.0
  9
$DIMTOFL
 70
     0
  9
$DIMTVP
 40
0.0
  9
$DIMTIX
 70
     0
  9
$DIMSOXD
 70
     0
  9
$DIMSAH
 70
     0
  9
$DIMBLK1
  1

  9
$DIMBLK2
  1

  9
$DIMSTYLE
  2
STANDARD
  9
$DIMCLRD
 70
     0
  9
$DIMCLRE
 70
     0
  9
$DIMCLRT
 70
     0
  9
$DIMTFAC
 40
1.0
  9
$DIMGAP
 40
0.09
  9
$DIMJUST
 70
     0
  9
$DIMSD1
 70
     0
  9
$DIMSD2
 70
     0
  9
$DIMTOLJ
 70
     1
  9
$DIMTZIN
 70
     0
  9
$DIMALTZ
 70
     0
  9
$DIMALTTZ
 70
     0
  9
$DIMFIT
 70
     3
  9
$DIMUPT
 70
     0
  9
$DIMUNIT
 70
     2
  9
$DIMDEC
 70
     4
  9
$DIMTDEC
 70
     4
  9
$DIMALTU
 70
     2
  9
$DIMALTTD
 70
     2
  9
$DIMTXSTY
  7
STANDARD
  9
$DIMAUNIT
 70
     0
  9
$LUNITS
 70
     2
  9
$LUPREC
 70
     4
  9
$SKETCHINC
 40
0.1
  9
$FILLETRAD
 40
0.0
  9
$AUNITS
 70
     0
  9
$AUPREC
 70
     0
  9
$MENU
  1
acad
  9
$ELEVATION
 40
0.0
  9
$PELEVATION
 40
0.0
  9
$THICKNESS
 40
0.0
  9
$LIMCHECK
 70
     0
  9
$BLIPMODE
 70
     0
  9
$CHAMFERA
 40
0.0
  9
$CHAMFERB
 40
0.0
  9
$CHAMFERC
 40
0.0
  9
$CHAMFERD
 40
0.0
  9
$SKPOLY
 70
     0
  9
$TDCREATE
 40
2454054.451060196
  9
$TDUPDATE
 40
2454071.689459710
  9
$TDINDWG
 40
0.2542253241
  9
$TDUSRTIMER
 40
0.2542253241
  9
$USRTIMER
 70
     1
  9
$ANGBASE
 50
0.0
  9
$ANGDIR
 70
     0
  9
$PDMODE
 70
     3
  9
$PDSIZE
 40
0.03125
  9
$PLINEWID
 40
0.0
  9
$COORDS
 70
     0
  9
$SPLFRAME
 70
     0
  9
$SPLINETYPE
 70
     6
  9
$SPLINESEGS
 70
     8
  9
$ATTDIA
 70
     0
  9
$ATTREQ
 70
     1
  9
$HANDLING
 70
-16383
  9
$HANDSEED
  5
B1F
  9
$SURFTAB1
 70
     6
  9
$SURFTAB2
 70
     6
  9
$SURFTYPE
 70
     6
  9
$SURFU
 70
     6
  9
$SURFV
 70
     6
  9
$UCSNAME
  2

  9
$UCSORG
 10
0.0
 20
0.0
 30
0.0
  9
$UCSXDIR
 10
1.0
 20
0.0
 30
0.0
  9
$UCSYDIR
 10
0.0
 20
1.0
 30
0.0
  9
$PUCSNAME
  2

  9
$PUCSORG
 10
0.0
 20
0.0
 30
0.0
  9
$PUCSXDIR
 10
1.0
 20
0.0
 30
0.0
  9
$PUCSYDIR
 10
0.0
 20
1.0
 30
0.0
  9
$USERI1
 70
     0
  9
$USERI2
 70
     0
  9
$USERI3
 70
     0
  9
$USERI4
 70
     0
  9
$USERI5
 70
     0
  9
$USERR1
 40
0.0
  9
$USERR2
 40
0.0
  9
$USERR3
 40
0.0
  9
$USERR4
 40
0.0
  9
$USERR5
 40
0.0
  9
$WORLDVIEW
 70
     1
  9
$SHADEDGE
 70
     3
  9
$SHADEDIF
 70
    70
  9
$TILEMODE
 70
     1
  9
$MAXACTVP
 70
    16
  9
$PINSBASE
 10
0.0
 20
0.0
 30
0.0
  9
$PLIMCHECK
 70
     0
  9
$PEXTMIN
 10
1.000000000000000E+20
 20
1.000000000000000E+20
 30
1.000000000000000E+20
  9
$PEXTMAX
 10
-1.000000000000000E+20
 20
-1.000000000000000E+20
 30
-1.000000000000000E+20
  9
$PLIMMIN
 10
0.0
 20
0.0
  9
$PLIMMAX
 10
12.0
 20
9.0
  9
$UNITMODE
 70
     0
  9
$VISRETAIN
 70
     0
  9
$PLINEGEN
 70
     1
  9
$PSLTSCALE
 70
     0
  9
$TREEDEPTH
 70
  3020
  9
$PICKSTYLE
 70
     1
  9
$CMLSTYLE
  2
STANDARD
  9
$CMLJUST
 70
     0
  9
$CMLSCALE
 40
1.0
  9
$PROXYGRAPHICS
 70
     0
  9
$MEASUREMENT
 70
     0
  0
ENDSEC
  0
SECTION
  2
CLASSES
  0
CLASS
  1
ACDBDICTIONARYWDFLT
  2
AcDbDictionaryWithDefault
  3
AutoCAD 2000
 90
        0
280
     0
281
     0
  0
CLASS
  1
ACDBPLACEHOLDER
  2
AcDbPlaceHolder
  3
AutoCAD 2000
 90
        0
280
     0
281
     0
  0
CLASS
  1
LAYOUT
  2
AcDbLayout
  3
AutoCAD 2000
 90
        0
280
     0
281
     0
  0
CLASS
  1
LWPOLYLINE
  2
AcDbPolyline
  3
AutoCAD 2000
 90
        0
280
     0
281
     1
  0
CLASS
  1
IMAGE
  2
AcDbRasterImage
  3
ISM
 90
      127
280
     0
281
     1
  0
CLASS
  1
OLE2FRAME
  2
AcDbOle2Frame
  3
AutoCAD 2000
 90
        0
280
     0
281
     1
  0
CLASS
  1
HATCH
  2
AcDbHatch
  3
AutoCAD 2000
 90
        0
280
     0
281
     1
  0
CLASS
  1
DICTIONARYVAR
  2
AcDbDictionaryVar
  3
AutoCAD 2000
 90
        0
280
     0
281
     0
  0
CLASS
  1
RASTERVARIABLES
  2
AcDbRasterVariables
  3
ISM
 90
        0
280
     0
281
     0
  0
CLASS
  1
IMAGEDEF
  2
AcDbRasterImageDef
  3
ISM
 90
        0
280
     0
281
     0
  0
CLASS
  1
IMAGEDEF_REACTOR
  2
AcDbRasterImageDefReactor
  3
ISM
 90
        1
280
     0
281
     0
  0
CLASS
  1
IDBUFFER
  2
AcDbIdBuffer
  3
AutoCAD 2000
 90
        0
280
     0
281
     0
  0
CLASS
  1
SPATIAL_FILTER
  2
AcDbSpatialFilter
  3
AutoCAD 2000
 90
        0
280
     0
281
     0
  0
CLASS
  1
XRECORD
  2
AcDbXrecord
  3
AutoCAD 2000
 90
        0
280
     0
281
     0
  0
CLASS
  1
SORTENTSTABLE
  2
AcDbSortentsTable
  3
AutoCAD 2000
 90
        0
280
     0
281
     0
  0
CLASS
  1
LAYER_INDEX
  2
AcDbLayerIndex
  3
AutoCAD 2000
 90
        0
280
     0
281
     0
  0
CLASS
  1
SPATIAL_INDEX
  2
AcDbSpatialIndex
  3
AutoCAD 2000
 90
        0
280
     0
281
     0
  0
CLASS
  1
OBJECT_PTR
  2
CAseDLPNTableRecord
  3
ASE-LPNTableRecord
 90
        1
280
     0
281
     0
  0
CLASS
  1
PLOTSETTINGS
  2
AcDbPlotSettings
  3
AutoCAD 2000
 90
        0
280
     0
281
     0
  0
CLASS
  1
VBA_PROJECT
  2
AcDbVbaProject
  3
acadvba
 90
        0
280
     0
281
     0
  0
CLASS
  1
WIPEOUT
  2
AcDbWipeout
  3
WipeOut|AutoCAD Express Tool|expresstools@autodesk.com
 90
      127
280
     0
281
     1
  0
CLASS
  1
WIPEOUTVARIABLES
  2
AcDbWipeoutVariables
  3
WipeOut|AutoCAD Express Tool|expresstools@autodesk.com
 90
        0
280
     0
281
     0
  0
CLASS
  1
RTEXT
  2
RText
  3
RText|AutoCAD Express Tool|expresstools@autodesk.com
 90
        0
280
     0
281
     1
  0
CLASS
  1
ARCALIGNEDTEXT
  2
AcDbArcAlignedText
  3
ATEXT|AutoCAD Express Tool|expresstools@autodesk.com
 90
        0
280
     0
281
     1
  0
CLASS
  1
LONG_TRANSACTION
  2
AcDbLongTransaction
  3
AutoCAD 2000
 90
        0
280
     0
281
     0
  0
CLASS
  1
LWPOLYLINE
  2
AcDbPolyline
  3
AutoCAD 2000
 90
        0
280
     0
281
     1
  0
CLASS
  1
HATCH
  2
AcDbHatch
  3
AutoCAD 2000
 90
        0
280
     0
281
     1
  0
CLASS
  1
XRECORD
  2
AcDbXrecord
  3
AutoCAD 2000
 90
        0
280
     0
281
     0
  0
ENDSEC
  0
SECTION
  2
TABLES
  0
TABLE
  2
VPORT
  5
8
330
0
100
AcDbSymbolTable
 70
     3
  0
VPORT
  5
AF9
330
8
100
AcDbSymbolTableRecord
100
AcDbViewportTableRecord
  2
*ACTIVE
 70
     0
 10
0.0
 20
0.0
 11
1.0
 21
1.0
 12
-0.9093188974402721
 22
18.01134036403172
 13
0.0
 23
0.0
 14
1.0
 24
1.0
 15
0.0
 25
0.0
 16
0.0
 26
0.0
 36
1.0
 17
0.0
 27
0.0
 37
0.0
 40
45.28125039173084
 41
1.745424292845257
 42
50.0
 43
0.0
 44
0.0
 50
0.0
 51
0.0
 71
     0
 72
   100
 73
     1
 74
     1
 75
     0
 76
     0
 77
     0
 78
     0
  0
ENDTAB
  0
TABLE
  2
LTYPE
  5
5
330
0
100
AcDbSymbolTable
 70
     3
  0
LTYPE
  5
14
330
5
100
AcDbSymbolTableRecord
100
AcDbLinetypeTableRecord
  2
BYBLOCK
 70
     0
  3

 72
    65
 73
     0
 40
0.0
  0
LTYPE
  5
15
330
5
100
AcDbSymbolTableRecord
100
AcDbLinetypeTableRecord
  2
BYLAYER
 70
     0
  3

 72
    65
 73
     0
 40
0.0
  0
LTYPE
  5
16
330
5
100
AcDbSymbolTableRecord
100
AcDbLinetypeTableRecord
  2
CONTINUOUS
 70
     0
  3
Solid line
 72
    65
 73
     0
 40
0.0
  0
LTYPE
  5
A3C
330
5
100
AcDbSymbolTableRecord
100
AcDbLinetypeTableRecord
  2
CENTERX2
 70
     0
  3
Center (2x) ________  __  ________  __  _____
 72
    65
 73
     4
 40
4.0
 49
2.5
 74
     0
 49
-0.5
 74
     0
 49
0.5
 74
     0
 49
-0.5
 74
     0
  0
ENDTAB
  0
TABLE
  2
LAYER
  5
2
330
0
100
AcDbSymbolTable
 70
     3
  0
LAYER
  5
10
330
2
100
AcDbSymbolTableRecord
100
AcDbLayerTableRecord
  2
0
 70
     0
 62
     7
  6
CONTINUOUS
  0
LAYER
  5
A3D
330
2
100
AcDbSymbolTableRecord
100
AcDbLayerTableRecord
  2
CENTER
 70
     0
 62
     1
  6
CENTERX2
  0
LAYER
  5
A56
330
2
100
AcDbSymbolTableRecord
100
AcDbLayerTableRecord
  2
DEFPOINTS
 70
     0
 62
     7
  6
CONTINUOUS
  0
ENDTAB
  0
TABLE
  2
STYLE
  5
3
330
0
100
AcDbSymbolTable
 70
     2
  0
STYLE
  5
11
330
3
100
AcDbSymbolTableRecord
100
AcDbTextStyleTableRecord
  2
STANDARD
 70
     0
 40
0.0
 41
0.8
 50
0.0
 71
     0
 42
0.2
  3
txt
  4

  0
STYLE
  5
21E
330
3
100
AcDbSymbolTableRecord
100
AcDbTextStyleTableRecord
  2
TEXTSTYLE_1
 70
     0
 40
0.0
 41
0.8
 50
0.0
 71
     0
 42
0.2
  3
txt
  4

  0
ENDTAB
  0
TABLE
  2
VIEW
  5
6
330
0
100
AcDbSymbolTable
 70
     0
  0
ENDTAB
  0
TABLE
  2
UCS
  5
7
330
0
100
AcDbSymbolTable
 70
     0
  0
ENDTAB
  0
TABLE
  2
APPID
  5
9
330
0
100
AcDbSymbolTable
 70
     2
  0
APPID
  5
222
330
9
100
AcDbSymbolTableRecord
100
AcDbRegAppTableRecord
  2
ACAD
 70
     0
  0
APPID
  5
A39
330
9
100
AcDbSymbolTableRecord
100
AcDbRegAppTableRecord
  2
DCO15
 70
     0
  0
ENDTAB
  0
TABLE
  2
DIMSTYLE
  5
A
330
0
100
AcDbSymbolTable
 70
     1
  0
DIMSTYLE
105
243
330
A
100
AcDbSymbolTableRecord
100
AcDbDimStyleTableRecord
  2
STANDARD
 70
     0
  3

  4

  5
_FILLED
  6
_FILLED
  7
_FILLED
 40
1.0
 41
0.1875
 42
0.0625
 43
0.38
 44
0.18
 45
0.0
 46
0.0
 47
0.00001
 48
0.00001
140
0.125
141
0.09
142
0.0
143
25.4
144
1.0
145
0.0
146
1.0
147
0.09
 71
     0
 72
     0
 73
     1
 74
     1
 75
     0
 76
     0
 77
     0
 78
     4
170
     0
171
     2
172
     0
173
     0
174
     0
175
     0
176
     0
177
     0
178
     0
270
     2
271
     5
272
     5
273
     2
274
     2
340
11
275
     0
280
     0
281
     0
282
     0
283
     1
284
     4
285
     0
286
     0
287
     3
288
     0
  0
ENDTAB
  0
TABLE
  2
BLOCK_RECORD
  5
1
330
0
100
AcDbSymbolTable
 70
     1
  0
BLOCK_RECORD
  5
1F
102
{ACAD_XDICTIONARY
360
B1D
102
}
330
1
100
AcDbSymbolTableRecord
100
AcDbBlockTableRecord
  2
*MODEL_SPACE
  0
BLOCK_RECORD
  5
1B
102
{ACAD_XDICTIONARY
360
B1B
102
}
330
1
100
AcDbSymbolTableRecord
100
AcDbBlockTableRecord
  2
*PAPER_SPACE
  0
BLOCK_RECORD
  5
223
330
1
100
AcDbSymbolTableRecord
100
AcDbBlockTableRecord
  2
_FILLED
  0
ENDTAB
  0
ENDSEC
  0
SECTION
  2
BLOCKS
  0
BLOCK
  5
20
330
1F
100
AcDbEntity
  8
0
100
AcDbBlockBegin
  2
*MODEL_SPACE
 70
     0
 10
0.0
 20
0.0
 30
0.0
  3
*MODEL_SPACE
  1

  0
ENDBLK
  5
21
330
1F
100
AcDbEntity
  8
0
100
AcDbBlockEnd
  0
BLOCK
  5
1C
330
1B
100
AcDbEntity
 67
     1
  8
0
100
AcDbBlockBegin
  2
*PAPER_SPACE
 70
     0
 10
0.0
 20
0.0
 30
0.0
  3
*PAPER_SPACE
  1

  0
ENDBLK
  5
1D
330
1B
100
AcDbEntity
 67
     1
  8
0
100
AcDbBlockEnd
  0
BLOCK
  5
441
330
223
100
AcDbEntity
  8
0
100
AcDbBlockBegin
  2
_FILLED
 70
     0
 10
0.0
 20
0.0
 30
0.0
  3
_FILLED
  1

  0
SOLID
  5
442
330
223
100
AcDbEntity
  8
0
  6
BYBLOCK
 62
     0
100
AcDbTrace
 10
0.0
 20
0.0
 30
0.0
 11
-1.0
 21
0.1666666667
 31
0.0
 12
-1.0
 22
-0.1666666667
 32
0.0
 13
-1.0
 23
-0.1666666667
 33
0.0
  0
ENDBLK
  5
443
330
223
100
AcDbEntity
  8
0
  6
BYBLOCK
 62
     0
100
AcDbBlockEnd
  0
ENDSEC
  0
SECTION
  2
ENTITIES
  0
MTEXT
  5
4BA
330
1F
100
AcDbEntity
  8
0
  6
CONTINUOUS
 62
     2
100
AcDbMText
 10
15.84375
 20
2.3125
 30
0.0
 40
0.09375
 41
0.075
 71
     2
 72
     1
  1
 \P \P 
  7
TEXTSTYLE_1
1001
ACAD
1000
MTEXTBEGIN
1070
    73
1070
     1
1070
    44
1040
1.0
1070
    74
1070
     0
1000
MTEXTEND
  0
LINE
  5
851
330
1F
100
AcDbEntity
  8
0
100
AcDbLine
 10
-36.0
 20
35.99999999999997
 30
0.0
 11
-36.0
 21
0.0
 31
0.0
  0
LINE
  5
856
330
1F
100
AcDbEntity
  8
0
100
AcDbLine
 10
-35.68011084160001
 20
0.3198891584000023
 30
0.0
 11
-35.6801108416
 21
35.6801108416
 31
0.0
  0
LINE
  5
857
330
1F
100
AcDbEntity
  8
0
100
AcDbLine
 10
-35.3044522144
 20
0.6955477856000059
 30
0.0
 11
-35.3044522144
 21
35.30445221600001
 31
0.0
  0
LWPOLYLINE
  5
862
330
1F
100
AcDbEntity
  8
0
100
AcDbPolyline
 90
       15
 70
     0
 43
0.0
 10
-30.9460843168
 20
18.0000000128
 10
-30.9322955296
 20
17.20907678559999
 10
-30.889513704
 20
16.4240984928
 10
-30.8171937872
 20
15.66045605920001
 10
-30.717183456
 20
14.93300342239999
 10
-30.5934554592
 20
14.2533154608
 10
-30.4482895952
 20
13.6163914144
 10
-30.2818221792
 20
13.0118313472
 10
-30.0943958128
 20
12.434566136
 10
-29.8864752368
 20
11.88159223680001
 10
-29.6571052144
 20
11.3475040736
 10
-29.4039574176
 20
10.8259393072
 10
-29.1249738224
 20
10.3130393056
 10
-28.8184832992
 20
9.806493593600002
 10
-28.4827122672
 20
9.304035483200003
  0
LWPOLYLINE
  5
863
330
1F
100
AcDbEntity
  8
0
100
AcDbPolyline
 90
       16
 70
     0
 43
0.0
 10
-30.9460843168
 20
18.0000000128
 10
-30.9340950512
 20
18.738306136
 10
-30.8969237632
 20
19.4723118944
 10
-30.8339432
 20
20.18948638079999
 10
-30.7463441872
 20
20.87743538400001
 10
-30.63719291359999
 20
21.52506487359999
 10
-30.5089125648
 20
22.13318287200002
 10
-30.3621321504
 20
22.7097021376
 10
-30.196934336
 20
23.26075649439999
 10
-30.0137183968
 20
23.7892430992
 10
-29.8124733792
 20
24.2982690288
 10
-29.5919737584
 20
24.79269619520002
 10
-29.3502550864
 20
25.27730336960002
 10
-29.0857110768
 20
25.75486009760001
 10
-28.79700648
 20
26.22714126720001
 10
-28.4827122672
 20
26.69596451680002
  0
LWPOLYLINE
  5
864
330
1F
100
AcDbEntity
  8
0
100
AcDbPolyline
 90
       10
 70
     0
 43
0.0
 10
-31.3742553696
 20
18.0
 10
-31.3529788032
 20
18.9882857552
 10
-31.2779697824
 20
20.056856912
 10
-31.1221529264
 20
21.2440912016
 10
-30.8613137424
 20
22.4969425088
 10
-30.5187532224
 20
23.6485765312
 10
-30.1242281504
 20
24.65672732960001
 10
-29.7040321312
 20
25.5234583008
 10
-29.2701084752
 20
26.27823150080002
 10
-28.8353958976
 20
26.93727966400001
  0
LWPOLYLINE
  5
865
330
1F
100
AcDbEntity
  8
0
100
AcDbPolyline
 90
       62
 70
     0
 43
0.0
 10
-28.8353958976
 20
26.93727966400001
 10
-28.7244137504
 20
27.09329876320001
 10
-28.6203852896
 20
27.23529750240001
 10
-28.5230313904
 20
27.36466930880002
 10
-28.4320318512
 20
27.48267376160001
 10
-28.3470119552
 20
27.59048410240001
 10
-28.267565032
 20
27.68918168320002
 10
-28.1932800624
 20
27.77974252320001
 10
-28.1237976544
 20
27.86298954720001
 10
-28.0590835664
 20
27.93929265600002
 10
-27.9995945488
 20
28.0084156304
 10
-27.9453654208
 20
28.07059652640001
 10
-27.8952287312
 20
28.12739548640001
 10
-27.8474210352
 20
28.1809511648
 10
-27.7997915728
 20
28.23373071680001
 10
-27.7493633536
 20
28.28899667200002
 10
-27.6932611504
 20
28.34975435200002
 10
-27.629502528
 20
28.4178916784
 10
-27.5571645648
 20
28.49404477280001
 10
-27.47667838239999
 20
28.57737187680001
 10
-27.3884685936
 20
28.667041576
 10
-27.2921598112
 20
28.76302552640001
 10
-27.1870871664
 20
28.86552747359999
 10
-27.0724856464
 20
28.97477111840001
 10
-26.94750072
 20
29.09097409280002
 10
-26.811183424
 20
29.21433699199999
 10
-26.6625390144
 20
29.344983968
 10
-26.500507296
 20
29.482972504
 10
-26.323615128
 20
29.6285608608
 10
-26.12978942719999
 20
29.78228212320002
 10
-25.91673352
 20
29.9445683168
 10
-25.6820509008
 20
30.11560808320001
 10
-25.423246576
 20
30.2953000944
 10
-25.1375702432
 20
30.48331094080001
 10
-24.820751264
 20
30.67976553280002
 10
-24.466566072
 20
30.885147792
 10
-24.067135616
 20
31.09965154560001
 10
-23.62307434879999
 20
31.3179153472
 10
-23.1601471152
 20
31.52393900320001
 10
-22.7018463504
 20
31.70738986720002
 10
-22.2487669584
 20
31.86962752960002
 10
-21.8026310416
 20
32.01154230560002
 10
-21.3651566688
 20
32.13409098560001
 10
-20.9379391024
 20
32.23833244320002
 10
-20.52208652959999
 20
32.32547187200001
 10
-20.12127004
 20
32.39632060000002
 10
-19.74934289920001
 20
32.4507102176
 10
-19.4165005728
 20
32.49024719199999
 10
-19.1169959248
 20
32.5185290368
 10
-18.8449427648
 20
32.53826696320001
 10
-18.5960920992
 20
32.5513769808
 10
-18.36802925600001
 20
32.5592553216
 10
-18.15849155200001
 20
32.56301473760001
 10
-17.9650996544
 20
32.5635312576
 10
-17.7856911248
 20
32.56147654240001
 10
-17.619336584
 20
32.55739162880002
 10
-17.4662083552
 20
32.55177601920002
 10
-17.32592401120001
 20
32.545068224
 10
-17.197362432
 20
32.53760600960001
 10
-17.0792808768
 20
32.52964179200001
 10
-16.9705396048
 20
32.52136519200002
 10
-16.87006675040001
 20
32.5129127504
  0
LWPOLYLINE
  5
866
330
1F
100
AcDbEntity
  8
0
100
AcDbPolyline
 90
       23
 70
     0
 43
0.0
 10
-28.4827122688
 20
26.69596451840002
 10
-28.123289912
 20
27.18397437920001
 10
-27.739250208
 20
27.65656894400001
 10
-27.3322359024
 20
28.1114038016
 10
-26.904039616
 20
28.54637684960002
 10
-26.4561765328
 20
28.9599769552
 10
-25.9894480512
 20
29.35145869920001
 10
-25.5037176016
 20
29.720907944
 10
-24.99976834399999
 20
30.06766198240001
 10
-24.479396008
 20
30.390389728
 10
-23.9454810944
 20
30.6873670464
 10
-23.3994753232
 20
30.95794413440001
 10
-22.84145893919999
 20
31.20214580000001
 10
-22.2715558992
 20
31.41997180800001
 10
-21.6914265856
 20
31.61075540480001
 10
-21.1042682608
 20
31.77350966400001
 10
-20.51217695199999
 20
31.90783505760001
 10
-19.9162787616
 20
32.01362079680001
 10
-19.3168191344
 20
32.09095745440001
 10
-18.71406615040001
 20
32.1398624528
 10
-18.1086801504
 20
32.16017475200001
 10
-17.5022723904
 20
32.1517614304
 10
-16.8966393936
 20
32.114621432
  0
LWPOLYLINE
  5
867
330
1F
100
AcDbEntity
  8
0
100
AcDbPolyline
 90
       23
 70
     0
 43
0.0
 10
-28.4827122688
 20
9.304035483200003
 10
-28.123289912
 20
8.816025622399997
 10
-27.739250208
 20
8.343431056000007
 10
-27.3322359024
 20
7.888596200000002
 10
-26.904039616
 20
7.453623150399998
 10
-26.4561765328
 20
7.040023044800001
 10
-25.9894480512
 20
6.648541300799998
 10
-25.5037176016
 20
6.279092057600003
 10
-24.99976834399999
 20
5.93233801920001
 10
-24.479396008
 20
5.609610272000004
 10
-23.9454810944
 20
5.312632955200008
 10
-23.3994753232
 20
5.042055865599998
 10
-22.84145893919999
 20
4.79785420000001
 10
-22.2715558992
 20
4.580028193600007
 10
-21.6914265856
 20
4.389244595200004
 10
-21.1042682608
 20
4.226490336000004
 10
-20.51217695199999
 20
4.092164942399996
 10
-19.9162787616
 20
3.986379204800009
 10
-19.3168191344
 20
3.909042547200009
 10
-18.71406615040001
 20
3.860137548800004
 10
-18.1086801504
 20
3.839825248000003
 10
-17.5022723904
 20
3.848238569600006
 10
-16.8966393936
 20
3.8853785696
  0
LWPOLYLINE
  5
868
330
1F
100
AcDbEntity
  8
0
100
AcDbPolyline
 90
       10
 70
     0
 43
0.0
 10
-28.8353958976
 20
9.062720337600005
 10
-29.26864427359999
 20
9.719405033600004
 10
-29.7000685232
 20
10.46909183199999
 10
-30.1161496224
 20
11.3249379712
 10
-30.501852848
 20
12.3027604208
 10
-30.8389693168
 20
13.4156037696
 10
-31.1067719008
 20
14.66514340319999
 10
-31.2735726208
 20
15.89866408639999
 10
-31.3529868496
 20
17.0118975392
 10
-31.3742553696
 20
18.0
  0
LWPOLYLINE
  5
869
330
1F
100
AcDbEntity
  8
0
100
AcDbPolyline
 90
       12
 70
     0
 43
0.0
 10
-24.5590747184
 20
18.00000141120001
 10
-24.547881504
 20
17.47224795999999
 10
-24.511522608
 20
16.91272700159999
 10
-24.4484199904
 20
16.3429533456
 10
-24.3597258864
 20
15.77924859040001
 10
-24.245873104
 20
15.22245834400001
 10
-24.1066755744
 20
14.671110432
 10
-23.9457892208
 20
14.13723567520001
 10
-23.7721085136
 20
13.640955288
 10
-23.5912260288
 20
13.1856762752
 10
-23.4020912416
 20
12.7594229888
 10
-23.2025727408
 20
12.3525254608
  0
LWPOLYLINE
  5
86A
330
1F
100
AcDbEntity
  8
0
100
AcDbPolyline
 90
       35
 70
     0
 43
0.0
 10
-23.39664100479999
 20
17.9620722336
 10
-23.394350392
 20
17.80893704319999
 10
-23.3897594304
 20
17.65588353599999
 10
-23.3828691408
 20
17.5029319952
 10
-23.37368089759999
 20
17.350106904
 10
-23.3621986
 20
17.19745584319999
 10
-23.34842753919999
 20
17.0450332912
 10
-23.3323716224
 20
16.89287758239999
 10
-23.3140287536
 20
16.7409750288
 10
-23.2933986144
 20
16.5893299856
 10
-23.2704931664
 20
16.4380367184
 10
-23.2453273584
 20
16.287187824
 10
-23.2179041056
 20
16.1367889232
 10
-23.1882232224
 20
15.9868349728
 10
-23.1562862928
 20
15.837338592
 10
-23.1221025168
 20
15.68834764159999
 10
-23.0856910912
 20
15.53994310560001
 10
-23.047064512
 20
15.3921701168
 10
-23.0062308144
 20
15.24505548319999
 10
-22.9632047616
 20
15.0986450352
 10
-22.9179998928
 20
14.95297663680001
 10
-22.870629256
 20
14.8080870752
 10
-22.82110800159999
 20
14.66401637119999
 10
-22.7694495152
 20
14.52079328319999
 10
-22.7156673136
 20
14.37844832319999
 10
-22.6597735856
 20
14.23700991519999
 10
-22.6017812
 20
14.0965057984
 10
-22.5417018624
 20
13.956959136
 10
-22.4795483008
 20
13.8183955456
 10
-22.4153417792
 20
13.68085787679999
 10
-22.3491014368
 20
13.5443815968
 10
-22.2808457008
 20
13.40900030880001
 10
-22.2105955472
 20
13.2747518976
 10
-22.1383700976
 20
13.14166689759999
 10
-22.0641872672
 20
13.00977262079999
  0
LINE
  5
86B
330
1F
100
AcDbEntity
  8
0
100
AcDbLine
 10
-23.3968529072
 20
18.0000003488
 30
0.0
 11
-23.39664100479999
 21
17.9620722336
 31
0.0
  0
LWPOLYLINE
  5
86C
330
1F
100
AcDbEntity
  8
0
100
AcDbPolyline
 90
       12
 70
     0
 43
0.0
 10
-24.5590747184
 20
18.00000141120001
 10
-24.547881504
 20
18.5277520416
 10
-24.511522608
 20
19.0872729984
 10
-24.4484199904
 20
19.65704665439999
 10
-24.3597258864
 20
20.2207514096
 10
-24.245873104
 20
20.777541656
 10
-24.1066755744
 20
21.32888956800001
 10
-23.9457892208
 20
21.86276432479999
 10
-23.7721085136
 20
22.35904471360001
 10
-23.5912260288
 20
22.8143237264
 10
-23.4020912416
 20
23.2405770128
 10
-23.2025727408
 20
23.6474745408
  0
LWPOLYLINE
  5
86D
330
1F
100
AcDbEntity
  8
0
100
AcDbPolyline
 90
       30
 70
     0
 43
0.0
 10
-23.504036408
 20
23.8215246688
 10
-23.4787135872
 20
23.86883710880002
 10
-23.4532279488
 20
23.91744948960001
 10
-23.4281477136
 20
23.9656928896
 10
-23.4034228944
 20
24.013393296
 10
-23.3785228336
 20
24.0614375168
 10
-23.35247288
 20
24.11161965280001
 10
-23.3242050336
 20
24.1659144848
 10
-23.2925807584
 20
24.22640273920001
 10
-23.25694751039999
 20
24.29418771520002
 10
-23.2170928944
 20
24.36949308160001
 10
-23.17297580319999
 20
24.45218876800001
 10
-23.1239458368
 20
24.54324736800001
 10
-23.0690254848
 20
24.644170984
 10
-23.0074672832
 20
24.7559358112
 10
-22.9386233328
 20
24.87923676799999
 10
-22.861033224
 20
25.01608274080001
 10
-22.7725241152
 20
25.169485896
 10
-22.6716125776
 20
25.3409477296
 10
-22.5579945808
 20
25.52972632000001
 10
-22.436892752
 20
25.72608639040001
 10
-22.3202340256
 20
25.91063026080002
 10
-22.2134783584
 20
26.075637056
 10
-22.1192379616
 20
26.21828781920001
 10
-22.0344193888
 20
26.3443034352
 10
-21.954140336
 20
26.46153351040001
 10
-21.8735201392
 20
26.5772903392
 10
-21.7913187072
 20
26.69330796
 10
-21.708090592
 20
26.80873123040001
 10
-21.6243559056
 20
26.92280553439999
  0
LWPOLYLINE
  5
86E
330
1F
100
AcDbEntity
  8
0
100
AcDbPolyline
 90
       10
 70
     0
 43
0.0
 10
-23.2025727408
 20
23.6474745408
 10
-23.02724512
 20
23.96555040960001
 10
-22.8277309744
 20
24.28312342240002
 10
-22.6021894032
 20
24.6007939632
 10
-22.3489160224
 20
24.91849095520001
 10
-22.0646806768
 20
25.2374747872
 10
-21.7527808784
 20
25.551891928
 10
-21.4429442288
 20
25.8347416416
 10
-21.1158233744
 20
26.10724687840002
 10
-20.7250084272
 20
26.40355436160001
  0
LWPOLYLINE
  5
86F
330
1F
100
AcDbEntity
  8
0
100
AcDbPolyline
 90
       10
 70
     0
 43
0.0
 10
-23.2025727408
 20
12.3525254608
 10
-23.02724512
 20
12.0344495904
 10
-22.8277309744
 20
11.71687657759999
 10
-22.6021894032
 20
11.3992060384
 10
-22.3489160224
 20
11.0815090448
 10
-22.0646806768
 20
10.7625252128
 10
-21.7527808784
 20
10.4481080736
 10
-21.4429442288
 20
10.1652583584
 10
-21.1158233744
 20
9.892753121600001
 10
-20.7250084272
 20
9.596445638400005
  0
LWPOLYLINE
  5
870
330
1F
100
AcDbEntity
  8
0
100
AcDbPolyline
 90
        4
 70
     0
 43
0.0
 10
-23.504036408
 20
12.17847533119999
 10
-23.4787135872
 20
12.1311628928
 10
-23.4532279488
 20
12.082550512
 10
-23.4281477136
 20
12.0343071104
  0
LWPOLYLINE
  5
871
330
1F
100
AcDbEntity
  8
0
100
AcDbPolyline
 90
       26
 70
     0
 43
0.0
 10
-23.4281477136
 20
12.0343071104
 10
-23.3785228336
 20
11.93856248320001
 10
-23.35247288
 20
11.8883803488
 10
-23.3242050336
 20
11.83408551680001
 10
-23.2925807584
 20
11.77359726240001
 10
-23.25694751039999
 20
11.70581228479999
 10
-23.2170928944
 20
11.6305069184
 10
-23.17297580319999
 20
11.547811232
 10
-23.1239458368
 20
11.45675263199999
 10
-23.0690254848
 20
11.3558290176
 10
-23.0074672832
 20
11.2440641904
 10
-22.9386233328
 20
11.1207632336
 10
-22.861033224
 20
10.9839172592
 10
-22.7725241152
 20
10.83051410560001
 10
-22.6716125776
 20
10.6590522704
 10
-22.5579945808
 20
10.47027368159999
 10
-22.436892752
 20
10.2739136096
 10
-22.3202340256
 20
10.0893697392
 10
-22.2134783584
 20
9.924362945600002
 10
-22.1192379616
 20
9.781712182400006
 10
-22.0344193888
 20
9.655696566400003
 10
-21.954140336
 20
9.538466489600004
 10
-21.8735201392
 20
9.422709660800002
 10
-21.7913187072
 20
9.306692041600008
 10
-21.708090592
 20
9.191268771200007
 10
-21.6243559056
 20
9.077194467200008
  0
LWPOLYLINE
  5
872
330
1F
100
AcDbEntity
  8
0
100
AcDbPolyline
 90
       35
 70
     0
 43
0.0
 10
-22.1094891408
 20
22.99281542080001
 10
-22.1827606768
 20
22.85935421760001
 10
-22.2540524208
 20
22.72470595680002
 10
-22.323344024
 20
22.58890303840002
 10
-22.3906154896
 20
22.45197867040002
 10
-22.4558475232
 20
22.31396830720001
 10
-22.5190226528
 20
22.174904056
 10
-22.580123176
 20
22.0348183344
 10
-22.6391270368
 20
21.89375585920001
 10
-22.696014688
 20
21.75175906719999
 10
-22.750776912
 20
21.60884612800001
 10
-22.8034013184
 20
21.4650447312
 10
-22.8538732448
 20
21.3203914672
 10
-22.90217882399999
 20
21.17491975360001
 10
-22.9483031168
 20
21.028665592
 10
-22.99223374239999
 20
20.88166368959999
 10
-23.0339606992
 20
20.73394239520001
 10
-23.073468296
 20
20.5855487872
 10
-23.1107427312
 20
20.43652816
 10
-23.1457731872
 20
20.28692164959999
 10
-23.178549464
 20
20.13676941279999
 10
-23.2090613648
 20
19.9861132784
 10
-23.2373002016
 20
19.834993544
 10
-23.2632589056
 20
19.6834460896
 10
-23.2869303696
 20
19.5315096736
 10
-23.30830833439999
 20
19.3792259216
 10
-23.3273852704
 20
19.2266569104
 10
-23.344157392
 20
19.0738396384
 10
-23.3586219952
 20
18.9207996032
 10
-23.3707771728
 20
18.7675745184
 10
-23.3806212624
 20
18.61420352799999
 10
-23.3881520608
 20
18.4607254848
 10
-23.3933677136
 20
18.3071788528
 10
-23.39626788959999
 20
18.15359427519999
 10
-23.3968529088
 20
18.0000003488
  0
LINE
  5
873
330
1F
100
AcDbEntity
  8
0
100
AcDbLine
 10
-22.09951258879999
 20
23.01062246400002
 30
0.0
 11
-22.1094891408
 21
22.99281542080001
 31
0.0
  0
LWPOLYLINE
  5
874
330
1F
100
AcDbEntity
  8
0
100
AcDbPolyline
 90
       15
 70
     0
 43
0.0
 10
-20.7130800656
 20
11.2305267392
 10
-20.60931387840001
 20
11.12608189600001
 10
-20.50338803199999
 20
11.0227708384
 10
-20.3950344112
 20
10.9203681744
 10
-20.2840215856
 20
10.818713616
 10
-20.17059583359999
 20
10.71808929920001
 10
-20.05518511679999
 20
10.6189005392
 10
-19.93770343679999
 20
10.5210875312
 10
-19.81811015039999
 20
10.42464042400001
 10
-19.6964086288
 20
10.32958822079999
 10
-19.57244911040001
 20
10.2358451792
 10
-19.44650515680001
 20
10.14364790719999
 10
-19.3187252592
 20
10.053122416
 10
-19.1893033712
 20
9.9644135104
 10
-19.058512152
 20
9.877702160000005
  0
LWPOLYLINE
  5
875
330
1F
100
AcDbEntity
  8
0
100
AcDbPolyline
 90
       17
 70
     0
 43
0.0
 10
-22.0476774896
 20
12.981047744
 10
-21.98114316639999
 20
12.86789739200001
 10
-21.9123496288
 20
12.7550211808
 10
-21.84129208479999
 20
12.64246174880001
 10
-21.7679667856
 20
12.5302626064
 10
-21.6923730032
 20
12.41847092319999
 10
-21.6145123008
 20
12.30713592
 10
-21.5343888832
 20
12.19630905759999
 10
-21.4520078448
 20
12.0860413728
 10
-21.3673764432
 20
11.9763850336
 10
-21.2805044176
 20
11.8673935872
 10
-21.1914084048
 20
11.7591270816
 10
-21.1000994576
 20
11.65163642720001
 10
-21.00659241119999
 20
11.54497515039999
 10
-20.9109068032
 20
11.43920006719999
 10
-20.81305873280001
 20
11.3343621088
 10
-20.7130800656
 20
11.2305267392
  0
LINE
  5
876
330
1F
100
AcDbEntity
  8
0
100
AcDbLine
 10
-22.0641872864
 20
13.00977260799999
 30
0.0
 11
-22.0476774896
 21
12.981047744
 31
0.0
  0
LINE
  5
87D
330
1F
100
AcDbEntity
  8
0
100
AcDbLine
 10
-36.0
 20
0.0
 30
0.0
 11
36.0
 21
0.0
 31
0.0
  0
LINE
  5
87E
330
1F
100
AcDbEntity
  8
0
100
AcDbLine
 10
35.6801108416
 20
0.3198891584000023
 30
0.0
 11
-35.68011084160001
 21
0.3198891584000023
 31
0.0
  0
LINE
  5
87F
330
1F
100
AcDbEntity
  8
0
100
AcDbLine
 10
35.304452216
 20
0.6955477856000059
 30
0.0
 11
-35.3044522144
 21
0.6955477856000059
 31
0.0
  0
LWPOLYLINE
  5
89D
330
1F
100
AcDbEntity
  8
0
100
AcDbPolyline
 90
       39
 70
     0
 43
0.0
 10
-19.058512152
 20
9.877702160000005
 10
-18.92937200160001
 20
9.794884131199999
 10
-18.79907568800001
 20
9.714053374400002
 10
-18.6668179696
 20
9.634722699200004
 10
-18.532304272
 20
9.556759225599996
 10
-18.39645532160001
 20
9.480721547199998
 10
-18.2615537408
 20
9.407819912
 10
-18.1272505264
 20
9.337750323200005
 10
-17.9916785072
 20
9.269496174399996
 10
-17.8528607264
 20
9.2021260064
 10
-17.7121322704
 20
9.136367334399999
 10
-17.57193469920001
 20
9.073343628799996
 10
-17.43249480480001
 20
9.013075382399996
 10
-17.2959011904
 20
8.95633045280001
 10
-17.1624012528
 20
8.9030261248
 10
-17.03213130239999
 20
8.853035601600005
 10
-16.90463692799999
 20
8.806021297600004
 10
-16.7797240576
 20
8.761770822400002
 10
-16.6585024176
 20
8.720525291199997
 10
-16.5402631456
 20
8.681889305600002
 10
-16.4240129024
 20
8.645422975999998
 10
-16.30922732
 20
8.610881043200002
 10
-16.19561735360001
 20
8.578115556800007
 10
-16.084549648
 20
8.547442763200002
 10
-15.9765768176
 20
8.518905480000007
 10
-15.86962123680001
 20
8.491876348799998
 10
-15.76366497280001
 20
8.466310761600006
 10
-15.65883679039999
 20
8.442198488000009
 10
-15.555151024
 20
8.41950056160001
 10
-15.45236189280001
 20
8.398123886400007
 10
-15.3502068048
 20
8.377983686400007
 10
-15.24825601920001
 20
8.358975902399997
 10
-15.14639532
 20
8.341069080000004
 10
-15.04462675680001
 20
8.324254785599997
 10
-14.94266942240001
 20
8.308482680000004
 10
-14.8402621712
 20
8.293716428800003
 10
-14.7380061584
 20
8.280041552000007
 10
-14.6345255216
 20
8.267284934400002
 10
-14.527766896
 20
8.255258446399999
  0
LWPOLYLINE
  5
89E
330
1F
100
AcDbEntity
  8
0
100
AcDbPolyline
 90
       15
 70
     0
 43
0.0
 10
16.5058029632
 20
5.47250695040001
 10
16.93403511039999
 20
5.566649166400004
 10
17.3267490992
 20
5.675397636800006
 10
17.69130764159999
 20
5.798344886400009
 10
18.03337942399999
 20
5.935545992000008
 10
18.35714878239999
 20
6.087330243200007
 10
18.6678091104
 20
6.255400319999999
 10
18.98410693919999
 20
6.450789680000006
 10
19.3128727104
 20
6.680181779200005
 10
19.6561731888
 20
6.948581601600004
 10
20.01554694399999
 20
7.261438635200001
 10
20.39208117119999
 20
7.6246907664
 10
20.78645136959999
 20
8.044774252800003
 10
21.198595904
 20
8.528255675200007
 10
21.6243559072
 20
9.077194467200008
  0
LWPOLYLINE
  5
89F
330
1F
100
AcDbEntity
  8
0
100
AcDbPolyline
 90
       15
 70
     0
 43
0.0
 10
-16.5058029616
 20
5.47250695040001
 10
-16.9340351088
 20
5.566649166400004
 10
-17.32674909760001
 20
5.675397636800006
 10
-17.69130764
 20
5.798344886400009
 10
-18.03337942239999
 20
5.935545992000008
 10
-18.3571487808
 20
6.087330243200007
 10
-18.66780910880001
 20
6.255400319999999
 10
-18.9841069376
 20
6.450789680000006
 10
-19.31287271040001
 20
6.680181779200005
 10
-19.6561731872
 20
6.948581601600004
 10
-20.0155469424
 20
7.261438635200001
 10
-20.39208116959999
 20
7.6246907664
 10
-20.786451368
 20
8.044774252800003
 10
-21.1985959024
 20
8.528255675200007
 10
-21.6243559056
 20
9.077194467200008
  0
LINE
  5
8A0
330
1F
100
AcDbEntity
  8
0
100
AcDbLine
 10
-3.687698688000015
 20
30.11881684640002
 30
0.0
 11
-4.06889991840001
 21
29.9760024496
 31
0.0
  0
LWPOLYLINE
  5
8A1
330
1F
100
AcDbEntity
  8
0
100
AcDbPolyline
 90
       16
 70
     0
 43
0.0
 10
5.594211236799996
 20
6.515404038399999
 10
6.031488043200003
 20
6.619207780800003
 10
6.582970488000004
 20
6.7242703856
 10
7.197032937600003
 20
6.816392479999997
 10
7.871861470399995
 20
6.893991150400005
 10
8.605960663999997
 20
6.956123969600007
 10
9.290965089599996
 20
6.997677345600003
 10
9.8948778944
 20
7.024217222400004
 10
10.42965938239999
 20
7.041857404800005
 10
10.94604695519999
 20
7.055250919999998
 10
11.4648031248
 20
7.066563446400003
 10
11.98839816639999
 20
7.077637528000003
 10
12.5335988432
 20
7.091376636799999
 10
13.12692901439999
 20
7.1128750672
 10
13.80533948959999
 20
7.152344300800002
 10
14.5126209872
 20
7.219033460799998
  0
LWPOLYLINE
  5
8A2
330
1F
100
AcDbEntity
  8
0
100
AcDbPolyline
 90
       13
 70
     0
 43
0.0
 10
2.678139369599993
 20
5.570259076800006
 10
2.790664782400003
 20
5.591419993600005
 10
2.9043838768
 20
5.618538407999999
 10
3.013190398400002
 20
5.648593257600005
 10
3.111602275200002
 20
5.678452510399999
 10
3.199142777599991
 20
5.706696609600008
 10
3.276232416000002
 20
5.732623913600001
 10
3.346510400000003
 20
5.756962580799999
 10
3.413667667199991
 20
5.78073495360001
 10
3.481122403199993
 20
5.805025734399997
 10
3.549539371200001
 20
5.83000280640001
 10
3.618429595200002
 20
5.855421947200007
 10
3.687698689600001
 20
5.881183155199998
  0
LWPOLYLINE
  5
8A3
330
1F
100
AcDbEntity
  8
0
100
AcDbPolyline
 90
        3
 70
     0
 43
0.0
 10
2.808830286399999
 20
5.545865099200007
 10
2.756148476799996
 20
5.537719983999998
 10
2.703975516800003
 20
5.529393699200007
  0
LWPOLYLINE
  5
8A4
330
1F
100
AcDbEntity
  8
0
100
AcDbPolyline
 90
       11
 70
     0
 43
0.0
 10
2.808830286399999
 20
5.545865099200007
 10
2.882419179200002
 20
5.556811136
 10
2.956914636799996
 20
5.567397588799998
 10
3.032609526399998
 20
5.577663257600001
 10
3.109927593599994
 20
5.587656131199999
 10
3.188775366399998
 20
5.597351921600001
 10
3.2686380208
 20
5.6066809888
 10
3.349905111999991
 20
5.615684174400008
 10
3.432746080000004
 20
5.624370904000009
 10
3.516059654399999
 20
5.632624462400009
 10
3.600468793600004
 20
5.640509748800006
  0
LWPOLYLINE
  5
8A5
330
1F
100
AcDbEntity
  8
0
100
AcDbPolyline
 90
       12
 70
     0
 43
0.0
 10
14.5126209872
 20
7.219033460799998
 10
15.1172034256
 20
7.303468964799996
 10
15.69544259519999
 20
7.411896745599996
 10
16.28151081279999
 20
7.550302836800007
 10
16.88753127839999
 20
7.722878881600003
 10
17.5010138064
 20
7.927744761600003
 10
18.10737002879999
 20
8.16091723520001
 10
18.69529244959999
 20
8.4180168432
 10
19.25630615359999
 20
8.694547692800007
 10
19.78394636959999
 20
8.9858591984
 10
20.27400833919999
 20
9.287612995199999
 10
20.72500842879999
 20
9.596445638400005
  0
LWPOLYLINE
  5
8A6
330
1F
100
AcDbEntity
  8
0
100
AcDbPolyline
 90
       14
 70
     0
 43
0.0
 10
-12.6472811296
 20
3.938434300800004
 10
-12.9452868496
 20
3.901327014400003
 10
-13.28804178560001
 20
3.859638015999998
 10
-13.65969952
 20
3.815629580799999
 10
-14.0456765584
 20
3.771241369599998
 10
-14.4312663856
 20
3.728234745599998
 10
-14.80620684480001
 20
3.687695987200008
 10
-15.166663472
 20
3.649911936000002
 10
-15.509318528
 20
3.615073220800006
 10
-15.8308465552
 20
3.583338368000006
 10
-16.127915272
 20
3.554839470400004
 10
-16.3996175328
 20
3.529464625600006
 10
-16.6467634688
 20
3.506955828800009
 10
-16.87006675040001
 20
3.487087251200001
  0
LWPOLYLINE
  5
8A7
330
1F
100
AcDbEntity
  8
0
100
AcDbPolyline
 90
       14
 70
     0
 43
0.0
 10
-12.6949687824
 20
4.327699753600008
 10
-11.4248886208
 20
4.478809984000001
 10
-10.2850874176
 20
4.601235145600007
 10
-9.258745622400009
 20
4.700746769600009
 10
-8.331871524800003
 20
4.781837227200007
 10
-7.492736095999998
 20
4.848031841599997
 10
-6.731268254400003
 20
4.902134464000006
 10
-6.038772867200005
 20
4.946387140800005
 10
-5.408163627200007
 20
4.982561942400003
 10
-4.832996748799995
 20
5.012106721599998
 10
-4.307155953599998
 20
5.0362156272
 10
-3.825046150399995
 20
5.055856337599998
 10
-3.384596131200009
 20
5.071704670400002
 10
-2.985379017600006
 20
5.084294044799996
  0
LWPOLYLINE
  5
8A8
330
1F
100
AcDbEntity
  8
0
100
AcDbPolyline
 90
       39
 70
     0
 43
0.0
 10
14.52776689759999
 20
8.255258446399999
 10
14.63427676639999
 20
8.267255577600003
 10
14.73764254399999
 20
8.279994819200005
 10
14.8396573056
 20
8.2936324096
 10
14.94176501119999
 20
8.308347558400008
 10
15.0435489792
 20
8.324082454400006
 10
15.145129216
 20
8.340853294399998
 10
15.2466947712
 20
8.358693278400004
 10
15.3485293136
 20
8.377662112000002
 10
15.45066419839999
 20
8.397780208000007
 10
15.55332899999999
 20
8.419111895999996
 10
15.65677818239999
 20
8.441736729600002
 10
15.76133241919999
 20
8.465761488000005
 10
15.867028256
 20
8.491236297600003
 10
15.97362471039999
 20
8.518142900800008
 10
16.0814554496
 20
8.546607374400004
 10
16.19230435359999
 20
8.577181368000005
 10
16.30484708959999
 20
8.609591737600005
 10
16.418614048
 20
8.643765593600001
 10
16.5345687792
 20
8.680067828799998
 10
16.65322605919999
 20
8.718767767999999
 10
16.77446736479999
 20
8.759947900800007
 10
16.8981699024
 20
8.803686612799999
 10
17.02534655359999
 20
8.850486323200009
 10
17.15628494399999
 20
8.900634281599998
 10
17.29056145919999
 20
8.954157152
 10
17.42769691999999
 20
9.011044294400001
 10
17.56727215999999
 20
9.071290740800002
 10
17.70862213919999
 20
9.134759105600004
 10
17.8504409728
 20
9.200972688
 10
17.98916455359999
 20
9.26825370720001
 10
18.12597799039999
 20
9.337099336000001
 10
18.26239065439999
 20
9.408264524799996
 10
18.39935126559999
 20
9.482314089600002
 10
18.53474183199999
 20
9.558147748800003
 10
18.6676931888
 20
9.635239032000008
 10
18.79873911999999
 20
9.713848374400008
 10
18.9286703456
 20
9.794441720000001
 10
19.0584527824
 20
9.877663324800003
  0
LWPOLYLINE
  5
8A9
330
1F
100
AcDbEntity
  8
0
100
AcDbPolyline
 90
        4
 70
     0
 43
0.0
 10
-16.8966393936
 20
3.8853785696
 10
-15.5184839056
 20
4.011819339200009
 10
-14.1196850272
 20
4.158905913600001
 10
-12.6949687824
 20
4.327699753600008
  0
LINE
  5
8AA
330
1F
100
AcDbEntity
  8
0
100
AcDbLine
 10
3.600468793599997
 20
5.640509748800006
 30
0.0
 11
3.687369287999995
 21
5.648143428800004
 31
0.0
  0
LWPOLYLINE
  5
8AB
330
1F
100
AcDbEntity
  8
0
100
AcDbPolyline
 90
       62
 70
     0
 43
0.0
 10
-16.87006675040001
 20
3.487087251200001
 10
-16.9698628752
 20
3.478689150400008
 10
-17.0779929584
 20
3.470450943999999
 10
-17.1952617488
 20
3.462526380800007
 10
-17.32255333440001
 20
3.455111358399996
 10
-17.4608505216
 20
3.448452699199997
 10
-17.6110428256
 20
3.442866947200009
 10
-17.77340760640001
 20
3.438753351999999
 10
-17.9476978976
 20
3.43656123680001
 10
-18.1344737744
 20
3.436766979200008
 10
-18.33535887520001
 20
3.439939428800009
 10
-18.55221803680001
 20
3.446800449599997
 10
-18.78684382400001
 20
3.458249996799999
 10
-19.0409874512
 20
3.4753871184
 10
-19.3170035616
 20
3.499593771200004
 10
-19.61797779679999
 20
3.532660916800004
 10
-19.94752404959999
 20
3.576920892799996
 10
-20.3049436848
 20
3.634559240000008
 10
-20.6823372656
 20
3.706450187199997
 10
-21.0766423648
 20
3.793861811200009
 10
-21.4901575808
 20
3.899275526399996
 10
-21.924657304
 20
4.025551913600004
 10
-22.381517624
 20
4.175986209600004
 10
-22.8616505344
 20
4.354323660799998
 10
-23.3674288064
 20
4.565670382400007
 10
-23.8844039088
 20
4.808017097600007
 10
-24.3551041888
 20
5.053208712000007
 10
-24.7552658352
 20
5.281150688000003
 10
-25.1012212752
 20
5.493517777599997
 10
-25.406604384
 20
5.693454758400001
 10
-25.6797259072
 20
5.882736619200009
 10
-25.9245908576
 20
6.0612961056
 10
-26.144467936
 20
6.229152800000001
 10
-26.3425395808
 20
6.3867690784
 10
-26.5218480864
 20
6.534944256000009
 10
-26.6850356624
 20
6.6745353584
 10
-26.8338725248
 20
6.805956768000008
 10
-26.9696149392
 20
6.92936756160001
 10
-27.0934588208
 20
7.045026139199997
 10
-27.2065356816
 20
7.153274028800005
 10
-27.30984774239999
 20
7.254455235200005
 10
-27.4042893952
 20
7.348915924800003
 10
-27.490645008
 20
7.436983315200002
 10
-27.5693383328
 20
7.5186865808
 10
-27.6398852432
 20
7.593138518400003
 10
-27.7020161152
 20
7.6596774096
 10
-27.7567984112
 20
7.719112547200005
 10
-27.8063315504
 20
7.773482675200007
 10
-27.85353415999999
 20
7.825864425600009
 10
-27.9012263616
 20
7.879364688000002
 10
-27.9514424608
 20
7.936332769600006
 10
-28.00589398239999
 20
7.998858481600002
 10
-28.0655981856
 20
8.068335820800008
 10
-28.1303939344
 20
8.144854078400008
 10
-28.199834248
 20
8.228182131200007
 10
-28.2739514768
 20
8.318680956800001
 10
-28.3530555216
 20
8.417103775999997
 10
-28.4374904192
 20
8.5243274464
 10
-28.5275965648
 20
8.641323865600007
 10
-28.6237272
 20
8.769202784000007
 10
-28.7262240208
 20
8.909207880000003
 10
-28.8353958976
 20
9.062720337600005
  0
LINE
  5
8AC
330
1F
100
AcDbEntity
  8
0
100
AcDbLine
 10
-6.086246384000009
 20
5.223854009599996
 30
0.0
 11
-5.358094913600002
 21
5.278705144000007
 31
0.0
  0
LWPOLYLINE
  5
8AD
330
1F
100
AcDbEntity
  8
0
100
AcDbPolyline
 90
        3
 70
     0
 43
0.0
 10
3.687369288000002
 20
5.648143428800004
 10
4.115651336000002
 20
5.6791158336
 10
4.416294108799991
 20
5.693693846400002
  0
LWPOLYLINE
  5
8AE
330
1F
100
AcDbEntity
  8
0
100
AcDbPolyline
 90
        9
 70
     0
 43
0.0
 10
-6.086246384000002
 20
5.223854009599996
 10
-6.220291841599998
 20
5.215149494400002
 10
-6.347919990399997
 20
5.209914192000006
 10
-6.462524244800004
 20
5.20876847520001
 10
-6.556055988800007
 20
5.211934337600006
 10
-6.6237409376
 20
5.218971220800007
 10
-6.666567974400006
 20
5.229653664000004
 10
-6.683018078400007
 20
5.243930750400004
 10
-6.6810191456
 20
5.251504160000003
  0
LWPOLYLINE
  5
8AF
330
1F
100
AcDbEntity
  8
0
100
AcDbPolyline
 90
        7
 70
     0
 43
0.0
 10
-12.746830728
 20
5.304529566399999
 10
-13.4605881008
 20
5.278601983999998
 10
-14.1613794736
 20
5.271400684800006
 10
-14.8503938464
 20
5.288095368000007
 10
-15.4752050656
 20
5.329770312
 10
-16.020981728
 20
5.392205908800001
 10
-16.5058029632
 20
5.47250694880001
  0
LWPOLYLINE
  5
8B0
330
1F
100
AcDbEntity
  8
0
100
AcDbPolyline
 90
       22
 70
     0
 43
0.0
 10
-2.988956524799998
 20
4.687081601600006
 10
-3.897840300799995
 20
4.656163102400007
 10
-4.726364545600002
 20
4.620856321600008
 10
-5.484558417599995
 20
4.582588112000003
 10
-6.182213323199999
 20
4.542339204800008
 10
-6.8291205248
 20
4.500699913600008
 10
-7.435099324800003
 20
4.457921190400007
 10
-8.009814142399999
 20
4.413972363200009
 10
-8.542968601600005
 20
4.370258163199999
 10
-9.030305209600012
 20
4.327819001599998
 10
-9.475124646400001
 20
4.287010688000002
 10
-9.881266486400004
 20
4.248021806399997
 10
-10.25252012480001
 20
4.21093667840001
 10
-10.5926716528
 20
4.175745086400006
 10
-10.9055026128
 20
4.142354724800007
 10
-11.1947886272
 20
4.110602296000003
 10
-11.4643003968
 20
4.080262929600003
 10
-11.7178045856
 20
4.051058180800005
 10
-11.959068464
 20
4.022662185600005
 10
-12.19184637920001
 20
3.994708508800009
 10
-12.4198581888
 20
3.966797014400007
 10
-12.6472811296
 20
3.938434300800004
  0
LWPOLYLINE
  5
8B1
330
1F
100
AcDbEntity
  8
0
100
AcDbPolyline
 90
       10
 70
     0
 43
0.0
 10
-6.362672083200006
 20
5.705327033600006
 10
-6.786537075199998
 20
5.693015940800002
 10
-7.449419545600004
 20
5.663843742399997
 10
-8.165438951999998
 20
5.6230416
 10
-8.941704268800005
 20
5.570717708799996
 10
-9.749051144000002
 20
5.510727934400001
 10
-10.5311829664
 20
5.450610808
 10
-11.2916593712
 20
5.393794001600006
 10
-12.03109956640001
 20
5.343877928000004
 10
-12.746830728
 20
5.304529566399999
  0
LWPOLYLINE
  5
8B2
330
1F
100
AcDbEntity
  8
0
100
AcDbPolyline
 90
        4
 70
     0
 43
0.0
 10
-2.985379017600006
 20
5.084294044799996
 10
-1.990402075200005
 20
5.108643281600002
 10
-0.9952654799999969
 20
5.123253422400004
 10
0.0000000000000036
 20
5.128124000000006
  0
LWPOLYLINE
  5
8B3
330
1F
100
AcDbEntity
  8
0
100
AcDbPolyline
 90
       17
 70
     0
 43
0.0
 10
0.0000000000000036
 20
5.678952289599997
 10
-0.1047610880000001
 20
5.678256609600005
 10
-0.2089482655999966
 20
5.676169638400004
 10
-0.3114039344000012
 20
5.672715030400006
 10
-0.4112894063999982
 20
5.667931606399996
 10
-0.5074309136000004
 20
5.661898371200003
 10
-0.5991724592000019
 20
5.654690176000009
 10
-0.6854875376000074
 20
5.646433174400009
 10
-0.7660299552000076
 20
5.637214542400009
 10
-0.8403513935999988
 20
5.627137046400001
 10
-0.9082564944000033
 20
5.616273118400009
 10
-0.969502822399999
 20
5.604694974399997
 10
-1.023754724799996
 20
5.592491198400004
 10
-1.070874192000001
 20
5.579700364799997
 10
-1.110458161600003
 20
5.566420148799998
 10
-1.142297286400005
 20
5.552680654399999
 10
-1.165972798400002
 20
5.538576713600001
  0
LWPOLYLINE
  5
8B4
330
1F
100
AcDbEntity
  8
0
100
AcDbPolyline
 90
        4
 70
     0
 43
0.0
 10
0.0000000000000036
 20
4.731194848000008
 10
-0.9964424544000074
 20
4.726292953600001
 10
-1.9928079216
 20
4.711587835199999
 10
-2.988956524799998
 20
4.687081601600006
  0
LWPOLYLINE
  5
8B5
330
1F
100
AcDbEntity
  8
0
100
AcDbPolyline
 90
       17
 70
     0
 43
0.0
 10
0.0000000000000036
 20
5.379362051199997
 10
-0.1027131392000022
 20
5.3799309248
 10
-0.2051918208000067
 20
5.381646435200003
 10
-0.3064947568000029
 20
5.384512036799996
 10
-0.4060093312000071
 20
5.388533019200004
 10
-0.5026690703999997
 20
5.393690147199997
 10
-0.5958028960000057
 20
5.399971369600002
 10
-0.6842138719999973
 20
5.407314652800003
 10
-0.7672937871999999
 20
5.415681332799998
 10
-0.8443013167999957
 20
5.425008679999997
 10
-0.9147472783999965
 20
5.435250161600002
 10
-0.9780661584000078
 20
5.446339756800007
 10
-1.033703232000004
 20
5.458192809599999
 10
-1.081304135999996
 20
5.470747036799998
 10
-1.120394662399998
 20
5.483885817600004
 10
-1.150784529599999
 20
5.497554568000005
 10
-1.172165281599998
 20
5.511628887999997
  0
LWPOLYLINE
  5
8B6
330
1F
100
AcDbEntity
  8
0
100
AcDbPolyline
 90
       20
 70
     0
 43
0.0
 10
0.0000000000000036
 20
5.709898166400002
 10
0.1047618319999977
 20
5.70920249440001
 10
0.2089514671999986
 20
5.707115496000007
 10
0.3114006671999938
 20
5.703661185600005
 10
0.4112869712000027
 20
5.698877868800003
 10
0.5074211375999944
 20
5.692845321599996
 10
0.599161689599999
 20
5.685637524800007
 10
0.6854837568000001
 20
5.677380148800004
 10
0.7660272815999925
 20
5.668161627199999
 10
0.840354596800001
 20
5.658083503999996
 10
0.9082529472000011
 20
5.647220840000009
 10
0.9695001679999997
 20
5.635642796800006
 10
1.023747707199991
 20
5.623440364799996
 10
1.070865819199998
 20
5.610650464000009
 10
1.110449835200004
 20
5.597371006400003
 10
1.142287929599991
 20
5.583633156799997
 10
1.165964403199996
 20
5.569530756799998
 10
1.181117745599994
 20
5.555134894400005
 10
1.1873488224
 20
5.540583307200002
 10
1.187500000000003
 20
5.537948468800003
  0
LWPOLYLINE
  5
8B7
330
1F
100
AcDbEntity
  8
0
100
AcDbPolyline
 90
        4
 70
     0
 43
0.0
 10
2.985379019199999
 20
5.084294044799996
 10
1.9904020928
 20
5.108643280000002
 10
0.9952655151999927
 20
5.123253422400004
 10
0.0000000000000036
 20
5.128124000000006
  0
LWPOLYLINE
  5
8B8
330
1F
100
AcDbEntity
  8
0
100
AcDbPolyline
 90
        4
 70
     0
 43
0.0
 10
2.988956526399991
 20
4.687081601600006
 10
1.992807923199993
 20
4.711587835199999
 10
0.9964424544000003
 20
4.726292953600001
 10
0.0000000000000036
 20
4.731194848000008
  0
LWPOLYLINE
  5
8B9
330
1F
100
AcDbEntity
  8
0
100
AcDbPolyline
 90
       10
 70
     0
 43
0.0
 10
6.362672308800004
 20
5.705327027200006
 10
6.786537076799991
 20
5.693015940800002
 10
7.449419547199997
 20
5.663843742399997
 10
8.165438953599991
 20
5.6230416
 10
8.941704270399998
 20
5.570717708799996
 10
9.749051143999995
 20
5.510727934400001
 10
10.53118296639999
 20
5.450610808
 10
11.2916593728
 20
5.393794001600006
 10
12.03109956799999
 20
5.343877928000004
 10
12.74683072799999
 20
5.304529566399999
  0
LWPOLYLINE
  5
8BA
330
1F
100
AcDbEntity
  8
0
100
AcDbPolyline
 90
        7
 70
     0
 43
0.0
 10
12.74683072799999
 20
5.304529566399999
 10
13.46058810079999
 20
5.278601983999998
 10
14.16137947519999
 20
5.271400684800006
 10
14.850393848
 20
5.288095368000007
 10
15.47520506719999
 20
5.329770312
 10
16.02098172959999
 20
5.392205908800001
 10
16.5058029632
 20
5.47250694880001
  0
LWPOLYLINE
  5
8BB
330
1F
100
AcDbEntity
  8
0
100
AcDbPolyline
 90
        9
 70
     0
 43
0.0
 10
6.086246383999995
 20
5.223854009599996
 10
6.220717945600004
 20
5.215126601599997
 10
6.348378929599991
 20
5.209901928
 10
6.462846094399996
 20
5.208771651200002
 10
6.5562344336
 20
5.211945851200006
 10
6.623834116800001
 20
5.218986174400008
 10
6.666613339200001
 20
5.229672534400002
 10
6.683020753599993
 20
5.243949063999998
 10
6.681019086400002
 20
5.251504164800003
  0
LWPOLYLINE
  5
8BC
330
1F
100
AcDbEntity
  8
0
100
AcDbPolyline
 90
        3
 70
     0
 43
0.0
 10
-3.687369286399995
 20
5.648143428800004
 10
-4.115651334399995
 20
5.6791158336
 10
-4.416295067200007
 20
5.693693892800006
  0
LINE
  5
8BD
330
1F
100
AcDbEntity
  8
0
100
AcDbLine
 10
6.086246383999988
 20
5.223854009599996
 30
0.0
 11
5.358094915199995
 21
5.278705144000007
 31
0.0
  0
LWPOLYLINE
  5
8BE
330
1F
100
AcDbEntity
  8
0
100
AcDbPolyline
 90
        8
 70
     0
 43
0.0
 10
5.358094915200002
 20
5.278705144000007
 10
5.262441967999993
 20
5.287151476799998
 10
5.160558798399993
 20
5.298769545600002
 10
5.061741905599991
 20
5.312733828799999
 10
4.973615287999994
 20
5.327912134400001
 10
4.898740515199992
 20
5.343776495999996
 10
4.842348724799993
 20
5.3591380768
 10
4.807294852800001
 20
5.372804691200009
  0
LWPOLYLINE
  5
8BF
330
1F
100
AcDbEntity
  8
0
100
AcDbPolyline
 90
       13
 70
     0
 43
0.0
 10
16.870066752
 20
3.487087251200001
 10
16.6285238272
 20
3.508598345599999
 10
16.35975397279999
 20
3.533146297600005
 10
16.06522594559999
 20
3.560787806400007
 10
15.7467387584
 20
3.591550489600003
 10
15.40474513279999
 20
3.625594019200001
 10
15.03893308639999
 20
3.6631677584
 10
14.6490279776
 20
3.704536684799997
 10
14.2349050112
 20
3.749968945600009
 10
13.8027131968
 20
3.799026433599998
 10
13.37630071519999
 20
3.849074545599997
 10
12.9817943824
 20
3.896836248000006
 10
12.64728112959999
 20
3.938434300800004
  0
LWPOLYLINE
  5
8C0
330
1F
100
AcDbEntity
  8
0
100
AcDbPolyline
 90
        4
 70
     0
 43
0.0
 10
16.8966393952
 20
3.8853785696
 10
15.51848390719999
 20
4.011819339200009
 10
14.11968502879999
 20
4.158905913600001
 10
12.694968784
 20
4.327699753600008
  0
LWPOLYLINE
  5
8C1
330
1F
100
AcDbEntity
  8
0
100
AcDbPolyline
 90
       19
 70
     0
 43
0.0
 10
-14.5126209856
 20
8.253648787199999
 10
-13.97277899359999
 20
8.198555830400003
 10
-13.39586207680001
 20
8.143852271999996
 10
-12.7765602144
 20
8.089509249600006
 10
-12.1003021424
 20
8.034808052800009
 10
-11.3683420864
 20
7.980366755200002
 10
-10.6681442928
 20
7.932218032000001
 10
-10.0357620704
 20
7.891466190400002
 10
-9.440136305600002
 20
7.855021368000002
 10
-8.84109476
 20
7.819789102400001
 10
-8.224535332800012
 20
7.784465688000004
 10
-7.5865072512
 20
7.7484350832
 10
-6.959662480000002
 20
7.713216499200008
 10
-6.365749337600004
 20
7.679824436799997
 10
-5.812933480000008
 20
7.648611936000001
 10
-5.293355438399995
 20
7.619018200000006
 10
-4.781551239999995
 20
7.589892966400007
 10
-4.264403897600001
 20
7.561277310400008
 10
-3.970107214399998
 20
7.546123798399996
  0
LWPOLYLINE
  5
8C2
330
1F
100
AcDbEntity
  8
0
100
AcDbPolyline
 90
       14
 70
     0
 43
0.0
 10
12.694968784
 20
4.327699753600008
 10
11.42488862079999
 20
4.478809984000001
 10
10.2850874176
 20
4.601235145600007
 10
9.258745624000003
 20
4.700746769600009
 10
8.331871526399996
 20
4.781837227200007
 10
7.492736097599991
 20
4.848031841599997
 10
6.731268255999996
 20
4.902134464000006
 10
6.038772868799998
 20
4.946387140800005
 10
5.4081636288
 20
4.982561942400003
 10
4.832996750400003
 20
5.012106721599998
 10
4.307155955199991
 20
5.0362156272
 10
3.825046152000002
 20
5.055856337599998
 10
3.384596132800002
 20
5.071704670400002
 10
2.985379019199999
 20
5.084294044799996
  0
LWPOLYLINE
  5
8C3
330
1F
100
AcDbEntity
  8
0
100
AcDbPolyline
 90
       22
 70
     0
 43
0.0
 10
12.64728112959999
 20
3.938434300800004
 10
12.41985818879999
 20
3.966797014400007
 10
12.1918463808
 20
3.994708508800009
 10
11.9590684656
 20
4.022662185600005
 10
11.71780458719999
 20
4.051058180800005
 10
11.4643003984
 20
4.080262929600003
 10
11.1947886288
 20
4.110602296000003
 10
10.90550261439999
 20
4.142354724800007
 10
10.59267165439999
 20
4.175745086400006
 10
10.2525201264
 20
4.21093667840001
 10
9.881266489599997
 20
4.248021806399997
 10
9.475124647999994
 20
4.287010688000002
 10
9.030305211199991
 20
4.327819001599998
 10
8.542968603199998
 20
4.370258163199999
 10
8.009814145599992
 20
4.413972363200009
 10
7.435099327999996
 20
4.457921190400007
 10
6.829120527999993
 20
4.500699913600008
 10
6.182213326399992
 20
4.542339204800008
 10
5.484558420800002
 20
4.582588112000003
 10
4.726364548799995
 20
4.620856321600008
 10
3.897840307200002
 20
4.656163102400007
 10
2.988956526399991
 20
4.687081601600006
  0
LWPOLYLINE
  5
8C4
330
1F
100
AcDbEntity
  8
0
100
AcDbPolyline
 90
       12
 70
     0
 43
0.0
 10
-14.5126209856
 20
7.219033460799998
 10
-15.117203424
 20
7.303468964799996
 10
-15.6954425952
 20
7.411896745599996
 10
-16.2815108112
 20
7.550302836800007
 10
-16.8875312768
 20
7.722878881600003
 10
-17.5010138064
 20
7.927744761600003
 10
-18.1073700272
 20
8.16091723520001
 10
-18.6952924496
 20
8.4180168432
 10
-19.256306152
 20
8.694547692800007
 10
-19.78394636799999
 20
8.9858591984
 10
-20.2740083376
 20
9.287612995199999
 10
-20.7250084272
 20
9.596445638400005
  0
LWPOLYLINE
  5
8C5
330
1F
100
AcDbEntity
  8
0
100
AcDbPolyline
 90
       12
 70
     0
 43
0.0
 10
-2.808830284800006
 20
5.545865099200007
 10
-2.882419177599995
 20
5.556811136
 10
-2.956914635200003
 20
5.567397588799998
 10
-3.032609524800005
 20
5.577663257600001
 10
-3.109927592000001
 20
5.587656131199999
 10
-3.188775364800005
 20
5.597351921600001
 10
-3.268638019200007
 20
5.6066809888
 10
-3.349905110399998
 20
5.615684174400008
 10
-3.432746078399997
 20
5.624370904000009
 10
-3.516059652800006
 20
5.632624462400009
 10
-3.600468793599997
 20
5.640509748800006
 10
-3.687369286399995
 20
5.648143428800004
  0
LWPOLYLINE
  5
8C6
330
1F
100
AcDbEntity
  8
0
100
AcDbPolyline
 90
        3
 70
     0
 43
0.0
 10
-2.808830284800006
 20
5.545865099200007
 10
-2.756148475200003
 20
5.537719983999998
 10
-2.703975515199996
 20
5.529393699200007
  0
LWPOLYLINE
  5
8C7
330
1F
100
AcDbEntity
  8
0
100
AcDbPolyline
 90
       13
 70
     0
 43
0.0
 10
-2.678139368
 20
5.570259076800006
 10
-2.790664780799996
 20
5.591419993600005
 10
-2.904383876800007
 20
5.618538407999999
 10
-3.013190396799995
 20
5.648593257600005
 10
-3.111602273599995
 20
5.678452510399999
 10
-3.199142777599998
 20
5.706696609600008
 10
-3.276232415999995
 20
5.732623913600001
 10
-3.346510398399995
 20
5.756962580799999
 10
-3.413667665599998
 20
5.78073495360001
 10
-3.4811224016
 20
5.805025734399997
 10
-3.549539371200008
 20
5.83000280640001
 10
-3.618429593600009
 20
5.855421947200007
 10
-3.687698688000008
 20
5.881183155199998
  0
LWPOLYLINE
  5
8C8
330
1F
100
AcDbEntity
  8
0
100
AcDbPolyline
 90
       16
 70
     0
 43
0.0
 10
-5.594211211200001
 20
6.515404031999999
 10
-6.031488041599995
 20
6.619207780800003
 10
-6.582970486399997
 20
6.7242703856
 10
-7.197032935999995
 20
6.816392479999997
 10
-7.871861468800002
 20
6.893991150400005
 10
-8.605960662400004
 20
6.956123969600007
 10
-9.290965088000003
 20
6.997677345600003
 10
-9.894877892800007
 20
7.024217222400004
 10
-10.4296593824
 20
7.041857404800005
 10
-10.94604695359999
 20
7.055250919999998
 10
-11.46480312480001
 20
7.066563446400003
 10
-11.9883981648
 20
7.077637528000003
 10
-12.5335988432
 20
7.091376636799999
 10
-13.1269290128
 20
7.1128750672
 10
-13.80533948800001
 20
7.152344300800002
 10
-14.5126209856
 20
7.219033460799998
  0
LINE
  5
8CA
330
1F
100
AcDbEntity
  8
0
100
AcDbLine
 10
-3.687698688000015
 20
5.881183155199998
 30
0.0
 11
-4.068899041600008
 21
6.023997232000006
 31
0.0
  0
LWPOLYLINE
  5
8CB
330
1F
100
AcDbEntity
  8
0
100
AcDbPolyline
 90
        3
 70
     0
 43
0.0
 10
4.631749447999997
 20
30.54382737440002
 10
4.721588103999994
 20
30.58492280960001
 10
4.807294852800001
 20
30.62719531039999
  0
LWPOLYLINE
  5
8CC
330
1F
100
AcDbEntity
  8
0
100
AcDbPolyline
 90
        6
 70
     0
 43
0.0
 10
2.817583609599996
 20
29.26032255360002
 10
3.253744006400001
 20
29.44379740640002
 10
3.663723809600003
 20
29.67499191520002
 10
4.041655886399997
 20
29.95068803360002
 10
4.38211863999999
 20
30.2670509584
 10
4.612564366399997
 20
30.5317416288
  0
LWPOLYLINE
  5
8CE
330
1F
100
AcDbEntity
  8
0
100
AcDbPolyline
 90
        8
 70
     0
 43
0.0
 10
4.807294852800001
 20
30.62719531039999
 10
4.842348724799993
 20
30.64086192480002
 10
4.898740515199992
 20
30.65622350400002
 10
4.973615287999994
 20
30.67208786720001
 10
5.061741905599991
 20
30.68726617280001
 10
5.160558798399993
 20
30.70123045600002
 10
5.262441967999993
 20
30.71284852480002
 10
5.358094915200002
 20
30.72129485760001
  0
LINE
  5
8CF
330
1F
100
AcDbEntity
  8
0
100
AcDbLine
 10
2.034048075199986
 20
29.0248409264
 30
0.0
 11
2.817583609599989
 21
29.26032255360002
 31
0.0
  0
LWPOLYLINE
  5
8D0
330
1F
100
AcDbEntity
  8
0
100
AcDbPolyline
 90
       13
 70
     0
 43
0.0
 10
6.385052916799995
 20
7.680911246400007
 10
7.605158814400002
 20
7.749484393600006
 10
8.239559710399991
 20
7.785318865599997
 10
8.851842374399996
 20
7.820411857599999
 10
9.449315012800003
 20
7.855570897599996
 10
10.0441104416
 20
7.891989379200005
 10
10.67612714399999
 20
7.932747932800005
 10
11.37639465599999
 20
7.980941507200007
 10
12.10690701279999
 20
8.035320601599998
 10
12.7790689168
 20
8.089720940799999
 10
13.39625578399999
 20
8.143888299200007
 10
13.9707040224
 20
8.198351512000009
 10
14.5126209872
 20
8.253648780799998
  0
LWPOLYLINE
  5
8D1
330
1F
100
AcDbEntity
  8
0
100
AcDbPolyline
 90
        6
 70
     0
 43
0.0
 10
3.970083366399993
 20
7.546131112000004
 10
4.256710273599995
 20
7.5608636384
 10
4.783244564800003
 20
7.589988507199997
 10
5.305233656000002
 20
7.619697136000006
 10
5.831929001599991
 20
7.6496884656
 10
6.385052916799995
 20
7.680911246400007
  0
LWPOLYLINE
  5
8D2
330
1F
100
AcDbEntity
  8
0
100
AcDbPolyline
 90
       25
 70
     0
 43
0.0
 10
0.0000000000000036
 20
9.616764331200009
 10
0.0813936959999957
 20
9.618603076800006
 10
0.1678843056000012
 20
9.624656667200007
 10
0.2593043312000027
 20
9.635745526400008
 10
0.3532944687999908
 20
9.6522838144
 10
0.4481183551999984
 20
9.674393487999999
 10
0.5431144640000021
 20
9.702199999999997
 10
0.6378929599999914
 20
9.7358363584
 10
0.7323276063999949
 20
9.775527672000002
 10
0.8267329056000001
 20
9.821783371200005
 10
0.9211856479999944
 20
9.875178390400002
 10
1.0155882048
 20
9.9363567376
 10
1.110285592
 20
10.0065077952
 10
1.20512473279999
 20
10.08686138720001
 10
1.299377788800004
 20
10.1785246784
 10
1.392030839999993
 20
10.28266524
 10
1.480315172799993
 20
10.3984650688
 10
1.559851888
 20
10.5214707744
 10
1.629582207999991
 20
10.65018356320001
 10
1.689137926399997
 20
10.78389312
 10
1.738111113600002
 20
10.9216465024
 10
1.776259398400004
 20
11.0627177936
 10
1.803324503999991
 20
11.2060732208
 10
1.819202508799993
 20
11.351096512
 10
1.823773001599992
 20
11.4979873536
  0
LWPOLYLINE
  5
8D3
330
1F
100
AcDbEntity
  8
0
100
AcDbPolyline
 90
        7
 70
     0
 43
0.0
 10
2.817583609599996
 20
6.739677446400001
 10
2.034092785599998
 20
6.975147988799996
 10
1.22915666559999
 20
7.133518777600009
 10
0.4112207695999964
 20
7.213130891200002
 10
-0.4110740015999959
 20
7.213138012800008
 10
-1.229043809599996
 20
7.1335353264
 10
-2.034048073600001
 20
6.975159073600003
  0
LWPOLYLINE
  5
8D5
330
1F
100
AcDbEntity
  8
0
100
AcDbPolyline
 90
        3
 70
     0
 43
0.0
 10
4.807294852800001
 20
5.372804691200009
 10
4.721595892799999
 20
5.415073492799997
 10
4.631749447999997
 20
5.456172627199997
  0
LWPOLYLINE
  5
8D6
330
1F
100
AcDbEntity
  8
0
100
AcDbPolyline
 90
        3
 70
     0
 43
0.0
 10
4.631749447999997
 20
5.456172627199997
 10
4.613819764800002
 20
5.46686213600001
 10
4.612549711999992
 20
5.468259211199999
  0
LWPOLYLINE
  5
8D7
330
1F
100
AcDbEntity
  8
0
100
AcDbPolyline
 90
       18
 70
     0
 43
0.0
 10
1.181117889599992
 20
5.524186753599998
 10
1.165964667200004
 20
5.538582668799996
 10
1.142288291199992
 20
5.552685160000002
 10
1.110450251199996
 20
5.566423139200004
 10
1.070866227200003
 20
5.579702758399996
 10
1.023748040000004
 20
5.592492846399998
 10
0.9695003616000015
 20
5.604695481599996
 10
0.9082529552000018
 20
5.616273732800003
 10
0.8403543903999981
 20
5.627136604800007
 10
0.7660268624000004
 20
5.637214929599998
 10
0.6854831743999945
 20
5.646433632000004
 10
0.5991610416000022
 20
5.654691169600006
 10
0.5074205312000011
 20
5.661899104000006
 10
0.4112864784000046
 20
5.667931768000009
 10
0.3114003215999936
 20
5.672715177600004
 10
0.2089512735999968
 20
5.676169558399998
 10
0.104761763199992
 20
5.678256601600004
 10
0.0000000000000036
 20
5.678952289599997
  0
LWPOLYLINE
  5
8D8
330
1F
100
AcDbEntity
  8
0
100
AcDbPolyline
 90
        3
 70
     0
 43
0.0
 10
-1.172165281599998
 20
5.511628887999997
 10
-1.184395041600009
 20
5.526029070400007
 10
-1.187499998399996
 20
5.537948492800005
  0
LWPOLYLINE
  5
8D9
330
1F
100
AcDbEntity
  8
0
100
AcDbPolyline
 90
        6
 70
     0
 43
0.0
 10
4.331180668799991
 20
28.6150552336
 10
4.9066161408
 20
28.94969540320002
 10
5.439565473600001
 20
29.3422430448
 10
5.923649417599992
 20
29.7878470736
 10
6.353074735999999
 20
30.2809937472
 10
6.6810769456
 20
30.74849935200001
  0
LWPOLYLINE
  5
8DE
330
1F
100
AcDbEntity
  8
0
100
AcDbPolyline
 90
       10
 70
     0
 43
0.0
 10
4.331180668799991
 20
7.384944768000003
 10
3.424178814399997
 20
7.789811579199998
 10
2.475667795199999
 20
8.097867571200005
 10
1.497275328000004
 20
8.305308358400004
 10
0.5008560048000028
 20
8.409631761600003
 10
-0.501565649600007
 20
8.409594712000007
 10
-1.497881251199995
 20
8.305212683200004
 10
-2.476065865600002
 20
8.097761068800004
 10
-3.424313443200002
 20
7.789759849600009
 10
-4.331180667199998
 20
7.384944768000003
  0
LWPOLYLINE
  5
8DF
330
1F
100
AcDbEntity
  8
0
100
AcDbPolyline
 90
        6
 70
     0
 43
0.0
 10
4.331180668799991
 20
7.384944768000003
 10
4.906616947199996
 20
7.050304068800009
 10
5.439566951999996
 20
6.657755736000005
 10
5.923651411200001
 20
6.212150878400002
 10
6.353077060799993
 20
5.719003264000001
 10
6.6810769456
 20
5.251500647999996
  0
LINE
  5
8E0
330
1F
100
AcDbEntity
  8
0
100
AcDbLine
 10
2.703975516799996
 20
30.4706063008
 30
0.0
 11
2.678139369599985
 21
30.4297409248
 31
0.0
  0
LWPOLYLINE
  5
8E2
330
1F
100
AcDbEntity
  8
0
100
AcDbPolyline
 90
        3
 70
     0
 43
0.0
 10
4.612549566399994
 20
30.53174077760002
 10
4.613817596799993
 20
30.53313570560002
 10
4.631749447999997
 20
30.54382737440002
  0
LWPOLYLINE
  5
8E3
330
1F
100
AcDbEntity
  8
0
100
AcDbPolyline
 90
       25
 70
     0
 43
0.0
 10
0.0000000000000036
 20
13.3480028896
 10
-0.1372737887999982
 20
13.3428049344
 10
-0.2726709791999973
 20
13.32739647679999
 10
-0.4063521200000047
 20
13.3018937232
 10
-0.5384285535999958
 20
13.266206896
 10
-0.6684725664000091
 20
13.2202333408
 10
-0.7956540015999956
 20
13.16399574079999
 10
-0.9188246959999979
 20
13.0977659296
 10
-1.036519379199997
 20
13.0222379872
 10
-1.148100041599999
 20
12.93782568160001
 10
-1.253050638400008
 20
12.8448884448
 10
-1.350672928000005
 20
12.7439958432
 10
-1.440351625599998
 20
12.6357542208
 10
-1.521554247999997
 20
12.5207860752
 10
-1.593995681600002
 20
12.3993996464
 10
-1.655820585600007
 20
12.27525263039999
 10
-1.705242584
 20
12.154837944
 10
-1.743086236800007
 20
12.0416070272
 10
-1.770956484800006
 20
11.93775272799999
 10
-1.790806811199995
 20
11.8439773296
 10
-1.804493796799999
 20
11.75994845919999
 10
-1.813581361599997
 20
11.6846588576
 10
-1.819263667200001
 20
11.61702129759999
 10
-1.822436310400004
 20
11.5558868656
 10
-1.823753099200001
 20
11.5
  0
LWPOLYLINE
  5
8E5
330
1F
100
AcDbEntity
  8
0
100
AcDbPolyline
 90
        6
 70
     0
 43
0.0
 10
4.612564369599997
 20
5.4682583696
 10
4.382105308799996
 20
5.732963008000005
 10
4.041666313599993
 20
6.049303374400004
 10
3.663755508799997
 20
6.3249876944
 10
3.253786401599999
 20
6.556181817599998
 10
2.817583609599996
 20
6.739677446400001
  0
LINE
  5
8E6
330
1F
100
AcDbEntity
  8
0
100
AcDbLine
 10
2.703975516799996
 20
5.529393699200007
 30
0.0
 11
2.678139369599985
 21
5.570259076800006
 31
0.0
  0
LINE
  5
8E7
330
1F
100
AcDbEntity
  8
0
100
AcDbLine
 10
1.181691073599989
 20
5.522848156800002
 30
0.0
 11
1.181117889599985
 21
5.524186753599998
 31
0.0
  0
LWPOLYLINE
  5
8E8
330
1F
100
AcDbEntity
  8
0
100
AcDbPolyline
 90
       25
 70
     0
 43
0.0
 10
-1.823772999999999
 20
11.4979873536
 10
-1.819204007999996
 20
11.3511178368
 10
-1.803327767999999
 20
11.20609515679999
 10
-1.776263553599999
 20
11.0627359248
 10
-1.738116014400002
 20
10.9216621952
 10
-1.689143235200003
 20
10.7839064048
 10
-1.629588291200004
 20
10.6501959152
 10
-1.5598586656
 20
10.521482208
 10
-1.480323918399999
 20
10.3984775104
 10
-1.392040366400006
 20
10.28267678400001
 10
-1.299386911999999
 20
10.1785341984
 10
-1.205134316799995
 20
10.0868700768
 10
-1.110297411200004
 20
10.0065171488
 10
-1.015603108800004
 20
9.936367059200001
 10
-0.9212019744000023
 20
9.875188272000009
 10
-0.8267531264000034
 20
9.821794019200005
 10
-0.7323507535999987
 20
9.775538187200005
 10
-0.6379149039999952
 20
9.735844851200006
 10
-0.5431368800000023
 20
9.7022072496
 10
-0.4481429823999968
 20
9.674399955200009
 10
-0.3533199840000059
 20
9.652289022400005
 10
-0.2593252464000066
 20
9.635748622400008
 10
-0.1679094271999979
 20
9.624659048000005
 10
-0.0814212799999972
 20
9.618604327999996
 10
0.0000000000000036
 20
9.616764331200009
  0
LWPOLYLINE
  5
902
330
1F
100
AcDbEntity
  8
0
100
AcDbPolyline
 90
       20
 70
     0
 43
0.0
 10
-1.187499998399996
 20
5.537948492800005
 10
-1.187350116800001
 20
5.540571964800001
 10
-1.181124958400001
 20
5.555125160000009
 10
-1.165972537600008
 20
5.569524800000003
 10
-1.142296928000003
 20
5.583628648000008
 10
-1.110457750399998
 20
5.597368012799996
 10
-1.070873788799996
 20
5.61064806720001
 10
-1.023754398399997
 20
5.623438715200002
 10
-0.9695026367999979
 20
5.635642288000006
 10
-0.9082564960000034
 20
5.647220222400001
 10
-0.8403516096000025
 20
5.658083944000004
 10
-0.7660303840000005
 20
5.668161241599996
 10
-0.6854881311999997
 20
5.677379689600009
 10
-0.5991731183999996
 20
5.685636531199996
 10
-0.5074315312000089
 20
5.692844588800006
 10
-0.4112899087999971
 20
5.698877707200004
 10
-0.3114042864000019
 20
5.703661038400007
 10
-0.2089484623999986
 20
5.707115575999999
 10
-0.1047611584000059
 20
5.709202502399996
 10
0.0000000000000036
 20
5.709898166400002
  0
LWPOLYLINE
  5
909
330
1F
100
AcDbEntity
  8
0
100
AcDbPolyline
 90
       25
 70
     0
 43
0.0
 10
1.823753099199993
 20
11.5
 10
1.822431612799991
 20
11.5560139392
 10
1.819246900799999
 20
11.61727138559999
 10
1.813543244799991
 20
11.6850351632
 10
1.804421731199997
 20
11.7604612304
 10
1.790682998400004
 20
11.84464367359999
 10
1.770755836799995
 20
11.9385945488
 10
1.7427801824
 20
12.04262898239999
 10
1.704808035199992
 20
12.1560108368
 10
1.655257027199997
 20
12.27649816480001
 10
1.593327656000003
 20
12.4006224528
 10
1.520851139199994
 20
12.5218665808
 10
1.439629339199999
 20
12.636697032
 10
1.349945710399996
 20
12.74480731679999
 10
1.252334051199998
 20
12.845573688
 10
1.147409671999998
 20
12.93839078079999
 10
1.035869684799994
 20
13.0226909952
 10
0.9182238560000008
 20
13.09811940000001
 10
0.7951187535999971
 20
13.16425732639999
 10
0.6680170848000025
 20
13.2204140976
 10
0.5380590783999999
 20
13.2663218336
 10
0.4060743183999911
 20
13.3019576048
 10
0.2724847247999982
 20
13.32742479200001
 10
0.1371793200000049
 20
13.34281209760001
 10
0.0000000000000036
 20
13.3480028896
  0
LINE
  5
90C
330
1F
100
AcDbEntity
  8
0
100
AcDbLine
 10
1.187499999999996
 20
5.537948468800003
 30
0.0
 11
1.184402347199988
 21
5.526043035199997
 31
0.0
  0
LINE
  5
90D
330
1F
100
AcDbEntity
  8
0
100
AcDbLine
 10
-1.181125100800006
 20
5.524177022400003
 30
0.0
 11
-1.181693529600014
 21
5.522848119999999
 31
0.0
  0
LINE
  5
90E
330
1F
100
AcDbEntity
  8
0
100
AcDbLine
 10
-2.703975515200003
 20
5.529393699200007
 30
0.0
 11
-2.678139369600007
 21
5.570259076800006
 31
0.0
  0
LWPOLYLINE
  5
910
330
1F
100
AcDbEntity
  8
0
100
AcDbPolyline
 90
        3
 70
     0
 43
0.0
 10
-4.612549564800001
 20
5.4682592224
 10
-4.6138175968
 20
5.466864296000004
 10
-4.631749448000004
 20
5.456172627199997
  0
LWPOLYLINE
  5
912
330
1F
100
AcDbEntity
  8
0
100
AcDbPolyline
 90
        6
 70
     0
 43
0.0
 10
-4.612564368000004
 20
30.531741632
 10
-4.382105307200003
 20
30.26703699360001
 10
-4.041666312
 20
29.95069662720002
 10
-3.663755507200004
 20
29.6750123072
 10
-3.253786401600006
 20
29.44381818240001
 10
-2.817583608000003
 20
29.26032255360002
  0
LINE
  5
913
330
1F
100
AcDbEntity
  8
0
100
AcDbLine
 10
-2.703975515200003
 20
30.4706063008
 30
0.0
 11
-2.678139369600007
 21
30.4297409248
 31
0.0
  0
LINE
  5
914
330
1F
100
AcDbEntity
  8
0
100
AcDbLine
 10
-1.165972798400009
 20
5.538576713600001
 30
0.0
 11
-1.181125100800006
 21
5.524177022400003
 31
0.0
  0
LWPOLYLINE
  5
915
330
1F
100
AcDbEntity
  8
0
100
AcDbPolyline
 90
        6
 70
     0
 43
0.0
 10
-4.331180667199998
 20
7.384944768000003
 10
-4.906616139200007
 20
7.050304596799996
 10
-5.439565472000008
 20
6.657756955200007
 10
-5.923649415999999
 20
6.212152928000001
 10
-6.353074734400006
 20
5.719006254400007
 10
-6.681076944000007
 20
5.251500647999996
  0
LWPOLYLINE
  5
916
330
1F
100
AcDbEntity
  8
0
100
AcDbPolyline
 90
       10
 70
     0
 43
0.0
 10
-4.331180667199998
 20
28.6150552336
 10
-3.424178814400004
 20
28.21018842080002
 10
-2.475667793600006
 20
27.9021324288
 10
-1.497275327999997
 20
27.6946916416
 10
-0.5008560047999957
 20
27.5903682384
 10
0.5015656512
 20
27.59040528799999
 10
1.497881252800002
 20
27.69478731840001
 10
2.476065865599995
 20
27.9022389328
 10
3.424313443199995
 20
28.21024015040001
 10
4.331180668799991
 20
28.6150552336
  0
LWPOLYLINE
  5
917
330
1F
100
AcDbEntity
  8
0
100
AcDbPolyline
 90
        6
 70
     0
 43
0.0
 10
-4.331180667199998
 20
28.6150552336
 10
-4.906616945600003
 20
28.94969593280001
 10
-5.439566952000003
 20
29.34224426560001
 10
-5.923651409600008
 20
29.7878491216
 10
-6.3530770592
 20
30.28099673760002
 10
-6.681076944000007
 20
30.74849935200001
  0
LWPOLYLINE
  5
918
330
1F
100
AcDbEntity
  8
0
100
AcDbPolyline
 90
        3
 70
     0
 43
0.0
 10
-4.631749448000004
 20
30.54382737440002
 10
-4.613819763199995
 20
30.53313786559999
 10
-4.612549710399999
 20
30.53174079040002
  0
LINE
  5
919
330
1F
100
AcDbEntity
  8
0
100
AcDbLine
 10
1.184402347199988
 20
5.526043035199997
 30
0.0
 11
1.172182247999995
 21
5.511643257600006
 31
0.0
  0
LWPOLYLINE
  5
91A
330
1F
100
AcDbEntity
  8
0
100
AcDbPolyline
 90
       17
 70
     0
 43
0.0
 10
1.172182248000002
 20
5.511643257600006
 10
1.150809955199992
 20
5.49756819520001
 10
1.120427305599992
 20
5.483898409600008
 10
1.081343043199996
 20
5.4707585696
 10
1.033750811199997
 20
5.458204057600006
 10
0.9781170655999922
 20
5.446349574400009
 10
0.9148065296000034
 20
5.435259608000002
 10
0.8443602607999913
 20
5.425016500800005
 10
0.7673605312000014
 20
5.415688710399997
 10
0.684283881599999
 20
5.407321065600008
 10
0.5958773935999951
 20
5.399976958399996
 10
0.5027379759999953
 20
5.393694297599999
 10
0.4060626383999911
 20
5.388535511999997
 10
0.3065390479999941
 20
5.384513553600008
 10
0.2052203680000026
 20
5.3816470768
 10
0.1027320639999978
 20
5.379931134400003
 10
0.0000000000000036
 20
5.379362051199997
  0
LWPOLYLINE
  5
91B
330
1F
100
AcDbEntity
  8
0
100
AcDbPolyline
 90
        3
 70
     0
 43
0.0
 10
-4.631749448000004
 20
5.456172627199997
 10
-4.721588102400001
 20
5.415077190400005
 10
-4.807294852800009
 20
5.372804691200009
  0
LWPOLYLINE
  5
91C
330
1F
100
AcDbEntity
  8
0
100
AcDbPolyline
 90
        6
 70
     0
 43
0.0
 10
-2.817583608000003
 20
6.739677446400001
 10
-3.253744004800008
 20
6.556202593599998
 10
-3.663723807999996
 20
6.325008086399996
 10
-4.041655884800004
 20
6.049311966400004
 10
-4.382118638399997
 20
5.732949041600001
 10
-4.612564364800004
 20
5.468258372800001
  0
LWPOLYLINE
  5
91E
330
1F
100
AcDbEntity
  8
0
100
AcDbPolyline
 90
        8
 70
     0
 43
0.0
 10
-4.807294852800009
 20
5.372804691200009
 10
-4.8423487248
 20
5.3591380768
 10
-4.898740513599999
 20
5.343776495999996
 10
-4.973615286400001
 20
5.327912134400001
 10
-5.061741905599998
 20
5.312733828799999
 10
-5.1605587984
 20
5.298769545600002
 10
-5.2624419664
 20
5.287151476799998
 10
-5.358094913599995
 20
5.278705144000007
  0
LINE
  5
91F
330
1F
100
AcDbEntity
  8
0
100
AcDbLine
 10
-2.034048073600008
 20
6.975159073600003
 30
0.0
 11
-2.81758360800001
 21
6.739677446400001
 31
0.0
  0
LWPOLYLINE
  5
920
330
1F
100
AcDbEntity
  8
0
100
AcDbPolyline
 90
       63
 70
     0
 43
0.0
 10
-14.5385740016
 20
27.79652384160002
 10
-14.68785654240001
 20
27.779250832
 10
-14.8394920064
 20
27.75941213280001
 10
-14.9926054704
 20
27.73701369120002
 10
-15.1458608368
 20
27.71219225120001
 10
-15.2979525328
 20
27.68516297440001
 10
-15.4492607184
 20
27.65588540160001
 10
-15.6004116384
 20
27.62424303840001
 10
-15.7515002272
 20
27.59020497440002
 10
-15.90245988
 20
27.553777752
 10
-16.05296689280001
 20
27.51504083840001
 10
-16.20252371840001
 20
27.474142712
 10
-16.3516116576
 20
27.43097090400002
 10
-16.5008742912
 20
27.38532605439999
 10
-16.6498423552
 20
27.33732964480001
 10
-16.7980014208
 20
27.28714570880001
 10
-16.9450029536
 20
27.23491219999999
 10
-17.0912379888
 20
27.18050841440001
 10
-17.23725514239999
 20
27.1237211712
 10
-17.3828378192
 20
27.06461321439999
 10
-17.5276342208
 20
27.00331634880001
 10
-17.67141165119999
 20
26.93992946560001
 10
-17.8141937312
 20
26.87444440000001
 10
-17.9559844
 20
26.80685722399999
 10
-18.0967639616
 20
26.7371718944
 10
-18.2364708048
 20
26.66541192319999
 10
-18.3750096096
 20
26.59161990079999
 10
-18.512240656
 20
26.515866856
 10
-18.6481217744
 20
26.43817444320001
 10
-18.782625632
 20
26.35855525760002
 10
-18.9157450928
 20
26.2770083984
 10
-19.0474703664
 20
26.1935353392
 10
-19.1777843648
 20
26.1081418576
 10
-19.30649315360001
 20
26.02095324480001
 10
-19.4332726176
 20
25.93220132640002
 10
-19.5580851744
 20
25.84193440640001
 10
-19.6808930128
 20
25.750202336
 10
-19.80164734399999
 20
25.6570651856
 10
-19.9202929968
 20
25.56259121920001
 10
-20.036784656
 20
25.46684452160002
 10
-20.15107793279999
 20
25.3698917904
 10
-20.2631467152
 20
25.2717871312
 10
-20.3729765616
 20
25.17257599520002
 10
-20.480547168
 20
25.07231034240001
 10
-20.58583275040001
 20
24.97104932480002
 10
-20.688845408
 20
24.86881686400002
 10
-20.78962421439999
 20
24.76560860480001
 10
-20.8882197136
 20
24.66140735839999
 10
-20.98463098719999
 20
24.55624663680001
 10
-21.0788410176
 20
24.45017818720001
 10
-21.17083012319999
 20
24.3432591056
 10
-21.2605859392
 20
24.23554046240002
 10
-21.3481114816
 20
24.127055936
 10
-21.4334000432
 20
24.01785156799999
 10
-21.5164395888
 20
23.9079820032
 10
-21.5972233536
 20
23.79749723040001
 10
-21.675750256
 20
23.6864410304
 10
-21.7520181856
 20
23.57485981920001
 10
-21.82602501439999
 20
23.46280153279999
 10
-21.897769392
 20
23.35031465760002
 10
-21.967256048
 20
23.237439496
 10
-22.03449906719999
 20
23.1242009856
 10
-22.09951257599999
 20
23.01062245760002
  0
LINE
  5
921
330
1F
100
AcDbEntity
  8
0
100
AcDbLine
 10
-14.51262098560001
 20
27.79929720320001
 30
0.0
 11
-14.5385740016
 21
27.79652384160002
 31
0.0
  0
LWPOLYLINE
  5
922
330
1F
100
AcDbEntity
  8
0
100
AcDbPolyline
 90
       29
 70
     0
 43
0.0
 10
-4.083118094400003
 20
28.50432524640001
 10
-4.196887953600008
 20
28.49772687840001
 10
-4.716841516799998
 20
28.46554667840001
 10
-5.276744772799997
 20
28.43029926240001
 10
-5.795210449600002
 20
28.398210048
 10
-6.298039406400004
 20
28.36796319360002
 10
-6.7934180192
 20
28.3388261744
 10
-7.274111619199995
 20
28.31106201920002
 10
-7.740727694400003
 20
28.28448507360002
 10
-8.190152662400006
 20
28.25910574880001
 10
-8.624033848000006
 20
28.23465315520002
 10
-9.045118633600008
 20
28.21078896
 10
-9.456083353600003
 20
28.18717798080001
 10
-9.856569051200008
 20
28.16365795680002
 10
-10.2433262992
 20
28.1402873728
 10
-10.61409785120001
 20
28.11715594240002
 10
-10.9707307408
 20
28.09412468960002
 10
-11.314731688
 20
28.07107912960001
 10
-11.6471513776
 20
28.04793870560001
 10
-11.96915517440001
 20
28.02461850720002
 10
-12.281432288
 20
28.00107081760001
 10
-12.58476752000001
 20
27.97724446080002
 10
-12.87968590080001
 20
27.95311116160002
 10
-13.1671153376
 20
27.9286104688
 10
-13.4478271536
 20
27.9036908768
 10
-13.7223286768
 20
27.87832172
 10
-13.9911392256
 20
27.85247016959999
 10
-14.2545168
 20
27.82612774080002
 10
-14.5126209856
 20
27.79929720320001
  0
LWPOLYLINE
  5
923
330
1F
100
AcDbEntity
  8
0
100
AcDbPolyline
 90
       29
 70
     0
 43
0.0
 10
14.5126209872
 20
27.79929720320001
 10
14.25441769119999
 20
27.826137848
 10
13.99102912959999
 20
27.85248096800001
 10
13.72223203199999
 20
27.87833083200002
 10
13.4477257968
 20
27.90370005760002
 10
13.166998224
 20
27.92862065600002
 10
12.8795618992
 20
27.95312151840002
 10
12.58461983359999
 20
27.9772563024
 10
12.281259456
 20
28.0010841184
 10
11.96897971999999
 20
28.02463147200001
 10
11.64698644479999
 20
28.04795041440002
 10
11.31455160159999
 20
28.0710914256
 10
10.97054400159999
 20
28.09413696960001
 10
10.61389319679999
 20
28.11716892800001
 10
10.24305609919999
 20
28.14030395520001
 10
9.856294014399995
 20
28.16367433120001
 10
9.455719265599999
 20
28.1871991008
 10
9.044759644799999
 20
28.21080941600001
 10
8.623662595199991
 20
28.23467411040002
 10
8.189737241600003
 20
28.25912915680001
 10
7.740302118399998
 20
28.2845091856
 10
7.274001179200002
 20
28.3110683488
 10
6.793207302399995
 20
28.33883844960002
 10
6.297893296000001
 20
28.367971872
 10
5.794357104000003
 20
28.39826208960002
 10
5.277661588800004
 20
28.430241768
 10
4.718419360000002
 20
28.46544752639999
 10
4.198237343999995
 20
28.49764544800001
 10
4.083119379200002
 20
28.50432353120001
  0
LINE
  5
924
330
1F
100
AcDbEntity
  8
0
100
AcDbLine
 10
14.5385740032
 20
27.79652384160002
 30
0.0
 11
14.5126209872
 21
27.79929720320001
 31
0.0
  0
LWPOLYLINE
  5
925
330
1F
100
AcDbEntity
  8
0
100
AcDbPolyline
 90
        7
 70
     0
 43
0.0
 10
-2.817583608000003
 20
29.26032255360002
 10
-2.034092784000005
 20
29.02485201280001
 10
-1.229156663999997
 20
28.86648122400001
 10
-0.4112207680000033
 20
28.7868691104
 10
0.4110740032000031
 20
28.78686198720001
 10
1.229043811200003
 20
28.8664646752
 10
2.034048075199994
 20
29.0248409264
  0
LWPOLYLINE
  5
927
330
1F
100
AcDbEntity
  8
0
100
AcDbPolyline
 90
        3
 70
     0
 43
0.0
 10
-4.807294852800009
 20
30.62719531039999
 10
-4.721595891200006
 20
30.58492650720001
 10
-4.631749448000004
 20
30.54382737440002
  0
LINE
  5
928
330
1F
100
AcDbEntity
  8
0
100
AcDbLine
 10
3.687698689599994
 20
5.881183155199998
 30
0.0
 11
4.068899919999989
 21
6.023997550400004
 31
0.0
  0
LWPOLYLINE
  5
929
330
1F
100
AcDbEntity
  8
0
100
AcDbPolyline
 90
       16
 70
     0
 43
0.0
 10
-5.594211236800003
 20
29.48459596160001
 10
-6.031488041599995
 20
29.3807922208
 10
-6.582970486399997
 20
29.27572961440001
 10
-7.197032935999995
 20
29.18360752160001
 10
-7.871861468800002
 20
29.10600885120001
 10
-8.605960662400004
 20
29.04387603040001
 10
-9.290965088000003
 20
29.00232265600001
 10
-9.894877892800007
 20
28.97578277760001
 10
-10.4296593824
 20
28.9581425968
 10
-10.94604695359999
 20
28.94474908000001
 10
-11.46480312480001
 20
28.93343655520002
 10
-11.9883981648
 20
28.922362472
 10
-12.5335988432
 20
28.90862336320001
 10
-13.1269290128
 20
28.88712493280002
 10
-13.80533948800001
 20
28.8476556992
 10
-14.5126209856
 20
28.78096654080002
  0
LWPOLYLINE
  5
92A
330
1F
100
AcDbEntity
  8
0
100
AcDbPolyline
 90
       13
 70
     0
 43
0.0
 10
-2.678139368
 20
30.4297409248
 10
-2.790664780799996
 20
30.408580008
 10
-2.904383876800007
 20
30.38146159360002
 10
-3.013190396799995
 20
30.3514067424
 10
-3.111602273599995
 20
30.32154748960002
 10
-3.199142777599998
 20
30.29330339040001
 10
-3.276232415999995
 20
30.26737608800002
 10
-3.346510398399995
 20
30.24303741920002
 10
-3.413667665599998
 20
30.21926504640001
 10
-3.4811224016
 20
30.19497426560002
 10
-3.549539371200008
 20
30.16999719360001
 10
-3.618429593600009
 20
30.1445780528
 10
-3.687698688000008
 20
30.11881684640002
  0
LWPOLYLINE
  5
92B
330
1F
100
AcDbEntity
  8
0
100
AcDbPolyline
 90
        3
 70
     0
 43
0.0
 10
-2.808830284800006
 20
30.4541349024
 10
-2.756148475200003
 20
30.46228001600002
 10
-2.703975515199996
 20
30.4706063008
  0
LWPOLYLINE
  5
92C
330
1F
100
AcDbEntity
  8
0
100
AcDbPolyline
 90
       11
 70
     0
 43
0.0
 10
-2.808830284800006
 20
30.4541349024
 10
-2.882419177599995
 20
30.44318886560001
 10
-2.956914635200003
 20
30.4326024128
 10
-3.032609524800005
 20
30.4223367424
 10
-3.109927592000001
 20
30.41234387040001
 10
-3.188775364800005
 20
30.40264808
 10
-3.268638019200007
 20
30.39331901280002
 10
-3.349905110399998
 20
30.38431582719999
 10
-3.432746078399997
 20
30.37562909600001
 10
-3.516059652800006
 20
30.3673755376
 10
-3.600468793599997
 20
30.35949025280001
  0
LWPOLYLINE
  5
92D
330
1F
100
AcDbEntity
  8
0
100
AcDbPolyline
 90
       12
 70
     0
 43
0.0
 10
-14.5126209856
 20
28.78096654080002
 10
-15.117203424
 20
28.69653103520002
 10
-15.6954425952
 20
28.58810325440001
 10
-16.2815108112
 20
28.44969716479999
 10
-16.8875312768
 20
28.2771211184
 10
-17.5010138064
 20
28.0722552384
 10
-18.1073700272
 20
27.8390827664
 10
-18.6952924496
 20
27.58198315680002
 10
-19.256306152
 20
27.3054523088
 10
-19.78394636799999
 20
27.01414080320001
 10
-20.2740083376
 20
26.7123870064
 10
-20.7250084272
 20
26.40355436160001
  0
LWPOLYLINE
  5
92E
330
1F
100
AcDbEntity
  8
0
100
AcDbPolyline
 90
       14
 70
     0
 43
0.0
 10
12.64728112959999
 20
32.0615656992
 10
12.94528684959999
 20
32.09867298720002
 10
13.2880417872
 20
32.14036198560001
 10
13.65969952159999
 20
32.18437042080001
 10
14.04567655999999
 20
32.22875863200002
 10
14.4312663872
 20
32.2717652544
 10
14.80620684639999
 20
32.31230401440001
 10
15.1666634736
 20
32.350088064
 10
15.50931852959999
 20
32.38492677920001
 10
15.8308465552
 20
32.416661632
 10
16.12791527199999
 20
32.4451605296
 10
16.39961753279999
 20
32.47053537440001
 10
16.64676346879999
 20
32.49304417280001
 10
16.870066752
 20
32.5129127504
  0
LWPOLYLINE
  5
92F
330
1F
100
AcDbEntity
  8
0
100
AcDbPolyline
 90
       14
 70
     0
 43
0.0
 10
12.694968784
 20
31.6723002464
 10
11.42488862079999
 20
31.52119001760002
 10
10.2850874176
 20
31.39876485600001
 10
9.258745624000003
 20
31.29925323040001
 10
8.331871526399996
 20
31.21816277440001
 10
7.492736097599991
 20
31.15196815840002
 10
6.731268255999996
 20
31.097865536
 10
6.038772868799998
 20
31.0536128608
 10
5.4081636288
 20
31.0174380592
 10
4.832996750400003
 20
30.98789328
 10
4.307155955199991
 20
30.9637843744
 10
3.825046152000002
 20
30.94414366240002
 10
3.384596132800002
 20
30.92829532960001
 10
2.985379019199999
 20
30.91570595519999
  0
LWPOLYLINE
  5
930
330
1F
100
AcDbEntity
  8
0
100
AcDbPolyline
 90
        4
 70
     0
 43
0.0
 10
16.8966393952
 20
32.114621432
 10
15.51848390719999
 20
31.98818066079999
 10
14.11968502879999
 20
31.8410940864
 10
12.694968784
 20
31.6723002464
  0
LINE
  5
931
330
1F
100
AcDbEntity
  8
0
100
AcDbLine
 10
-3.600468793600004
 20
30.35949025280001
 30
0.0
 11
-3.687369286400002
 21
30.35185657280001
 31
0.0
  0
LWPOLYLINE
  5
932
330
1F
100
AcDbEntity
  8
0
100
AcDbPolyline
 90
       62
 70
     0
 43
0.0
 10
16.870066752
 20
32.5129127504
 10
16.96986287679999
 20
32.52131084960001
 10
17.07799295999999
 20
32.52954905760001
 10
17.19526175039999
 20
32.5374736208
 10
17.322553336
 20
32.54488864160001
 10
17.46085052319999
 20
32.55154730080002
 10
17.61104282719999
 20
32.5571330528
 10
17.7734076064
 20
32.56124664800001
 10
17.94769789919999
 20
32.56343876479999
 10
18.13447377439999
 20
32.5632330224
 10
18.3353588768
 20
32.56006057280001
 10
18.5522180384
 20
32.55319955040002
 10
18.78684382559999
 20
32.5417500048
 10
19.04098745279999
 20
32.52461288320001
 10
19.31700356159999
 20
32.50040623040002
 10
19.61797779839999
 20
32.46733908320001
 10
19.94752405119999
 20
32.42307910720001
 10
20.30494368479999
 20
32.36544076160001
 10
20.6823372656
 20
32.29354981440002
 10
21.07664236639999
 20
32.20613819039999
 10
21.49015758239999
 20
32.10072447360002
 10
21.92465730559999
 20
31.974448088
 10
22.3815176256
 20
31.82401379040001
 10
22.861650536
 20
31.6456763408
 10
23.367428808
 20
31.43432961760001
 10
23.8844039088
 20
31.19198290400001
 10
24.3551041904
 20
30.94679128960001
 10
24.75526583679999
 20
30.718849312
 10
25.10122127519999
 20
30.50648222400002
 10
25.40660438559999
 20
30.30654524320002
 10
25.6797259088
 20
30.11726338240001
 10
25.92459085759999
 20
29.93870389440002
 10
26.144467936
 20
29.77084720160002
 10
26.34253958239999
 20
29.6132309232
 10
26.521848088
 20
29.46505574560001
 10
26.685035664
 20
29.32546464320001
 10
26.8338725248
 20
29.19404323200001
 10
26.9696149408
 20
29.07063243839999
 10
27.0934588224
 20
28.9549738624
 10
27.20653568319999
 20
28.84672597120001
 10
27.30984774399999
 20
28.7455447664
 10
27.4042893952
 20
28.6510840752
 10
27.49064500959999
 20
28.5630166848
 10
27.5693383328
 20
28.4813134208
 10
27.6398852448
 20
28.4068614832
 10
27.7020161152
 20
28.3403225904
 10
27.7567984128
 20
28.28088745440001
 10
27.80633155199999
 20
28.2265173248
 10
27.85353416159999
 20
28.174135576
 10
27.9012263632
 20
28.12063531360001
 10
27.9514424624
 20
28.0636672304
 10
28.005893984
 20
28.0011415184
 10
28.0655981872
 20
27.9316641792
 10
28.13039393599999
 20
27.85514592160001
 10
28.19983424959999
 20
27.77181786880001
 10
28.27395147679999
 20
27.6813190448
 10
28.3530555232
 20
27.58289622400002
 10
28.43749042079999
 20
27.47567255520002
 10
28.52759656639999
 20
27.35867613600001
 10
28.62372720159999
 20
27.23079721600001
 10
28.72622402239999
 20
27.0907921216
 10
28.83539589919999
 20
26.93727966400001
  0
LINE
  5
933
330
1F
100
AcDbEntity
  8
0
100
AcDbLine
 10
6.086246383999988
 20
30.77614599200001
 30
0.0
 11
5.358094915199995
 21
30.72129485760001
 31
0.0
  0
LWPOLYLINE
  5
934
330
1F
100
AcDbEntity
  8
0
100
AcDbPolyline
 90
        3
 70
     0
 43
0.0
 10
-3.687369286399995
 20
30.35185657280001
 10
-4.115651334399995
 20
30.32088416800002
 10
-4.416294108799998
 20
30.30630615520002
  0
LWPOLYLINE
  5
935
330
1F
100
AcDbEntity
  8
0
100
AcDbPolyline
 90
        9
 70
     0
 43
0.0
 10
6.086246383999995
 20
30.77614599200001
 10
6.220291843199991
 20
30.78485050720002
 10
6.347919992000004
 20
30.79008580960001
 10
6.462524244799997
 20
30.79123152479999
 10
6.5560559904
 20
30.78806566240001
 10
6.623740937599993
 20
30.7810287792
 10
6.666567975999999
 20
30.77034633600002
 10
6.68301808
 20
30.75606925120001
 10
6.681019147199993
 20
30.74849584
  0
LWPOLYLINE
  5
936
330
1F
100
AcDbEntity
  8
0
100
AcDbPolyline
 90
        7
 70
     0
 43
0.0
 10
12.74683072799999
 20
30.6954704336
 10
13.46058810079999
 20
30.72139801760002
 10
14.16137947519999
 20
30.7285993168
 10
14.850393848
 20
30.7119046336
 10
15.47520506719999
 20
30.670229688
 10
16.02098172959999
 20
30.60779409120002
 10
16.5058029632
 20
30.52749305279999
  0
LWPOLYLINE
  5
937
330
1F
100
AcDbEntity
  8
0
100
AcDbPolyline
 90
       22
 70
     0
 43
0.0
 10
2.988956526399991
 20
31.3129183984
 10
3.897840302400002
 20
31.34383689919999
 10
4.726364545599995
 20
31.37914368
 10
5.484558419200002
 20
31.4174118896
 10
6.182213324799992
 20
31.45766079520001
 10
6.829120526399993
 20
31.49930008800001
 10
7.435099326399996
 20
31.54207881120001
 10
8.009814143999992
 20
31.58602763679999
 10
8.542968601599998
 20
31.62974183680001
 10
9.030305211199991
 20
31.67218099840002
 10
9.475124647999994
 20
31.71298931200002
 10
9.881266487999997
 20
31.75197819360002
 10
10.2525201248
 20
31.78906332319999
 10
10.59267165279999
 20
31.82425491360001
 10
10.90550261279999
 20
31.85764527520001
 10
11.1947886272
 20
31.889397704
 10
11.4643003984
 20
31.9197370704
 10
11.71780458719999
 20
31.9489418192
 10
11.9590684656
 20
31.97733781440001
 10
12.1918463808
 20
32.00529149120001
 10
12.41985818879999
 20
32.03320298720001
 10
12.64728112959999
 20
32.0615656992
  0
LWPOLYLINE
  5
938
330
1F
100
AcDbEntity
  8
0
100
AcDbPolyline
 90
       10
 70
     0
 43
0.0
 10
6.362672084799999
 20
30.29467296640001
 10
6.786537076799991
 20
30.3069840608
 10
7.449419547199997
 20
30.33615625760001
 10
8.165438953599991
 20
30.3769584
 10
8.941704270399998
 20
30.42928229119999
 10
9.749051143999995
 20
30.4892720672
 10
10.53118296639999
 20
30.5493891936
 10
11.2916593728
 20
30.60620599840001
 10
12.03109956799999
 20
30.65612207360001
 10
12.74683072799999
 20
30.6954704336
  0
LWPOLYLINE
  5
939
330
1F
100
AcDbEntity
  8
0
100
AcDbPolyline
 90
        4
 70
     0
 43
0.0
 10
2.985379019199999
 20
30.91570595519999
 10
1.9904020928
 20
30.89135672
 10
0.9952655151999927
 20
30.87674657760001
 10
0.0000000000000036
 20
30.87187600160001
  0
LWPOLYLINE
  5
93A
330
1F
100
AcDbEntity
  8
0
100
AcDbPolyline
 90
        4
 70
     0
 43
0.0
 10
0.0000000000000036
 20
31.26880515359999
 10
0.9964424544000003
 20
31.2737070464
 10
1.992807923199993
 20
31.28841216480001
 10
2.988956526399991
 20
31.3129183984
  0
LWPOLYLINE
  5
93B
330
1F
100
AcDbEntity
  8
0
100
AcDbPolyline
 90
        4
 70
     0
 43
0.0
 10
-2.985379017600006
 20
30.91570595519999
 10
-1.990402075200005
 20
30.89135672
 10
-0.9952654799999969
 20
30.87674657760001
 10
0.0000000000000036
 20
30.87187600160001
  0
LWPOLYLINE
  5
93C
330
1F
100
AcDbEntity
  8
0
100
AcDbPolyline
 90
        4
 70
     0
 43
0.0
 10
-2.988956524799998
 20
31.3129183984
 10
-1.9928079216
 20
31.28841216480001
 10
-0.9964424544000074
 20
31.2737070464
 10
0.0000000000000036
 20
31.26880515359999
  0
LWPOLYLINE
  5
93D
330
1F
100
AcDbEntity
  8
0
100
AcDbPolyline
 90
       10
 70
     0
 43
0.0
 10
-6.362672307199996
 20
30.29467297280001
 10
-6.786537075199998
 20
30.3069840608
 10
-7.449419545600004
 20
30.33615625760001
 10
-8.165438951999998
 20
30.3769584
 10
-8.941704268800005
 20
30.42928229119999
 10
-9.749051144000002
 20
30.4892720672
 10
-10.5311829664
 20
30.5493891936
 10
-11.2916593712
 20
30.60620599840001
 10
-12.03109956640001
 20
30.65612207360001
 10
-12.746830728
 20
30.6954704336
  0
LWPOLYLINE
  5
93E
330
1F
100
AcDbEntity
  8
0
100
AcDbPolyline
 90
        7
 70
     0
 43
0.0
 10
-12.746830728
 20
30.6954704336
 10
-13.4605881008
 20
30.72139801760002
 10
-14.1613794736
 20
30.7285993168
 10
-14.8503938464
 20
30.7119046336
 10
-15.4752050656
 20
30.670229688
 10
-16.020981728
 20
30.60779409120002
 10
-16.5058029632
 20
30.52749305279999
  0
LWPOLYLINE
  5
93F
330
1F
100
AcDbEntity
  8
0
100
AcDbPolyline
 90
        9
 70
     0
 43
0.0
 10
-6.086246384000002
 20
30.77614599200001
 10
-6.220717945599997
 20
30.78487340000001
 10
-6.348378929599999
 20
30.790098072
 10
-6.462846092800003
 20
30.79122835040001
 10
-6.556234432000007
 20
30.7880541504
 10
-6.623834115200008
 20
30.78101382720001
 10
-6.666613337600008
 20
30.77032746720002
 10
-6.683020752
 20
30.75605093600001
 10
-6.681019086399995
 20
30.7484958368
  0
LWPOLYLINE
  5
940
330
1F
100
AcDbEntity
  8
0
100
AcDbPolyline
 90
        3
 70
     0
 43
0.0
 10
3.687369288000002
 20
30.35185657280001
 10
4.115651336000002
 20
30.32088416800002
 10
4.4162950672
 20
30.30630610880001
  0
LINE
  5
941
330
1F
100
AcDbEntity
  8
0
100
AcDbLine
 10
-6.086246384000009
 20
30.77614599200001
 30
0.0
 11
-5.358094913600002
 21
30.72129485760001
 31
0.0
  0
LWPOLYLINE
  5
942
330
1F
100
AcDbEntity
  8
0
100
AcDbPolyline
 90
        8
 70
     0
 43
0.0
 10
-5.358094913599995
 20
30.72129485760001
 10
-5.2624419664
 20
30.71284852480002
 10
-5.1605587984
 20
30.70123045600002
 10
-5.061741905599998
 20
30.68726617280001
 10
-4.973615286400001
 20
30.67208786720001
 10
-4.898740513599999
 20
30.65622350400002
 10
-4.8423487248
 20
30.64086192480002
 10
-4.807294852800009
 20
30.62719531039999
  0
LWPOLYLINE
  5
943
330
1F
100
AcDbEntity
  8
0
100
AcDbPolyline
 90
       13
 70
     0
 43
0.0
 10
-16.87006675040001
 20
32.5129127504
 10
-16.62852382560001
 20
32.49140165600002
 10
-16.3597539712
 20
32.46685370400001
 10
-16.0652259456
 20
32.43921219360001
 10
-15.74673875680001
 20
32.408449512
 10
-15.40474513120001
 20
32.37440598240002
 10
-15.0389330848
 20
32.3368322432
 10
-14.64902797600001
 20
32.29546331520001
 10
-14.2349050096
 20
32.25003105440001
 10
-13.80271319520001
 20
32.20097356800002
 10
-13.3763007136
 20
32.15092545600001
 10
-12.9817943808
 20
32.1031637536
 10
-12.6472811296
 20
32.0615656992
  0
LWPOLYLINE
  5
944
330
1F
100
AcDbEntity
  8
0
100
AcDbPolyline
 90
        4
 70
     0
 43
0.0
 10
-16.8966393936
 20
32.114621432
 10
-15.5184839056
 20
31.98818066079999
 10
-14.1196850272
 20
31.8410940864
 10
-12.6949687824
 20
31.6723002464
  0
LWPOLYLINE
  5
945
330
1F
100
AcDbEntity
  8
0
100
AcDbPolyline
 90
       14
 70
     0
 43
0.0
 10
-12.6949687824
 20
31.6723002464
 10
-11.4248886208
 20
31.52119001760002
 10
-10.2850874176
 20
31.39876485600001
 10
-9.258745622400009
 20
31.29925323040001
 10
-8.331871524800003
 20
31.21816277440001
 10
-7.492736095999998
 20
31.15196815840002
 10
-6.731268254400003
 20
31.097865536
 10
-6.038772867200005
 20
31.0536128608
 10
-5.408163627200007
 20
31.0174380592
 10
-4.832996748799995
 20
30.98789328
 10
-4.307155953599998
 20
30.9637843744
 10
-3.825046150399995
 20
30.94414366240002
 10
-3.384596131200009
 20
30.92829532960001
 10
-2.985379017600006
 20
30.91570595519999
  0
LWPOLYLINE
  5
946
330
1F
100
AcDbEntity
  8
0
100
AcDbPolyline
 90
       22
 70
     0
 43
0.0
 10
-12.6472811296
 20
32.0615656992
 10
-12.4198581888
 20
32.03320298720001
 10
-12.19184637920001
 20
32.00529149120001
 10
-11.959068464
 20
31.97733781440001
 10
-11.7178045856
 20
31.9489418192
 10
-11.4643003968
 20
31.9197370704
 10
-11.1947886272
 20
31.889397704
 10
-10.9055026128
 20
31.85764527680001
 10
-10.5926716528
 20
31.82425491360001
 10
-10.25252012480001
 20
31.78906332319999
 10
-9.881266488000004
 20
31.75197819360002
 10
-9.475124646400001
 20
31.71298931200002
 10
-9.030305211200012
 20
31.67218100000002
 10
-8.542968601600005
 20
31.62974183680001
 10
-8.009814143999999
 20
31.58602763679999
 10
-7.435099326400003
 20
31.54207881120001
 10
-6.829120528
 20
31.49930008800001
 10
-6.182213324799999
 20
31.45766079520001
 10
-5.484558420799995
 20
31.4174118896
 10
-4.726364547200002
 20
31.37914368
 10
-3.897840305599995
 20
31.34383689919999
 10
-2.988956524799998
 20
31.3129183984
  0
LWPOLYLINE
  5
947
330
1F
100
AcDbEntity
  8
0
100
AcDbPolyline
 90
       12
 70
     0
 43
0.0
 10
14.5126209872
 20
28.78096654080002
 10
15.1172034256
 20
28.69653103520002
 10
15.69544259519999
 20
28.58810325440001
 10
16.28151081279999
 20
28.44969716479999
 10
16.88753127839999
 20
28.2771211184
 10
17.5010138064
 20
28.0722552384
 10
18.10737002879999
 20
27.8390827664
 10
18.69529244959999
 20
27.58198315680002
 10
19.25630615359999
 20
27.3054523088
 10
19.78394636959999
 20
27.01414080320001
 10
20.27400833919999
 20
26.7123870064
 10
20.72500842879999
 20
26.40355436160001
  0
LWPOLYLINE
  5
948
330
1F
100
AcDbEntity
  8
0
100
AcDbPolyline
 90
       12
 70
     0
 43
0.0
 10
2.808830286399999
 20
30.4541349024
 10
2.882419179200002
 20
30.44318886560001
 10
2.956914636799996
 20
30.4326024128
 10
3.032609526399998
 20
30.4223367424
 10
3.109927593599994
 20
30.41234387040001
 10
3.188775366399998
 20
30.40264808
 10
3.2686380208
 20
30.39331901280002
 10
3.349905111999991
 20
30.38431582719999
 10
3.432746080000004
 20
30.37562909600001
 10
3.516059654399999
 20
30.3673755376
 10
3.600468793600004
 20
30.35949025280001
 10
3.687369288000002
 20
30.35185657280001
  0
LWPOLYLINE
  5
949
330
1F
100
AcDbEntity
  8
0
100
AcDbPolyline
 90
        3
 70
     0
 43
0.0
 10
2.808830286399999
 20
30.4541349024
 10
2.756148476799996
 20
30.46228001600002
 10
2.703975516800003
 20
30.4706063008
  0
LWPOLYLINE
  5
94A
330
1F
100
AcDbEntity
  8
0
100
AcDbPolyline
 90
       13
 70
     0
 43
0.0
 10
2.678139369599993
 20
30.4297409248
 10
2.790664782400003
 20
30.408580008
 10
2.9043838768
 20
30.38146159360002
 10
3.013190398400002
 20
30.3514067424
 10
3.111602275200002
 20
30.32154748960002
 10
3.199142777599991
 20
30.29330339040001
 10
3.276232416000002
 20
30.26737608800002
 10
3.346510400000003
 20
30.24303741920002
 10
3.413667667199991
 20
30.21926504640001
 10
3.481122403199993
 20
30.19497426560002
 10
3.549539371200001
 20
30.16999719360001
 10
3.618429595200002
 20
30.1445780528
 10
3.687698689600001
 20
30.11881684640002
  0
LWPOLYLINE
  5
94B
330
1F
100
AcDbEntity
  8
0
100
AcDbPolyline
 90
       16
 70
     0
 43
0.0
 10
5.594211212799994
 20
29.48459596800001
 10
6.031488043200003
 20
29.3807922208
 10
6.582970488000004
 20
29.27572961440001
 10
7.197032937600003
 20
29.18360752160001
 10
7.871861470399995
 20
29.10600885120001
 10
8.605960663999997
 20
29.04387603040001
 10
9.290965089599996
 20
29.00232265600001
 10
9.8948778944
 20
28.97578277760001
 10
10.42965938239999
 20
28.9581425968
 10
10.94604695519999
 20
28.94474908000001
 10
11.4648031248
 20
28.93343655520002
 10
11.98839816639999
 20
28.922362472
 10
12.5335988432
 20
28.90862336320001
 10
13.12692901439999
 20
28.88712493280002
 10
13.80533948959999
 20
28.8476556992
 10
14.5126209872
 20
28.78096654080002
  0
LINE
  5
94C
330
1F
100
AcDbEntity
  8
0
100
AcDbLine
 10
3.687698689599994
 20
30.11881684640002
 30
0.0
 11
4.068899041599987
 21
29.9760027696
 31
0.0
  0
LWPOLYLINE
  5
94D
330
1F
100
AcDbEntity
  8
0
100
AcDbPolyline
 90
       15
 70
     0
 43
0.0
 10
-16.5058029616
 20
30.52749304959999
 10
-16.9340351088
 20
30.4333508336
 10
-17.32674909760001
 20
30.3246023648
 10
-17.69130764
 20
30.2016551152
 10
-18.03337942239999
 20
30.06445400800001
 10
-18.3571487808
 20
29.9126697584
 10
-18.66780910880001
 20
29.74459968160002
 10
-18.9841069376
 20
29.54921032160001
 10
-19.31287271040001
 20
29.31981822080001
 10
-19.6561731872
 20
29.05141839840002
 10
-20.0155469424
 20
28.7385613648
 10
-20.39208116959999
 20
28.37530923520001
 10
-20.786451368
 20
27.95522574880001
 10
-21.1985959024
 20
27.4717443248
 10
-21.6243559056
 20
26.92280553439999
  0
LWPOLYLINE
  5
965
330
1F
100
AcDbEntity
  8
0
100
AcDbPolyline
 90
       15
 70
     0
 43
0.0
 10
16.5058029632
 20
30.52749304959999
 10
16.93403511039999
 20
30.4333508336
 10
17.3267490992
 20
30.3246023648
 10
17.69130764159999
 20
30.2016551152
 10
18.03337942399999
 20
30.06445400800001
 10
18.35714878239999
 20
29.9126697584
 10
18.6678091104
 20
29.74459968160002
 10
18.98410693919999
 20
29.54921032160001
 10
19.3128727104
 20
29.31981822080001
 10
19.6561731888
 20
29.05141839840002
 10
20.01554694399999
 20
28.7385613648
 10
20.39208117119999
 20
28.37530923520001
 10
20.78645136959999
 20
27.95522574880001
 10
21.198595904
 20
27.4717443248
 10
21.6243559072
 20
26.92280553439999
  0
LWPOLYLINE
  5
966
330
1F
100
AcDbEntity
  8
0
100
AcDbPolyline
 90
       17
 70
     0
 43
0.0
 10
20.7130800672
 20
11.2305267392
 10
20.81305873439999
 20
11.3343621088
 10
20.91090680479999
 20
11.43920006719999
 10
21.00659241279999
 20
11.54497515039999
 10
21.10009945919999
 20
11.65163642720001
 10
21.1914084064
 20
11.7591270816
 10
21.2805044192
 20
11.8673935872
 10
21.36737644479999
 20
11.9763850336
 10
21.45200784639999
 20
12.0860413728
 10
21.53438888479999
 20
12.19630905759999
 10
21.6145123008
 20
12.30713592
 10
21.69237300479999
 20
12.41847092319999
 10
21.7679667856
 20
12.5302626064
 10
21.84129208639999
 20
12.64246174880001
 10
21.9123496304
 20
12.7550211808
 10
21.98114316799999
 20
12.86789739200001
 10
22.04767749119999
 20
12.981047744
  0
LWPOLYLINE
  5
967
330
1F
100
AcDbEntity
  8
0
100
AcDbPolyline
 90
       16
 70
     0
 43
0.0
 10
19.0584527824
 20
9.877663324800003
 10
19.1806575264
 20
9.958591368000007
 10
19.30160285439999
 20
10.041216552
 10
19.42104240959999
 20
10.1253703856
 10
19.53894875199999
 20
10.2110267392
 10
19.65514291039999
 20
10.2980435472
 10
19.7694354368
 20
10.38625696
 10
19.88189115359999
 20
10.4756935472
 10
19.992526704
 20
10.5663457952
 10
20.1014128816
 20
10.6582534848
 10
20.208647184
 20
10.75149083680001
 10
20.3139746368
 20
10.84582583999999
 10
20.41699657439999
 20
10.9408647664
 10
20.517627296
 20
11.0364707168
 10
20.616216768
 20
11.13292848799999
 10
20.7130800672
 20
11.2305267392
  0
LINE
  5
968
330
1F
100
AcDbEntity
  8
0
100
AcDbLine
 10
-35.3044522144
 20
35.30445221600001
 30
0.0
 11
35.304452216
 21
35.30445221600001
 31
0.0
  0
LINE
  5
969
330
1F
100
AcDbEntity
  8
0
100
AcDbLine
 10
-35.6801108416
 20
35.6801108416
 30
0.0
 11
35.6801108416
 21
35.6801108416
 31
0.0
  0
LINE
  5
96A
330
1F
100
AcDbEntity
  8
0
100
AcDbLine
 10
-36.0
 20
35.99999999999997
 30
0.0
 11
36.0
 21
35.99999999999997
 31
0.0
  0
LWPOLYLINE
  5
96B
330
1F
100
AcDbEntity
  8
0
100
AcDbPolyline
 90
       34
 70
     0
 43
0.0
 10
22.0641872688
 20
13.00977262079999
 10
22.14058689119999
 20
13.1456811424
 10
22.2149068432
 20
13.28285024000001
 10
22.2871278928
 20
13.4212504896
 10
22.3572301168
 20
13.560849952
 10
22.4251920496
 20
13.7016101264
 10
22.49099404159999
 20
13.84349569439999
 10
22.55461317919999
 20
13.9864636352
 10
22.61602617599999
 20
14.1304662992
 10
22.67522076319999
 20
14.27547933279999
 10
22.7321846048
 20
14.4214785488
 10
22.7869042704
 20
14.5684345024
 10
22.83936473599999
 20
14.7163121056
 10
22.88955043839999
 20
14.8650764832
 10
22.9374458368
 20
15.0146915472
 10
22.98303575679999
 20
15.1651149856
 10
23.0263069536
 20
15.3163102416
 10
23.06724286719999
 20
15.46822913599999
 10
23.10583009439999
 20
15.6208270928
 10
23.14206008479999
 20
15.77407541920001
 10
23.17591329439999
 20
15.92789667520001
 10
23.2073746784
 20
16.0822208944
 10
23.236439776
 20
16.2370201648
 10
23.2631086576
 20
16.3922956176
 10
23.287379504
 20
16.54804797279999
 10
23.30924055519999
 20
16.70421121759999
 10
23.32867464639999
 20
16.86065890719999
 10
23.34568034879999
 20
17.0173697296
 10
23.3602603632
 20
17.17436080320001
 10
23.3724118784
 20
17.33160338559999
 10
23.3821290464
 20
17.4890381792
 10
23.38940731839999
 20
17.6466116048
 10
23.39424504479999
 20
17.804296872
 10
23.39664100479999
 20
17.9620722336
  0
LINE
  5
96C
330
1F
100
AcDbEntity
  8
0
100
AcDbLine
 10
22.04767749119999
 20
12.981047744
 30
0.0
 11
22.064187288
 21
13.00977260799999
 31
0.0
  0
LWPOLYLINE
  5
96D
330
1F
100
AcDbEntity
  8
0
100
AcDbPolyline
 90
       63
 70
     0
 43
0.0
 10
22.09951257599999
 20
23.01062245760002
 10
22.0345144576
 20
23.124174592
 10
21.96728624479999
 20
23.23738955679999
 10
21.8978136752
 20
23.3502439904
 10
21.826083496
 20
23.46271143040002
 10
21.75209113119999
 20
23.57475125440001
 10
21.67583843359999
 20
23.68631419999999
 10
21.59732788639999
 20
23.7973518544
 10
21.5165608048
 20
23.90781894720001
 10
21.4335390208
 20
24.01767067840001
 10
21.34827209759999
 20
24.1268535968
 10
21.2607743856
 20
24.23531062240002
 10
21.17104665599998
 20
24.34300336160001
 10
21.07907813119999
 20
24.44990693600002
 10
20.98490249279999
 20
24.55594575040001
 10
20.88852903519999
 20
24.6610752352
 10
20.78995809759999
 20
24.7652612304
 10
20.68917257279999
 20
24.86848701760001
 10
20.58614259679999
 20
24.97074659680001
 10
20.48086805919999
 20
25.0720064976
 10
20.37333268479999
 20
25.17224919840001
 10
20.26353496959999
 20
25.27144185120002
 10
20.15149121599999
 20
25.3695356208
 10
20.03721948959999
 20
25.46648140640002
 10
19.9207596256
 20
25.56221368480001
 10
19.8021445088
 20
25.65667552640002
 10
19.68142455999999
 20
25.74979883520001
 10
19.5586482624
 20
25.84152049440001
 10
19.43385354879999
 20
25.93178792
 10
19.30708076319999
 20
26.020548544
 10
19.17840340159999
 20
26.10772936960001
 10
19.0481461264
 20
26.1930998272
 10
18.91653051839999
 20
26.2765189696
 10
18.7835514608
 20
26.35799765440001
 10
18.64919992959999
 20
26.4375470848
 10
18.5134650144
 20
26.5151788592
 10
18.37631272639999
 20
26.59091312640001
 10
18.2378098512
 20
26.66471134560001
 10
18.0981389744
 20
26.7364783808
 10
17.95739740159999
 20
26.8061706704
 10
17.8156384032
 20
26.87376871520001
 10
17.67290320799999
 20
26.93925854400001
 10
17.52917888159999
 20
27.0026487968
 10
17.38446501759999
 20
27.063938352
 10
17.2389047648
 20
27.1230654096
 10
17.09298092799999
 20
27.17984516480001
 10
16.94676924639999
 20
27.23426968640001
 10
16.79989639519999
 20
27.28648790880001
 10
16.6514969056
 20
27.33678276
 10
16.5021293728
 20
27.38493190240001
 10
16.3525942096
 20
27.4306783872
 10
16.20334245599999
 20
27.4739121936
 10
16.0538414416
 20
27.51480866720001
 10
15.9031005408
 20
27.5536179888
 10
15.75187318399999
 20
27.59011796320001
 10
15.60055731839999
 20
27.6242113808
 10
15.4493378576
 20
27.65586986560001
 10
15.29796531839999
 20
27.68516060160001
 10
15.14584824479999
 20
27.71219439040001
 10
14.99253017759999
 20
27.73702529280001
 10
14.8394398864
 20
27.759419352
 10
14.6878649264
 20
27.7792497984
 10
14.5385740032
 20
27.79652384160002
  0
LINE
  5
96E
330
1F
100
AcDbEntity
  8
0
100
AcDbLine
 10
22.10948914079999
 20
22.99281542080001
 30
0.0
 11
22.09951259039999
 21
23.01062246400002
 31
0.0
  0
LWPOLYLINE
  5
96F
330
1F
100
AcDbEntity
  8
0
100
AcDbPolyline
 90
       12
 70
     0
 43
0.0
 10
24.55907472
 20
18.00000141120001
 10
24.54788150559999
 20
18.5277520416
 10
24.51152260959999
 20
19.0872729984
 10
24.448419992
 20
19.65704665439999
 10
24.359725888
 20
20.2207514096
 10
24.2458731056
 20
20.777541656
 10
24.106675576
 20
21.32888956800001
 10
23.9457892224
 20
21.86276432479999
 10
23.77210851359999
 20
22.35904471360001
 10
23.59122602879999
 20
22.8143237264
 10
23.40209124319999
 20
23.2405770128
 10
23.20257274239999
 20
23.6474745408
  0
LWPOLYLINE
  5
970
330
1F
100
AcDbEntity
  8
0
100
AcDbPolyline
 90
       35
 70
     0
 43
0.0
 10
23.3968529088
 20
18.0000003488
 10
23.39626796799999
 20
18.1535875008
 10
23.39336780479999
 20
18.3071754224
 10
23.3881517776
 20
18.4607323552
 10
23.3806200864
 20
18.61422431679999
 10
23.37077465279999
 20
18.76760966239999
 10
23.3586179296
 20
18.92084638880001
 10
23.3441520448
 20
19.0738920112
 10
23.32737899519999
 20
19.226710376
 10
23.30830037919999
 20
19.3792858784
 10
23.28692197279999
 20
19.53156638240001
 10
23.263250336
 20
19.6834984992
 10
23.23729174399999
 20
19.8350407856
 10
23.2090533648
 20
19.9861543728
 10
23.1785430704
 20
20.1367998032
 10
23.14577094719999
 20
20.2869315552
 10
23.1107465664
 20
20.43651232479999
 10
23.073478768
 20
20.5855082288
 10
23.03397687679999
 20
20.7338834256
 10
22.99225199999999
 20
20.88160087519999
 10
22.94832097279999
 20
21.02860744959999
 10
22.90219651679999
 20
21.17486509920001
 10
22.85388692319999
 20
21.3203512992
 10
22.80340729439999
 20
21.46502801120001
 10
22.7507733472
 20
21.6088556512
 10
22.6960022384
 20
21.75179084160001
 10
22.63911159359999
 20
21.8937935792
 10
22.5801097808
 20
22.03484969280001
 10
22.51900770879999
 20
22.17493762720002
 10
22.4558295392
 20
22.31400711680001
 10
22.3905971728
 20
22.45201667840001
 10
22.32332836159999
 20
22.58893432000002
 10
22.25404216
 20
22.72472569760001
 10
22.182756544
 20
22.85936188480002
 10
22.10948914079999
 20
22.99281542080001
  0
LINE
  5
971
330
1F
100
AcDbEntity
  8
0
100
AcDbLine
 10
23.39664100479999
 20
17.9620722336
 30
0.0
 11
23.3968529088
 21
18.0000003488
 31
0.0
  0
LWPOLYLINE
  5
972
330
1F
100
AcDbEntity
  8
0
100
AcDbPolyline
 90
       12
 70
     0
 43
0.0
 10
24.5590747184
 20
18.00000141120001
 10
24.54788150559999
 20
17.47224795999999
 10
24.51152260959999
 20
16.91272700159999
 10
24.448419992
 20
16.3429533456
 10
24.359725888
 20
15.77924859040001
 10
24.2458731056
 20
15.22245834400001
 10
24.106675576
 20
14.671110432
 10
23.9457892224
 20
14.13723567520001
 10
23.77210851359999
 20
13.640955288
 10
23.59122602879999
 20
13.1856762752
 10
23.40209124319999
 20
12.7594229888
 10
23.20257274239999
 20
12.3525254608
  0
LWPOLYLINE
  5
973
330
1F
100
AcDbEntity
  8
0
100
AcDbPolyline
 90
       30
 70
     0
 43
0.0
 10
23.50403640959999
 20
12.17847533119999
 10
23.47871358879999
 20
12.1311628928
 10
23.45322795039999
 20
12.082550512
 10
23.4281477152
 20
12.0343071104
 10
23.4034228944
 20
11.9866067056
 10
23.37852283519999
 20
11.93856248320001
 10
23.35247288159999
 20
11.8883803488
 10
23.32420503519999
 20
11.83408551680001
 10
23.29258075839999
 20
11.77359726240001
 10
23.25694751199999
 20
11.70581228479999
 10
23.217092896
 20
11.6305069184
 10
23.17297580319999
 20
11.547811232
 10
23.12394583679999
 20
11.45675263199999
 10
23.06902548639999
 20
11.3558290176
 10
23.0074672832
 20
11.2440641904
 10
22.93862333279999
 20
11.1207632336
 10
22.8610332256
 20
10.9839172592
 10
22.7725241168
 20
10.83051410560001
 10
22.6716125792
 20
10.6590522704
 10
22.5579945824
 20
10.47027368159999
 10
22.43689275199999
 20
10.2739136096
 10
22.32023402719998
 20
10.0893697392
 10
22.2134783584
 20
9.924362945600002
 10
22.11923796159999
 20
9.781712182400006
 10
22.03441938879999
 20
9.655696566400003
 10
21.9541403376
 20
9.538466489600004
 10
21.8735201408
 20
9.422709660800002
 10
21.79131870719999
 20
9.306692041600008
 10
21.70809059359999
 20
9.191268771200007
 10
21.6243559072
 20
9.077194467200008
  0
LWPOLYLINE
  5
974
330
1F
100
AcDbEntity
  8
0
100
AcDbPolyline
 90
       10
 70
     0
 43
0.0
 10
23.20257274239999
 20
12.3525254608
 10
23.02724512159999
 20
12.0344495904
 10
22.827730976
 20
11.71687657759999
 10
22.6021894048
 20
11.3992060384
 10
22.34891602399999
 20
11.0815090448
 10
22.06468067679999
 20
10.7625252128
 10
21.75278087999999
 20
10.4481080736
 10
21.44294423039999
 20
10.1652583584
 10
21.11582337599999
 20
9.892753121600001
 10
20.72500842879999
 20
9.596445638400005
  0
LWPOLYLINE
  5
975
330
1F
100
AcDbEntity
  8
0
100
AcDbPolyline
 90
       10
 70
     0
 43
0.0
 10
23.20257274239999
 20
23.6474745408
 10
23.02724512159999
 20
23.96555040960001
 10
22.827730976
 20
24.28312342240002
 10
22.6021894048
 20
24.6007939632
 10
22.34891602399999
 20
24.91849095520001
 10
22.06468067679999
 20
25.2374747872
 10
21.75278087999999
 20
25.551891928
 10
21.44294423039999
 20
25.8347416416
 10
21.11582337599999
 20
26.10724687840002
 10
20.72500842879999
 20
26.40355436160001
  0
LWPOLYLINE
  5
976
330
1F
100
AcDbEntity
  8
0
100
AcDbPolyline
 90
        4
 70
     0
 43
0.0
 10
23.50403640959999
 20
23.8215246688
 10
23.47871358879999
 20
23.86883710880002
 10
23.45322795039999
 20
23.91744948960001
 10
23.4281477152
 20
23.9656928896
  0
LWPOLYLINE
  5
977
330
1F
100
AcDbEntity
  8
0
100
AcDbPolyline
 90
       26
 70
     0
 43
0.0
 10
23.4281477152
 20
23.9656928896
 10
23.37852283519999
 20
24.0614375168
 10
23.35247288159999
 20
24.11161965280001
 10
23.32420503519999
 20
24.1659144848
 10
23.29258075839999
 20
24.22640273920001
 10
23.25694751199999
 20
24.29418771520002
 10
23.217092896
 20
24.36949308160001
 10
23.17297580319999
 20
24.45218876800001
 10
23.12394583679999
 20
24.54324736800001
 10
23.06902548639999
 20
24.644170984
 10
23.0074672832
 20
24.7559358112
 10
22.93862333279999
 20
24.87923676799999
 10
22.8610332256
 20
25.01608274080001
 10
22.7725241168
 20
25.169485896
 10
22.6716125792
 20
25.3409477296
 10
22.5579945824
 20
25.52972632000001
 10
22.43689275199999
 20
25.72608639040001
 10
22.32023402719998
 20
25.91063026080002
 10
22.2134783584
 20
26.075637056
 10
22.11923796159999
 20
26.21828781920001
 10
22.03441938879999
 20
26.3443034352
 10
21.9541403376
 20
26.46153351040001
 10
21.8735201408
 20
26.5772903392
 10
21.79131870719999
 20
26.69330796
 10
21.70809059359999
 20
26.80873123040001
 10
21.6243559072
 20
26.92280553439999
  0
LWPOLYLINE
  5
978
330
1F
100
AcDbEntity
  8
0
100
AcDbPolyline
 90
       23
 70
     0
 43
0.0
 10
28.4827122688
 20
9.304035483200003
 10
28.12328991359999
 20
8.816025622399997
 10
27.73925020959999
 20
8.343431056000007
 10
27.332235904
 20
7.888596200000002
 10
26.90403961759999
 20
7.453623150399998
 10
26.4561765344
 20
7.040023044800001
 10
25.9894480528
 20
6.648541300799998
 10
25.50371760159999
 20
6.279092057600003
 10
24.99976834399999
 20
5.93233801920001
 10
24.47939600799999
 20
5.609610272000004
 10
23.945481096
 20
5.312632955200008
 10
23.39947532479999
 20
5.042055865599998
 10
22.84145893919999
 20
4.79785420000001
 10
22.2715559008
 20
4.580028193600007
 10
21.6914265872
 20
4.389244595200004
 10
21.1042682624
 20
4.226490336000004
 10
20.51217695359999
 20
4.092164942399996
 10
19.9162787632
 20
3.986379204800009
 10
19.31681913439999
 20
3.909042547200009
 10
18.714066152
 20
3.860137548800004
 10
18.10868015199999
 20
3.839825248000003
 10
17.502272392
 20
3.848238569600006
 10
16.8966393952
 20
3.8853785696
  0
LWPOLYLINE
  5
97A
330
1F
100
AcDbEntity
  8
0
100
AcDbPolyline
 90
       23
 70
     0
 43
0.0
 10
28.4827122688
 20
26.69596451840002
 10
28.12328991359999
 20
27.18397437920001
 10
27.73925020959999
 20
27.65656894400001
 10
27.332235904
 20
28.1114038016
 10
26.90403961759999
 20
28.54637684960002
 10
26.4561765344
 20
28.9599769552
 10
25.9894480528
 20
29.35145869920001
 10
25.50371760159999
 20
29.720907944
 10
24.99976834399999
 20
30.06766198240001
 10
24.47939600799999
 20
30.390389728
 10
23.945481096
 20
30.6873670464
 10
23.39947532479999
 20
30.95794413440001
 10
22.84145893919999
 20
31.20214580000001
 10
22.2715559008
 20
31.41997180800001
 10
21.6914265872
 20
31.61075540480001
 10
21.1042682624
 20
31.77350966400001
 10
20.51217695359999
 20
31.90783505760001
 10
19.9162787632
 20
32.01362079680001
 10
19.31681913439999
 20
32.09095745440001
 10
18.714066152
 20
32.1398624528
 10
18.10868015199999
 20
32.16017475200001
 10
17.502272392
 20
32.1517614304
 10
16.8966393952
 20
32.114621432
  0
LWPOLYLINE
  5
97B
330
1F
100
AcDbEntity
  8
0
100
AcDbPolyline
 90
       62
 70
     0
 43
0.0
 10
28.83539589919999
 20
9.062720337600005
 10
28.72441375199999
 20
8.906701238399996
 10
28.62038529119999
 20
8.764702497600005
 10
28.523031392
 20
8.635330691200003
 10
28.4320318528
 20
8.517326240000009
 10
28.34701195679999
 20
8.409515899200009
 10
28.2675650336
 20
8.310818316800002
 10
28.19328006399999
 20
8.220257476800007
 10
28.12379765599999
 20
8.137010454400005
 10
28.05908356639999
 20
8.060707344
 10
27.99959455039999
 20
7.991584369599998
 10
27.94536542079999
 20
7.929403473599997
 10
27.89522873279999
 20
7.872604515200002
 10
27.8474210368
 20
7.8190488352
 10
27.79979157439999
 20
7.766269284799996
 10
27.74936335519999
 20
7.711003329599996
 10
27.69326115199999
 20
7.650245649600002
 10
27.62950252959999
 20
7.582108323199996
 10
27.55716456639999
 20
7.505955227199997
 10
27.47667838399999
 20
7.422628123200006
 10
27.3884685952
 20
7.332958425600004
 10
27.29215981119999
 20
7.236974473600007
 10
27.18708716799999
 20
7.134472527999996
 10
27.072485648
 20
7.025228881600007
 10
26.94750072159999
 20
6.909025908799996
 10
26.81118342399999
 20
6.785663008000007
 10
26.662539016
 20
6.655016033599999
 10
26.5005072976
 20
6.517027496000004
 10
26.323615128
 20
6.371439139199999
 10
26.12978942879999
 20
6.217717876800001
 10
25.91673351999999
 20
6.055431683200005
 10
25.68205090239999
 20
5.884391916800005
 10
25.423246576
 20
5.704699905600001
 10
25.13757024479999
 20
5.516689059199997
 10
24.82075126559999
 20
5.320234467200002
 10
24.46656607199999
 20
5.114852209600009
 10
24.06713561759999
 20
4.90034845600001
 10
23.62307435039999
 20
4.682084654400007
 10
23.16014711679999
 20
4.476060996800008
 10
22.70184635199999
 20
4.2926101328
 10
22.2487669584
 20
4.130372470399997
 10
21.80263104319999
 20
3.988457694400004
 10
21.3651566704
 20
3.86590901440001
 10
20.937939104
 20
3.761667556799999
 10
20.52208653119999
 20
3.674528129599998
 10
20.1212700416
 20
3.603679401599997
 10
19.74934290079999
 20
3.549289784000002
 10
19.41650057439999
 20
3.509752809600009
 10
19.11699592639999
 20
3.481470964800003
 10
18.84494276639999
 20
3.461733036800005
 10
18.59609209919999
 20
3.448623019200006
 10
18.3680292576
 20
3.440744680000001
 10
18.158491552
 20
3.436985264000007
 10
17.96509965439999
 20
3.436468742400002
 10
17.7856911264
 20
3.438523459200006
 10
17.619336584
 20
3.442608371200002
 10
17.46620835679999
 20
3.448223980800001
 10
17.32592401119999
 20
3.454931777600002
 10
17.19736243359999
 20
3.462393992000009
 10
17.0792808768
 20
3.470358208
 10
16.97053960639999
 20
3.478634809600002
 10
16.870066752
 20
3.487087251200001
  0
LWPOLYLINE
  5
97C
330
1F
100
AcDbEntity
  8
0
100
AcDbPolyline
 90
       10
 70
     0
 43
0.0
 10
28.83539589919999
 20
26.93727966400001
 10
29.26864427519999
 20
26.280594968
 10
29.70006852479999
 20
25.53090816959999
 10
30.11614962239999
 20
24.6750620288
 10
30.501852848
 20
23.69723958080001
 10
30.83896931839999
 20
22.58439623040001
 10
31.1067719008
 20
21.33485659680001
 10
31.2735726224
 20
20.1013359152
 10
31.3529868512
 20
18.9881024608
 10
31.37425537119999
 20
18.0
  0
LWPOLYLINE
  5
97D
330
1F
100
AcDbEntity
  8
0
100
AcDbPolyline
 90
       16
 70
     0
 43
0.0
 10
30.9460843168
 20
18.0000000128
 10
30.93409505119999
 20
18.738306136
 10
30.89692376479999
 20
19.4723118944
 10
30.8339432016
 20
20.18948638079999
 10
30.7463441888
 20
20.87743538400001
 10
30.63719291519999
 20
21.52506487359999
 10
30.5089125664
 20
22.13318287200002
 10
30.362132152
 20
22.7097021376
 10
30.1969343376
 20
23.26075649439999
 10
30.01371839839999
 20
23.7892430992
 10
29.8124733808
 20
24.2982690288
 10
29.59197375999999
 20
24.79269619520002
 10
29.350255088
 20
25.27730336960002
 10
29.0857110768
 20
25.75486009760001
 10
28.7970064816
 20
26.22714126720001
 10
28.4827122688
 20
26.69596451680002
  0
LWPOLYLINE
  5
97E
330
1F
100
AcDbEntity
  8
0
100
AcDbPolyline
 90
       15
 70
     0
 43
0.0
 10
30.9460843184
 20
18.0000000128
 10
30.9322955312
 20
17.20907678559999
 10
30.889513704
 20
16.4240984928
 10
30.8171937888
 20
15.66045605920001
 10
30.7171834576
 20
14.93300342239999
 10
30.5934554608
 20
14.2533154608
 10
30.4482895952
 20
13.6163914144
 10
30.28182217919999
 20
13.0118313472
 10
30.09439581439999
 20
12.434566136
 10
29.8864752384
 20
11.88159223680001
 10
29.65710521599999
 20
11.3475040736
 10
29.4039574192
 20
10.8259393072
 10
29.12497382399999
 20
10.3130393056
 10
28.8184833008
 20
9.806493593600002
 10
28.4827122688
 20
9.304035483200003
  0
LWPOLYLINE
  5
97F
330
1F
100
AcDbEntity
  8
0
100
AcDbPolyline
 90
       10
 70
     0
 43
0.0
 10
31.37425537119999
 20
18.0
 10
31.35297880319999
 20
17.01171424639999
 10
31.27796978399999
 20
15.943143088
 10
31.12215292799999
 20
14.7559088
 10
30.861313744
 20
13.5030574928
 10
30.51875322399999
 20
12.3514234704
 10
30.124228152
 20
11.3432726704
 10
29.7040321328
 20
10.4765417008
 10
29.27010847679999
 20
9.721768499200003
 10
28.83539589919999
 20
9.062720337600005
  0
LINE
  5
98C
330
1F
100
AcDbEntity
  8
0
100
AcDbLine
 10
35.304452216
 20
0.6955477856000059
 30
0.0
 11
35.304452216
 21
35.30445221600001
 31
0.0
  0
LINE
  5
98D
330
1F
100
AcDbEntity
  8
0
100
AcDbLine
 10
35.6801108416
 20
0.3198891584000023
 30
0.0
 11
35.6801108416
 21
35.6801108416
 31
0.0
  0
LINE
  5
98E
330
1F
100
AcDbEntity
  8
0
100
AcDbLine
 10
36.0
 20
35.99999999999997
 30
0.0
 11
36.0
 21
0.0
 31
0.0
  0
CIRCLE
  5
A16
330
1F
100
AcDbEntity
  8
0
100
AcDbCircle
 10
0.0000000000000036
 20
11.5
 30
0.0
 40
1.2714466064
  0
LINE
  5
A4F
330
1F
100
AcDbEntity
  8
CENTER
100
AcDbLine
 10
3.940786236479066
 20
11.5
 30
0.0
 11
-3.940786236479073
 21
11.5
 31
0.0
  0
LINE
  5
A53
330
1F
100
AcDbEntity
  8
CENTER
100
AcDbLine
 10
-0.0000000000000036
 20
2.684077906300721
 30
0.0
 11
-0.0000000000000036
 21
15.45819319978736
 31
0.0
  0
LINE
  5
A7B
330
1F
100
AcDbEntity
  8
0
100
AcDbLine
 10
34.76684130879998
 20
34.76684168959997
 30
0.0
 11
-34.76684130720001
 21
34.7668416896
 31
0.0
  0
LINE
  5
A7E
330
1F
100
AcDbEntity
  8
0
100
AcDbLine
 10
34.76684130880001
 20
1.233158310400021
 30
0.0
 11
-34.76684130720001
 21
1.233158310399993
 31
0.0
  0
LINE
  5
A7F
330
1F
100
AcDbEntity
  8
0
100
AcDbLine
 10
34.76684130879998
 20
34.76684168959997
 30
0.0
 11
34.76684130880001
 21
1.233158310400021
 31
0.0
  0
LINE
  5
A80
330
1F
100
AcDbEntity
  8
0
100
AcDbLine
 10
-34.76684130720001
 20
1.233158310399993
 30
0.0
 11
-34.76684130720001
 21
34.7668416896
 31
0.0
  0
ENDSEC
  0
SECTION
  2
OBJECTS
  0
DICTIONARY
  5
C
330
0
100
AcDbDictionary
  3
ACAD_GROUP
350
D
  3
ACAD_LAYOUT
350
1A
  3
ACAD_MLINESTYLE
350
17
  3
ACAD_PLOTSETTINGS
350
19
  3
ACAD_PLOTSTYLENAME
350
E
  3
ACDBHEADERROUNDTRIPXREC
350
AFA
  0
DICTIONARY
  5
B1D
330
1F
100
AcDbDictionary
280
     1
  3
ACAD_LAYOUTSELFREF
360
B1E
  0
DICTIONARY
  5
B1B
330
1B
100
AcDbDictionary
280
     1
  3
ACAD_LAYOUTSELFREF
360
B1C
  0
DICTIONARY
  5
D
102
{ACAD_REACTORS
330
C
102
}
330
C
100
AcDbDictionary
  0
DICTIONARY
  5
1A
102
{ACAD_REACTORS
330
C
102
}
330
C
100
AcDbDictionary
  0
DICTIONARY
  5
17
102
{ACAD_REACTORS
330
C
102
}
330
C
100
AcDbDictionary
  3
STANDARD
350
18
  0
DICTIONARY
  5
19
102
{ACAD_REACTORS
330
C
102
}
330
C
100
AcDbDictionary
  0
ACDBDICTIONARYWDFLT
  5
E
102
{ACAD_REACTORS
330
C
102
}
330
C
100
AcDbDictionary
281
     1
  3
Normal
350
F
100
AcDbDictionaryWithDefault
340
F
  0
DICTIONARY
  5
AFA
102
{ACAD_REACTORS
330
C
102
}
330
C
100
AcDbDictionary
  3
CEPSNTYPE
350
B04
  3
DIMSTYLEDATA
350
B08
  3
FINGERPRINTGUID
350
B05
  3
HYPERLINKBASE
350
AFD
  3
INSUNITS
350
B03
  3
LAYOUTDICT
350
AFF
  3
LWETCUNION
350
B02
  3
PLOTSETDICT
350
B00
  3
PLOTSTYLNAMDICT
350
B01
  3
PSVPSCALE
350
B07
  3
PUCSBASE
350
B0B
  3
PUCSORGBACK
350
B11
  3
PUCSORGBOTTOM
350
B0D
  3
PUCSORGFRONT
350
B10
  3
PUCSORGLEFT
350
B0E
  3
PUCSORGRIGHT
350
B0F
  3
PUCSORGTOP
350
B0C
  3
PUCSORTHOREF
350
B09
  3
PUCSORTHOVIEW
350
B0A
  3
STYLESHEET
350
AFE
  3
TSTACKALIGN
350
AFB
  3
TSTACKSIZE
350
AFC
  3
UCSBASE
350
B14
  3
UCSORGBACK
350
B1A
  3
UCSORGBOTTOM
350
B16
  3
UCSORGFRONT
350
B19
  3
UCSORGLEFT
350
B17
  3
UCSORGRIGHT
350
B18
  3
UCSORGTOP
350
B15
  3
UCSORTHOREF
350
B12
  3
UCSORTHOVIEW
350
B13
  3
VERSIONGUID
350
B06
  0
XRECORD
  5
B1E
102
{ACAD_REACTORS
330
B1D
102
}
330
B1D
100
AcDbXrecord
340
1F
  0
XRECORD
  5
B1C
102
{ACAD_REACTORS
330
B1B
102
}
330
B1B
100
AcDbXrecord
340
1B
  0
MLINESTYLE
  5
18
102
{ACAD_REACTORS
330
17
102
}
330
17
100
AcDbMlineStyle
  2
STANDARD
 70
     0
  3

 62
   256
 51
90.0
 52
90.0
 71
     2
 49
0.5
 62
   256
  6
BYLAYER
 49
-0.5
 62
   256
  6
BYLAYER
  0
ACDBPLACEHOLDER
  5
F
102
{ACAD_REACTORS
330
E
102
}
330
0
100
AcDbPlaceHolder
280
     0
  0
XRECORD
  5
B04
102
{ACAD_REACTORS
330
AFA
102
}
330
AFA
100
AcDbXrecord
 90
        0
  0
XRECORD
  5
B08
102
{ACAD_REACTORS
330
AFA
102
}
330
AFA
100
AcDbXrecord
1000
DSTYLE
1002
{
1070
   278
 70
     0
1070
   342
340
223
1070
   371
 70
     0
1070
   372
 70
     0
1002
}
  0
XRECORD
  5
B05
102
{ACAD_REACTORS
330
AFA
102
}
330
AFA
100
AcDbXrecord
  1

  0
XRECORD
  5
AFD
102
{ACAD_REACTORS
330
AFA
102
}
330
AFA
100
AcDbXrecord
  1

  0
XRECORD
  5
B03
102
{ACAD_REACTORS
330
AFA
102
}
330
AFA
100
AcDbXrecord
 90
        1
  0
XRECORD
  5
AFF
102
{ACAD_REACTORS
330
AFA
102
}
330
AFA
100
AcDbXrecord
340
1A
  0
XRECORD
  5
B02
102
{ACAD_REACTORS
330
AFA
102
}
330
AFA
100
AcDbXrecord
 90
    10781
  0
XRECORD
  5
B00
102
{ACAD_REACTORS
330
AFA
102
}
330
AFA
100
AcDbXrecord
340
19
  0
XRECORD
  5
B01
102
{ACAD_REACTORS
330
AFA
102
}
330
AFA
100
AcDbXrecord
340
E
  0
XRECORD
  5
B07
102
{ACAD_REACTORS
330
AFA
102
}
330
AFA
100
AcDbXrecord
 40
0.0
  0
XRECORD
  5
B0B
102
{ACAD_REACTORS
330
AFA
102
}
330
AFA
100
AcDbXrecord
340
0
  0
XRECORD
  5
B11
102
{ACAD_REACTORS
330
AFA
102
}
330
AFA
100
AcDbXrecord
 10
0.0
 20
0.0
 30
0.0
  0
XRECORD
  5
B0D
102
{ACAD_REACTORS
330
AFA
102
}
330
AFA
100
AcDbXrecord
 10
0.0
 20
0.0
 30
0.0
  0
XRECORD
  5
B10
102
{ACAD_REACTORS
330
AFA
102
}
330
AFA
100
AcDbXrecord
 10
0.0
 20
0.0
 30
0.0
  0
XRECORD
  5
B0E
102
{ACAD_REACTORS
330
AFA
102
}
330
AFA
100
AcDbXrecord
 10
0.0
 20
0.0
 30
0.0
  0
XRECORD
  5
B0F
102
{ACAD_REACTORS
330
AFA
102
}
330
AFA
100
AcDbXrecord
 10
0.0
 20
0.0
 30
0.0
  0
XRECORD
  5
B0C
102
{ACAD_REACTORS
330
AFA
102
}
330
AFA
100
AcDbXrecord
 10
0.0
 20
0.0
 30
0.0
  0
XRECORD
  5
B09
102
{ACAD_REACTORS
330
AFA
102
}
330
AFA
100
AcDbXrecord
340
0
  0
XRECORD
  5
B0A
102
{ACAD_REACTORS
330
AFA
102
}
330
AFA
100
AcDbXrecord
 70
     0
  0
XRECORD
  5
AFE
102
{ACAD_REACTORS
330
AFA
102
}
330
AFA
100
AcDbXrecord
  1

  0
XRECORD
  5
AFB
102
{ACAD_REACTORS
330
AFA
102
}
330
AFA
100
AcDbXrecord
 90
        1
  0
XRECORD
  5
AFC
102
{ACAD_REACTORS
330
AFA
102
}
330
AFA
100
AcDbXrecord
 90
       70
  0
XRECORD
  5
B14
102
{ACAD_REACTORS
330
AFA
102
}
330
AFA
100
AcDbXrecord
340
0
  0
XRECORD
  5
B1A
102
{ACAD_REACTORS
330
AFA
102
}
330
AFA
100
AcDbXrecord
 10
0.0
 20
0.0
 30
0.0
  0
XRECORD
  5
B16
102
{ACAD_REACTORS
330
AFA
102
}
330
AFA
100
AcDbXrecord
 10
0.0
 20
0.0
 30
0.0
  0
XRECORD
  5
B19
102
{ACAD_REACTORS
330
AFA
102
}
330
AFA
100
AcDbXrecord
 10
0.0
 20
0.0
 30
0.0
  0
XRECORD
  5
B17
102
{ACAD_REACTORS
330
AFA
102
}
330
AFA
100
AcDbXrecord
 10
0.0
 20
0.0
 30
0.0
  0
XRECORD
  5
B18
102
{ACAD_REACTORS
330
AFA
102
}
330
AFA
100
AcDbXrecord
 10
0.0
 20
0.0
 30
0.0
  0
XRECORD
  5
B15
102
{ACAD_REACTORS
330
AFA
102
}
330
AFA
100
AcDbXrecord
 10
0.0
 20
0.0
 30
0.0
  0
XRECORD
  5
B12
102
{ACAD_REACTORS
330
AFA
102
}
330
AFA
100
AcDbXrecord
340
0
  0
XRECORD
  5
B13
102
{ACAD_REACTORS
330
AFA
102
}
330
AFA
100
AcDbXrecord
 70
     0
  0
XRECORD
  5
B06
102
{ACAD_REACTORS
330
AFA
102
}
330
AFA
100
AcDbXrecord
  1
{9812E504-D5A8-45BB-AD9C-18193A1DBA7D}
  0
ENDSEC
  0
EOF
