  0
SECTION
  2
HEADER
  9
$ACADVER
  1
AC1014
  9
$ACADMAINTVER
 70
     9
  9
$DWGCODEPAGE
  3
ANSI_1252
  9
$INSBASE
 10
0.0
 20
0.0
 30
0.0
  9
$EXTMIN
 10
-35.99999998146928
 20
-1.981857695087573
 30
0.0
  9
$EXTMAX
 10
80.11328831791415
 20
74.06526775854195
 30
0.0
  9
$LIMMIN
 10
0.0
 20
0.0
  9
$LIMMAX
 10
17.0
 20
11.0
  9
$ORTHOMODE
 70
     1
  9
$REGENMODE
 70
     1
  9
$FILLMODE
 70
     1
  9
$QTEXTMODE
 70
     0
  9
$MIRRTEXT
 70
     1
  9
$DRAGMODE
 70
     2
  9
$LTSCALE
 40
0.9350000000000001
  9
$OSMODE
 70
    37
  9
$ATTMODE
 70
     1
  9
$TEXTSIZE
 40
0.2
  9
$TRACEWID
 40
0.05
  9
$TEXTSTYLE
  7
STANDARD
  9
$CLAYER
  8
0
  9
$CELTYPE
  6
BYLAYER
  9
$CECOLOR
 62
   256
  9
$CELTSCALE
 40
1.0
  9
$DELOBJ
 70
     1
  9
$DISPSILH
 70
     0
  9
$DIMSCALE
 40
1.0
  9
$DIMASZ
 40
0.1875
  9
$DIMEXO
 40
0.10625
  9
$DIMDLI
 40
0.646
  9
$DIMRND
 40
0.0
  9
$DIMDLE
 40
0.0
  9
$DIMEXE
 40
0.306
  9
$DIMTP
 40
0.0
  9
$DIMTM
 40
0.0
  9
$DIMTXT
 40
0.125
  9
$DIMCEN
 40
0.153
  9
$DIMTSZ
 40
0.0
  9
$DIMTOL
 70
     0
  9
$DIMLIM
 70
     0
  9
$DIMTIH
 70
     1
  9
$DIMTOH
 70
     1
  9
$DIMSE1
 70
     0
  9
$DIMSE2
 70
     0
  9
$DIMTAD
 70
     0
  9
$DIMZIN
 70
     0
  9
$DIMBLK
  1
_FILLED
  9
$DIMASO
 70
     1
  9
$DIMSHO
 70
     1
  9
$DIMPOST
  1

  9
$DIMAPOST
  1

  9
$DIMALT
 70
     0
  9
$DIMALTD
 70
     2
  9
$DIMALTF
 40
25.4
  9
$DIMLFAC
 40
1.0
  9
$DIMTOFL
 70
     0
  9
$DIMTVP
 40
0.0
  9
$DIMTIX
 70
     0
  9
$DIMSOXD
 70
     0
  9
$DIMSAH
 70
     0
  9
$DIMBLK1
  1

  9
$DIMBLK2
  1

  9
$DIMSTYLE
  2
STANDARD
  9
$DIMCLRD
 70
     0
  9
$DIMCLRE
 70
     0
  9
$DIMCLRT
 70
     0
  9
$DIMTFAC
 40
1.0
  9
$DIMGAP
 40
0.09
  9
$DIMJUST
 70
     0
  9
$DIMSD1
 70
     0
  9
$DIMSD2
 70
     0
  9
$DIMTOLJ
 70
     1
  9
$DIMTZIN
 70
     0
  9
$DIMALTZ
 70
     0
  9
$DIMALTTZ
 70
     0
  9
$DIMFIT
 70
     3
  9
$DIMUPT
 70
     0
  9
$DIMUNIT
 70
     2
  9
$DIMDEC
 70
     4
  9
$DIMTDEC
 70
     4
  9
$DIMALTU
 70
     2
  9
$DIMALTTD
 70
     2
  9
$DIMTXSTY
  7
STANDARD
  9
$DIMAUNIT
 70
     0
  9
$LUNITS
 70
     2
  9
$LUPREC
 70
     4
  9
$SKETCHINC
 40
0.1
  9
$FILLETRAD
 40
0.0
  9
$AUNITS
 70
     0
  9
$AUPREC
 70
     0
  9
$MENU
  1
acad
  9
$ELEVATION
 40
0.0
  9
$PELEVATION
 40
0.0
  9
$THICKNESS
 40
0.0
  9
$LIMCHECK
 70
     0
  9
$BLIPMODE
 70
     0
  9
$CHAMFERA
 40
0.0
  9
$CHAMFERB
 40
0.0
  9
$CHAMFERC
 40
0.0
  9
$CHAMFERD
 40
0.0
  9
$SKPOLY
 70
     0
  9
$TDCREATE
 40
2454054.451060196
  9
$TDUPDATE
 40
2454071.700127002
  9
$TDINDWG
 40
0.2543434028
  9
$TDUSRTIMER
 40
0.2543434028
  9
$USRTIMER
 70
     1
  9
$ANGBASE
 50
0.0
  9
$ANGDIR
 70
     0
  9
$PDMODE
 70
     3
  9
$PDSIZE
 40
0.03125
  9
$PLINEWID
 40
0.0
  9
$COORDS
 70
     0
  9
$SPLFRAME
 70
     0
  9
$SPLINETYPE
 70
     6
  9
$SPLINESEGS
 70
     8
  9
$ATTDIA
 70
     0
  9
$ATTREQ
 70
     1
  9
$HANDLING
 70
-16383
  9
$HANDSEED
  5
B1F
  9
$SURFTAB1
 70
     6
  9
$SURFTAB2
 70
     6
  9
$SURFTYPE
 70
     6
  9
$SURFU
 70
     6
  9
$SURFV
 70
     6
  9
$UCSNAME
  2

  9
$UCSORG
 10
0.0
 20
0.0
 30
0.0
  9
$UCSXDIR
 10
1.0
 20
0.0
 30
0.0
  9
$UCSYDIR
 10
0.0
 20
1.0
 30
0.0
  9
$PUCSNAME
  2

  9
$PUCSORG
 10
0.0
 20
0.0
 30
0.0
  9
$PUCSXDIR
 10
1.0
 20
0.0
 30
0.0
  9
$PUCSYDIR
 10
0.0
 20
1.0
 30
0.0
  9
$USERI1
 70
     0
  9
$USERI2
 70
     0
  9
$USERI3
 70
     0
  9
$USERI4
 70
     0
  9
$USERI5
 70
     0
  9
$USERR1
 40
0.0
  9
$USERR2
 40
0.0
  9
$USERR3
 40
0.0
  9
$USERR4
 40
0.0
  9
$USERR5
 40
0.0
  9
$WORLDVIEW
 70
     1
  9
$SHADEDGE
 70
     3
  9
$SHADEDIF
 70
    70
  9
$TILEMODE
 70
     1
  9
$MAXACTVP
 70
    16
  9
$PINSBASE
 10
0.0
 20
0.0
 30
0.0
  9
$PLIMCHECK
 70
     0
  9
$PEXTMIN
 10
1.000000000000000E+20
 20
1.000000000000000E+20
 30
1.000000000000000E+20
  9
$PEXTMAX
 10
-1.000000000000000E+20
 20
-1.000000000000000E+20
 30
-1.000000000000000E+20
  9
$PLIMMIN
 10
0.0
 20
0.0
  9
$PLIMMAX
 10
12.0
 20
9.0
  9
$UNITMODE
 70
     0
  9
$VISRETAIN
 70
     0
  9
$PLINEGEN
 70
     1
  9
$PSLTSCALE
 70
     0
  9
$TREEDEPTH
 70
  3020
  9
$PICKSTYLE
 70
     1
  9
$CMLSTYLE
  2
STANDARD
  9
$CMLJUST
 70
     0
  9
$CMLSCALE
 40
1.0
  9
$PROXYGRAPHICS
 70
     0
  9
$MEASUREMENT
 70
     0
  0
ENDSEC
  0
SECTION
  2
CLASSES
  0
CLASS
  1
ACDBDICTIONARYWDFLT
  2
AcDbDictionaryWithDefault
  3
AutoCAD 2000
 90
        0
280
     0
281
     0
  0
CLASS
  1
ACDBPLACEHOLDER
  2
AcDbPlaceHolder
  3
AutoCAD 2000
 90
        0
280
     0
281
     0
  0
CLASS
  1
LAYOUT
  2
AcDbLayout
  3
AutoCAD 2000
 90
        0
280
     0
281
     0
  0
CLASS
  1
LWPOLYLINE
  2
AcDbPolyline
  3
AutoCAD 2000
 90
        0
280
     0
281
     1
  0
CLASS
  1
IMAGE
  2
AcDbRasterImage
  3
ISM
 90
      127
280
     0
281
     1
  0
CLASS
  1
OLE2FRAME
  2
AcDbOle2Frame
  3
AutoCAD 2000
 90
        0
280
     0
281
     1
  0
CLASS
  1
HATCH
  2
AcDbHatch
  3
AutoCAD 2000
 90
        0
280
     0
281
     1
  0
CLASS
  1
DICTIONARYVAR
  2
AcDbDictionaryVar
  3
AutoCAD 2000
 90
        0
280
     0
281
     0
  0
CLASS
  1
RASTERVARIABLES
  2
AcDbRasterVariables
  3
ISM
 90
        0
280
     0
281
     0
  0
CLASS
  1
IMAGEDEF
  2
AcDbRasterImageDef
  3
ISM
 90
        0
280
     0
281
     0
  0
CLASS
  1
IMAGEDEF_REACTOR
  2
AcDbRasterImageDefReactor
  3
ISM
 90
        1
280
     0
281
     0
  0
CLASS
  1
IDBUFFER
  2
AcDbIdBuffer
  3
AutoCAD 2000
 90
        0
280
     0
281
     0
  0
CLASS
  1
SPATIAL_FILTER
  2
AcDbSpatialFilter
  3
AutoCAD 2000
 90
        0
280
     0
281
     0
  0
CLASS
  1
XRECORD
  2
AcDbXrecord
  3
AutoCAD 2000
 90
        0
280
     0
281
     0
  0
CLASS
  1
SORTENTSTABLE
  2
AcDbSortentsTable
  3
AutoCAD 2000
 90
        0
280
     0
281
     0
  0
CLASS
  1
LAYER_INDEX
  2
AcDbLayerIndex
  3
AutoCAD 2000
 90
        0
280
     0
281
     0
  0
CLASS
  1
SPATIAL_INDEX
  2
AcDbSpatialIndex
  3
AutoCAD 2000
 90
        0
280
     0
281
     0
  0
CLASS
  1
OBJECT_PTR
  2
CAseDLPNTableRecord
  3
ASE-LPNTableRecord
 90
        1
280
     0
281
     0
  0
CLASS
  1
PLOTSETTINGS
  2
AcDbPlotSettings
  3
AutoCAD 2000
 90
        0
280
     0
281
     0
  0
CLASS
  1
VBA_PROJECT
  2
AcDbVbaProject
  3
acadvba
 90
        0
280
     0
281
     0
  0
CLASS
  1
WIPEOUT
  2
AcDbWipeout
  3
WipeOut|AutoCAD Express Tool|expresstools@autodesk.com
 90
      127
280
     0
281
     1
  0
CLASS
  1
WIPEOUTVARIABLES
  2
AcDbWipeoutVariables
  3
WipeOut|AutoCAD Express Tool|expresstools@autodesk.com
 90
        0
280
     0
281
     0
  0
CLASS
  1
RTEXT
  2
RText
  3
RText|AutoCAD Express Tool|expresstools@autodesk.com
 90
        0
280
     0
281
     1
  0
CLASS
  1
ARCALIGNEDTEXT
  2
AcDbArcAlignedText
  3
ATEXT|AutoCAD Express Tool|expresstools@autodesk.com
 90
        0
280
     0
281
     1
  0
CLASS
  1
LONG_TRANSACTION
  2
AcDbLongTransaction
  3
AutoCAD 2000
 90
        0
280
     0
281
     0
  0
CLASS
  1
LWPOLYLINE
  2
AcDbPolyline
  3
AutoCAD 2000
 90
        0
280
     0
281
     1
  0
CLASS
  1
HATCH
  2
AcDbHatch
  3
AutoCAD 2000
 90
        0
280
     0
281
     1
  0
CLASS
  1
XRECORD
  2
AcDbXrecord
  3
AutoCAD 2000
 90
        0
280
     0
281
     0
  0
ENDSEC
  0
SECTION
  2
TABLES
  0
TABLE
  2
VPORT
  5
8
330
0
100
AcDbSymbolTable
 70
     3
  0
VPORT
  5
AF9
330
8
100
AcDbSymbolTableRecord
100
AcDbViewportTableRecord
  2
*ACTIVE
 70
     0
 10
0.0
 20
0.0
 11
1.0
 21
1.0
 12
19.63921439884734
 22
10.21218127054473
 13
0.0
 23
0.0
 14
1.0
 24
1.0
 15
0.0
 25
0.0
 16
0.0
 26
0.0
 36
1.0
 17
0.0
 27
0.0
 37
0.0
 40
27.82761963475195
 41
1.745424292845257
 42
50.0
 43
0.0
 44
0.0
 50
0.0
 51
0.0
 71
     0
 72
   100
 73
     1
 74
     1
 75
     0
 76
     0
 77
     0
 78
     0
  0
ENDTAB
  0
TABLE
  2
LTYPE
  5
5
330
0
100
AcDbSymbolTable
 70
     3
  0
LTYPE
  5
14
330
5
100
AcDbSymbolTableRecord
100
AcDbLinetypeTableRecord
  2
BYBLOCK
 70
     0
  3

 72
    65
 73
     0
 40
0.0
  0
LTYPE
  5
15
330
5
100
AcDbSymbolTableRecord
100
AcDbLinetypeTableRecord
  2
BYLAYER
 70
     0
  3

 72
    65
 73
     0
 40
0.0
  0
LTYPE
  5
16
330
5
100
AcDbSymbolTableRecord
100
AcDbLinetypeTableRecord
  2
CONTINUOUS
 70
     0
  3
Solid line
 72
    65
 73
     0
 40
0.0
  0
LTYPE
  5
1F6
330
5
100
AcDbSymbolTableRecord
100
AcDbLinetypeTableRecord
  2
HIDDEN
 70
     0
  3
- - - - - - - - - - - - - - - - - - - -
 72
    65
 73
     2
 40
0.2
 49
0.1
 74
     0
 49
-0.1
 74
     0
  0
LTYPE
  5
A3C
330
5
100
AcDbSymbolTableRecord
100
AcDbLinetypeTableRecord
  2
CENTERX2
 70
     0
  3
Center (2x) ________  __  ________  __  _____
 72
    65
 73
     4
 40
4.0
 49
2.5
 74
     0
 49
-0.5
 74
     0
 49
0.5
 74
     0
 49
-0.5
 74
     0
  0
ENDTAB
  0
TABLE
  2
LAYER
  5
2
330
0
100
AcDbSymbolTable
 70
     3
  0
LAYER
  5
10
330
2
100
AcDbSymbolTableRecord
100
AcDbLayerTableRecord
  2
0
 70
     0
 62
     7
  6
CONTINUOUS
  0
LAYER
  5
A3D
330
2
100
AcDbSymbolTableRecord
100
AcDbLayerTableRecord
  2
CENTER
 70
     0
 62
     1
  6
CENTERX2
  0
LAYER
  5
A56
330
2
100
AcDbSymbolTableRecord
100
AcDbLayerTableRecord
  2
DEFPOINTS
 70
     0
 62
     7
  6
CONTINUOUS
  0
ENDTAB
  0
TABLE
  2
STYLE
  5
3
330
0
100
AcDbSymbolTable
 70
     2
  0
STYLE
  5
11
330
3
100
AcDbSymbolTableRecord
100
AcDbTextStyleTableRecord
  2
STANDARD
 70
     0
 40
0.0
 41
0.8
 50
0.0
 71
     0
 42
0.2
  3
txt
  4

  0
STYLE
  5
21E
330
3
100
AcDbSymbolTableRecord
100
AcDbTextStyleTableRecord
  2
TEXTSTYLE_1
 70
     0
 40
0.0
 41
0.8
 50
0.0
 71
     0
 42
0.2
  3
txt
  4

  0
ENDTAB
  0
TABLE
  2
VIEW
  5
6
330
0
100
AcDbSymbolTable
 70
     0
  0
ENDTAB
  0
TABLE
  2
UCS
  5
7
330
0
100
AcDbSymbolTable
 70
     0
  0
ENDTAB
  0
TABLE
  2
APPID
  5
9
330
0
100
AcDbSymbolTable
 70
     2
  0
APPID
  5
222
330
9
100
AcDbSymbolTableRecord
100
AcDbRegAppTableRecord
  2
ACAD
 70
     0
  0
APPID
  5
A39
330
9
100
AcDbSymbolTableRecord
100
AcDbRegAppTableRecord
  2
DCO15
 70
     0
  0
ENDTAB
  0
TABLE
  2
DIMSTYLE
  5
A
330
0
100
AcDbSymbolTable
 70
     1
  0
DIMSTYLE
105
243
330
A
100
AcDbSymbolTableRecord
100
AcDbDimStyleTableRecord
  2
STANDARD
 70
     0
  3

  4

  5
_FILLED
  6
_FILLED
  7
_FILLED
 40
1.0
 41
0.1875
 42
0.0625
 43
0.38
 44
0.18
 45
0.0
 46
0.0
 47
0.00001
 48
0.00001
140
0.125
141
0.09
142
0.0
143
25.4
144
1.0
145
0.0
146
1.0
147
0.09
 71
     0
 72
     0
 73
     1
 74
     1
 75
     0
 76
     0
 77
     0
 78
     4
170
     0
171
     2
172
     0
173
     0
174
     0
175
     0
176
     0
177
     0
178
     0
270
     2
271
     5
272
     5
273
     2
274
     2
340
11
275
     0
280
     0
281
     0
282
     0
283
     1
284
     4
285
     0
286
     0
287
     3
288
     0
  0
ENDTAB
  0
TABLE
  2
BLOCK_RECORD
  5
1
330
0
100
AcDbSymbolTable
 70
     1
  0
BLOCK_RECORD
  5
1F
102
{ACAD_XDICTIONARY
360
B1D
102
}
330
1
100
AcDbSymbolTableRecord
100
AcDbBlockTableRecord
  2
*MODEL_SPACE
  0
BLOCK_RECORD
  5
1B
102
{ACAD_XDICTIONARY
360
B1B
102
}
330
1
100
AcDbSymbolTableRecord
100
AcDbBlockTableRecord
  2
*PAPER_SPACE
  0
BLOCK_RECORD
  5
223
330
1
100
AcDbSymbolTableRecord
100
AcDbBlockTableRecord
  2
_FILLED
  0
ENDTAB
  0
ENDSEC
  0
SECTION
  2
BLOCKS
  0
BLOCK
  5
20
330
1F
100
AcDbEntity
  8
0
100
AcDbBlockBegin
  2
*MODEL_SPACE
 70
     0
 10
0.0
 20
0.0
 30
0.0
  3
*MODEL_SPACE
  1

  0
ENDBLK
  5
21
330
1F
100
AcDbEntity
  8
0
100
AcDbBlockEnd
  0
BLOCK
  5
1C
330
1B
100
AcDbEntity
 67
     1
  8
0
100
AcDbBlockBegin
  2
*PAPER_SPACE
 70
     0
 10
0.0
 20
0.0
 30
0.0
  3
*PAPER_SPACE
  1

  0
ENDBLK
  5
1D
330
1B
100
AcDbEntity
 67
     1
  8
0
100
AcDbBlockEnd
  0
BLOCK
  5
441
330
223
100
AcDbEntity
  8
0
100
AcDbBlockBegin
  2
_FILLED
 70
     0
 10
0.0
 20
0.0
 30
0.0
  3
_FILLED
  1

  0
SOLID
  5
442
330
223
100
AcDbEntity
  8
0
  6
BYBLOCK
 62
     0
100
AcDbTrace
 10
0.0
 20
0.0
 30
0.0
 11
-1.0
 21
0.1666666667
 31
0.0
 12
-1.0
 22
-0.1666666667
 32
0.0
 13
-1.0
 23
-0.1666666667
 33
0.0
  0
ENDBLK
  5
443
330
223
100
AcDbEntity
  8
0
  6
BYBLOCK
 62
     0
100
AcDbBlockEnd
  0
ENDSEC
  0
SECTION
  2
ENTITIES
  0
MTEXT
  5
4BA
330
1F
100
AcDbEntity
  8
0
  6
CONTINUOUS
 62
     2
100
AcDbMText
 10
15.84375
 20
2.3125
 30
0.0
 40
0.09375
 41
0.075
 71
     2
 72
     1
  1
 \P \P 
  7
TEXTSTYLE_1
1001
ACAD
1000
MTEXTBEGIN
1070
    73
1070
     1
1070
    44
1040
1.0
1070
    74
1070
     0
1000
MTEXTEND
  0
LINE
  5
515
330
1F
100
AcDbEntity
  8
0
100
AcDbLine
 10
26.69148764959997
 20
2.059561177599995
 30
0.0
 11
13.81789729759997
 21
1.513211364799998
 31
0.0
  0
LINE
  5
519
330
1F
100
AcDbEntity
  8
0
100
AcDbLine
 10
9.459441652799988
 20
1.579590985599997
 30
0.0
 11
13.81789729759997
 21
1.513211364799998
 31
0.0
  0
LWPOLYLINE
  5
557
330
1F
100
AcDbEntity
  8
0
  6
HIDDEN
 62
     8
100
AcDbPolyline
 90
       55
 70
     0
 43
0.0
 10
30.77815856639996
 20
17.75081373439999
 10
30.77988817119997
 20
17.75101175519999
 10
30.78151645759998
 20
17.75042269279999
 10
30.78303538879997
 20
17.74921282079999
 10
30.78509117119996
 20
17.74659772799999
 10
30.78685570719999
 20
17.74352111999999
 10
30.78931095199997
 20
17.73793682879999
 10
30.79088026559996
 20
17.73262043999999
 10
30.79175559839997
 20
17.7275024192
 10
30.79212890079996
 20
17.72251323519999
 10
30.79219212479996
 20
17.71758335359999
 10
30.79213722079997
 20
17.71264323999999
 10
30.79222860479997
 20
17.69916024479999
 10
30.79262006079999
 20
17.6852849744
 10
30.79308826879999
 20
17.6711906544
 10
30.79340991519997
 20
17.65705051039999
 10
30.79332054719996
 20
17.63745120799999
 10
30.79268128799997
 20
17.61802605279999
 10
30.79166455199997
 20
17.5987004
 10
30.79044275199997
 20
17.57939960479999
 10
30.78725069119998
 20
17.53263803519999
 10
30.78364778399997
 20
17.4857946848
 10
30.77874606399997
 20
17.4314460736
 10
30.77321534399998
 20
17.37719317599999
 10
30.76644371359996
 20
17.31597228319999
 10
30.75917194079998
 20
17.25479828799999
 10
30.75043081919999
 20
17.18615905279999
 10
30.74112195199997
 20
17.1175956656
 10
30.73058579359998
 20
17.04441640799999
 10
30.71943669439999
 20
16.97133567999999
 10
30.70719673439997
 20
16.89559904479999
 10
30.69423744799998
 20
16.81994817119999
 10
30.68543393919997
 20
16.77099928319999
 10
30.67625512799996
 20
16.7221428016
 10
30.66664590399999
 20
16.67345453599999
 10
30.65771532639998
 20
16.6304227424
 10
30.64835959359998
 20
16.58740544799999
 10
30.63853570079997
 20
16.54422508479999
 10
30.63225694719999
 20
16.51769510239999
 10
30.62566831999997
 20
16.49129099199999
 10
30.61865134079998
 20
16.4652661648
 10
30.61108753279997
 20
16.43987403679999
 10
30.60669943039998
 20
16.42637788639999
 10
30.60207940799996
 20
16.41293171679999
 10
30.59719234079999
 20
16.39932341279999
 10
30.59200309919997
 20
16.38534085439999
 10
30.58647655199997
 20
16.37077192479999
 10
30.58483776159998
 20
16.36653599839999
 10
30.58310527999997
 20
16.36233980479999
 10
30.58121517759998
 20
16.35828688639999
 10
30.57910352319997
 20
16.35448078239999
 10
30.57670639039999
 20
16.35102503519999
 10
30.57395984479997
 20
16.3480231856
 10
30.57079996159997
 20
16.34557877439999
 10
30.56716280639999
 20
16.34379534239999
  0
LWPOLYLINE
  5
580
330
1F
100
AcDbEntity
  8
0
  6
HIDDEN
 62
     8
100
AcDbPolyline
 90
       55
 70
     0
 43
0.0
 10
5.223775030399984
 20
17.7350826224
 10
5.222038591999982
 20
17.73528049119999
 10
5.220405220799982
 20
17.7346861232
 10
5.218882683199971
 20
17.7334670352
 10
5.216823671999996
 20
17.73083349919999
 10
5.215057708799996
 20
17.72773663039999
 10
5.212606358399987
 20
17.72213093279999
 10
5.211039745599997
 20
17.71679843039999
 10
5.210166155199992
 20
17.71166826719999
 10
5.209793873599998
 20
17.70666958879999
 10
5.209731190399985
 20
17.70173153759999
 10
5.209786387199976
 20
17.69678325599999
 10
5.209696427199979
 20
17.68330599679999
 10
5.209307963199982
 20
17.6694318896
 10
5.208843436799973
 20
17.65533620799999
 10
5.208525292799997
 20
17.64119423199999
 10
5.208617724799999
 20
17.62161104159999
 10
5.209257651199997
 20
17.602203824
 10
5.210273550399982
 20
17.58289710559999
 10
5.211493900799972
 20
17.56361540799999
 10
5.214682983999999
 20
17.51689813759999
 10
5.218282916799999
 20
17.4700975712
 10
5.22318083519999
 20
17.41578628
 10
5.228706723199984
 20
17.36157111999999
 10
5.235469625599982
 20
17.30041700639999
 10
5.242731825599996
 20
17.23930951519999
 10
5.251461907199988
 20
17.17073863039999
 10
5.260758702399975
 20
17.10224349439999
 10
5.271286079999974
 20
17.029101728
 10
5.282425723199985
 20
16.95605833439999
 10
5.29466211359999
 20
16.88031740319999
 10
5.307617551999975
 20
16.804662168
 10
5.316424479999987
 20
16.75567689119999
 10
5.325606929599977
 20
16.70678403839999
 10
5.335219967999982
 20
16.65805945759999
 10
5.344158987199982
 20
16.6149723296
 10
5.3535238288
 20
16.57189972799999
 10
5.363357652799997
 20
16.5286638304
 10
5.369643003199989
 20
16.50209955199999
 10
5.376238711999995
 20
16.475661312
 10
5.383263367999994
 20
16.4496028752
 10
5.390835567999992
 20
16.42417800479999
 10
5.395226183999987
 20
16.41067174879999
 10
5.399848995199981
 20
16.39721549279999
 10
5.404739375999973
 20
16.3835970592
 10
5.409932699199991
 20
16.36960427359999
 10
5.415464340799978
 20
16.35502495839999
 10
5.417102721599995
 20
16.3507914112
 10
5.418834763199974
 20
16.3465976528
 10
5.420724339199999
 20
16.34254714239999
 10
5.422835321599983
 20
16.3387433328
 10
5.42523158399998
 20
16.33528968159999
 10
5.427977001599991
 20
16.33228964319999
 10
5.431135444799984
 20
16.32984667519999
 10
5.434770790399987
 20
16.32806423199999
  0
LINE
  5
595
330
1F
100
AcDbEntity
  8
0
  6
HIDDEN
 62
     8
100
AcDbLine
 10
5.434770790399987
 20
16.32806423199999
 30
0.0
 11
7.544987657599982
 21
15.560008104
 31
0.0
  0
LINE
  5
596
330
1F
100
AcDbEntity
  8
0
  6
HIDDEN
 62
     8
100
AcDbLine
 10
5.223775030399984
 20
17.7350826224
 30
0.0
 11
7.9725128368
 21
16.73462387999999
 31
0.0
  0
LINE
  5
5CB
330
1F
100
AcDbEntity
  8
0
  6
HIDDEN
 62
     8
100
AcDbLine
 10
5.232440038399992
 20
19.00710597279999
 30
0.0
 11
6.575815838127518
 21
9.467520363892262
 31
0.0
  0
LINE
  5
5EC
330
1F
100
AcDbEntity
  8
0
  6
HIDDEN
 62
     8
100
AcDbLine
 10
30.75146353599997
 20
18.97057782079999
 30
0.0
 11
29.42067967679999
 21
9.4425819696
 31
0.0
  0
LINE
  5
5ED
330
1F
100
AcDbEntity
  8
0
  6
HIDDEN
 62
     8
100
AcDbLine
 10
28.02942075999998
 20
16.75035499199999
 30
0.0
 11
30.77815856639996
 21
17.75081373439999
 31
0.0
  0
LINE
  5
5EE
330
1F
100
AcDbEntity
  8
0
  6
HIDDEN
 62
     8
100
AcDbLine
 10
28.45694593919997
 20
15.57573921599999
 30
0.0
 11
30.56716280639999
 21
16.34379534239999
 31
0.0
  0
LINE
  5
5FB
330
1F
100
AcDbEntity
  8
0
100
AcDbLine
 10
24.63096183199998
 20
0.616856115200001
 30
0.0
 11
25.11471140915884
 21
1.943754852806074
 31
0.0
  0
LINE
  5
5FC
330
1F
100
AcDbEntity
  8
0
100
AcDbLine
 10
13.01795504159999
 20
0.399772089599999
 30
0.0
 11
13.65532609405855
 21
1.310032287628438
 31
0.0
  0
LINE
  5
995
330
1F
100
AcDbEntity
  8
0
100
AcDbLine
 10
0.0491280559999936
 20
19.56153625439999
 30
0.0
 11
-0.0000000000000071
 21
19.0
 31
0.0
  0
LINE
  5
996
330
1F
100
AcDbEntity
  8
0
100
AcDbLine
 10
10.02967960799997
 20
1.080469723199994
 30
0.0
 11
9.5946672448
 21
1.515482086399996
 31
0.0
  0
LWPOLYLINE
  5
997
330
1F
100
AcDbEntity
  8
0
100
AcDbPolyline
 90
        6
 70
     0
 43
0.0
 10
5.245879095999974
 20
10.3948966464
 10
5.260866671999984
 20
10.30837041279999
 10
5.301579465599978
 20
10.18061166559999
 10
5.363198327999974
 20
10.06332259999999
 10
5.444668468799982
 20
9.9571793008
 10
5.541239927999974
 20
9.865087278399997
  0
LINE
  5
998
330
1F
100
AcDbEntity
  8
0
100
AcDbLine
 10
4.211172300799994
 20
17.71782084639999
 30
0.0
 11
4.42733142239998
 21
16.40129499519999
 31
0.0
  0
LWPOLYLINE
  5
999
330
1F
100
AcDbEntity
  8
0
100
AcDbPolyline
 90
       12
 70
     0
 43
0.0
 10
4.427325276799983
 20
16.40129403039999
 10
4.486716340799993
 20
16.02276267999999
 10
4.552360164799999
 20
15.59049483519999
 10
4.620589193599975
 20
15.1271894032
 10
4.691107121599991
 20
14.63473154879999
 10
4.763709513599984
 20
14.11461390079999
 10
4.838226783999992
 20
13.5682202896
 10
4.914478481599978
 20
12.99709793759999
 10
4.992745308799975
 20
12.3992902432
 10
5.074192633599999
 20
11.76566820479999
 10
5.160016871999992
 20
11.08615221439999
 10
5.245979699199999
 20
10.39408249919999
  0
LWPOLYLINE
  5
99C
330
1F
100
AcDbEntity
  8
0
100
AcDbPolyline
 90
        3
 70
     0
 43
0.0
 10
3.988827881599995
 20
19.0
 10
3.997423732799994
 20
18.95256189279999
 10
4.211172300799994
 20
17.71782084639999
  0
LINE
  5
9A6
330
1F
100
AcDbEntity
  8
0
100
AcDbLine
 10
10.22855339039997
 20
0.9980935055999946
 30
0.0
 11
12.77144660960001
 21
0.9980935055999928
 31
0.0
  0
LWPOLYLINE
  5
9A7
330
1F
100
AcDbEntity
  8
0
100
AcDbPolyline
 90
        4
 70
     0
 43
0.0
 10
9.459286230399975
 20
1.5787008864
 10
9.38994952479998
 20
1.584958060799998
 10
9.320601679999974
 20
1.591437092799999
 10
9.251173163199972
 20
1.598129764799999
  0
LWPOLYLINE
  5
9AC
330
1F
100
AcDbEntity
  8
0
100
AcDbPolyline
 90
        4
 70
     0
 43
0.0
 10
26.69561814079996
 20
2.059761399999999
 10
26.69167084639998
 20
2.059588593599997
 10
26.69148764959997
 20
2.059561177599995
 10
26.69570982239999
 20
2.059704383999999
  0
LWPOLYLINE
  5
9AF
330
1F
100
AcDbEntity
  8
0
100
AcDbPolyline
 90
        3
 70
     0
 43
0.0
 10
5.541249518399972
 20
9.865079467199997
 10
5.664709063999985
 20
9.7765284448
 10
5.805037859199977
 20
9.6996645392
  0
LINE
  5
9B0
330
1F
100
AcDbEntity
  8
0
100
AcDbLine
 10
5.541249483199997
 20
9.865079496000001
 30
0.0
 11
5.664830606399981
 21
9.776452604800001
 31
0.0
  0
LINE
  5
9B1
330
1F
100
AcDbEntity
  8
CENTER
100
AcDbLine
 10
11.49999999999999
 20
4.247775046106658
 30
0.0
 11
11.49999999999999
 21
-1.981857695087573
 31
0.0
  0
LINE
  5
9B3
330
1F
100
AcDbEntity
  8
0
100
AcDbLine
 10
5.959716195199995
 20
9.633435249599999
 30
0.0
 11
6.130970945599976
 21
9.575024759999999
 31
0.0
  0
LINE
  5
9B4
330
1F
100
AcDbEntity
  8
0
100
AcDbLine
 10
5.80483934559998
 20
9.6997602752
 30
0.0
 11
5.959941873599994
 21
9.633349244799996
 31
0.0
  0
LWPOLYLINE
  5
9B5
330
1F
100
AcDbEntity
  8
0
100
AcDbPolyline
 90
        3
 70
     0
 43
0.0
 10
29.44042526079998
 20
9.470516900799999
 10
29.46768806399997
 20
9.475546977599996
 10
29.67928239039999
 20
9.522872321599997
  0
LWPOLYLINE
  5
9B6
330
1F
100
AcDbEntity
  8
0
100
AcDbPolyline
 90
       11
 70
     0
 43
0.0
 10
6.130756052799988
 20
9.575090449599997
 10
6.320717609599988
 20
9.522872321599997
 10
6.532311935999977
 20
9.475546977599996
 10
6.769553102399974
 20
9.431775198399996
 10
7.038427267199999
 20
9.390314700799997
 10
7.344062796799981
 20
9.350586142399997
 10
7.686262086399999
 20
9.312899983999997
 10
8.062941422399994
 20
9.277570673599996
 10
8.471456755199987
 20
9.244773891199997
 10
8.909128948799995
 20
9.214621655999998
 10
9.331995054399975
 20
9.189382342399994
  0
LWPOLYLINE
  5
9B7
330
1F
100
AcDbEntity
  8
0
100
AcDbPolyline
 90
        3
 70
     0
 43
0.0
 10
6.130970945599976
 20
9.575024759999998
 10
6.320902868799997
 20
9.522826476799998
 10
6.532476876799982
 20
9.475513543999994
  0
LINE
  5
9B8
330
1F
100
AcDbEntity
  8
0
100
AcDbLine
 10
26.69570982239999
 20
2.059704383999997
 30
0.0
 11
26.69622259999998
 21
2.059459388799997
 31
0.0
  0
LWPOLYLINE
  5
9B9
330
1F
100
AcDbEntity
  8
0
100
AcDbPolyline
 90
       11
 70
     0
 43
0.0
 10
26.66800494719997
 20
9.189382342399994
 10
27.09083764799997
 20
9.214619523199999
 10
27.52847127999997
 20
9.244768540799995
 10
27.93694876639996
 20
9.277561151999996
 10
28.31359635839998
 20
9.312885606399994
 10
28.65577464799999
 20
9.350566703999994
 10
28.96140346079998
 20
9.390290743999997
 10
29.23028256959999
 20
9.431747518399994
 10
29.46752312319997
 20
9.475513543999994
 10
29.67909713279998
 20
9.522826476799998
 10
29.86912917447797
 20
9.575058903037199
  0
LINE
  5
9BB
330
1F
100
AcDbEntity
  8
0
100
AcDbLine
 10
21.96068194417195
 20
1.858429643080129
 30
0.0
 11
22.98204495839998
 21
0.399772089599999
 31
0.0
  0
LWPOLYLINE
  5
9BF
330
1F
100
AcDbEntity
  8
0
100
AcDbPolyline
 90
        3
 70
     0
 43
0.0
 10
29.86912917447799
 20
9.575058903037202
 10
30.04005812639998
 20
9.633349244799994
 10
30.19516065439997
 20
9.699760275199999
  0
LWPOLYLINE
  5
9C1
330
1F
100
AcDbEntity
  8
0
100
AcDbPolyline
 90
        3
 70
     0
 43
0.0
 10
30.19496214079997
 20
9.6996645392
 10
30.33516939359997
 20
9.776452604799999
 10
30.45875051679998
 20
9.865079495999999
  0
LINE
  5
9C2
330
1F
100
AcDbEntity
  8
0
100
AcDbLine
 10
30.19516065439997
 20
9.6997602752
 30
0.0
 11
30.33522405599997
 21
9.776491806399997
 31
0.0
  0
LINE
  5
9C3
330
1F
100
AcDbEntity
  8
CENTER
100
AcDbLine
 10
9.401617961599974
 20
17.57140779679999
 30
0.0
 11
1.776656238399986
 21
16.49978931199999
 31
0.0
  0
LINE
  5
9C4
330
1F
100
AcDbEntity
  8
0
100
AcDbLine
 10
35.99999999999998
 20
19.0
 30
0.0
 11
-0.0000000000000071
 21
19.0
 31
0.0
  0
LINE
  5
9C5
330
1F
100
AcDbEntity
  8
0
100
AcDbLine
 10
30.55501088479998
 20
9.956873526399997
 30
0.0
 11
30.55533153279997
 21
9.957179300800001
 31
0.0
  0
LWPOLYLINE
  5
9C6
330
1F
100
AcDbEntity
  8
0
100
AcDbPolyline
 90
        5
 70
     0
 43
0.0
 10
30.45875976959997
 20
9.865087028799997
 10
30.55476333599996
 20
9.956552055999999
 10
30.63588147519998
 20
10.06189279039999
 10
30.69742723359998
 20
10.17824678079999
 10
30.73836656799999
 20
10.30502655999999
  0
LINE
  5
9C7
330
1F
100
AcDbEntity
  8
0
100
AcDbLine
 10
0.2359145631999908
 20
19.73269455199999
 30
0.0
 11
35.76408543839999
 21
19.73269455199999
 31
0.0
  0
LINE
  5
9CB
330
1F
100
AcDbEntity
  8
0
100
AcDbLine
 10
1.019966595199996
 20
20.75
 30
0.0
 11
34.98003340639998
 21
20.75
 31
0.0
  0
LWPOLYLINE
  5
9CC
330
1F
100
AcDbEntity
  8
0
100
AcDbPolyline
 90
       12
 70
     0
 43
0.0
 10
30.75402030239998
 20
10.39408249919999
 10
30.83998312959998
 20
11.08615221439999
 10
30.92580736639998
 20
11.76566820479999
 10
31.00725469279997
 20
12.3992902432
 10
31.08552151839997
 20
12.99709793759999
 10
31.16177321599998
 20
13.5682202896
 10
31.23629048799996
 20
14.11461390079999
 10
31.30889287839998
 20
14.63473154879999
 10
31.37941080799997
 20
15.1271894032
 10
31.44763983519998
 20
15.59049483519999
 10
31.51328365919998
 20
16.02276267999999
 10
31.57267472319996
 20
16.40129403039999
  0
LWPOLYLINE
  5
9D1
330
1F
100
AcDbEntity
  8
0
100
AcDbPolyline
 90
        4
 70
     0
 43
0.0
 10
31.57266857759997
 20
16.40129499519999
 10
31.78882770079998
 20
17.71782084639999
 10
32.00257626719998
 20
18.95256189279999
 10
32.01117211839998
 20
19.0
  0
LINE
  5
9D2
330
1F
100
AcDbEntity
  8
0
100
AcDbLine
 10
30.73836656799999
 20
10.30502655999999
 30
0.0
 11
30.75411991039997
 21
10.39488850879999
 31
0.0
  0
LINE
  5
9D6
330
1F
100
AcDbEntity
  8
0
100
AcDbLine
 10
35.95087194399998
 20
19.56153625439999
 30
0.0
 11
35.99999999999998
 21
19.0
 31
0.0
  0
ARC
  5
9FA
330
1F
100
AcDbEntity
  8
0
  6
HIDDEN
 62
     8
100
AcDbCircle
 10
7.770890398399977
 20
16.14289733759999
 30
0.0
 40
0.625
100
AcDbArc
 50
250.0
 51
70.0
  0
ARC
  5
9FB
330
1F
100
AcDbEntity
  8
0
  6
HIDDEN
 62
     8
100
AcDbCircle
 10
28.23104319839997
 20
16.15862844959999
 30
0.0
 40
0.625
100
AcDbArc
 50
110.0
 51
290.0
  0
ARC
  5
A17
330
1F
100
AcDbEntity
  8
0
100
AcDbCircle
 10
23.74999999999998
 20
0.9375
 30
0.0
 40
0.9375
100
AcDbArc
 50
214.9999999999999
 51
340.0
  0
ARC
  5
A18
330
1F
100
AcDbEntity
  8
0
100
AcDbCircle
 10
12.24999999999999
 20
0.9375
 30
0.0
 40
0.9375
100
AcDbArc
 50
215.000000063356
 51
325.0
  0
ARC
  5
A19
330
1F
100
AcDbEntity
  8
0
100
AcDbCircle
 10
0.6205477855999888
 20
20.42558119039999
 30
0.0
 40
0.075
100
AcDbArc
 50
297.4030246703999
 51
0.0
  0
ARC
  5
A1A
330
1F
100
AcDbEntity
  8
0
100
AcDbCircle
 10
0.9408711807999949
 20
19.80769455199999
 30
0.0
 40
0.6209820224
100
AcDbArc
 50
117.4030246704
 51
180.0
  0
ARC
  5
A1B
330
1F
100
AcDbEntity
  8
0
100
AcDbCircle
 10
0.2448891583999782
 20
19.80769455199999
 30
0.0
 40
0.075
100
AcDbArc
 50
270.0
 51
0.0
  0
ARC
  5
A1C
330
1F
100
AcDbEntity
  8
0
100
AcDbCircle
 10
0.2359145631999908
 20
19.54519455199999
 30
0.0
 40
0.1875
100
AcDbArc
 50
90.0
 51
175.0
  0
ARC
  5
A1D
330
1F
100
AcDbEntity
  8
0
100
AcDbCircle
 10
35.75511084159997
 20
19.80769455199999
 30
0.0
 40
0.075
100
AcDbArc
 50
180.0
 51
270.0
  0
ARC
  5
A1E
330
1F
100
AcDbEntity
  8
0
100
AcDbCircle
 10
35.05912881919998
 20
19.80769455199999
 30
0.0
 40
0.6209820224
100
AcDbArc
 50
0.0
 51
62.5969753296
  0
ARC
  5
A1F
330
1F
100
AcDbEntity
  8
0
100
AcDbCircle
 10
35.37945221599999
 20
20.42558119039999
 30
0.0
 40
0.075
100
AcDbArc
 50
180.0
 51
242.5969753296
  0
ARC
  5
A20
330
1F
100
AcDbEntity
  8
0
100
AcDbCircle
 10
34.98003340639998
 20
20.42558119039999
 30
0.0
 40
0.3244188096
100
AcDbArc
 50
0.0
 51
90.0
  0
ARC
  5
A21
330
1F
100
AcDbEntity
  8
0
100
AcDbCircle
 10
1.019966595199996
 20
20.42558119039999
 30
0.0
 40
0.3244188096
100
AcDbArc
 50
90.0
 51
180.0
  0
ARC
  5
A22
330
1F
100
AcDbEntity
  8
0
100
AcDbCircle
 10
35.76408543839999
 20
19.54519455199999
 30
0.0
 40
0.1875
100
AcDbArc
 50
5.0
 51
90.0
  0
ARC
  5
A23
330
1F
100
AcDbEntity
  8
0
100
AcDbCircle
 10
10.22855339039997
 20
1.279343505599994
 30
0.0
 40
0.28125
100
AcDbArc
 50
225.0
 51
270.0
  0
ARC
  5
A24
330
1F
100
AcDbEntity
  8
0
100
AcDbCircle
 10
26.61709160639996
 20
4.089167476799998
 30
0.0
 40
2.03125
100
AcDbArc
 50
272.2325971047999
 51
352.0
  0
ARC
  5
A25
330
1F
100
AcDbEntity
  8
0
100
AcDbCircle
 10
9.43998763679999
 20
1.360802478399994
 30
0.0
 40
0.21875
100
AcDbArc
 50
45.0000001155
 51
84.93683189349999
  0
ARC
  5
AD1
330
1F
100
AcDbEntity
  8
0
100
AcDbCircle
 10
9.463546632382936
 20
3.635030025255638
 30
0.0
 40
2.047941688978728
100
AcDbArc
 50
188.3666566204141
 51
264.0476729329605
  0
LINE
  5
AD3
330
1F
100
AcDbEntity
  8
0
100
AcDbLine
 10
6.575815838127518
 20
9.467520363892262
 30
0.0
 11
7.437400820799972
 21
3.33703956959999
 31
0.0
  0
LINE
  5
AD4
330
1F
100
AcDbEntity
  8
0
100
AcDbLine
 10
12.97032039200001
 20
1.080469723199994
 30
0.0
 11
13.3344798981064
 21
1.444629229306396
 31
0.0
  0
ARC
  5
AD5
330
1F
100
AcDbEntity
  8
0
100
AcDbCircle
 10
12.77144660960001
 20
1.279343505599994
 30
0.0
 40
0.28125
100
AcDbArc
 50
270.0
 51
315.0
  0
ARC
  5
AD6
330
1F
100
AcDbEntity
  8
0
100
AcDbCircle
 10
13.51125659340304
 20
1.267852534009764
 30
0.0
 40
0.25
100
AcDbArc
 50
89.12744825109149
 51
135.000000000001
  0
LINE
  5
ADA
330
1F
100
AcDbEntity
  8
0
100
AcDbLine
 10
28.62857362103127
 20
3.806472115474864
 30
0.0
 11
29.44042491359998
 21
9.470514479999998
 31
0.0
  0
LINE
  5
AE8
330
1F
100
AcDbEntity
  8
0
100
AcDbLine
 10
11.48204495907366
 20
0.3997720900717118
 30
0.0
 11
11.06309579360456
 21
0.9980935055999939
 31
0.0
  0
ARC
  5
AEA
330
1F
100
AcDbEntity
  8
0
100
AcDbCircle
 10
14.06490211618893
 20
1.023244069432748
 30
0.0
 40
0.5
100
AcDbArc
 50
92.43015072316064
 51
144.9999999971792
  0
ENDSEC
  0
SECTION
  2
OBJECTS
  0
DICTIONARY
  5
C
330
0
100
AcDbDictionary
  3
ACAD_GROUP
350
D
  3
ACAD_LAYOUT
350
1A
  3
ACAD_MLINESTYLE
350
17
  3
ACAD_PLOTSETTINGS
350
19
  3
ACAD_PLOTSTYLENAME
350
E
  3
ACDBHEADERROUNDTRIPXREC
350
AFA
  0
DICTIONARY
  5
B1D
330
1F
100
AcDbDictionary
280
     1
  3
ACAD_LAYOUTSELFREF
360
B1E
  0
DICTIONARY
  5
B1B
330
1B
100
AcDbDictionary
280
     1
  3
ACAD_LAYOUTSELFREF
360
B1C
  0
DICTIONARY
  5
D
102
{ACAD_REACTORS
330
C
102
}
330
C
100
AcDbDictionary
  0
DICTIONARY
  5
1A
102
{ACAD_REACTORS
330
C
102
}
330
C
100
AcDbDictionary
  0
DICTIONARY
  5
17
102
{ACAD_REACTORS
330
C
102
}
330
C
100
AcDbDictionary
  3
STANDARD
350
18
  0
DICTIONARY
  5
19
102
{ACAD_REACTORS
330
C
102
}
330
C
100
AcDbDictionary
  0
ACDBDICTIONARYWDFLT
  5
E
102
{ACAD_REACTORS
330
C
102
}
330
C
100
AcDbDictionary
281
     1
  3
Normal
350
F
100
AcDbDictionaryWithDefault
340
F
  0
DICTIONARY
  5
AFA
102
{ACAD_REACTORS
330
C
102
}
330
C
100
AcDbDictionary
  3
CEPSNTYPE
350
B04
  3
DIMSTYLEDATA
350
B08
  3
FINGERPRINTGUID
350
B05
  3
HYPERLINKBASE
350
AFD
  3
INSUNITS
350
B03
  3
LAYOUTDICT
350
AFF
  3
LWETCUNION
350
B02
  3
PLOTSETDICT
350
B00
  3
PLOTSTYLNAMDICT
350
B01
  3
PSVPSCALE
350
B07
  3
PUCSBASE
350
B0B
  3
PUCSORGBACK
350
B11
  3
PUCSORGBOTTOM
350
B0D
  3
PUCSORGFRONT
350
B10
  3
PUCSORGLEFT
350
B0E
  3
PUCSORGRIGHT
350
B0F
  3
PUCSORGTOP
350
B0C
  3
PUCSORTHOREF
350
B09
  3
PUCSORTHOVIEW
350
B0A
  3
STYLESHEET
350
AFE
  3
TSTACKALIGN
350
AFB
  3
TSTACKSIZE
350
AFC
  3
UCSBASE
350
B14
  3
UCSORGBACK
350
B1A
  3
UCSORGBOTTOM
350
B16
  3
UCSORGFRONT
350
B19
  3
UCSORGLEFT
350
B17
  3
UCSORGRIGHT
350
B18
  3
UCSORGTOP
350
B15
  3
UCSORTHOREF
350
B12
  3
UCSORTHOVIEW
350
B13
  3
VERSIONGUID
350
B06
  0
XRECORD
  5
B1E
102
{ACAD_REACTORS
330
B1D
102
}
330
B1D
100
AcDbXrecord
340
1F
  0
XRECORD
  5
B1C
102
{ACAD_REACTORS
330
B1B
102
}
330
B1B
100
AcDbXrecord
340
1B
  0
MLINESTYLE
  5
18
102
{ACAD_REACTORS
330
17
102
}
330
17
100
AcDbMlineStyle
  2
STANDARD
 70
     0
  3

 62
   256
 51
90.0
 52
90.0
 71
     2
 49
0.5
 62
   256
  6
BYLAYER
 49
-0.5
 62
   256
  6
BYLAYER
  0
ACDBPLACEHOLDER
  5
F
102
{ACAD_REACTORS
330
E
102
}
330
0
100
AcDbPlaceHolder
280
     0
  0
XRECORD
  5
B04
102
{ACAD_REACTORS
330
AFA
102
}
330
AFA
100
AcDbXrecord
 90
        0
  0
XRECORD
  5
B08
102
{ACAD_REACTORS
330
AFA
102
}
330
AFA
100
AcDbXrecord
1000
DSTYLE
1002
{
1070
   278
 70
     0
1070
   342
340
223
1070
   371
 70
     0
1070
   372
 70
     0
1002
}
  0
XRECORD
  5
B05
102
{ACAD_REACTORS
330
AFA
102
}
330
AFA
100
AcDbXrecord
  1

  0
XRECORD
  5
AFD
102
{ACAD_REACTORS
330
AFA
102
}
330
AFA
100
AcDbXrecord
  1

  0
XRECORD
  5
B03
102
{ACAD_REACTORS
330
AFA
102
}
330
AFA
100
AcDbXrecord
 90
        1
  0
XRECORD
  5
AFF
102
{ACAD_REACTORS
330
AFA
102
}
330
AFA
100
AcDbXrecord
340
1A
  0
XRECORD
  5
B02
102
{ACAD_REACTORS
330
AFA
102
}
330
AFA
100
AcDbXrecord
 90
    10781
  0
XRECORD
  5
B00
102
{ACAD_REACTORS
330
AFA
102
}
330
AFA
100
AcDbXrecord
340
19
  0
XRECORD
  5
B01
102
{ACAD_REACTORS
330
AFA
102
}
330
AFA
100
AcDbXrecord
340
E
  0
XRECORD
  5
B07
102
{ACAD_REACTORS
330
AFA
102
}
330
AFA
100
AcDbXrecord
 40
0.0
  0
XRECORD
  5
B0B
102
{ACAD_REACTORS
330
AFA
102
}
330
AFA
100
AcDbXrecord
340
0
  0
XRECORD
  5
B11
102
{ACAD_REACTORS
330
AFA
102
}
330
AFA
100
AcDbXrecord
 10
0.0
 20
0.0
 30
0.0
  0
XRECORD
  5
B0D
102
{ACAD_REACTORS
330
AFA
102
}
330
AFA
100
AcDbXrecord
 10
0.0
 20
0.0
 30
0.0
  0
XRECORD
  5
B10
102
{ACAD_REACTORS
330
AFA
102
}
330
AFA
100
AcDbXrecord
 10
0.0
 20
0.0
 30
0.0
  0
XRECORD
  5
B0E
102
{ACAD_REACTORS
330
AFA
102
}
330
AFA
100
AcDbXrecord
 10
0.0
 20
0.0
 30
0.0
  0
XRECORD
  5
B0F
102
{ACAD_REACTORS
330
AFA
102
}
330
AFA
100
AcDbXrecord
 10
0.0
 20
0.0
 30
0.0
  0
XRECORD
  5
B0C
102
{ACAD_REACTORS
330
AFA
102
}
330
AFA
100
AcDbXrecord
 10
0.0
 20
0.0
 30
0.0
  0
XRECORD
  5
B09
102
{ACAD_REACTORS
330
AFA
102
}
330
AFA
100
AcDbXrecord
340
0
  0
XRECORD
  5
B0A
102
{ACAD_REACTORS
330
AFA
102
}
330
AFA
100
AcDbXrecord
 70
     0
  0
XRECORD
  5
AFE
102
{ACAD_REACTORS
330
AFA
102
}
330
AFA
100
AcDbXrecord
  1

  0
XRECORD
  5
AFB
102
{ACAD_REACTORS
330
AFA
102
}
330
AFA
100
AcDbXrecord
 90
        1
  0
XRECORD
  5
AFC
102
{ACAD_REACTORS
330
AFA
102
}
330
AFA
100
AcDbXrecord
 90
       70
  0
XRECORD
  5
B14
102
{ACAD_REACTORS
330
AFA
102
}
330
AFA
100
AcDbXrecord
340
0
  0
XRECORD
  5
B1A
102
{ACAD_REACTORS
330
AFA
102
}
330
AFA
100
AcDbXrecord
 10
0.0
 20
0.0
 30
0.0
  0
XRECORD
  5
B16
102
{ACAD_REACTORS
330
AFA
102
}
330
AFA
100
AcDbXrecord
 10
0.0
 20
0.0
 30
0.0
  0
XRECORD
  5
B19
102
{ACAD_REACTORS
330
AFA
102
}
330
AFA
100
AcDbXrecord
 10
0.0
 20
0.0
 30
0.0
  0
XRECORD
  5
B17
102
{ACAD_REACTORS
330
AFA
102
}
330
AFA
100
AcDbXrecord
 10
0.0
 20
0.0
 30
0.0
  0
XRECORD
  5
B18
102
{ACAD_REACTORS
330
AFA
102
}
330
AFA
100
AcDbXrecord
 10
0.0
 20
0.0
 30
0.0
  0
XRECORD
  5
B15
102
{ACAD_REACTORS
330
AFA
102
}
330
AFA
100
AcDbXrecord
 10
0.0
 20
0.0
 30
0.0
  0
XRECORD
  5
B12
102
{ACAD_REACTORS
330
AFA
102
}
330
AFA
100
AcDbXrecord
340
0
  0
XRECORD
  5
B13
102
{ACAD_REACTORS
330
AFA
102
}
330
AFA
100
AcDbXrecord
 70
     0
  0
XRECORD
  5
B06
102
{ACAD_REACTORS
330
AFA
102
}
330
AFA
100
AcDbXrecord
  1
{0995353B-317F-47BF-827E-133F3E52B495}
  0
ENDSEC
  0
EOF
