  0
SECTION
  2
HEADER
  9
$ACADVER
  1
AC1014
  9
$ACADMAINTVER
 70
     9
  9
$DWGCODEPAGE
  3
ANSI_1252
  9
$INSBASE
 10
0.0
 20
0.0
 30
0.0
  9
$EXTMIN
 10
-36.6924191249082
 20
-1.880508240687568
 30
0.0
  9
$EXTMAX
 10
80.11343092191415
 20
75.98266273026943
 30
0.0
  9
$LIMMIN
 10
0.0
 20
0.0
  9
$LIMMAX
 10
17.0
 20
11.0
  9
$ORTHOMODE
 70
     1
  9
$REGENMODE
 70
     1
  9
$FILLMODE
 70
     1
  9
$QTEXTMODE
 70
     0
  9
$MIRRTEXT
 70
     1
  9
$DRAGMODE
 70
     2
  9
$LTSCALE
 40
0.9350000000000001
  9
$OSMODE
 70
    37
  9
$ATTMODE
 70
     1
  9
$TEXTSIZE
 40
0.2
  9
$TRACEWID
 40
0.05
  9
$TEXTSTYLE
  7
STANDARD
  9
$CLAYER
  8
0
  9
$CELTYPE
  6
BYLAYER
  9
$CECOLOR
 62
   256
  9
$CELTSCALE
 40
1.0
  9
$DELOBJ
 70
     1
  9
$DISPSILH
 70
     0
  9
$DIMSCALE
 40
1.0
  9
$DIMASZ
 40
0.1875
  9
$DIMEXO
 40
0.10625
  9
$DIMDLI
 40
0.646
  9
$DIMRND
 40
0.0
  9
$DIMDLE
 40
0.0
  9
$DIMEXE
 40
0.306
  9
$DIMTP
 40
0.0
  9
$DIMTM
 40
0.0
  9
$DIMTXT
 40
0.125
  9
$DIMCEN
 40
0.153
  9
$DIMTSZ
 40
0.0
  9
$DIMTOL
 70
     0
  9
$DIMLIM
 70
     0
  9
$DIMTIH
 70
     1
  9
$DIMTOH
 70
     1
  9
$DIMSE1
 70
     0
  9
$DIMSE2
 70
     0
  9
$DIMTAD
 70
     0
  9
$DIMZIN
 70
     0
  9
$DIMBLK
  1
_FILLED
  9
$DIMASO
 70
     1
  9
$DIMSHO
 70
     1
  9
$DIMPOST
  1

  9
$DIMAPOST
  1

  9
$DIMALT
 70
     0
  9
$DIMALTD
 70
     2
  9
$DIMALTF
 40
25.4
  9
$DIMLFAC
 40
1.0
  9
$DIMTOFL
 70
     0
  9
$DIMTVP
 40
0.0
  9
$DIMTIX
 70
     0
  9
$DIMSOXD
 70
     0
  9
$DIMSAH
 70
     0
  9
$DIMBLK1
  1

  9
$DIMBLK2
  1

  9
$DIMSTYLE
  2
STANDARD
  9
$DIMCLRD
 70
     0
  9
$DIMCLRE
 70
     0
  9
$DIMCLRT
 70
     0
  9
$DIMTFAC
 40
1.0
  9
$DIMGAP
 40
0.09
  9
$DIMJUST
 70
     0
  9
$DIMSD1
 70
     0
  9
$DIMSD2
 70
     0
  9
$DIMTOLJ
 70
     1
  9
$DIMTZIN
 70
     0
  9
$DIMALTZ
 70
     0
  9
$DIMALTTZ
 70
     0
  9
$DIMFIT
 70
     3
  9
$DIMUPT
 70
     0
  9
$DIMUNIT
 70
     2
  9
$DIMDEC
 70
     4
  9
$DIMTDEC
 70
     4
  9
$DIMALTU
 70
     2
  9
$DIMALTTD
 70
     2
  9
$DIMTXSTY
  7
STANDARD
  9
$DIMAUNIT
 70
     0
  9
$LUNITS
 70
     2
  9
$LUPREC
 70
     4
  9
$SKETCHINC
 40
0.1
  9
$FILLETRAD
 40
0.0
  9
$AUNITS
 70
     0
  9
$AUPREC
 70
     0
  9
$MENU
  1
acad
  9
$ELEVATION
 40
0.0
  9
$PELEVATION
 40
0.0
  9
$THICKNESS
 40
0.0
  9
$LIMCHECK
 70
     0
  9
$BLIPMODE
 70
     0
  9
$CHAMFERA
 40
0.0
  9
$CHAMFERB
 40
0.0
  9
$CHAMFERC
 40
0.0
  9
$CHAMFERD
 40
0.0
  9
$SKPOLY
 70
     0
  9
$TDCREATE
 40
2454054.494601446
  9
$TDUPDATE
 40
2454071.694011261
  9
$TDINDWG
 40
0.1114947106
  9
$TDUSRTIMER
 40
0.1114947106
  9
$USRTIMER
 70
     1
  9
$ANGBASE
 50
0.0
  9
$ANGDIR
 70
     0
  9
$PDMODE
 70
     3
  9
$PDSIZE
 40
0.03125
  9
$PLINEWID
 40
0.0
  9
$COORDS
 70
     0
  9
$SPLFRAME
 70
     0
  9
$SPLINETYPE
 70
     6
  9
$SPLINESEGS
 70
     8
  9
$ATTDIA
 70
     0
  9
$ATTREQ
 70
     1
  9
$HANDLING
 70
-16383
  9
$HANDSEED
  5
1291
  9
$SURFTAB1
 70
     6
  9
$SURFTAB2
 70
     6
  9
$SURFTYPE
 70
     6
  9
$SURFU
 70
     6
  9
$SURFV
 70
     6
  9
$UCSNAME
  2

  9
$UCSORG
 10
0.0
 20
0.0
 30
0.0
  9
$UCSXDIR
 10
1.0
 20
0.0
 30
0.0
  9
$UCSYDIR
 10
0.0
 20
1.0
 30
0.0
  9
$PUCSNAME
  2

  9
$PUCSORG
 10
0.0
 20
0.0
 30
0.0
  9
$PUCSXDIR
 10
1.0
 20
0.0
 30
0.0
  9
$PUCSYDIR
 10
0.0
 20
1.0
 30
0.0
  9
$USERI1
 70
     0
  9
$USERI2
 70
     0
  9
$USERI3
 70
     0
  9
$USERI4
 70
     0
  9
$USERI5
 70
     0
  9
$USERR1
 40
0.0
  9
$USERR2
 40
0.0
  9
$USERR3
 40
0.0
  9
$USERR4
 40
0.0
  9
$USERR5
 40
0.0
  9
$WORLDVIEW
 70
     1
  9
$SHADEDGE
 70
     3
  9
$SHADEDIF
 70
    70
  9
$TILEMODE
 70
     1
  9
$MAXACTVP
 70
    16
  9
$PINSBASE
 10
0.0
 20
0.0
 30
0.0
  9
$PLIMCHECK
 70
     0
  9
$PEXTMIN
 10
1.000000000000000E+20
 20
1.000000000000000E+20
 30
1.000000000000000E+20
  9
$PEXTMAX
 10
-1.000000000000000E+20
 20
-1.000000000000000E+20
 30
-1.000000000000000E+20
  9
$PLIMMIN
 10
0.0
 20
0.0
  9
$PLIMMAX
 10
12.0
 20
9.0
  9
$UNITMODE
 70
     0
  9
$VISRETAIN
 70
     0
  9
$PLINEGEN
 70
     1
  9
$PSLTSCALE
 70
     0
  9
$TREEDEPTH
 70
  3020
  9
$PICKSTYLE
 70
     1
  9
$CMLSTYLE
  2
STANDARD
  9
$CMLJUST
 70
     0
  9
$CMLSCALE
 40
1.0
  9
$PROXYGRAPHICS
 70
     0
  9
$MEASUREMENT
 70
     0
  0
ENDSEC
  0
SECTION
  2
CLASSES
  0
CLASS
  1
ACDBDICTIONARYWDFLT
  2
AcDbDictionaryWithDefault
  3
AutoCAD 2000
 90
        0
280
     0
281
     0
  0
CLASS
  1
ACDBPLACEHOLDER
  2
AcDbPlaceHolder
  3
AutoCAD 2000
 90
        0
280
     0
281
     0
  0
CLASS
  1
LAYOUT
  2
AcDbLayout
  3
AutoCAD 2000
 90
        0
280
     0
281
     0
  0
CLASS
  1
LWPOLYLINE
  2
AcDbPolyline
  3
AutoCAD 2000
 90
        0
280
     0
281
     1
  0
CLASS
  1
IMAGE
  2
AcDbRasterImage
  3
ISM
 90
      127
280
     0
281
     1
  0
CLASS
  1
OLE2FRAME
  2
AcDbOle2Frame
  3
AutoCAD 2000
 90
        0
280
     0
281
     1
  0
CLASS
  1
HATCH
  2
AcDbHatch
  3
AutoCAD 2000
 90
        0
280
     0
281
     1
  0
CLASS
  1
DICTIONARYVAR
  2
AcDbDictionaryVar
  3
AutoCAD 2000
 90
        0
280
     0
281
     0
  0
CLASS
  1
RASTERVARIABLES
  2
AcDbRasterVariables
  3
ISM
 90
        0
280
     0
281
     0
  0
CLASS
  1
IMAGEDEF
  2
AcDbRasterImageDef
  3
ISM
 90
        0
280
     0
281
     0
  0
CLASS
  1
IMAGEDEF_REACTOR
  2
AcDbRasterImageDefReactor
  3
ISM
 90
        1
280
     0
281
     0
  0
CLASS
  1
IDBUFFER
  2
AcDbIdBuffer
  3
AutoCAD 2000
 90
        0
280
     0
281
     0
  0
CLASS
  1
SPATIAL_FILTER
  2
AcDbSpatialFilter
  3
AutoCAD 2000
 90
        0
280
     0
281
     0
  0
CLASS
  1
XRECORD
  2
AcDbXrecord
  3
AutoCAD 2000
 90
        0
280
     0
281
     0
  0
CLASS
  1
SORTENTSTABLE
  2
AcDbSortentsTable
  3
AutoCAD 2000
 90
        0
280
     0
281
     0
  0
CLASS
  1
LAYER_INDEX
  2
AcDbLayerIndex
  3
AutoCAD 2000
 90
        0
280
     0
281
     0
  0
CLASS
  1
SPATIAL_INDEX
  2
AcDbSpatialIndex
  3
AutoCAD 2000
 90
        0
280
     0
281
     0
  0
CLASS
  1
OBJECT_PTR
  2
CAseDLPNTableRecord
  3
ASE-LPNTableRecord
 90
        1
280
     0
281
     0
  0
CLASS
  1
PLOTSETTINGS
  2
AcDbPlotSettings
  3
AutoCAD 2000
 90
        0
280
     0
281
     0
  0
CLASS
  1
VBA_PROJECT
  2
AcDbVbaProject
  3
acadvba
 90
        0
280
     0
281
     0
  0
CLASS
  1
WIPEOUT
  2
AcDbWipeout
  3
WipeOut|AutoCAD Express Tool|expresstools@autodesk.com
 90
      127
280
     0
281
     1
  0
CLASS
  1
WIPEOUTVARIABLES
  2
AcDbWipeoutVariables
  3
WipeOut|AutoCAD Express Tool|expresstools@autodesk.com
 90
        0
280
     0
281
     0
  0
CLASS
  1
RTEXT
  2
RText
  3
RText|AutoCAD Express Tool|expresstools@autodesk.com
 90
        0
280
     0
281
     1
  0
CLASS
  1
ARCALIGNEDTEXT
  2
AcDbArcAlignedText
  3
ATEXT|AutoCAD Express Tool|expresstools@autodesk.com
 90
        0
280
     0
281
     1
  0
CLASS
  1
LONG_TRANSACTION
  2
AcDbLongTransaction
  3
AutoCAD 2000
 90
        0
280
     0
281
     0
  0
CLASS
  1
LWPOLYLINE
  2
AcDbPolyline
  3
AutoCAD 2000
 90
        0
280
     0
281
     1
  0
CLASS
  1
HATCH
  2
AcDbHatch
  3
AutoCAD 2000
 90
        0
280
     0
281
     1
  0
CLASS
  1
XRECORD
  2
AcDbXrecord
  3
AutoCAD 2000
 90
        0
280
     0
281
     0
  0
ENDSEC
  0
SECTION
  2
TABLES
  0
TABLE
  2
VPORT
  5
8
330
0
100
AcDbSymbolTable
 70
     3
  0
VPORT
  5
126B
330
8
100
AcDbSymbolTableRecord
100
AcDbViewportTableRecord
  2
*ACTIVE
 70
     0
 10
0.0
 20
0.0
 11
1.0
 21
1.0
 12
1.969544246920236
 22
9.112690049965067
 13
0.0
 23
0.0
 14
1.0
 24
1.0
 15
0.0
 25
0.0
 16
0.0
 26
0.0
 36
1.0
 17
0.0
 27
0.0
 37
0.0
 40
47.4623272731087
 41
1.745424292845257
 42
50.0
 43
0.0
 44
0.0
 50
0.0
 51
0.0
 71
     0
 72
   100
 73
     1
 74
     1
 75
     0
 76
     0
 77
     0
 78
     0
  0
ENDTAB
  0
TABLE
  2
LTYPE
  5
5
330
0
100
AcDbSymbolTable
 70
     3
  0
LTYPE
  5
14
330
5
100
AcDbSymbolTableRecord
100
AcDbLinetypeTableRecord
  2
BYBLOCK
 70
     0
  3

 72
    65
 73
     0
 40
0.0
  0
LTYPE
  5
15
330
5
100
AcDbSymbolTableRecord
100
AcDbLinetypeTableRecord
  2
BYLAYER
 70
     0
  3

 72
    65
 73
     0
 40
0.0
  0
LTYPE
  5
16
330
5
100
AcDbSymbolTableRecord
100
AcDbLinetypeTableRecord
  2
CONTINUOUS
 70
     0
  3
Solid line
 72
    65
 73
     0
 40
0.0
  0
LTYPE
  5
1F6
330
5
100
AcDbSymbolTableRecord
100
AcDbLinetypeTableRecord
  2
HIDDEN
 70
     0
  3
- - - - - - - - - - - - - - - - - - - -
 72
    65
 73
     2
 40
0.2
 49
0.1
 74
     0
 49
-0.1
 74
     0
  0
LTYPE
  5
B03
330
5
100
AcDbSymbolTableRecord
100
AcDbLinetypeTableRecord
  2
CENTERX2
 70
     0
  3
Center (2x) ________  __  ________  __  _____
 72
    65
 73
     4
 40
4.0
 49
2.5
 74
     0
 49
-0.5
 74
     0
 49
0.5
 74
     0
 49
-0.5
 74
     0
  0
ENDTAB
  0
TABLE
  2
LAYER
  5
2
330
0
100
AcDbSymbolTable
 70
     3
  0
LAYER
  5
10
330
2
100
AcDbSymbolTableRecord
100
AcDbLayerTableRecord
  2
0
 70
     0
 62
     7
  6
CONTINUOUS
  0
LAYER
  5
AF8
330
2
100
AcDbSymbolTableRecord
100
AcDbLayerTableRecord
  2
DEFPOINTS
 70
     0
 62
     7
  6
CONTINUOUS
  0
LAYER
  5
B04
330
2
100
AcDbSymbolTableRecord
100
AcDbLayerTableRecord
  2
CENTER
 70
     0
 62
     1
  6
CENTERX2
  0
ENDTAB
  0
TABLE
  2
STYLE
  5
3
330
0
100
AcDbSymbolTable
 70
     2
  0
STYLE
  5
11
330
3
100
AcDbSymbolTableRecord
100
AcDbTextStyleTableRecord
  2
STANDARD
 70
     0
 40
0.0
 41
0.8
 50
0.0
 71
     0
 42
0.2
  3
txt
  4

  0
STYLE
  5
21E
330
3
100
AcDbSymbolTableRecord
100
AcDbTextStyleTableRecord
  2
TEXTSTYLE_1
 70
     0
 40
0.0
 41
0.8
 50
0.0
 71
     0
 42
0.2
  3
txt
  4

  0
ENDTAB
  0
TABLE
  2
VIEW
  5
6
330
0
100
AcDbSymbolTable
 70
     0
  0
ENDTAB
  0
TABLE
  2
UCS
  5
7
330
0
100
AcDbSymbolTable
 70
     0
  0
ENDTAB
  0
TABLE
  2
APPID
  5
9
330
0
100
AcDbSymbolTable
 70
     2
  0
APPID
  5
222
330
9
100
AcDbSymbolTableRecord
100
AcDbRegAppTableRecord
  2
ACAD
 70
     0
  0
APPID
  5
AF5
330
9
100
AcDbSymbolTableRecord
100
AcDbRegAppTableRecord
  2
DCO15
 70
     0
  0
ENDTAB
  0
TABLE
  2
DIMSTYLE
  5
A
330
0
100
AcDbSymbolTable
 70
     1
  0
DIMSTYLE
105
23C
330
A
100
AcDbSymbolTableRecord
100
AcDbDimStyleTableRecord
  2
STANDARD
 70
     0
  3

  4

  5
_FILLED
  6
_FILLED
  7
_FILLED
 40
1.0
 41
0.1875
 42
0.0625
 43
0.38
 44
0.18
 45
0.0
 46
0.0
 47
0.00001
 48
0.00001
140
0.125
141
0.09
142
0.0
143
25.4
144
1.0
145
0.0
146
1.0
147
0.09
 71
     0
 72
     0
 73
     1
 74
     1
 75
     0
 76
     0
 77
     0
 78
     4
170
     0
171
     2
172
     0
173
     0
174
     0
175
     0
176
     0
177
     0
178
     0
270
     2
271
     5
272
     5
273
     2
274
     2
340
11
275
     0
280
     0
281
     0
282
     0
283
     1
284
     4
285
     0
286
     0
287
     3
288
     0
  0
ENDTAB
  0
TABLE
  2
BLOCK_RECORD
  5
1
330
0
100
AcDbSymbolTable
 70
     1
  0
BLOCK_RECORD
  5
1F
102
{ACAD_XDICTIONARY
360
128F
102
}
330
1
100
AcDbSymbolTableRecord
100
AcDbBlockTableRecord
  2
*MODEL_SPACE
  0
BLOCK_RECORD
  5
1B
102
{ACAD_XDICTIONARY
360
128D
102
}
330
1
100
AcDbSymbolTableRecord
100
AcDbBlockTableRecord
  2
*PAPER_SPACE
  0
BLOCK_RECORD
  5
223
330
1
100
AcDbSymbolTableRecord
100
AcDbBlockTableRecord
  2
_FILLED
  0
ENDTAB
  0
ENDSEC
  0
SECTION
  2
BLOCKS
  0
BLOCK
  5
20
330
1F
100
AcDbEntity
  8
0
100
AcDbBlockBegin
  2
*MODEL_SPACE
 70
     0
 10
0.0
 20
0.0
 30
0.0
  3
*MODEL_SPACE
  1

  0
ENDBLK
  5
21
330
1F
100
AcDbEntity
  8
0
100
AcDbBlockEnd
  0
BLOCK
  5
1C
330
1B
100
AcDbEntity
 67
     1
  8
0
100
AcDbBlockBegin
  2
*PAPER_SPACE
 70
     0
 10
0.0
 20
0.0
 30
0.0
  3
*PAPER_SPACE
  1

  0
ENDBLK
  5
1D
330
1B
100
AcDbEntity
 67
     1
  8
0
100
AcDbBlockEnd
  0
BLOCK
  5
514
330
223
100
AcDbEntity
  8
0
100
AcDbBlockBegin
  2
_FILLED
 70
     0
 10
0.0
 20
0.0
 30
0.0
  3
_FILLED
  1

  0
SOLID
  5
515
330
223
100
AcDbEntity
  8
0
  6
BYBLOCK
 62
     0
100
AcDbTrace
 10
0.0
 20
0.0
 30
0.0
 11
-1.0
 21
0.1666666667
 31
0.0
 12
-1.0
 22
-0.1666666667
 32
0.0
 13
-1.0
 23
-0.1666666667
 33
0.0
  0
ENDBLK
  5
516
330
223
100
AcDbEntity
  8
0
  6
BYBLOCK
 62
     0
100
AcDbBlockEnd
  0
ENDSEC
  0
SECTION
  2
ENTITIES
  0
MTEXT
  5
585
330
1F
100
AcDbEntity
  8
0
  6
CONTINUOUS
 62
     2
100
AcDbMText
 10
15.84375
 20
2.3125
 30
0.0
 40
0.09375
 41
0.075
 71
     2
 72
     1
  1
 \P \P 
  7
TEXTSTYLE_1
1001
ACAD
1000
MTEXTBEGIN
1070
    73
1070
     1
1070
    44
1040
1.0
1070
    74
1070
     0
1000
MTEXTEND
  0
LINE
  5
A04
330
1F
100
AcDbEntity
  8
0
  6
CONTINUOUS
 62
     7
100
AcDbLine
 10
-35.70847309834846
 20
17.75569291395087
 30
0.0
 11
35.70847312245153
 21
17.75569291395087
 31
0.0
  0
LINE
  5
A06
330
1F
100
AcDbEntity
  8
0
  6
CONTINUOUS
 62
     7
100
AcDbLine
 10
-35.67097966474847
 20
18.32005862435089
 30
0.0
 11
35.6709796873628
 21
18.32005862435088
 31
0.0
  0
LINE
  5
A0C
330
1F
100
AcDbEntity
  8
0
  6
HIDDEN
 62
     8
100
AcDbLine
 10
34.96855494005153
 20
20.74990585635087
 30
0.0
 11
31.55628328885153
 21
20.63670682595089
 31
0.0
  0
LINE
  5
A1C
330
1F
100
AcDbEntity
  8
0
  6
HIDDEN
 62
     8
100
AcDbLine
 10
31.10907804565154
 20
20.25569291395088
 30
0.0
 11
31.19750001205153
 21
20.25569291395088
 31
0.0
  0
LINE
  5
A1D
330
1F
100
AcDbEntity
  8
0
  6
CONTINUOUS
 62
     7
100
AcDbLine
 10
-35.22740864554846
 20
20.34868470915087
 30
0.0
 11
35.22740866542288
 21
20.34868470915087
 31
0.0
  0
LINE
  5
A52
330
1F
100
AcDbEntity
  8
0
  6
CONTINUOUS
 62
     7
100
AcDbLine
 10
35.30578652885152
 20
20.32533776035087
 30
0.0
 11
35.22740866005154
 21
20.34868471075087
 31
0.0
  0
LINE
  5
A72
330
1F
100
AcDbEntity
  8
0
  6
HIDDEN
 62
     8
100
AcDbLine
 10
30.94608432885152
 20
20.16087137795089
 30
0.0
 11
29.57849586562823
 21
17.75569291395087
 31
0.0
  0
LWPOLYLINE
  5
A74
330
1F
100
AcDbEntity
  8
0
  6
CONTINUOUS
 62
     7
100
AcDbPolyline
 90
       23
 70
     0
 43
0.0
 10
35.67097963765152
 20
18.32005857155088
 10
35.73519338005152
 20
18.39496007715088
 10
35.79544942805152
 20
18.47986149475088
 10
35.84996768565153
 20
18.57372138595088
 10
35.89727839765153
 20
18.67513750435089
 10
35.93658772725153
 20
18.78346071235086
 10
35.96705747125153
 20
18.89768559875089
 10
35.98786720885154
 20
19.01603781795087
 10
35.99853871605152
 20
19.13683616515087
 10
35.99882392405153
 20
19.25916541475087
 10
35.98861927285153
 20
19.38079418915087
 10
35.96827983925154
 20
19.49935505795089
 10
35.93836388245154
 20
19.61347321635089
 10
35.89947041045153
 20
19.72216210435088
 10
35.85260990165153
 20
19.82382175235089
 10
35.79900283765153
 20
19.91721405155088
 10
35.73929764565153
 20
20.00238646115088
 10
35.67441742805153
 20
20.07890052515089
 10
35.60552575125153
 20
20.14624901475089
 10
35.53371770645154
 20
20.20425492675089
 10
35.45941610165153
 20
20.25332943875089
 10
35.38332811765153
 20
20.29359278595087
 10
35.30578652885152
 20
20.32533776035087
  0
LINE
  5
A7C
330
1F
100
AcDbEntity
  8
0
  6
HIDDEN
 62
     8
100
AcDbLine
 10
31.37500001205153
 20
20.43319291395088
 30
0.0
 11
31.37500001205153
 21
20.44930991555089
 31
0.0
  0
LINE
  5
A7F
330
1F
100
AcDbEntity
  8
0
  6
CONTINUOUS
 62
     7
100
AcDbLine
 10
35.16124451765154
 20
20.58210803235088
 30
0.0
 11
35.18008359925153
 21
20.40286613955087
 31
0.0
  0
LINE
  5
A81
330
1F
100
AcDbEntity
  8
0
  6
CONTINUOUS
 62
     7
100
AcDbLine
 10
35.65434369685152
 20
18.27070000195088
 30
0.0
 11
35.70847312245153
 21
17.75569291395087
 31
0.0
  0
ARC
  5
AD1
330
1F
100
AcDbEntity
  8
0
  6
HIDDEN
 62
     8
100
AcDbCircle
 10
31.19750001205154
 20
20.43319291395088
 30
0.0
 40
0.1775
100
AcDbArc
 50
270.0
 51
359.9999999552999
  0
ARC
  5
AD3
330
1F
100
AcDbEntity
  8
0
  6
CONTINUOUS
 62
     7
100
AcDbCircle
 10
35.24224121845155
 20
20.40939916835087
 30
0.0
 40
0.0625
100
AcDbArc
 50
186.0
 51
256.2715340177999
  0
ARC
  5
AD5
330
1F
100
AcDbEntity
  8
0
  6
CONTINUOUS
 62
     7
100
AcDbCircle
 10
35.71650131445155
 20
18.27723303075087
 30
0.0
 40
0.0625
100
AcDbArc
 50
136.7479142127
 51
186.0
  0
ARC
  5
AD6
330
1F
100
AcDbEntity
  8
0
  6
CONTINUOUS
 62
     7
100
AcDbCircle
 10
34.97477165845153
 20
20.56250894595087
 30
0.0
 40
0.1875
100
AcDbArc
 50
5.999999655299999
 51
89.9415950915
  0
ARC
  5
AD7
330
1F
100
AcDbEntity
  8
0
  6
HIDDEN
 62
     8
100
AcDbCircle
 10
31.56250000725153
 20
20.44930991555089
 30
0.0
 40
0.1875
100
AcDbArc
 50
91.90003738619997
 51
180.0000000015
  0
ARC
  5
ADC
330
1F
100
AcDbEntity
  8
0
  6
HIDDEN
 62
     8
100
AcDbCircle
 10
31.10907804565154
 20
20.06819291395087
 30
0.0
 40
0.1875
100
AcDbArc
 50
89.9983105055
 51
150.377378136
  0
LINE
  5
F9D
330
1F
100
AcDbEntity
  8
0
100
AcDbLine
 10
-15.56655426353202
 20
0.1013494544000011
 30
0.0
 11
15.56655426816595
 21
0.1013494544000082
 31
0.0
  0
LWPOLYLINE
  5
FA1
330
1F
100
AcDbEntity
  8
0
100
AcDbPolyline
 90
       22
 70
     0
 43
0.0
 10
-1.990330674477917
 20
1.620612998400005
 10
-2.210328408877899
 20
1.623813944000005
 10
-2.48323756567791
 20
1.627891249600004
 10
-2.764330669677917
 20
1.632199032000002
 10
-3.053125226477902
 20
1.636725307200002
 10
-3.34945358167792
 20
1.641463358400002
 10
-3.653495146477894
 20
1.646412603200005
 10
-3.965598586477909
 20
1.651575924800006
 10
-4.285606103277899
 20
1.656948280000001
 10
-4.613431872877896
 20
1.662525881600004
 10
-4.949121730477912
 20
1.668307267200006
 10
-5.292858866477899
 20
1.674293460800008
 10
-5.644976274477897
 20
1.680488256000003
 10
-6.005798508077901
 20
1.686895441600007
 10
-6.375025349677912
 20
1.693507635200006
 10
-6.752269036077905
 20
1.700315521600003
 10
-7.137206248877902
 20
1.707310584000005
 10
-7.529579146477914
 20
1.714485168000003
 10
-7.929197112877915
 20
1.721832564800003
 10
-8.335916560877905
 20
1.729346652800003
 10
-8.749408906477896
 20
1.737017606400002
 10
-9.595398714477909
 20
1.752789192000008
  0
LWPOLYLINE
  5
FA2
330
1F
100
AcDbEntity
  8
0
100
AcDbPolyline
 90
       13
 70
     0
 43
0.0
 10
-3.665161742850415
 20
15.6822397408
 10
-4.142840378050436
 20
15.2240908496
 10
-4.656647366850421
 20
14.774442808
 10
-5.209829133250423
 20
14.3326971072
 10
-5.806766414850415
 20
13.8980148384
 10
-6.452585219650416
 20
13.4698143952
 10
-7.153261477250424
 20
13.047802496
 10
-7.915785627650421
 20
12.6319977808
 10
-8.749050142850421
 20
12.2224572576
 10
-9.661029824450423
 20
11.82079914079999
 10
-10.65161604525042
 20
11.4324736416
 10
-11.69215369325041
 20
11.0715072288
 10
-12.70797017485043
 20
10.75994896639999
  0
LWPOLYLINE
  5
FA3
330
1F
100
AcDbEntity
  8
0
  6
HIDDEN
 62
     8
100
AcDbPolyline
 90
       27
 70
     0
 43
0.0
 10
-5.939945747650426
 20
16.50344744479999
 10
-5.800052997250418
 20
16.4471967904
 10
-5.658960021250436
 20
16.39478351359999
 10
-5.51676615725043
 20
16.3459531552
 10
-5.373570741250432
 20
16.30045125759999
 10
-5.229473112450421
 20
16.2580233632
 10
-5.084572608450429
 20
16.2184150128
 10
-4.923126334850422
 20
16.1774945712
 10
-4.760950830850418
 20
16.1393796384
 10
-4.598181416450415
 20
16.1037235808
 10
-4.434953414850411
 20
16.07017976
 10
-4.203766029250431
 20
16.0258558608
 10
-3.971980467650411
 20
15.9849158416
 10
-3.739643810050438
 20
15.9472193088
 10
-3.506803141250429
 20
15.9126258768
 10
-3.273505544450415
 20
15.8809951504
 10
-3.039798099650425
 20
15.8521867424
 10
-2.73686841965042
 20
15.818870792
 10
-2.43343338925041
 20
15.7897408544
 10
-2.129595003650422
 20
15.7644928
 10
-1.825455256450425
 20
15.7428225024
 10
-1.521116146050417
 20
15.7244258288
 10
-1.216679667650424
 20
15.7089986544
 10
-0.9122478164504173
 20
15.6962368464
 10
-0.6079225876504211
 20
15.6858362784
 10
-0.3038059764504339
 20
15.6774928208
 10
0.0000000187495743
 20
15.670902344
  0
LWPOLYLINE
  5
FA4
330
1F
100
AcDbEntity
  8
0
  6
HIDDEN
 62
     8
100
AcDbPolyline
 90
       30
 70
     0
 43
0.0
 10
-5.093710963650437
 20
17.74530021279999
 10
-4.99932356205042
 20
17.69206245919999
 10
-4.903278168450412
 20
17.6422670912
 10
-4.80571627085041
 20
17.595724296
 10
-4.706779362050411
 20
17.5522442608
 10
-4.600611600450434
 20
17.50930697119999
 10
-4.493227410050423
 20
17.4693690032
 10
-4.38479507245043
 20
17.43220459999999
 10
-4.275482874050425
 20
17.3975880016
 10
-4.165459099650433
 20
17.36529344799999
 10
-4.01621643405042
 20
17.3250692688
 10
-3.866101742850418
 20
17.28838120959999
 10
-3.715230904450436
 20
17.25495355359999
 10
-3.563719802050428
 20
17.2245105872
 10
-3.411684314050432
 20
17.196776592
 10
-3.259240325250431
 20
17.171475856
 10
-3.061406474050414
 20
17.1419186352
 10
-2.863145254850422
 20
17.1156025712
 10
-2.664519883650427
 20
17.09215168
 10
-2.46559357645043
 20
17.0711899808
 10
-2.266429546050432
 20
17.052341488
 10
-2.067091008450432
 20
17.03523022079999
 10
-1.795189264450414
 20
17.0142208928
 10
-1.523107227650427
 20
16.9959616736
 10
-1.250871382850419
 20
16.9806735312
 10
-0.9785082132504214
 20
16.96857743839999
 10
-0.7060442004504353
 20
16.9598943696
 10
-0.4335058308504359
 20
16.95484529439999
 10
-0.2167613828504216
 20
16.95357107039999
 10
0.0000000187495743
 20
16.95484529439999
  0
LINE
  5
FAC
330
1F
100
AcDbEntity
  8
0
100
AcDbLine
 10
-24.9521444360779
 20
9.556103947200007
 30
0.0
 11
-29.6144443172856
 21
17.75569291395087
 31
0.0
  0
LINE
  5
FAD
330
1F
100
AcDbEntity
  8
0
100
AcDbLine
 10
-5.14432777042964
 20
1.39829383859994
 30
0.0
 11
-5.550425987696968
 21
0.6327375099853754
 31
0.0
  0
LINE
  5
FAE
330
1F
100
AcDbEntity
  8
0
100
AcDbLine
 10
-16.44933480031102
 20
0.6315638395880967
 30
0.0
 11
-16.98148339354975
 21
1.63153149711961
 31
0.0
  0
ARC
  5
FAF
330
1F
100
AcDbEntity
  8
0
100
AcDbCircle
 10
-15.56655426353202
 20
1.101349454400008
 30
0.0
 40
1.0
100
AcDbArc
 50
208.0203812298698
 51
270.0
  0
ARC
  5
FB0
330
1F
100
AcDbEntity
  8
0
100
AcDbCircle
 10
-6.433830111273437
 20
1.101349454400008
 30
0.0
 40
1.0
100
AcDbArc
 50
270.0
 51
332.0557674899264
  0
LWPOLYLINE
  5
FB1
330
1F
100
AcDbEntity
  8
0
100
AcDbPolyline
 90
        6
 70
     0
 43
0.0
 10
-16.1987537736779
 20
1.873816849600004
 10
-16.36440553847791
 20
1.876697302400003
 10
-16.7900957128779
 20
1.884374374400003
 10
-17.2079575288779
 20
1.892363195200005
 10
-17.61048655767791
 20
1.900565417600006
 10
-17.98357294967789
 20
1.908687172800007
  0
LWPOLYLINE
  5
FB2
330
1F
100
AcDbEntity
  8
0
100
AcDbPolyline
 90
       16
 70
     0
 43
0.0
 10
-16.40987690125044
 20
9.902914217600006
 10
-16.79653382925042
 20
9.8347822192
 10
-17.14976702445042
 20
9.775641212800003
 10
-17.47549646605043
 20
9.723657068800001
 10
-17.77906197005043
 20
9.677359580800008
 10
-18.06433340845043
 20
9.635699302400006
 10
-18.33474768525042
 20
9.597826507200004
 10
-18.60311350765042
 20
9.561766625600007
 10
-18.87888273805043
 20
9.526265379200005
 10
-19.16445749485044
 20
9.491129608000001
 10
-19.46098460205041
 20
9.456365020799999
 10
-19.76937691565044
 20
9.422030209600002
 10
-20.09020278125043
 20
9.388241777600008
 10
-20.42376094765043
 20
9.355157151999996
 10
-20.76982725005044
 20
9.322989126399995
 10
-21.12761556525043
 20
9.291992411200006
  0
LINE
  5
FB3
330
1F
100
AcDbEntity
  8
0
100
AcDbLine
 10
-24.58950735127791
 20
8.629716425600001
 30
0.0
 11
-23.42728554167791
 21
3.648511340800006
 31
0.0
  0
LWPOLYLINE
  5
FB4
330
1F
100
AcDbEntity
  8
0
100
AcDbPolyline
 90
       44
 70
     0
 43
0.0
 10
-20.56438414967792
 20
1.992243158400007
 10
-20.65596551447791
 20
1.996853489600006
 10
-20.74226016087791
 20
2.001391737600002
 10
-20.82350555287792
 20
2.005858411200001
 10
-20.89993372407789
 20
2.010254801600005
 10
-20.97179691447792
 20
2.014584433600006
 10
-21.0393514088779
 20
2.018852316800007
 10
-21.1028478712779
 20
2.023064372800007
 10
-21.16255336567789
 20
2.027229080000005
 10
-21.21874905047789
 20
2.031357942400006
 10
-21.27172090647789
 20
2.035465017600003
 10
-21.32177536567789
 20
2.039568718400005
 10
-21.3692302936779
 20
2.043692089600007
 10
-21.41438650487791
 20
2.047860788800008
 10
-21.45754822167791
 20
2.052105433600004
 10
-21.49905308887789
 20
2.056465795200004
 10
-21.53928154967789
 20
2.060993993600007
 10
-21.5787146424779
 20
2.065764860800008
 10
-21.6178999464779
 20
2.070878270400008
 10
-21.65744842007791
 20
2.076465833600003
 10
-21.6980698200779
 20
2.082705796800006
 10
-21.7404705992779
 20
2.089820028800005
 10
-21.7850650872779
 20
2.098029113600006
 10
-21.83211990487791
 20
2.107567208000006
 10
-21.8818008696779
 20
2.118684428800001
 10
-21.9347253672779
 20
2.131783654400003
 10
-21.99178245527789
 20
2.147436860800006
 10
-22.05390379127791
 20
2.166377201600006
 10
-22.1218141480779
 20
2.189458134400005
 10
-22.1954182760779
 20
2.217419923200004
 10
-22.27422539127789
 20
2.250944396800008
 10
-22.35740504887789
 20
2.290604385600005
 10
-22.44398558487791
 20
2.336886912000004
 10
-22.53294452887792
 20
2.390201758400003
 10
-22.62320799447789
 20
2.450855249600003
 10
-22.71362688727791
 20
2.519000622400007
 10
-22.8032519848779
 20
2.594833667200006
 10
-22.89182342807791
 20
2.679172123200004
 10
-22.97900120727792
 20
2.773031777600003
 10
-23.06417737207789
 20
2.877498036800005
 10
-23.1462489992779
 20
2.993413702400005
 10
-23.22352125687791
 20
3.120988577600002
 10
-23.29415559287789
 20
3.260169240000003
 10
-23.31900127767789
 20
3.316379836800003
  0
LINE
  5
FB5
330
1F
100
AcDbEntity
  8
0
100
AcDbLine
 10
-23.3191668952779
 20
3.316770481599995
 30
0.0
 11
-23.34771070647789
 21
3.387806334400004
 31
0.0
  0
LINE
  5
FB6
330
1F
100
AcDbEntity
  8
0
100
AcDbLine
 10
-23.3191668952779
 20
3.316770481599995
 30
0.0
 11
-23.31900127767789
 21
3.316379836800003
 31
0.0
  0
LWPOLYLINE
  5
FB7
330
1F
100
AcDbEntity
  8
0
100
AcDbPolyline
 90
        4
 70
     0
 43
0.0
 10
-23.34772569687791
 20
3.387845771200005
 10
-23.35543258327791
 20
3.408455673600002
 10
-23.3967199192779
 20
3.532959580800003
 10
-23.42728554167791
 20
3.648511340800006
  0
LWPOLYLINE
  5
FB8
330
1F
100
AcDbEntity
  8
0
100
AcDbPolyline
 90
        5
 70
     0
 43
0.0
 10
-17.9835603384779
 20
1.908686888000005
 10
-18.35564804407789
 20
1.917446278400007
 10
-18.7131918856779
 20
1.926638193600005
 10
-19.04728204727791
 20
1.935983132800004
 10
-19.34981533047789
 20
1.945155704000008
  0
LWPOLYLINE
  5
FB9
330
1F
100
AcDbEntity
  8
0
100
AcDbPolyline
 90
        6
 70
     0
 43
0.0
 10
-19.3498088584779
 20
1.945155499200005
 10
-19.60278514167791
 20
1.953423830400005
 10
-19.8452110552779
 20
1.961947112000004
 10
-20.06954522807791
 20
1.970462137600001
 10
-20.27559480727791
 20
1.978942592000002
 10
-20.45853561207789
 20
1.987149744000006
  0
LINE
  5
FBA
330
1F
100
AcDbEntity
  8
0
100
AcDbLine
 10
-20.4585278504779
 20
1.987149379199998
 30
0.0
 11
-20.56438414967792
 21
1.992243158400007
 31
0.0
  0
LWPOLYLINE
  5
FBB
330
1F
100
AcDbEntity
  8
0
100
AcDbPolyline
 90
        8
 70
     0
 43
0.0
 10
-24.9521444376779
 20
9.556103952000007
 10
-24.87960115447791
 20
9.428006830400001
 10
-24.8086711656779
 20
9.298876969599994
 10
-24.74656947767789
 20
9.173181664000004
 10
-24.6983157448779
 20
9.049828771200004
 10
-24.6604073176779
 20
8.922087140799995
 10
-24.6257654808779
 20
8.783724278400008
 10
-24.58950735127791
 20
8.629716425600001
  0
LWPOLYLINE
  5
FBC
330
1F
100
AcDbEntity
  8
0
100
AcDbPolyline
 90
        4
 70
     0
 43
0.0
 10
-9.595398714477909
 20
1.752789192000008
 10
-10.0273407944779
 20
1.760870467200007
 10
-10.46491371927791
 20
1.769069326400007
 10
-11.3560098120779
 20
1.785780840000008
  0
LWPOLYLINE
  5
FBD
330
1F
100
AcDbEntity
  8
0
100
AcDbPolyline
 90
        4
 70
     0
 43
0.0
 10
-13.0343592472779
 20
1.817167788800006
 10
-14.44446730327791
 20
1.842963100800005
 10
-15.7923975688779
 20
1.866788331200005
 10
-16.19155100567789
 20
1.873691934400007
  0
ARC
  5
FBE
330
1F
100
AcDbEntity
  8
0
100
AcDbCircle
 10
-17.42287366193923
 20
1.396638689713654
 30
0.0
 40
0.5
100
AcDbArc
 50
28.02038122986984
 51
88.83266133477542
  0
LWPOLYLINE
  5
FBF
330
1F
100
AcDbEntity
  8
0
100
AcDbPolyline
 90
        4
 70
     0
 43
0.0
 10
-11.3560098120779
 20
1.785780840000008
 10
-11.8090438600779
 20
1.794272846400005
 10
-12.26669666007791
 20
1.802840465600006
 10
-13.0343592472779
 20
1.817167788800006
  0
ARC
  5
FC0
330
1F
100
AcDbEntity
  8
0
100
AcDbCircle
 10
-4.702625708641392
 20
1.163987866392616
 30
0.0
 40
0.5
100
AcDbArc
 50
89.01332661016022
 51
152.0557674899264
  0
LWPOLYLINE
  5
FC1
330
1F
100
AcDbEntity
  8
0
100
AcDbPolyline
 90
        7
 70
     0
 43
0.0
 10
-12.70797017485043
 20
10.75994896639999
 10
-13.54432211405043
 20
10.53053088
 10
-14.27911480045042
 20
10.3473940544
 10
-14.92205692045041
 20
10.200284192
 10
-15.48281433965041
 20
10.08139639359999
 10
-15.97496091885042
 20
9.983926707200005
 10
-16.40987690125044
 20
9.902914217600006
  0
LWPOLYLINE
  5
FC8
330
1F
100
AcDbEntity
  8
0
  6
HIDDEN
 62
     8
100
AcDbPolyline
 90
       78
 70
     0
 43
0.0
 10
-5.939945747650426
 20
16.50344744479999
 10
-5.942606634050434
 20
16.50434244479999
 10
-5.976093414850424
 20
16.5161686816
 10
-6.009238414850415
 20
16.528924248
 10
-6.042014379650424
 20
16.542601592
 10
-6.074394056450415
 20
16.5571931648
 10
-6.106350194050435
 20
16.5726914144
 10
-6.137246838850415
 20
16.5887619648
 10
-6.167680242050437
 20
16.6056927184
 10
-6.19762059565042
 20
16.62347937439999
 10
-6.227038093250428
 20
16.6421176256
 10
-6.25590292845041
 20
16.6616031728
 10
-6.284015024450411
 20
16.68180647999999
 10
-6.311513998850415
 20
16.70283820159999
 10
-6.338362189250432
 20
16.72469390719999
 10
-6.364521930050415
 20
16.74736916639999
 10
-6.389955562050431
 20
16.77085954719999
 10
-6.410780944450436
 20
16.7912691728
 10
-6.43103469965041
 20
16.8122484928
 10
-6.450686808450427
 20
16.8337923264
 10
-6.469707251650419
 20
16.85589549439999
 10
-6.488066008450431
 20
16.8785528144
 10
-6.505733061250424
 20
16.90175910399999
 10
-6.522723339650411
 20
16.9255756528
 10
-6.538946067650414
 20
16.9499251616
 10
-6.554359512450417
 20
16.9747937216
 10
-6.568921933250436
 20
17.000167424
 10
-6.582591594050427
 20
17.02603235839999
 10
-6.595326758850433
 20
17.0523746176
 10
-6.606038670850438
 20
17.0766795104
 10
-6.615906610050416
 20
17.101341752
 10
-6.624890592450412
 20
17.126337032
 10
-6.632950638850417
 20
17.15164104480001
 10
-6.640046765250417
 20
17.1772294848
 10
-6.646138994050431
 20
17.2030780432
 10
-6.650581843650428
 20
17.2257033376
 10
-6.654210923650424
 20
17.248475496
 10
-6.656998898050431
 20
17.271363728
 10
-6.658918422850433
 20
17.29433724319999
 10
-6.659942162050413
 20
17.31736524959999
 10
-6.66004277485041
 20
17.34041696
 10
-6.659113011650418
 20
17.36483988319999
 10
-6.657094088450435
 20
17.3891987488
 10
-6.653964768450435
 20
17.413437464
 10
-6.649703818050426
 20
17.4374999344
 10
-6.64428999885041
 20
17.4613300672
 10
-6.638065326850437
 20
17.483695216
 10
-6.63078694285042
 20
17.505742824
 10
-6.622460229250435
 20
17.52741552479999
 10
-6.613090563650416
 20
17.54865595839999
 10
-6.60268332845041
 20
17.5694067568
 10
-6.591337347650437
 20
17.5894643952
 10
-6.579008549250431
 20
17.608936248
 10
-6.56573104685043
 20
17.6277754448
 10
-6.551538958850414
 20
17.64593511519999
 10
-6.536466397250421
 20
17.6633683872
 10
-6.522633976450435
 20
17.67794271039999
 10
-6.508192654850432
 20
17.6919151872
 10
-6.493177011650431
 20
17.7052718848
 10
-6.477621624450421
 20
17.7179988688
 10
-6.461561075650422
 20
17.7300822064
 10
-6.445029939650424
 20
17.74150796159999
 10
-6.427334624450423
 20
17.7527060944
 10
-6.409202918850411
 20
17.76317895039999
 10
-6.390672166850436
 20
17.77293086559999
 10
-6.371779704450432
 20
17.7819661744
 10
-6.35256287565042
 20
17.79028921279999
 10
-6.33305901805042
 20
17.7979043184
 10
-6.308581517250416
 20
17.8063563504
 10
-6.283770392450435
 20
17.8137585216
 10
-6.258674280450435
 20
17.8201381312
 10
-6.233341813250433
 20
17.82552248319999
 10
-6.207821624450417
 20
17.8299388752
 10
-6.181440464450417
 20
17.8334991136
 10
-6.154950448450421
 20
17.8360980832
 10
-6.128389696450426
 20
17.837768544
 10
-6.101796333250433
 20
17.8385432576
 10
-6.075208480450413
 20
17.838454984
  0
LINE
  5
FC9
330
1F
100
AcDbEntity
  8
0
  6
HIDDEN
 62
     8
100
AcDbLine
 10
-6.075208480450413
 20
17.838454984
 30
0.0
 11
-5.357276051650416
 21
17.8247069584
 31
0.0
  0
LWPOLYLINE
  5
FCA
330
1F
100
AcDbEntity
  8
0
  6
HIDDEN
 62
     8
100
AcDbPolyline
 90
       30
 70
     0
 43
0.0
 10
-5.094166896450417
 20
17.7455685408
 10
-5.09550522285042
 20
17.7463523936
 10
-5.104355237250416
 20
17.7514282384
 10
-5.113285130050428
 20
17.7563628592
 10
-5.122293158850425
 20
17.76115347679999
 10
-5.131377586050433
 20
17.76579731199999
 10
-5.140536670850423
 20
17.7702915888
 10
-5.14976867405042
 20
17.7746335296
 10
-5.159071854850424
 20
17.7788203568
 10
-5.168444474050431
 20
17.7828492912
 10
-5.177884792450413
 20
17.7867175568
 10
-5.18743568525042
 20
17.7904391808
 10
-5.197050965250411
 20
17.7939920544
 10
-5.206728443650433
 20
17.7973724064
 10
-5.216465930050418
 20
17.80057646399999
 10
-5.226261235650412
 20
17.8036004624
 10
-5.236112168450432
 20
17.80644062719999
 10
-5.246016539650412
 20
17.809093192
 10
-5.255972157250425
 20
17.81155438559999
 10
-5.265976834050434
 20
17.8138204368
 10
-5.274999069250412
 20
17.81568553279999
 10
-5.284055307650419
 20
17.8173869552
 10
-5.293141771650425
 20
17.81892138079999
 10
-5.302254685250431
 20
17.82028548
 10
-5.311390269250438
 20
17.8214759264
 10
-5.320544747650416
 20
17.8224893952
 10
-5.329714342850422
 20
17.82332256
 10
-5.338895275650429
 20
17.8239720928
 10
-5.348083771650436
 20
17.8244346672
 10
-5.357276051650416
 20
17.8247069584
  0
LWPOLYLINE
  5
FD4
330
1F
100
AcDbEntity
  8
0
100
AcDbPolyline
 90
       13
 70
     0
 43
0.0
 10
3.665161762728502
 20
15.6822397408
 10
4.142840397928523
 20
15.2240908496
 10
4.656647386728508
 20
14.774442808
 10
5.209829153128509
 20
14.3326971072
 10
5.806766434728501
 20
13.8980148384
 10
6.452585239528502
 20
13.4698143952
 10
7.153261497128511
 20
13.047802496
 10
7.915785647528508
 20
12.6319977808
 10
8.749050162728508
 20
12.2224572576
 10
9.66102984432851
 20
11.82079914079999
 10
10.6516160651285
 20
11.4324736416
 10
11.6921537131285
 20
11.0715072288
 10
12.70797019472851
 20
10.75994896639999
  0
LINE
  5
FD5
330
1F
100
AcDbEntity
  8
CENTER
100
AcDbLine
 10
0.0000000083769578
 20
14.45426816129629
 30
0.0
 11
0.000000011502209
 21
19.80897095631913
 31
0.0
  0
LINE
  5
FD6
330
1F
100
AcDbEntity
  8
0
100
AcDbLine
 10
24.95214444114958
 20
9.556103947200007
 30
0.0
 11
29.61444432235726
 21
17.75569291395087
 31
0.0
  0
LWPOLYLINE
  5
FD7
330
1F
100
AcDbEntity
  8
0
100
AcDbPolyline
 90
       44
 70
     0
 43
0.0
 10
20.56438415474957
 20
1.992243158400007
 10
20.65596551954957
 20
1.996853489600006
 10
20.74226016594957
 20
2.001391737600002
 10
20.82350555794957
 20
2.005858411200001
 10
20.89993372914958
 20
2.010254801600005
 10
20.97179691954957
 20
2.014584433600006
 10
21.03935141394959
 20
2.018852316800007
 10
21.10284787634958
 20
2.023064372800007
 10
21.16255337074957
 20
2.027229080000005
 10
21.21874905554958
 20
2.031357942400006
 10
21.27172091154958
 20
2.035465017600003
 10
21.32177537074957
 20
2.039568718400005
 10
21.36923029874958
 20
2.043692089600007
 10
21.41438650994956
 20
2.047860788800008
 10
21.45754822674956
 20
2.052105433600004
 10
21.49905309394958
 20
2.056465795200004
 10
21.53928155474957
 20
2.060993993600007
 10
21.57871464754959
 20
2.065764860800008
 10
21.61789995154959
 20
2.070878270400008
 10
21.65744842514957
 20
2.076465833600003
 10
21.69806982514959
 20
2.082705796800006
 10
21.74047060434958
 20
2.089820028800005
 10
21.78506509234958
 20
2.098029113600006
 10
21.83211990994956
 20
2.107567208000006
 10
21.88180087474958
 20
2.118684428800001
 10
21.93472537234959
 20
2.131783654400003
 10
21.99178246034958
 20
2.147436860800006
 10
22.05390379634957
 20
2.166377201600006
 10
22.12181415314958
 20
2.189458134400005
 10
22.19541828114958
 20
2.217419923200004
 10
22.27422539634957
 20
2.250944396800008
 10
22.35740505394957
 20
2.290604385600005
 10
22.44398558994956
 20
2.336886912000004
 10
22.53294453394957
 20
2.390201758400003
 10
22.62320799954957
 20
2.450855249600003
 10
22.71362689234956
 20
2.519000622400007
 10
22.80325198994958
 20
2.594833667200006
 10
22.89182343314956
 20
2.679172123200004
 10
22.97900121234957
 20
2.773031777600003
 10
23.06417737714957
 20
2.877498036800005
 10
23.14624900434958
 20
2.993413702400005
 10
23.22352126194957
 20
3.120988577600002
 10
23.29415559794958
 20
3.260169240000003
 10
23.31900128274958
 20
3.316379836800003
  0
LINE
  5
FD8
330
1F
100
AcDbEntity
  8
0
100
AcDbLine
 10
5.144327775067552
 20
1.398293838592458
 30
0.0
 11
5.550425992330872
 21
0.6327375099853754
 31
0.0
  0
LINE
  5
FD9
330
1F
100
AcDbEntity
  8
0
100
AcDbLine
 10
16.44933480494495
 20
0.6315638395880967
 30
0.0
 11
16.98148339817888
 21
1.631531497110593
 31
0.0
  0
LINE
  5
FDA
330
1F
100
AcDbEntity
  8
CENTER
100
AcDbLine
 10
-0.0000000010294912
 20
-1.662547821204874
 30
0.0
 11
0.0000000025358418
 21
4.446213677943504
 31
0.0
  0
ARC
  5
FDB
330
1F
100
AcDbEntity
  8
0
100
AcDbCircle
 10
6.43383011590734
 20
1.101349454400008
 30
0.0
 40
1.0
100
AcDbArc
 50
207.9442325100735
 51
270.0
  0
ARC
  5
FDC
330
1F
100
AcDbEntity
  8
0
100
AcDbCircle
 10
15.56655426816595
 20
1.101349454400008
 30
0.0
 40
1.0
100
AcDbArc
 50
270.0
 51
331.9796187701301
  0
LWPOLYLINE
  5
FDD
330
1F
100
AcDbEntity
  8
0
100
AcDbPolyline
 90
       22
 70
     0
 43
0.0
 10
1.990330679549572
 20
1.620612998400005
 10
2.210328413949582
 20
1.623813944000005
 10
2.483237570749565
 20
1.627891249600004
 10
2.764330674749572
 20
1.632199032000002
 10
3.053125231549586
 20
1.636725307200002
 10
3.349453586749575
 20
1.641463358400002
 10
3.653495151549577
 20
1.646412603200005
 10
3.965598591549564
 20
1.651575924800006
 10
4.285606108349583
 20
1.656948280000001
 10
4.613431877949579
 20
1.662525881600004
 10
4.949121735549567
 20
1.668307267200006
 10
5.292858871549583
 20
1.674293460800008
 10
5.644976279549581
 20
1.680488256000003
 10
6.005798513149585
 20
1.686895441600007
 10
6.375025354749567
 20
1.693507635200006
 10
6.752269041149588
 20
1.700315521600003
 10
7.137206253949585
 20
1.707310584000005
 10
7.529579151549569
 20
1.714485168000003
 10
7.92919711794957
 20
1.721832564800003
 10
8.335916565949588
 20
1.729346652800003
 10
8.749408911549579
 20
1.737017606400002
 10
9.595398719549564
 20
1.752789192000008
  0
LWPOLYLINE
  5
FDE
330
1F
100
AcDbEntity
  8
0
100
AcDbPolyline
 90
       24
 70
     0
 43
0.0
 10
-0.0000000344778925
 20
1.680050340800008
 10
-0.084928284077904
 20
1.679981432000005
 10
-0.1751320696779146
 20
1.679707780800008
 10
-0.270492732077912
 20
1.679145166400004
 10
-0.3687452536779006
 20
1.678249800000003
 10
-0.4680752520779095
 20
1.677013246400008
 10
-0.5677085512779172
 20
1.675442460800006
 10
-0.6672202872778997
 20
1.673553582400003
 10
-0.7664091176779096
 20
1.671366792000007
 10
-0.8655046856779051
 20
1.668895736000003
 10
-0.9646786632779082
 20
1.666154740800003
 10
-1.063853602477905
 20
1.663165142400004
 10
-1.163229412077896
 20
1.659939884800003
 10
-1.262938959277903
 20
1.656491798400004
 10
-1.362546215277916
 20
1.652851944000005
 10
-1.461290908077899
 20
1.649063028800007
 10
-1.557570170477902
 20
1.645199600000005
 10
-1.647861048877899
 20
1.641416468800002
 10
-1.728744229677914
 20
1.637872433600001
 10
-1.799600901677905
 20
1.634605980800003
 10
-1.860101276077898
 20
1.631634204800008
 10
-1.909865336877913
 20
1.628970526400003
 10
-1.94865625847791
 20
1.626617712000005
 10
-1.9762296040779
 20
1.624578385600003
  0
ARC
  5
FDF
330
1F
100
AcDbEntity
  8
0
100
AcDbCircle
 10
-1.27144662327791
 20
1.380692959999997
 30
0.0
 40
0.28125
100
AcDbArc
 50
224.9999999999998
 51
270.0
  0
LWPOLYLINE
  5
FE0
330
1F
100
AcDbEntity
  8
0
100
AcDbPolyline
 90
       12
 70
     0
 43
0.0
 10
-1.845850308077899
 20
1.557349080000008
 10
-1.853619564077916
 20
1.564745483200006
 10
-1.870360224877913
 20
1.578466763200005
 10
-1.887644637677908
 20
1.590020539200004
 10
-1.905009898477914
 20
1.599419800000006
 10
-1.921958768877914
 20
1.606749094400008
 10
-1.937752893677895
 20
1.612105508800006
 10
-1.951548876077907
 20
1.615702745600003
 10
-1.962793805677904
 20
1.617919649600004
 10
-1.9714957656779
 20
1.619201036800006
 10
-1.978045340077898
 20
1.619913278400005
 10
-1.982888864877907
 20
1.620295753600004
  0
LINE
  5
FE1
330
1F
100
AcDbEntity
  8
0
100
AcDbLine
 10
-1.470320405677881
 20
1.181819177599997
 30
0.0
 11
-1.84585020087789
 21
1.557348971200006
 31
0.0
  0
LINE
  5
FE2
330
1F
100
AcDbEntity
  8
0
100
AcDbLine
 10
-1.845870088877887
 20
1.557369983999997
 30
0.0
 11
-1.84585020087789
 21
1.557348971200006
 31
0.0
  0
LWPOLYLINE
  5
FE3
330
1F
100
AcDbEntity
  8
0
100
AcDbPolyline
 90
        4
 70
     0
 43
0.0
 10
-1.982888864877907
 20
1.620295753600004
 10
-1.986421674477895
 20
1.620492038400001
 10
-1.988883882477892
 20
1.620582483200003
 10
-1.990354621677909
 20
1.620614219200007
  0
LINE
  5
FE4
330
1F
100
AcDbEntity
  8
0
100
AcDbLine
 10
-1.9762296040779
 20
1.624578385599996
 30
0.0
 11
-1.992489872877882
 21
1.622846052800007
 31
0.0
  0
LINE
  5
FE5
330
1F
100
AcDbEntity
  8
0
100
AcDbLine
 10
-1.992489872877882
 20
1.622846052800007
 30
0.0
 11
-1.997313954477903
 21
1.621407705599999
 31
0.0
  0
LINE
  5
FE6
330
1F
100
AcDbEntity
  8
0
100
AcDbLine
 10
-1.997306351277899
 20
1.621408108800004
 30
0.0
 11
-1.99728725687791
 21
1.621386100800002
 31
0.0
  0
LWPOLYLINE
  5
FE7
330
1F
100
AcDbEntity
  8
0
100
AcDbPolyline
 90
        4
 70
     0
 43
0.0
 10
-1.99728725687791
 20
1.621386100800002
 10
-1.996231512877898
 20
1.620985793600006
 10
-1.993723599277899
 20
1.620721801600005
 10
-1.990345748077913
 20
1.620613216000002
  0
LINE
  5
FE8
330
1F
100
AcDbEntity
  8
0
100
AcDbLine
 10
-1.271446589250416
 20
1.099442959999997
 30
0.0
 11
1.271446628349565
 21
1.099442959999997
 31
0.0
  0
LWPOLYLINE
  5
FE9
330
1F
100
AcDbEntity
  8
0
100
AcDbPolyline
 90
       24
 70
     0
 43
0.0
 10
0.0000000395495761
 20
1.680050340800008
 10
0.0849282891495875
 20
1.679981432000005
 10
0.1751320747495697
 20
1.679707780800008
 10
0.2704927371495671
 20
1.679145166400004
 10
0.3687452587495841
 20
1.678249800000003
 10
0.4680752571495646
 20
1.677013246400008
 10
0.5677085563495723
 20
1.675442460800006
 10
0.6672202923495832
 20
1.673553582400003
 10
0.7664091227495647
 20
1.671366792000007
 10
0.8655046907495886
 20
1.668895736000003
 10
0.9646786683495633
 20
1.666154740800003
 10
1.063853607549589
 20
1.663165142400004
 10
1.16322941714958
 20
1.659939884800003
 10
1.262938964349586
 20
1.656491798400004
 10
1.362546220349571
 20
1.652851944000005
 10
1.461290913149582
 20
1.649063028800007
 10
1.557570175549585
 20
1.645199600000005
 10
1.647861053949583
 20
1.641416468800002
 10
1.728744234749569
 20
1.637872433600001
 10
1.799600906749589
 20
1.634605980800003
 10
1.860101281149582
 20
1.631634204800008
 10
1.909865341949569
 20
1.628970526400003
 10
1.948656263549565
 20
1.626617712000005
 10
1.976229609149584
 20
1.624578385600003
  0
LINE
  5
FEA
330
1F
100
AcDbEntity
  8
0
100
AcDbLine
 10
1.470320410749565
 20
1.181819177599997
 30
0.0
 11
1.845850205949574
 21
1.557348971200006
 31
0.0
  0
LWPOLYLINE
  5
FEB
330
1F
100
AcDbEntity
  8
0
100
AcDbPolyline
 90
       12
 70
     0
 43
0.0
 10
1.845850313149583
 20
1.557349080000008
 10
1.853619569149572
 20
1.564745483200006
 10
1.870360229949568
 20
1.578466763200005
 10
1.887644642749563
 20
1.590020539200004
 10
1.905009903549569
 20
1.599419800000006
 10
1.921958773949569
 20
1.606749094400008
 10
1.937752898749579
 20
1.612105508800006
 10
1.951548881149562
 20
1.615702745600003
 10
1.962793810749587
 20
1.617919649600004
 10
1.971495770749584
 20
1.619201036800006
 10
1.978045345149581
 20
1.619913278400005
 10
1.982888869949562
 20
1.620295753600004
  0
LINE
  5
FEC
330
1F
100
AcDbEntity
  8
0
100
AcDbLine
 10
1.845870093949571
 20
1.557369983999997
 30
0.0
 11
1.845850205949574
 21
1.557348971200006
 31
0.0
  0
LWPOLYLINE
  5
FED
330
1F
100
AcDbEntity
  8
0
100
AcDbPolyline
 90
        4
 70
     0
 43
0.0
 10
1.997287261949566
 20
1.621386100800002
 10
1.996231517949581
 20
1.620985793600006
 10
1.993723604349582
 20
1.620721801600005
 10
1.990345753149568
 20
1.620613216000002
  0
LINE
  5
FEE
330
1F
100
AcDbEntity
  8
0
100
AcDbLine
 10
1.997306356349582
 20
1.621408108800004
 30
0.0
 11
1.997287261949566
 21
1.621386100800002
 31
0.0
  0
LINE
  5
FEF
330
1F
100
AcDbEntity
  8
0
100
AcDbLine
 10
1.992489877949566
 20
1.622846052800007
 30
0.0
 11
1.997313959549586
 21
1.621407705599999
 31
0.0
  0
LINE
  5
FF0
330
1F
100
AcDbEntity
  8
0
100
AcDbLine
 10
1.976229609149555
 20
1.624578385599996
 30
0.0
 11
1.992489877949566
 21
1.622846052800007
 31
0.0
  0
LWPOLYLINE
  5
FF1
330
1F
100
AcDbEntity
  8
0
100
AcDbPolyline
 90
        4
 70
     0
 43
0.0
 10
1.982888869949562
 20
1.620295753600004
 10
1.986421679549579
 20
1.620492038400001
 10
1.988883887549576
 20
1.620582483200003
 10
1.990354626749564
 20
1.620614219200007
  0
ARC
  5
FF2
330
1F
100
AcDbEntity
  8
0
100
AcDbCircle
 10
1.271446628349565
 20
1.380692959999997
 30
0.0
 40
0.28125
100
AcDbArc
 50
270.0
 51
315.0000000000001
  0
ARC
  5
FF3
330
1F
100
AcDbEntity
  8
0
100
AcDbCircle
 10
4.702625713279303
 20
1.163987866385149
 30
0.0
 40
0.5
100
AcDbArc
 50
27.94423251007208
 51
90.98667338983977
  0
LWPOLYLINE
  5
FF4
330
1F
100
AcDbEntity
  8
0
100
AcDbPolyline
 90
        4
 70
     0
 43
0.0
 10
13.03435925234958
 20
1.817167788800006
 10
14.44446730834957
 20
1.842963100800005
 10
15.79239757394958
 20
1.866788331200005
 10
16.19155101074957
 20
1.873691934400007
  0
LWPOLYLINE
  5
FF5
330
1F
100
AcDbEntity
  8
0
100
AcDbPolyline
 90
        4
 70
     0
 43
0.0
 10
11.35600981714958
 20
1.785780840000008
 10
11.80904386514956
 20
1.794272846400005
 10
12.26669666514956
 20
1.802840465600006
 10
13.03435925234958
 20
1.817167788800006
  0
LWPOLYLINE
  5
FF6
330
1F
100
AcDbEntity
  8
0
100
AcDbPolyline
 90
        4
 70
     0
 43
0.0
 10
9.595398719549564
 20
1.752789192000008
 10
10.02734079954956
 20
1.760870467200007
 10
10.46491372434957
 20
1.769069326400007
 10
11.35600981714958
 20
1.785780840000008
  0
LWPOLYLINE
  5
FF7
330
1F
100
AcDbEntity
  8
0
100
AcDbPolyline
 90
        5
 70
     0
 43
0.0
 10
17.98356034354958
 20
1.908686888000005
 10
18.35564804914957
 20
1.917446278400007
 10
18.71319189074958
 20
1.926638193600005
 10
19.04728205234957
 20
1.935983132800004
 10
19.34981533554958
 20
1.945155704000008
  0
LWPOLYLINE
  5
FF8
330
1F
100
AcDbEntity
  8
0
100
AcDbPolyline
 90
        6
 70
     0
 43
0.0
 10
16.19875377874956
 20
1.873816849600004
 10
16.36440554354956
 20
1.876697302400003
 10
16.79009571794958
 20
1.884374374400003
 10
17.20795753394958
 20
1.892363195200005
 10
17.61048656274957
 20
1.900565417600006
 10
17.98357295474957
 20
1.908687172800007
  0
ARC
  5
FF9
330
1F
100
AcDbEntity
  8
0
100
AcDbCircle
 10
17.42287366656839
 20
1.396638689704637
 30
0.0
 40
0.5
100
AcDbArc
 50
91.16733866522457
 51
151.9796187701295
  0
LWPOLYLINE
  5
FFA
330
1F
100
AcDbEntity
  8
0
100
AcDbPolyline
 90
        6
 70
     0
 43
0.0
 10
19.34980886354958
 20
1.945155499200005
 10
19.60278514674956
 20
1.953423830400005
 10
19.84521106034958
 20
1.961947112000004
 10
20.06954523314957
 20
1.970462137600001
 10
20.27559481234956
 20
1.978942592000002
 10
20.45853561714957
 20
1.987149744000006
  0
LINE
  5
FFB
330
1F
100
AcDbEntity
  8
0
100
AcDbLine
 10
20.45852785554956
 20
1.987149379199998
 30
0.0
 11
20.56438415474957
 21
1.992243158400007
 31
0.0
  0
LWPOLYLINE
  5
FFC
330
1F
100
AcDbEntity
  8
0
100
AcDbPolyline
 90
        7
 70
     0
 43
0.0
 10
12.70797019472851
 20
10.75994896639999
 10
13.54432213392851
 20
10.53053088
 10
14.27911482032851
 20
10.3473940544
 10
14.9220569403285
 20
10.200284192
 10
15.4828143595285
 20
10.08139639359999
 10
15.97496093872851
 20
9.983926707200005
 10
16.40987692112853
 20
9.902914217600006
  0
LWPOLYLINE
  5
FFD
330
1F
100
AcDbEntity
  8
0
100
AcDbPolyline
 90
       16
 70
     0
 43
0.0
 10
16.40987692112853
 20
9.902914217600006
 10
16.7965338491285
 20
9.8347822192
 10
17.14976704432851
 20
9.775641212800003
 10
17.47549648592851
 20
9.723657068800001
 10
17.77906198992852
 20
9.677359580800008
 10
18.06433342832852
 20
9.635699302400006
 10
18.3347477051285
 20
9.597826507200004
 10
18.6031135275285
 20
9.561766625600007
 10
18.87888275792852
 20
9.526265379200005
 10
19.16445751472852
 20
9.491129608000001
 10
19.4609846219285
 20
9.456365020799999
 10
19.76937693552852
 20
9.422030209600002
 10
20.09020280112852
 20
9.388241777600008
 10
20.42376096752852
 20
9.355157151999996
 10
20.76982726992852
 20
9.322989126399995
 10
21.12761558512852
 20
9.291992411200006
  0
LINE
  5
FFE
330
1F
100
AcDbEntity
  8
0
100
AcDbLine
 10
24.58950735634957
 20
8.629716425600001
 30
0.0
 11
23.42728554674957
 21
3.648511340800006
 31
0.0
  0
LINE
  5
FFF
330
1F
100
AcDbEntity
  8
0
100
AcDbLine
 10
23.31916690034958
 20
3.316770481599995
 30
0.0
 11
23.34771071154958
 21
3.387806334400004
 31
0.0
  0
LINE
  5
1000
330
1F
100
AcDbEntity
  8
0
100
AcDbLine
 10
23.31916690034958
 20
3.316770481599995
 30
0.0
 11
23.31900128274958
 21
3.316379836800003
 31
0.0
  0
LWPOLYLINE
  5
1001
330
1F
100
AcDbEntity
  8
0
100
AcDbPolyline
 90
        4
 70
     0
 43
0.0
 10
23.34772570194957
 20
3.387845771200005
 10
23.35543258834957
 20
3.408455673600002
 10
23.39671992434958
 20
3.532959580800003
 10
23.42728554674957
 20
3.648511340800006
  0
LWPOLYLINE
  5
1002
330
1F
100
AcDbEntity
  8
0
100
AcDbPolyline
 90
        8
 70
     0
 43
0.0
 10
24.95214444274958
 20
9.556103952000007
 10
24.87960115954956
 20
9.428006830400001
 10
24.80867117074956
 20
9.298876969599994
 10
24.74656948274958
 20
9.173181664000004
 10
24.69831574994958
 20
9.049828771200004
 10
24.66040732274956
 20
8.922087140799995
 10
24.62576548594958
 20
8.783724278400008
 10
24.58950735634957
 20
8.629716425600001
  0
LINE
  5
1003
330
1F
100
AcDbEntity
  8
CENTER
100
AcDbLine
 10
2.677351407450458
 20
17.13069295843738
 30
0.0
 11
-2.677351387572372
 21
17.13069296156262
 31
0.0
  0
LWPOLYLINE
  5
1004
330
1F
100
AcDbEntity
  8
0
  6
HIDDEN
 62
     8
100
AcDbPolyline
 90
       30
 70
     0
 43
0.0
 10
5.093711002749586
 20
17.74530021279999
 10
4.999323601149569
 20
17.69206245919999
 10
4.903278207549561
 20
17.6422670912
 10
4.805716309949588
 20
17.595724296
 10
4.706779399549589
 20
17.5522442608
 10
4.600611639549583
 20
17.50930697119999
 10
4.493227449149571
 20
17.4693690032
 10
4.384795111549578
 20
17.43220459999999
 10
4.275482913149573
 20
17.3975880016
 10
4.165459138749582
 20
17.36529344799999
 10
4.016216473149569
 20
17.3250692688
 10
3.866101781949566
 20
17.28838120959999
 10
3.715230943549585
 20
17.25495355359999
 10
3.563719839549577
 20
17.2245105872
 10
3.411684353149581
 20
17.196776592
 10
3.259240362749579
 20
17.171475856
 10
3.061406513149563
 20
17.1419186352
 10
2.863145293949571
 20
17.1156025712
 10
2.664519922749576
 20
17.09215168
 10
2.465593613949579
 20
17.0711899808
 10
2.26642958354958
 20
17.052341488
 10
2.067091047549581
 20
17.03523022079999
 10
1.795189301949562
 20
17.0142208928
 10
1.523107266749576
 20
16.9959616736
 10
1.250871421949568
 20
16.9806735312
 10
0.9785082507495701
 20
16.96857743839999
 10
0.7060442395495841
 20
16.9598943696
 10
0.4335058683495845
 20
16.95484529439999
 10
0.2167614219495704
 20
16.95357107039999
 10
0.0000000187495743
 20
16.95484529439999
  0
LWPOLYLINE
  5
1005
330
1F
100
AcDbEntity
  8
0
  6
HIDDEN
 62
     8
100
AcDbPolyline
 90
       27
 70
     0
 43
0.0
 10
5.939945786749575
 20
16.50344744479999
 10
5.800053036349567
 20
16.4471967904
 10
5.658960060349585
 20
16.39478351359999
 10
5.516766194749578
 20
16.3459531552
 10
5.373570780349581
 20
16.30045125759999
 10
5.229473151549569
 20
16.2580233632
 10
5.084572647549578
 20
16.2184150128
 10
4.923126373949571
 20
16.1774945712
 10
4.760950868349567
 20
16.1393796384
 10
4.598181455549564
 20
16.1037235808
 10
4.434953453949589
 20
16.07017976
 10
4.20376606834958
 20
16.0258558608
 10
3.971980505149588
 20
15.9849158416
 10
3.739643849149587
 20
15.9472193088
 10
3.506803180349578
 20
15.9126258768
 10
3.273505581949564
 20
15.8809951504
 10
3.039798138749574
 20
15.8521867424
 10
2.736868458749569
 20
15.818870792
 10
2.433433428349587
 20
15.7897408544
 10
2.12959504114957
 20
15.7644928
 10
1.825455295549573
 20
15.7428225024
 10
1.521116185149566
 20
15.7244258288
 10
1.216679706749573
 20
15.7089986544
 10
0.9122478555495661
 20
15.6962368464
 10
0.6079226267495699
 20
15.6858362784
 10
0.3038060155495827
 20
15.6774928208
 10
0.0000000187495743
 20
15.670902344
  0
LWPOLYLINE
  5
1006
330
1F
100
AcDbEntity
  8
0
100
AcDbPolyline
 90
        8
 70
     0
 43
0.0
 10
-1.187499979650425
 20
17.1253671264
 10
-1.184394933250416
 20
17.21039135359999
 10
-1.172165082050412
 20
17.3137990608
 10
-1.150784256450435
 20
17.41561177439999
 10
-1.120394334850431
 20
17.5152127424
 10
-1.081303771650425
 20
17.61163859039999
 10
-1.033702848450417
 20
17.70441768159999
 10
-1.001353352911327
 20
17.75569291395087
  0
LWPOLYLINE
  5
1008
330
1F
100
AcDbEntity
  8
0
100
AcDbPolyline
 90
       20
 70
     0
 43
0.0
 10
1.187500018749574
 20
17.1253672944
 10
1.187348863549573
 20
17.10664193119999
 10
1.181117908349563
 20
17.003661208
 10
1.165964685949575
 20
16.9025025216
 10
1.142288309949577
 20
16.8040839168
 10
1.110450269949581
 20
16.708839704
 10
1.070866245949588
 20
16.6173514992
 10
1.023748058749589
 20
16.52976164319999
 10
0.9695003803495865
 20
16.44666578079999
 10
0.9082529739495726
 20
16.3682385584
 10
0.8403544091495689
 20
16.29501923679999
 10
0.7660268811495712
 20
16.22739608319999
 10
0.6854831931495653
 20
16.16579623839999
 10
0.5991610603495872
 20
16.1108231328
 10
0.5074205499495861
 20
16.0629932048
 10
0.4112864971495754
 20
16.0230722912
 10
0.3114003403495644
 20
15.9914889824
 10
0.2089512923495818
 20
15.968719432
 10
0.104761781949577
 20
15.954978288
 10
0.0000000187495743
 20
15.9504004688
  0
LWPOLYLINE
  5
1009
330
1F
100
AcDbEntity
  8
0
100
AcDbPolyline
 90
       20
 70
     0
 43
0.0
 10
0.0000000187495743
 20
15.9504004688
 10
-0.1047610692504293
 20
15.9549782304
 10
-0.2089482468504116
 20
15.9687189008
 10
-0.3114039156504305
 20
15.991489952
 10
-0.4112893876504132
 20
16.0230733616
 10
-0.5074308948504154
 20
16.0629980576
 10
-0.5991724404504169
 20
16.1108297312
 10
-0.6854875188504366
 20
16.16579929119999
 10
-0.7660299364504226
 20
16.22739866719999
 10
-0.8403513748504281
 20
16.2950162688
 10
-0.9082564756504325
 20
16.3682427184
 10
-0.969502803650414
 20
16.44666922559999
 10
-1.023754706050425
 20
16.5297728976
 10
-1.070874173250416
 20
16.6173679472
 10
-1.110458142850433
 20
16.70886036959999
 10
-1.142297267650434
 20
16.80411525919999
 10
-1.165972779650417
 20
16.9025442192
 10
-1.181125082050414
 20
17.00372983199999
 10
-1.187350118850417
 20
17.10672248319999
 10
-1.187499979650425
 20
17.1253671264
  0
LWPOLYLINE
  5
100A
330
1F
100
AcDbEntity
  8
0
  6
HIDDEN
 62
     8
100
AcDbPolyline
 90
       30
 70
     0
 43
0.0
 10
5.094166935549566
 20
17.7455685408
 10
5.095505261949568
 20
17.7463523936
 10
5.104355276349565
 20
17.7514282384
 10
5.113285169149577
 20
17.7563628592
 10
5.122293197949574
 20
17.76115347679999
 10
5.131377625149582
 20
17.76579731199999
 10
5.140536709949572
 20
17.7702915888
 10
5.149768713149569
 20
17.7746335296
 10
5.159071893949572
 20
17.7788203568
 10
5.16844451314958
 20
17.7828492912
 10
5.177884831549562
 20
17.7867175568
 10
5.187435722749569
 20
17.7904391808
 10
5.197051004349589
 20
17.7939920544
 10
5.206728482749582
 20
17.7973724064
 10
5.216465969149567
 20
17.80057646399999
 10
5.226261274749589
 20
17.8036004624
 10
5.236112207549581
 20
17.80644062719999
 10
5.246016577149589
 20
17.809093192
 10
5.255972196349574
 20
17.81155438559999
 10
5.265976871549582
 20
17.8138204368
 10
5.274999106749589
 20
17.81568553279999
 10
5.284055345149567
 20
17.8173869552
 10
5.293141810749574
 20
17.81892138079999
 10
5.30225472434958
 20
17.82028548
 10
5.311390308349587
 20
17.8214759264
 10
5.320544786749564
 20
17.8224893952
 10
5.329714381949571
 20
17.82332256
 10
5.338895314749578
 20
17.8239720928
 10
5.348083810749585
 20
17.8244346672
 10
5.357276090749564
 20
17.8247069584
  0
LWPOLYLINE
  5
100B
330
1F
100
AcDbEntity
  8
0
  6
HIDDEN
 62
     8
100
AcDbPolyline
 90
       78
 70
     0
 43
0.0
 10
5.939945786749575
 20
16.50344744479999
 10
5.942606673149583
 20
16.50434244479999
 10
5.976093453949573
 20
16.5161686816
 10
6.009238452349563
 20
16.528924248
 10
6.042014418749573
 20
16.542601592
 10
6.074394095549564
 20
16.5571931648
 10
6.106350231549583
 20
16.5726914144
 10
6.137246877949564
 20
16.5887619648
 10
6.167680281149586
 20
16.6056927184
 10
6.197620634749569
 20
16.62347937439999
 10
6.227038132349576
 20
16.6421176256
 10
6.255902967549587
 20
16.6616031728
 10
6.284015063549588
 20
16.68180647999999
 10
6.311514037949564
 20
16.70283820159999
 10
6.33836222674958
 20
16.72469390719999
 10
6.364521969149564
 20
16.74736916639999
 10
6.38995559954958
 20
16.77085954719999
 10
6.410780981949585
 20
16.7912691728
 10
6.431034737149587
 20
16.8122484928
 10
6.450686845949576
 20
16.8337923264
 10
6.469707289149567
 20
16.85589549439999
 10
6.48806604754958
 20
16.8785528144
 10
6.505733100349573
 20
16.90175910399999
 10
6.522723377149588
 20
16.9255756528
 10
6.538946106749563
 20
16.9499251616
 10
6.554359549949566
 20
16.9747937216
 10
6.568921970749585
 20
17.000167424
 10
6.582591633149576
 20
17.02603235839999
 10
6.595326796349581
 20
17.0523746176
 10
6.606038709949586
 20
17.0766795104
 10
6.615906647549564
 20
17.101341752
 10
6.624890631549561
 20
17.126337032
 10
6.632950676349565
 20
17.15164104480001
 10
6.640046804349566
 20
17.1772294848
 10
6.64613903314958
 20
17.2030780432
 10
6.650581882749577
 20
17.2257033376
 10
6.654210962749573
 20
17.248475496
 10
6.65699893714958
 20
17.271363728
 10
6.658918461949582
 20
17.29433724319999
 10
6.659942201149561
 20
17.31736524959999
 10
6.660042813949587
 20
17.34041696
 10
6.659113050749567
 20
17.36483988319999
 10
6.657094125949583
 20
17.3891987488
 10
6.653964807549584
 20
17.413437464
 10
6.649703857149575
 20
17.4374999344
 10
6.644290037949588
 20
17.4613300672
 10
6.638065365949586
 20
17.483695216
 10
6.630786981949569
 20
17.505742824
 10
6.622460268349584
 20
17.52741552479999
 10
6.613090602749565
 20
17.54865595839999
 10
6.602683367549587
 20
17.5694067568
 10
6.591337386749586
 20
17.5894643952
 10
6.57900858834958
 20
17.608936248
 10
6.565731085949579
 20
17.6277754448
 10
6.551538996349563
 20
17.64593511519999
 10
6.53646643634957
 20
17.6633683872
 10
6.522634015549584
 20
17.67794271039999
 10
6.508192693949581
 20
17.6919151872
 10
6.493177050749579
 20
17.7052718848
 10
6.47762166354957
 20
17.7179988688
 10
6.461561113149571
 20
17.7300822064
 10
6.445029978749573
 20
17.74150796159999
 10
6.427334661949572
 20
17.7527060944
 10
6.409202957949588
 20
17.76317895039999
 10
6.390672204349584
 20
17.77293086559999
 10
6.371779743549581
 20
17.7819661744
 10
6.352562914749569
 20
17.79028921279999
 10
6.333059057149569
 20
17.7979043184
 10
6.308581554749565
 20
17.8063563504
 10
6.283770431549584
 20
17.8137585216
 10
6.258674319549584
 20
17.8201381312
 10
6.233341852349582
 20
17.82552248319999
 10
6.207821663549566
 20
17.8299388752
 10
6.181440503549566
 20
17.8334991136
 10
6.154950485949569
 20
17.8360980832
 10
6.128389735549575
 20
17.837768544
 10
6.101796372349582
 20
17.8385432576
 10
6.075208519549562
 20
17.838454984
  0
LINE
  5
100C
330
1F
100
AcDbEntity
  8
0
  6
HIDDEN
 62
     8
100
AcDbLine
 10
6.075208519549562
 20
17.838454984
 30
0.0
 11
5.357276090749564
 21
17.8247069584
 31
0.0
  0
LINE
  5
1131
330
1F
100
AcDbEntity
  8
0
  6
HIDDEN
 62
     8
100
AcDbLine
 10
-34.96855491594847
 20
20.74990585635087
 30
0.0
 11
-31.55628326474847
 21
20.63670682595089
 31
0.0
  0
LINE
  5
1132
330
1F
100
AcDbEntity
  8
0
  6
HIDDEN
 62
     8
100
AcDbLine
 10
-30.94608430474846
 20
20.16087137795089
 30
0.0
 11
-29.57849584152518
 21
17.75569291395087
 31
0.0
  0
LINE
  5
1133
330
1F
100
AcDbEntity
  8
0
  6
HIDDEN
 62
     8
100
AcDbLine
 10
-31.10907802154848
 20
20.25569291395088
 30
0.0
 11
-31.19749998794847
 21
20.25569291395088
 31
0.0
  0
ARC
  5
1134
330
1F
100
AcDbEntity
  8
0
  6
HIDDEN
 62
     8
100
AcDbCircle
 10
-31.10907802154848
 20
20.06819291395087
 30
0.0
 40
0.1875
100
AcDbArc
 50
29.622621864
 51
90.00168949449999
  0
ARC
  5
1135
330
1F
100
AcDbEntity
  8
0
  6
HIDDEN
 62
     8
100
AcDbCircle
 10
-31.56249998314847
 20
20.44930991555089
 30
0.0
 40
0.1875
100
AcDbArc
 50
359.9999999984999
 51
88.09996261380003
  0
ARC
  5
1136
330
1F
100
AcDbEntity
  8
0
  6
HIDDEN
 62
     8
100
AcDbCircle
 10
-31.19749998794849
 20
20.43319291395088
 30
0.0
 40
0.1775
100
AcDbArc
 50
180.0000000447
 51
270.0
  0
LINE
  5
1137
330
1F
100
AcDbEntity
  8
0
  6
HIDDEN
 62
     8
100
AcDbLine
 10
-31.37499998794847
 20
20.43319291395088
 30
0.0
 11
-31.37499998794847
 21
20.44930991555089
 31
0.0
  0
LINE
  5
1138
330
1F
100
AcDbEntity
  8
0
  6
CONTINUOUS
 62
     7
100
AcDbLine
 10
-35.65434367274846
 20
18.27070000195088
 30
0.0
 11
-35.70847309834848
 21
17.75569291395087
 31
0.0
  0
LWPOLYLINE
  5
1139
330
1F
100
AcDbEntity
  8
0
  6
CONTINUOUS
 62
     7
100
AcDbPolyline
 90
       23
 70
     0
 43
0.0
 10
-35.67097961354846
 20
18.32005857155088
 10
-35.73519335594847
 20
18.39496007715088
 10
-35.79544940394846
 20
18.47986149475088
 10
-35.84996766154847
 20
18.57372138595088
 10
-35.89727837354847
 20
18.67513750435089
 10
-35.93658770314847
 20
18.78346071235086
 10
-35.96705744714848
 20
18.89768559875089
 10
-35.98786718474848
 20
19.01603781795087
 10
-35.99853869194847
 20
19.13683616515087
 10
-35.99882389994847
 20
19.25916541475087
 10
-35.98861924874848
 20
19.38079418915087
 10
-35.96827981514847
 20
19.49935505795089
 10
-35.93836385834848
 20
19.61347321635089
 10
-35.89947038634846
 20
19.72216210435088
 10
-35.85260987754847
 20
19.82382175235089
 10
-35.79900281354847
 20
19.91721405155088
 10
-35.73929762154847
 20
20.00238646115088
 10
-35.67441740394846
 20
20.07890052515089
 10
-35.60552572714847
 20
20.14624901475089
 10
-35.53371768234848
 20
20.20425492675089
 10
-35.45941607754846
 20
20.25332943875089
 10
-35.38332809354847
 20
20.29359278595087
 10
-35.30578650474847
 20
20.32533776035087
  0
ARC
  5
113A
330
1F
100
AcDbEntity
  8
0
  6
CONTINUOUS
 62
     7
100
AcDbCircle
 10
-35.71650129034849
 20
18.27723303075087
 30
0.0
 40
0.0625
100
AcDbArc
 50
354.0
 51
43.25208578729998
  0
ARC
  5
113B
330
1F
100
AcDbEntity
  8
0
  6
CONTINUOUS
 62
     7
100
AcDbCircle
 10
-35.24224119434849
 20
20.40939916835087
 30
0.0
 40
0.0625
100
AcDbArc
 50
283.7284659822
 51
354.0
  0
LINE
  5
113C
330
1F
100
AcDbEntity
  8
0
  6
CONTINUOUS
 62
     7
100
AcDbLine
 10
-35.16124449354848
 20
20.58210803235088
 30
0.0
 11
-35.18008357514847
 21
20.40286613955087
 31
0.0
  0
LINE
  5
113D
330
1F
100
AcDbEntity
  8
0
  6
CONTINUOUS
 62
     7
100
AcDbLine
 10
-35.30578650474847
 20
20.32533776035087
 30
0.0
 11
-35.22740863594847
 21
20.34868471075087
 31
0.0
  0
ARC
  5
113E
330
1F
100
AcDbEntity
  8
0
  6
CONTINUOUS
 62
     7
100
AcDbCircle
 10
-34.97477163434847
 20
20.56250894595087
 30
0.0
 40
0.1875
100
AcDbArc
 50
90.05840490849998
 51
174.0000003447
  0
LINE
  5
113F
330
1F
100
AcDbEntity
  8
0
100
AcDbLine
 10
34.97496278803455
 20
20.75000884853614
 30
0.0
 11
-34.97496276393148
 21
20.75000884853614
 31
0.0
  0
LWPOLYLINE
  5
1140
330
1F
100
AcDbEntity
  8
0
  6
HIDDEN
 62
     8
100
AcDbPolyline
 90
       13
 70
     0
 43
0.0
 10
-1.001353352911327
 20
17.75569291395087
 10
-0.9780657748504211
 20
17.792604648
 10
-0.9147469108504253
 20
17.87564102239999
 10
-0.8443009812504271
 20
17.95279062399999
 10
-0.7672934932504348
 20
18.02344857279999
 10
-0.684213638850423
 20
18.087154552
 10
-0.5958027380504234
 20
18.1433255888
 10
-0.5026689956504243
 20
18.19156613279999
 10
-0.4060093252504374
 20
18.2313084688
 10
-0.3064947924504224
 20
18.2623805712
 10
-0.2051918676504272
 20
18.2845704112
 10
-0.1027131668504353
 20
18.2978728976
 10
0.0000000187495743
 20
18.30228713119999
  0
LWPOLYLINE
  5
1142
330
1F
100
AcDbEntity
  8
0
  6
HIDDEN
 62
     8
100
AcDbPolyline
 90
       13
 70
     0
 43
0.0
 10
1.001353372789412
 20
17.75569291395087
 10
0.9780657947285062
 20
17.792604648
 10
0.9147469307285104
 20
17.87564102239999
 10
0.8443010011285123
 20
17.95279062399999
 10
0.7672935131285199
 20
18.02344857279999
 10
0.6842136587285081
 20
18.087154552
 10
0.5958027579285086
 20
18.1433255888
 10
0.5026690155285094
 20
18.19156613279999
 10
0.4060093451285225
 20
18.2313084688
 10
0.3064948123285076
 20
18.2623805712
 10
0.2051918875285123
 20
18.2845704112
 10
0.1027131867285205
 20
18.2978728976
 10
0.0000000011285108
 20
18.30228713119999
  0
LWPOLYLINE
  5
1143
330
1F
100
AcDbEntity
  8
0
100
AcDbPolyline
 90
        8
 70
     0
 43
0.0
 10
1.18749999952851
 20
17.1253671264
 10
1.184394953128501
 20
17.21039135359999
 10
1.172165101928497
 20
17.3137990608
 10
1.15078427632852
 20
17.41561177439999
 10
1.120394354728516
 20
17.5152127424
 10
1.08130379152851
 20
17.61163859039999
 10
1.033702868328502
 20
17.70441768159999
 10
1.001353372789412
 20
17.75569291395087
  0
ENDSEC
  0
SECTION
  2
OBJECTS
  0
DICTIONARY
  5
C
330
0
100
AcDbDictionary
  3
ACAD_GROUP
350
D
  3
ACAD_LAYOUT
350
1A
  3
ACAD_MLINESTYLE
350
17
  3
ACAD_PLOTSETTINGS
350
19
  3
ACAD_PLOTSTYLENAME
350
E
  3
ACDBHEADERROUNDTRIPXREC
350
126C
  0
DICTIONARY
  5
128F
330
1F
100
AcDbDictionary
280
     1
  3
ACAD_LAYOUTSELFREF
360
1290
  0
DICTIONARY
  5
128D
330
1B
100
AcDbDictionary
280
     1
  3
ACAD_LAYOUTSELFREF
360
128E
  0
DICTIONARY
  5
D
102
{ACAD_REACTORS
330
C
102
}
330
C
100
AcDbDictionary
  0
DICTIONARY
  5
1A
102
{ACAD_REACTORS
330
C
102
}
330
C
100
AcDbDictionary
  0
DICTIONARY
  5
17
102
{ACAD_REACTORS
330
C
102
}
330
C
100
AcDbDictionary
  3
STANDARD
350
18
  0
DICTIONARY
  5
19
102
{ACAD_REACTORS
330
C
102
}
330
C
100
AcDbDictionary
  0
ACDBDICTIONARYWDFLT
  5
E
102
{ACAD_REACTORS
330
C
102
}
330
C
100
AcDbDictionary
281
     1
  3
Normal
350
F
100
AcDbDictionaryWithDefault
340
F
  0
DICTIONARY
  5
126C
102
{ACAD_REACTORS
330
C
102
}
330
C
100
AcDbDictionary
  3
CEPSNTYPE
350
1276
  3
DIMSTYLEDATA
350
127A
  3
FINGERPRINTGUID
350
1277
  3
HYPERLINKBASE
350
126F
  3
INSUNITS
350
1275
  3
LAYOUTDICT
350
1271
  3
LWETCUNION
350
1274
  3
PLOTSETDICT
350
1272
  3
PLOTSTYLNAMDICT
350
1273
  3
PSVPSCALE
350
1279
  3
PUCSBASE
350
127D
  3
PUCSORGBACK
350
1283
  3
PUCSORGBOTTOM
350
127F
  3
PUCSORGFRONT
350
1282
  3
PUCSORGLEFT
350
1280
  3
PUCSORGRIGHT
350
1281
  3
PUCSORGTOP
350
127E
  3
PUCSORTHOREF
350
127B
  3
PUCSORTHOVIEW
350
127C
  3
STYLESHEET
350
1270
  3
TSTACKALIGN
350
126D
  3
TSTACKSIZE
350
126E
  3
UCSBASE
350
1286
  3
UCSORGBACK
350
128C
  3
UCSORGBOTTOM
350
1288
  3
UCSORGFRONT
350
128B
  3
UCSORGLEFT
350
1289
  3
UCSORGRIGHT
350
128A
  3
UCSORGTOP
350
1287
  3
UCSORTHOREF
350
1284
  3
UCSORTHOVIEW
350
1285
  3
VERSIONGUID
350
1278
  0
XRECORD
  5
1290
102
{ACAD_REACTORS
330
128F
102
}
330
128F
100
AcDbXrecord
340
1F
  0
XRECORD
  5
128E
102
{ACAD_REACTORS
330
128D
102
}
330
128D
100
AcDbXrecord
340
1B
  0
MLINESTYLE
  5
18
102
{ACAD_REACTORS
330
17
102
}
330
17
100
AcDbMlineStyle
  2
STANDARD
 70
     0
  3

 62
   256
 51
90.0
 52
90.0
 71
     2
 49
0.5
 62
   256
  6
BYLAYER
 49
-0.5
 62
   256
  6
BYLAYER
  0
ACDBPLACEHOLDER
  5
F
102
{ACAD_REACTORS
330
E
102
}
330
0
100
AcDbPlaceHolder
280
     0
  0
XRECORD
  5
1276
102
{ACAD_REACTORS
330
126C
102
}
330
126C
100
AcDbXrecord
 90
        0
  0
XRECORD
  5
127A
102
{ACAD_REACTORS
330
126C
102
}
330
126C
100
AcDbXrecord
1000
DSTYLE
1002
{
1070
   278
 70
     0
1070
   342
340
223
1070
   371
 70
     0
1070
   372
 70
     0
1002
}
  0
XRECORD
  5
1277
102
{ACAD_REACTORS
330
126C
102
}
330
126C
100
AcDbXrecord
  1

  0
XRECORD
  5
126F
102
{ACAD_REACTORS
330
126C
102
}
330
126C
100
AcDbXrecord
  1

  0
XRECORD
  5
1275
102
{ACAD_REACTORS
330
126C
102
}
330
126C
100
AcDbXrecord
 90
        1
  0
XRECORD
  5
1271
102
{ACAD_REACTORS
330
126C
102
}
330
126C
100
AcDbXrecord
340
1A
  0
XRECORD
  5
1274
102
{ACAD_REACTORS
330
126C
102
}
330
126C
100
AcDbXrecord
 90
    10781
  0
XRECORD
  5
1272
102
{ACAD_REACTORS
330
126C
102
}
330
126C
100
AcDbXrecord
340
19
  0
XRECORD
  5
1273
102
{ACAD_REACTORS
330
126C
102
}
330
126C
100
AcDbXrecord
340
E
  0
XRECORD
  5
1279
102
{ACAD_REACTORS
330
126C
102
}
330
126C
100
AcDbXrecord
 40
0.0
  0
XRECORD
  5
127D
102
{ACAD_REACTORS
330
126C
102
}
330
126C
100
AcDbXrecord
340
0
  0
XRECORD
  5
1283
102
{ACAD_REACTORS
330
126C
102
}
330
126C
100
AcDbXrecord
 10
0.0
 20
0.0
 30
0.0
  0
XRECORD
  5
127F
102
{ACAD_REACTORS
330
126C
102
}
330
126C
100
AcDbXrecord
 10
0.0
 20
0.0
 30
0.0
  0
XRECORD
  5
1282
102
{ACAD_REACTORS
330
126C
102
}
330
126C
100
AcDbXrecord
 10
0.0
 20
0.0
 30
0.0
  0
XRECORD
  5
1280
102
{ACAD_REACTORS
330
126C
102
}
330
126C
100
AcDbXrecord
 10
0.0
 20
0.0
 30
0.0
  0
XRECORD
  5
1281
102
{ACAD_REACTORS
330
126C
102
}
330
126C
100
AcDbXrecord
 10
0.0
 20
0.0
 30
0.0
  0
XRECORD
  5
127E
102
{ACAD_REACTORS
330
126C
102
}
330
126C
100
AcDbXrecord
 10
0.0
 20
0.0
 30
0.0
  0
XRECORD
  5
127B
102
{ACAD_REACTORS
330
126C
102
}
330
126C
100
AcDbXrecord
340
0
  0
XRECORD
  5
127C
102
{ACAD_REACTORS
330
126C
102
}
330
126C
100
AcDbXrecord
 70
     0
  0
XRECORD
  5
1270
102
{ACAD_REACTORS
330
126C
102
}
330
126C
100
AcDbXrecord
  1

  0
XRECORD
  5
126D
102
{ACAD_REACTORS
330
126C
102
}
330
126C
100
AcDbXrecord
 90
        1
  0
XRECORD
  5
126E
102
{ACAD_REACTORS
330
126C
102
}
330
126C
100
AcDbXrecord
 90
       70
  0
XRECORD
  5
1286
102
{ACAD_REACTORS
330
126C
102
}
330
126C
100
AcDbXrecord
340
0
  0
XRECORD
  5
128C
102
{ACAD_REACTORS
330
126C
102
}
330
126C
100
AcDbXrecord
 10
0.0
 20
0.0
 30
0.0
  0
XRECORD
  5
1288
102
{ACAD_REACTORS
330
126C
102
}
330
126C
100
AcDbXrecord
 10
0.0
 20
0.0
 30
0.0
  0
XRECORD
  5
128B
102
{ACAD_REACTORS
330
126C
102
}
330
126C
100
AcDbXrecord
 10
0.0
 20
0.0
 30
0.0
  0
XRECORD
  5
1289
102
{ACAD_REACTORS
330
126C
102
}
330
126C
100
AcDbXrecord
 10
0.0
 20
0.0
 30
0.0
  0
XRECORD
  5
128A
102
{ACAD_REACTORS
330
126C
102
}
330
126C
100
AcDbXrecord
 10
0.0
 20
0.0
 30
0.0
  0
XRECORD
  5
1287
102
{ACAD_REACTORS
330
126C
102
}
330
126C
100
AcDbXrecord
 10
0.0
 20
0.0
 30
0.0
  0
XRECORD
  5
1284
102
{ACAD_REACTORS
330
126C
102
}
330
126C
100
AcDbXrecord
340
0
  0
XRECORD
  5
1285
102
{ACAD_REACTORS
330
126C
102
}
330
126C
100
AcDbXrecord
 70
     0
  0
XRECORD
  5
1278
102
{ACAD_REACTORS
330
126C
102
}
330
126C
100
AcDbXrecord
  1
{734205CF-9BFF-4A5E-B453-39DAAEC727EA}
  0
ENDSEC
  0
EOF
