  0
SECTION
  2
HEADER
  9
$ACADVER
  1
AC1014
  9
$ACADMAINTVER
 70
     9
  9
$DWGCODEPAGE
  3
ANSI_1252
  9
$INSBASE
 10
0.0
 20
0.0
 30
0.0
  9
$EXTMIN
 10
-36.6924191249082
 20
-2.005508240687568
 30
0.0
  9
$EXTMAX
 10
80.11343092191415
 20
75.98266273026943
 30
0.0
  9
$LIMMIN
 10
0.0
 20
0.0
  9
$LIMMAX
 10
17.0
 20
11.0
  9
$ORTHOMODE
 70
     1
  9
$REGENMODE
 70
     1
  9
$FILLMODE
 70
     1
  9
$QTEXTMODE
 70
     0
  9
$MIRRTEXT
 70
     1
  9
$DRAGMODE
 70
     2
  9
$LTSCALE
 40
0.9350000000000001
  9
$OSMODE
 70
    37
  9
$ATTMODE
 70
     1
  9
$TEXTSIZE
 40
0.2
  9
$TRACEWID
 40
0.05
  9
$TEXTSTYLE
  7
STANDARD
  9
$CLAYER
  8
0
  9
$CELTYPE
  6
BYLAYER
  9
$CECOLOR
 62
   256
  9
$CELTSCALE
 40
1.0
  9
$DELOBJ
 70
     1
  9
$DISPSILH
 70
     0
  9
$DIMSCALE
 40
1.0
  9
$DIMASZ
 40
0.1875
  9
$DIMEXO
 40
0.10625
  9
$DIMDLI
 40
0.646
  9
$DIMRND
 40
0.0
  9
$DIMDLE
 40
0.0
  9
$DIMEXE
 40
0.306
  9
$DIMTP
 40
0.0
  9
$DIMTM
 40
0.0
  9
$DIMTXT
 40
0.125
  9
$DIMCEN
 40
0.153
  9
$DIMTSZ
 40
0.0
  9
$DIMTOL
 70
     0
  9
$DIMLIM
 70
     0
  9
$DIMTIH
 70
     1
  9
$DIMTOH
 70
     1
  9
$DIMSE1
 70
     0
  9
$DIMSE2
 70
     0
  9
$DIMTAD
 70
     0
  9
$DIMZIN
 70
     0
  9
$DIMBLK
  1
_FILLED
  9
$DIMASO
 70
     1
  9
$DIMSHO
 70
     1
  9
$DIMPOST
  1

  9
$DIMAPOST
  1

  9
$DIMALT
 70
     0
  9
$DIMALTD
 70
     2
  9
$DIMALTF
 40
25.4
  9
$DIMLFAC
 40
1.0
  9
$DIMTOFL
 70
     0
  9
$DIMTVP
 40
0.0
  9
$DIMTIX
 70
     0
  9
$DIMSOXD
 70
     0
  9
$DIMSAH
 70
     0
  9
$DIMBLK1
  1

  9
$DIMBLK2
  1

  9
$DIMSTYLE
  2
STANDARD
  9
$DIMCLRD
 70
     0
  9
$DIMCLRE
 70
     0
  9
$DIMCLRT
 70
     0
  9
$DIMTFAC
 40
1.0
  9
$DIMGAP
 40
0.09
  9
$DIMJUST
 70
     0
  9
$DIMSD1
 70
     0
  9
$DIMSD2
 70
     0
  9
$DIMTOLJ
 70
     1
  9
$DIMTZIN
 70
     0
  9
$DIMALTZ
 70
     0
  9
$DIMALTTZ
 70
     0
  9
$DIMFIT
 70
     3
  9
$DIMUPT
 70
     0
  9
$DIMUNIT
 70
     2
  9
$DIMDEC
 70
     4
  9
$DIMTDEC
 70
     4
  9
$DIMALTU
 70
     2
  9
$DIMALTTD
 70
     2
  9
$DIMTXSTY
  7
STANDARD
  9
$DIMAUNIT
 70
     0
  9
$LUNITS
 70
     2
  9
$LUPREC
 70
     4
  9
$SKETCHINC
 40
0.1
  9
$FILLETRAD
 40
0.0
  9
$AUNITS
 70
     0
  9
$AUPREC
 70
     0
  9
$MENU
  1
acad
  9
$ELEVATION
 40
0.0
  9
$PELEVATION
 40
0.0
  9
$THICKNESS
 40
0.0
  9
$LIMCHECK
 70
     0
  9
$BLIPMODE
 70
     0
  9
$CHAMFERA
 40
0.0
  9
$CHAMFERB
 40
0.0
  9
$CHAMFERC
 40
0.0
  9
$CHAMFERD
 40
0.0
  9
$SKPOLY
 70
     0
  9
$TDCREATE
 40
2454054.494601446
  9
$TDUPDATE
 40
2454071.700773472
  9
$TDINDWG
 40
0.1090426273
  9
$TDUSRTIMER
 40
0.1090426273
  9
$USRTIMER
 70
     1
  9
$ANGBASE
 50
0.0
  9
$ANGDIR
 70
     0
  9
$PDMODE
 70
     3
  9
$PDSIZE
 40
0.03125
  9
$PLINEWID
 40
0.0
  9
$COORDS
 70
     0
  9
$SPLFRAME
 70
     0
  9
$SPLINETYPE
 70
     6
  9
$SPLINESEGS
 70
     8
  9
$ATTDIA
 70
     0
  9
$ATTREQ
 70
     1
  9
$HANDLING
 70
-16383
  9
$HANDSEED
  5
1291
  9
$SURFTAB1
 70
     6
  9
$SURFTAB2
 70
     6
  9
$SURFTYPE
 70
     6
  9
$SURFU
 70
     6
  9
$SURFV
 70
     6
  9
$UCSNAME
  2

  9
$UCSORG
 10
0.0
 20
0.0
 30
0.0
  9
$UCSXDIR
 10
1.0
 20
0.0
 30
0.0
  9
$UCSYDIR
 10
0.0
 20
1.0
 30
0.0
  9
$PUCSNAME
  2

  9
$PUCSORG
 10
0.0
 20
0.0
 30
0.0
  9
$PUCSXDIR
 10
1.0
 20
0.0
 30
0.0
  9
$PUCSYDIR
 10
0.0
 20
1.0
 30
0.0
  9
$USERI1
 70
     0
  9
$USERI2
 70
     0
  9
$USERI3
 70
     0
  9
$USERI4
 70
     0
  9
$USERI5
 70
     0
  9
$USERR1
 40
0.0
  9
$USERR2
 40
0.0
  9
$USERR3
 40
0.0
  9
$USERR4
 40
0.0
  9
$USERR5
 40
0.0
  9
$WORLDVIEW
 70
     1
  9
$SHADEDGE
 70
     3
  9
$SHADEDIF
 70
    70
  9
$TILEMODE
 70
     1
  9
$MAXACTVP
 70
    16
  9
$PINSBASE
 10
0.0
 20
0.0
 30
0.0
  9
$PLIMCHECK
 70
     0
  9
$PEXTMIN
 10
1.000000000000000E+20
 20
1.000000000000000E+20
 30
1.000000000000000E+20
  9
$PEXTMAX
 10
-1.000000000000000E+20
 20
-1.000000000000000E+20
 30
-1.000000000000000E+20
  9
$PLIMMIN
 10
0.0
 20
0.0
  9
$PLIMMAX
 10
12.0
 20
9.0
  9
$UNITMODE
 70
     0
  9
$VISRETAIN
 70
     0
  9
$PLINEGEN
 70
     1
  9
$PSLTSCALE
 70
     0
  9
$TREEDEPTH
 70
  3020
  9
$PICKSTYLE
 70
     1
  9
$CMLSTYLE
  2
STANDARD
  9
$CMLJUST
 70
     0
  9
$CMLSCALE
 40
1.0
  9
$PROXYGRAPHICS
 70
     0
  9
$MEASUREMENT
 70
     0
  0
ENDSEC
  0
SECTION
  2
CLASSES
  0
CLASS
  1
ACDBDICTIONARYWDFLT
  2
AcDbDictionaryWithDefault
  3
AutoCAD 2000
 90
        0
280
     0
281
     0
  0
CLASS
  1
ACDBPLACEHOLDER
  2
AcDbPlaceHolder
  3
AutoCAD 2000
 90
        0
280
     0
281
     0
  0
CLASS
  1
LAYOUT
  2
AcDbLayout
  3
AutoCAD 2000
 90
        0
280
     0
281
     0
  0
CLASS
  1
LWPOLYLINE
  2
AcDbPolyline
  3
AutoCAD 2000
 90
        0
280
     0
281
     1
  0
CLASS
  1
IMAGE
  2
AcDbRasterImage
  3
ISM
 90
      127
280
     0
281
     1
  0
CLASS
  1
OLE2FRAME
  2
AcDbOle2Frame
  3
AutoCAD 2000
 90
        0
280
     0
281
     1
  0
CLASS
  1
HATCH
  2
AcDbHatch
  3
AutoCAD 2000
 90
        0
280
     0
281
     1
  0
CLASS
  1
DICTIONARYVAR
  2
AcDbDictionaryVar
  3
AutoCAD 2000
 90
        0
280
     0
281
     0
  0
CLASS
  1
RASTERVARIABLES
  2
AcDbRasterVariables
  3
ISM
 90
        0
280
     0
281
     0
  0
CLASS
  1
IMAGEDEF
  2
AcDbRasterImageDef
  3
ISM
 90
        0
280
     0
281
     0
  0
CLASS
  1
IMAGEDEF_REACTOR
  2
AcDbRasterImageDefReactor
  3
ISM
 90
        1
280
     0
281
     0
  0
CLASS
  1
IDBUFFER
  2
AcDbIdBuffer
  3
AutoCAD 2000
 90
        0
280
     0
281
     0
  0
CLASS
  1
SPATIAL_FILTER
  2
AcDbSpatialFilter
  3
AutoCAD 2000
 90
        0
280
     0
281
     0
  0
CLASS
  1
XRECORD
  2
AcDbXrecord
  3
AutoCAD 2000
 90
        0
280
     0
281
     0
  0
CLASS
  1
SORTENTSTABLE
  2
AcDbSortentsTable
  3
AutoCAD 2000
 90
        0
280
     0
281
     0
  0
CLASS
  1
LAYER_INDEX
  2
AcDbLayerIndex
  3
AutoCAD 2000
 90
        0
280
     0
281
     0
  0
CLASS
  1
SPATIAL_INDEX
  2
AcDbSpatialIndex
  3
AutoCAD 2000
 90
        0
280
     0
281
     0
  0
CLASS
  1
OBJECT_PTR
  2
CAseDLPNTableRecord
  3
ASE-LPNTableRecord
 90
        1
280
     0
281
     0
  0
CLASS
  1
PLOTSETTINGS
  2
AcDbPlotSettings
  3
AutoCAD 2000
 90
        0
280
     0
281
     0
  0
CLASS
  1
VBA_PROJECT
  2
AcDbVbaProject
  3
acadvba
 90
        0
280
     0
281
     0
  0
CLASS
  1
WIPEOUT
  2
AcDbWipeout
  3
WipeOut|AutoCAD Express Tool|expresstools@autodesk.com
 90
      127
280
     0
281
     1
  0
CLASS
  1
WIPEOUTVARIABLES
  2
AcDbWipeoutVariables
  3
WipeOut|AutoCAD Express Tool|expresstools@autodesk.com
 90
        0
280
     0
281
     0
  0
CLASS
  1
RTEXT
  2
RText
  3
RText|AutoCAD Express Tool|expresstools@autodesk.com
 90
        0
280
     0
281
     1
  0
CLASS
  1
ARCALIGNEDTEXT
  2
AcDbArcAlignedText
  3
ATEXT|AutoCAD Express Tool|expresstools@autodesk.com
 90
        0
280
     0
281
     1
  0
CLASS
  1
LONG_TRANSACTION
  2
AcDbLongTransaction
  3
AutoCAD 2000
 90
        0
280
     0
281
     0
  0
CLASS
  1
LWPOLYLINE
  2
AcDbPolyline
  3
AutoCAD 2000
 90
        0
280
     0
281
     1
  0
CLASS
  1
HATCH
  2
AcDbHatch
  3
AutoCAD 2000
 90
        0
280
     0
281
     1
  0
CLASS
  1
XRECORD
  2
AcDbXrecord
  3
AutoCAD 2000
 90
        0
280
     0
281
     0
  0
ENDSEC
  0
SECTION
  2
TABLES
  0
TABLE
  2
VPORT
  5
8
330
0
100
AcDbSymbolTable
 70
     3
  0
VPORT
  5
126B
330
8
100
AcDbSymbolTableRecord
100
AcDbViewportTableRecord
  2
*ACTIVE
 70
     0
 10
0.0
 20
0.0
 11
1.0
 21
1.0
 12
0.971064859561241
 22
9.274631316779988
 13
0.0
 23
0.0
 14
1.0
 24
1.0
 15
0.0
 25
0.0
 16
0.0
 26
0.0
 36
1.0
 17
0.0
 27
0.0
 37
0.0
 40
28.27962352562195
 41
1.745424292845258
 42
50.0
 43
0.0
 44
0.0
 50
0.0
 51
0.0
 71
     0
 72
   100
 73
     1
 74
     1
 75
     0
 76
     0
 77
     0
 78
     0
  0
ENDTAB
  0
TABLE
  2
LTYPE
  5
5
330
0
100
AcDbSymbolTable
 70
     3
  0
LTYPE
  5
14
330
5
100
AcDbSymbolTableRecord
100
AcDbLinetypeTableRecord
  2
BYBLOCK
 70
     0
  3

 72
    65
 73
     0
 40
0.0
  0
LTYPE
  5
15
330
5
100
AcDbSymbolTableRecord
100
AcDbLinetypeTableRecord
  2
BYLAYER
 70
     0
  3

 72
    65
 73
     0
 40
0.0
  0
LTYPE
  5
16
330
5
100
AcDbSymbolTableRecord
100
AcDbLinetypeTableRecord
  2
CONTINUOUS
 70
     0
  3
Solid line
 72
    65
 73
     0
 40
0.0
  0
LTYPE
  5
1F6
330
5
100
AcDbSymbolTableRecord
100
AcDbLinetypeTableRecord
  2
HIDDEN
 70
     0
  3
- - - - - - - - - - - - - - - - - - - -
 72
    65
 73
     2
 40
0.2
 49
0.1
 74
     0
 49
-0.1
 74
     0
  0
LTYPE
  5
B03
330
5
100
AcDbSymbolTableRecord
100
AcDbLinetypeTableRecord
  2
CENTERX2
 70
     0
  3
Center (2x) ________  __  ________  __  _____
 72
    65
 73
     4
 40
4.0
 49
2.5
 74
     0
 49
-0.5
 74
     0
 49
0.5
 74
     0
 49
-0.5
 74
     0
  0
ENDTAB
  0
TABLE
  2
LAYER
  5
2
330
0
100
AcDbSymbolTable
 70
     3
  0
LAYER
  5
10
330
2
100
AcDbSymbolTableRecord
100
AcDbLayerTableRecord
  2
0
 70
     0
 62
     7
  6
CONTINUOUS
  0
LAYER
  5
AF8
330
2
100
AcDbSymbolTableRecord
100
AcDbLayerTableRecord
  2
DEFPOINTS
 70
     0
 62
     7
  6
CONTINUOUS
  0
LAYER
  5
B04
330
2
100
AcDbSymbolTableRecord
100
AcDbLayerTableRecord
  2
CENTER
 70
     0
 62
     1
  6
CENTERX2
  0
ENDTAB
  0
TABLE
  2
STYLE
  5
3
330
0
100
AcDbSymbolTable
 70
     2
  0
STYLE
  5
11
330
3
100
AcDbSymbolTableRecord
100
AcDbTextStyleTableRecord
  2
STANDARD
 70
     0
 40
0.0
 41
0.8
 50
0.0
 71
     0
 42
0.2
  3
txt
  4

  0
STYLE
  5
21E
330
3
100
AcDbSymbolTableRecord
100
AcDbTextStyleTableRecord
  2
TEXTSTYLE_1
 70
     0
 40
0.0
 41
0.8
 50
0.0
 71
     0
 42
0.2
  3
txt
  4

  0
ENDTAB
  0
TABLE
  2
VIEW
  5
6
330
0
100
AcDbSymbolTable
 70
     0
  0
ENDTAB
  0
TABLE
  2
UCS
  5
7
330
0
100
AcDbSymbolTable
 70
     0
  0
ENDTAB
  0
TABLE
  2
APPID
  5
9
330
0
100
AcDbSymbolTable
 70
     2
  0
APPID
  5
222
330
9
100
AcDbSymbolTableRecord
100
AcDbRegAppTableRecord
  2
ACAD
 70
     0
  0
APPID
  5
AF5
330
9
100
AcDbSymbolTableRecord
100
AcDbRegAppTableRecord
  2
DCO15
 70
     0
  0
ENDTAB
  0
TABLE
  2
DIMSTYLE
  5
A
330
0
100
AcDbSymbolTable
 70
     1
  0
DIMSTYLE
105
23C
330
A
100
AcDbSymbolTableRecord
100
AcDbDimStyleTableRecord
  2
STANDARD
 70
     0
  3

  4

  5
_FILLED
  6
_FILLED
  7
_FILLED
 40
1.0
 41
0.1875
 42
0.0625
 43
0.38
 44
0.18
 45
0.0
 46
0.0
 47
0.00001
 48
0.00001
140
0.125
141
0.09
142
0.0
143
25.4
144
1.0
145
0.0
146
1.0
147
0.09
 71
     0
 72
     0
 73
     1
 74
     1
 75
     0
 76
     0
 77
     0
 78
     4
170
     0
171
     2
172
     0
173
     0
174
     0
175
     0
176
     0
177
     0
178
     0
270
     2
271
     5
272
     5
273
     2
274
     2
340
11
275
     0
280
     0
281
     0
282
     0
283
     1
284
     4
285
     0
286
     0
287
     3
288
     0
  0
ENDTAB
  0
TABLE
  2
BLOCK_RECORD
  5
1
330
0
100
AcDbSymbolTable
 70
     1
  0
BLOCK_RECORD
  5
1F
102
{ACAD_XDICTIONARY
360
128F
102
}
330
1
100
AcDbSymbolTableRecord
100
AcDbBlockTableRecord
  2
*MODEL_SPACE
  0
BLOCK_RECORD
  5
1B
102
{ACAD_XDICTIONARY
360
128D
102
}
330
1
100
AcDbSymbolTableRecord
100
AcDbBlockTableRecord
  2
*PAPER_SPACE
  0
BLOCK_RECORD
  5
223
330
1
100
AcDbSymbolTableRecord
100
AcDbBlockTableRecord
  2
_FILLED
  0
ENDTAB
  0
ENDSEC
  0
SECTION
  2
BLOCKS
  0
BLOCK
  5
20
330
1F
100
AcDbEntity
  8
0
100
AcDbBlockBegin
  2
*MODEL_SPACE
 70
     0
 10
0.0
 20
0.0
 30
0.0
  3
*MODEL_SPACE
  1

  0
ENDBLK
  5
21
330
1F
100
AcDbEntity
  8
0
100
AcDbBlockEnd
  0
BLOCK
  5
1C
330
1B
100
AcDbEntity
 67
     1
  8
0
100
AcDbBlockBegin
  2
*PAPER_SPACE
 70
     0
 10
0.0
 20
0.0
 30
0.0
  3
*PAPER_SPACE
  1

  0
ENDBLK
  5
1D
330
1B
100
AcDbEntity
 67
     1
  8
0
100
AcDbBlockEnd
  0
BLOCK
  5
514
330
223
100
AcDbEntity
  8
0
100
AcDbBlockBegin
  2
_FILLED
 70
     0
 10
0.0
 20
0.0
 30
0.0
  3
_FILLED
  1

  0
SOLID
  5
515
330
223
100
AcDbEntity
  8
0
  6
BYBLOCK
 62
     0
100
AcDbTrace
 10
0.0
 20
0.0
 30
0.0
 11
-1.0
 21
0.1666666667
 31
0.0
 12
-1.0
 22
-0.1666666667
 32
0.0
 13
-1.0
 23
-0.1666666667
 33
0.0
  0
ENDBLK
  5
516
330
223
100
AcDbEntity
  8
0
  6
BYBLOCK
 62
     0
100
AcDbBlockEnd
  0
ENDSEC
  0
SECTION
  2
ENTITIES
  0
MTEXT
  5
585
330
1F
100
AcDbEntity
  8
0
  6
CONTINUOUS
 62
     2
100
AcDbMText
 10
15.84375
 20
2.3125
 30
0.0
 40
0.09375
 41
0.075
 71
     2
 72
     1
  1
 \P \P 
  7
TEXTSTYLE_1
1001
ACAD
1000
MTEXTBEGIN
1070
    73
1070
     1
1070
    44
1040
1.0
1070
    74
1070
     0
1000
MTEXTEND
  0
LINE
  5
F87
330
1F
100
AcDbEntity
  8
0
100
AcDbLine
 10
17.7097918024
 20
17.63069291395087
 30
0.0
 11
-17.70979180239999
 21
17.63069291395087
 31
0.0
  0
LINE
  5
F88
330
1F
100
AcDbEntity
  8
CENTER
100
AcDbLine
 10
-8.598382038400018
 20
17.5477572512
 30
0.0
 11
-16.2233437616
 21
16.4761387664
 31
0.0
  0
LWPOLYLINE
  5
10C3
330
1F
100
AcDbEntity
  8
0
100
AcDbPolyline
 90
       12
 70
     0
 43
0.0
 10
-13.57267472320001
 20
16.37764348479999
 10
-13.51328365919999
 20
15.9991121344
 10
-13.44763983519999
 20
15.5668442896
 10
-13.37941080640001
 20
15.1035388576
 10
-13.3088928784
 20
14.6110810032
 10
-13.2362904864
 20
14.0909633552
 10
-13.161773216
 20
13.544569744
 10
-13.08552151840001
 20
12.973447392
 10
-13.00725469120001
 20
12.3756396976
 10
-12.92580736639999
 20
11.74201765919999
 10
-12.839983128
 20
11.0625016688
 10
-12.75402030079999
 20
10.37043195359999
  0
ARC
  5
10C4
330
1F
100
AcDbEntity
  8
0
  6
HIDDEN
 62
     8
100
AcDbCircle
 10
-10.22910960160001
 20
16.119246792
 30
0.0
 40
0.625
100
AcDbArc
 50
249.9999999999999
 51
69.99999999999999
  0
LINE
  5
10C5
330
1F
100
AcDbEntity
  8
0
  6
HIDDEN
 62
     8
100
AcDbLine
 10
12.89409363458288
 20
19.96811413297518
 30
0.0
 11
11.42416199867911
 21
9.443863758569255
 31
0.0
  0
LWPOLYLINE
  5
10C6
330
1F
100
AcDbEntity
  8
0
100
AcDbPolyline
 90
       12
 70
     0
 43
0.0
 10
12.75402030239996
 20
10.37043195359999
 10
12.8399831296
 20
11.0625016688
 10
12.92580736639996
 20
11.74201765919999
 10
13.00725469279996
 20
12.3756396976
 10
13.08552151839995
 20
12.973447392
 10
13.16177321599997
 20
13.544569744
 10
13.23629048799995
 20
14.0909633552
 10
13.3088928784
 20
14.6110810032
 10
13.37941080799998
 20
15.1035388576
 10
13.44763983519999
 20
15.5668442896
 10
13.51328365919999
 20
15.9991121344
 10
13.57267472319995
 20
16.37764348479999
  0
LWPOLYLINE
  5
10C7
330
1F
100
AcDbEntity
  8
0
100
AcDbPolyline
 90
        3
 70
     0
 43
0.0
 10
11.86912917447799
 20
9.551408357437203
 10
12.04005812639997
 20
9.609698699200002
 10
12.19516065439995
 20
9.676109729600007
  0
LINE
  5
10C8
330
1F
100
AcDbEntity
  8
0
100
AcDbLine
 10
-4.982044958399995
 20
0.3761215440000072
 30
0.0
 11
-4.344673905941448
 21
1.286381742028446
 31
0.0
  0
LINE
  5
10C9
330
1F
100
AcDbEntity
  8
0
100
AcDbLine
 10
-6.517955040926324
 20
0.3761215444717223
 30
0.0
 11
-6.936904206395439
 21
0.9744429599999975
 31
0.0
  0
LINE
  5
10CA
330
1F
100
AcDbEntity
  8
0
100
AcDbLine
 10
3.960681944171938
 20
1.834779097480137
 30
0.0
 11
4.982044958399967
 21
0.3761215440000072
 31
0.0
  0
ARC
  5
10CB
330
1F
100
AcDbEntity
  8
0
100
AcDbCircle
 10
5.75
 20
0.9138494544000081
 30
0.0
 40
0.9375
100
AcDbArc
 50
214.9999999999998
 51
339.9999999999999
  0
LINE
  5
10CC
330
1F
100
AcDbEntity
  8
CENTER
100
AcDbLine
 10
-6.5
 20
4.224124500506668
 30
0.0
 11
-6.5
 21
-2.005508240687568
 31
0.0
  0
ARC
  5
10CD
330
1F
100
AcDbEntity
  8
0
100
AcDbCircle
 10
-5.75
 20
0.9138494544000081
 30
0.0
 40
0.9375
100
AcDbArc
 50
215.0000000633559
 51
324.9999999999996
  0
LINE
  5
10CE
330
1F
100
AcDbEntity
  8
0
100
AcDbLine
 10
8.691487649599991
 20
2.035910632000003
 30
0.0
 11
-4.182102702400015
 21
1.489560819200001
 31
0.0
  0
LINE
  5
10CF
330
1F
100
AcDbEntity
  8
0
100
AcDbLine
 10
-11.42418416187249
 20
9.443869818292263
 30
0.0
 11
-10.56259917920002
 21
3.313389023999995
 31
0.0
  0
LINE
  5
10D0
330
1F
100
AcDbEntity
  8
0
100
AcDbLine
 10
-7.771446609600019
 20
0.9744429599999975
 30
0.0
 11
-5.22855339039998
 21
0.9744429599999975
 31
0.0
  0
LINE
  5
10D1
330
1F
100
AcDbEntity
  8
0
100
AcDbLine
 10
-8.540558347200004
 20
1.555940440000007
 30
0.0
 11
-4.182102702400015
 21
1.489560819200001
 31
0.0
  0
ARC
  5
10D2
330
1F
100
AcDbEntity
  8
0
100
AcDbCircle
 10
-8.53645336761707
 20
3.611379479655646
 30
0.0
 40
2.047941688978728
100
AcDbArc
 50
188.3666566204141
 51
264.0476729329601
  0
LINE
  5
10D3
330
1F
100
AcDbEntity
  8
0
100
AcDbLine
 10
-7.970320392000019
 20
1.056819177599997
 30
0.0
 11
-8.405332755199992
 21
1.491831540799999
 31
0.0
  0
ARC
  5
10D4
330
1F
100
AcDbEntity
  8
0
100
AcDbCircle
 10
-8.560012363200002
 20
1.337151932800004
 30
0.0
 40
0.21875
100
AcDbArc
 50
45.00000011550016
 51
84.93683189349962
  0
LWPOLYLINE
  5
10D5
330
1F
100
AcDbEntity
  8
0
100
AcDbPolyline
 90
        4
 70
     0
 43
0.0
 10
-8.540713769600017
 20
1.555050340800008
 10
-8.610050475200011
 20
1.561307515200006
 10
-8.679398320000018
 20
1.567786547200007
 10
-8.74882683680002
 20
1.574479219200007
  0
ARC
  5
10D6
330
1F
100
AcDbEntity
  8
0
100
AcDbCircle
 10
-7.771446609600019
 20
1.255692959999997
 30
0.0
 40
0.28125
100
AcDbArc
 50
224.9999999999998
 51
270.0
  0
ARC
  5
10D7
330
1F
100
AcDbEntity
  8
0
100
AcDbCircle
 10
-4.488743406596967
 20
1.24420198840977
 30
0.0
 40
0.25
100
AcDbArc
 50
89.12744825109149
 51
135.0000000000007
  0
LINE
  5
10D8
330
1F
100
AcDbEntity
  8
0
100
AcDbLine
 10
-5.02967960799998
 20
1.056819177599997
 30
0.0
 11
-4.665520101893605
 21
1.420978683706401
 31
0.0
  0
ARC
  5
10D9
330
1F
100
AcDbEntity
  8
0
100
AcDbCircle
 10
-5.22855339039998
 20
1.255692959999997
 30
0.0
 40
0.28125
100
AcDbArc
 50
270.0
 51
315.0000000000001
  0
ARC
  5
10DA
330
1F
100
AcDbEntity
  8
0
100
AcDbCircle
 10
-3.935097883811067
 20
0.9995935238327504
 30
0.0
 40
0.5
100
AcDbArc
 50
92.43015072316064
 51
144.999999997179
  0
LWPOLYLINE
  5
10DB
330
1F
100
AcDbEntity
  8
0
100
AcDbPolyline
 90
       11
 70
     0
 43
0.0
 10
-11.8692439472
 20
9.551439903999998
 10
-11.6792823904
 20
9.499221776000005
 10
-11.46768806400001
 20
9.451896432000005
 10
-11.23044689760001
 20
9.408124652800005
 10
-10.96157273279999
 20
9.366664155200005
 10
-10.65593720320001
 20
9.326935596800005
 10
-10.31373791359999
 20
9.289249438399998
 10
-9.937058577599998
 20
9.253920127999997
 10
-9.528543244800005
 20
9.221123345599998
 10
-9.090871051199997
 20
9.190971110400006
 10
-8.668004945600017
 20
9.165731796799995
  0
LWPOLYLINE
  5
10DC
330
1F
100
AcDbEntity
  8
0
100
AcDbPolyline
 90
        6
 70
     0
 43
0.0
 10
-12.75412090400001
 20
10.3712461008
 10
-12.739133328
 20
10.2847198672
 10
-12.69842053440001
 20
10.15696111999999
 10
-12.63680167200001
 20
10.0396720544
 10
-12.55533153120001
 20
9.933528755200008
 10
-12.45876007200001
 20
9.841436732799998
  0
LWPOLYLINE
  5
10DD
330
1F
100
AcDbEntity
  8
0
100
AcDbPolyline
 90
        3
 70
     0
 43
0.0
 10
-11.86902905440001
 20
9.551374214400006
 10
-11.67909713119999
 20
9.499175931200007
 10
-11.4675231232
 20
9.451862998399995
  0
LWPOLYLINE
  5
10DE
330
1F
100
AcDbEntity
  8
0
100
AcDbPolyline
 90
        3
 70
     0
 43
0.0
 10
-12.45875048160002
 20
9.841428921600005
 10
-12.335290936
 20
9.752877899200008
 10
-12.19496214080001
 20
9.676013993600001
  0
LINE
  5
10DF
330
1F
100
AcDbEntity
  8
0
100
AcDbLine
 10
-12.19516065440001
 20
9.676109729600007
 30
0.0
 11
-12.04005812639999
 21
9.609698699200002
 31
0.0
  0
LINE
  5
10E0
330
1F
100
AcDbEntity
  8
0
100
AcDbLine
 10
-12.04028380479999
 20
9.609784704000006
 30
0.0
 11
-11.86902905440001
 21
9.551374214400006
 31
0.0
  0
LINE
  5
10E1
330
1F
100
AcDbEntity
  8
0
100
AcDbLine
 10
-12.45875051679999
 20
9.841428950400008
 30
0.0
 11
-12.33516939360001
 21
9.752802059200007
 31
0.0
  0
LINE
  5
10E2
330
1F
100
AcDbEntity
  8
0
100
AcDbLine
 10
10.62857362103127
 20
3.782821569874869
 30
0.0
 11
11.44042491359999
 21
9.446863934400006
 31
0.0
  0
LINE
  5
10E3
330
1F
100
AcDbEntity
  8
0
100
AcDbLine
 10
6.630961831999968
 20
0.5932055696000092
 30
0.0
 11
7.114711409158843
 21
1.920104307206081
 31
0.0
  0
ARC
  5
10E4
330
1F
100
AcDbEntity
  8
0
100
AcDbCircle
 10
8.617091606399981
 20
4.065516931200001
 30
0.0
 40
2.03125
100
AcDbArc
 50
272.2325971047999
 51
351.9999999999998
  0
LINE
  5
10E5
330
1F
100
AcDbEntity
  8
0
100
AcDbLine
 10
8.695709822399976
 20
2.0360538384
 30
0.0
 11
8.696222599999998
 21
2.035808843200008
 31
0.0
  0
LWPOLYLINE
  5
10E6
330
1F
100
AcDbEntity
  8
0
100
AcDbPolyline
 90
        4
 70
     0
 43
0.0
 10
8.695618140799979
 20
2.036110854400007
 10
8.691670846399972
 20
2.035938048000005
 10
8.691487649599991
 20
2.035910632000003
 10
8.695709822399976
 20
2.036053838400007
  0
LWPOLYLINE
  5
10E7
330
1F
100
AcDbEntity
  8
0
100
AcDbPolyline
 90
       11
 70
     0
 43
0.0
 10
8.66800494719996
 20
9.165731796799995
 10
9.09083764799999
 20
9.1909689776
 10
9.528471279999962
 20
9.221117995199996
 10
9.93694876639995
 20
9.253910606400005
 10
10.31359635839999
 20
9.289235060800002
 10
10.65577464799997
 20
9.326916158400003
 10
10.9614034608
 20
9.366640198399998
 10
11.23028256959997
 20
9.408096972800002
 10
11.46752312319995
 20
9.451862998399995
 10
11.67909713279999
 20
9.499175931200007
 10
11.86912917447796
 20
9.551408357437203
  0
LWPOLYLINE
  5
10E8
330
1F
100
AcDbEntity
  8
0
100
AcDbPolyline
 90
        3
 70
     0
 43
0.0
 10
11.44042526079999
 20
9.446866355200008
 10
11.46768806399995
 20
9.451896432000005
 10
11.67928239039997
 20
9.499221776000005
  0
LWPOLYLINE
  5
10E9
330
1F
100
AcDbEntity
  8
0
100
AcDbPolyline
 90
        5
 70
     0
 43
0.0
 10
12.45875976959996
 20
9.841436483200006
 10
12.55476333599995
 20
9.932901510400007
 10
12.63588147519999
 20
10.03824224479999
 10
12.69742723359996
 20
10.15459623519999
 10
12.738366568
 20
10.2813760144
  0
LINE
  5
10EA
330
1F
100
AcDbEntity
  8
0
100
AcDbLine
 10
12.19516065439995
 20
9.676109729600007
 30
0.0
 11
12.33522405599996
 21
9.752841260800003
 31
0.0
  0
LWPOLYLINE
  5
10EB
330
1F
100
AcDbEntity
  8
0
100
AcDbPolyline
 90
        3
 70
     0
 43
0.0
 10
12.19496214079998
 20
9.676013993600001
 10
12.33516939359998
 20
9.7528020592
 10
12.45875051679996
 20
9.841428950400008
  0
LINE
  5
10EC
330
1F
100
AcDbEntity
  8
0
100
AcDbLine
 10
12.738366568
 20
10.2813760144
 30
0.0
 11
12.75411991039999
 21
10.3712379632
 31
0.0
  0
LINE
  5
10ED
330
1F
100
AcDbEntity
  8
0
100
AcDbLine
 10
12.55501088479997
 20
9.933222980800003
 30
0.0
 11
12.55533153279998
 21
9.933528755200008
 31
0.0
  0
LINE
  5
10EE
330
1F
100
AcDbEntity
  8
0
  6
HIDDEN
 62
     8
100
AcDbLine
 10
10.02942075999999
 20
16.7267044464
 30
0.0
 11
12.77815856639995
 21
17.72716318879999
 31
0.0
  0
LINE
  5
10EF
330
1F
100
AcDbEntity
  8
0
  6
HIDDEN
 62
     8
100
AcDbLine
 10
10.45694593919995
 20
15.5520886704
 30
0.0
 11
12.5671628064
 21
16.3201447968
 31
0.0
  0
LINE
  5
10F0
330
1F
100
AcDbEntity
  8
0
  6
HIDDEN
 62
     8
100
AcDbLine
 10
-12.7762249696
 20
17.7114320768
 30
0.0
 11
-10.02748716319999
 21
16.7109733344
 31
0.0
  0
LINE
  5
10F1
330
1F
100
AcDbEntity
  8
0
  6
HIDDEN
 62
     8
100
AcDbLine
 10
-12.5652292096
 20
16.3044136864
 30
0.0
 11
-10.45501234240001
 21
15.5363575584
 31
0.0
  0
LINE
  5
10F2
330
1F
100
AcDbEntity
  8
0
100
AcDbLine
 10
-13.77840540770434
 20
17.63069291395087
 30
0.0
 11
-13.57266857760001
 21
16.3776444496
 31
0.0
  0
LWPOLYLINE
  5
10F3
330
1F
100
AcDbEntity
  8
0
  6
HIDDEN
 62
     8
100
AcDbPolyline
 90
       55
 70
     0
 43
0.0
 10
-12.7762249696
 20
17.7114320768
 10
-12.77796140800001
 20
17.7116299456
 10
-12.77959477920001
 20
17.7110355776
 10
-12.78111731680002
 20
17.70981648960001
 10
-12.78317632799999
 20
17.7071829536
 10
-12.78494229119999
 20
17.7040860848
 10
-12.7873936416
 20
17.6984803872
 10
-12.78896025439999
 20
17.6931478848
 10
-12.7898338448
 20
17.68801772159999
 10
-12.79020612639999
 20
17.68301904319999
 10
-12.7902688096
 20
17.67808099199999
 10
-12.79021361280001
 20
17.6731327104
 10
-12.79030357280001
 20
17.6596554512
 10
-12.79069203680001
 20
17.645781344
 10
-12.79115656320001
 20
17.63168566239999
 10
-12.79147470719999
 20
17.6175436864
 10
-12.79138227519999
 20
17.597960496
 10
-12.79074234879999
 20
17.5785532784
 10
-12.78972644960001
 20
17.55924655999999
 10
-12.78850609920002
 20
17.5399648624
 10
-12.78531701599999
 20
17.49324759199999
 10
-12.78171708319999
 20
17.4464470256
 10
-12.7768191648
 20
17.3921357344
 10
-12.7712932768
 20
17.33792057439999
 10
-12.76453037440001
 20
17.27676646079999
 10
-12.75726817439999
 20
17.2156589696
 10
-12.7485380928
 20
17.14708808479999
 10
-12.73924129760001
 20
17.0785929488
 10
-12.72871392000001
 20
17.0054511824
 10
-12.7175742768
 20
16.93240778879999
 10
-12.7053378864
 20
16.85666685759999
 10
-12.69238244800001
 20
16.7810116224
 10
-12.68357552
 20
16.73202634559999
 10
-12.67439307040001
 20
16.6831334928
 10
-12.66478003200001
 20
16.634408912
 10
-12.65584101280001
 20
16.59132178400001
 10
-12.64647617119999
 20
16.5482491824
 10
-12.63664234719999
 20
16.5050132848
 10
-12.6303569968
 20
16.4784490064
 10
-12.62376128799999
 20
16.4520107664
 10
-12.61673663199999
 20
16.4259523296
 10
-12.609164432
 20
16.4005274592
 10
-12.604773816
 20
16.3870212032
 10
-12.60015100480001
 20
16.3735649472
 10
-12.59526062400001
 20
16.3599465136
 10
-12.5900673008
 20
16.345953728
 10
-12.58453565920001
 20
16.33137441279999
 10
-12.58289727839999
 20
16.3271408656
 10
-12.58116523680001
 20
16.3229471072
 10
-12.57927566079999
 20
16.31889659679999
 10
-12.57716467840001
 20
16.3150927872
 10
-12.57476841600001
 20
16.311639136
 10
-12.5720229984
 20
16.3086390976
 10
-12.56886455520001
 20
16.3061961296
 10
-12.5652292096
 20
16.3044136864
  0
ARC
  5
10F5
330
1F
100
AcDbEntity
  8
0
  6
HIDDEN
 62
     8
100
AcDbCircle
 10
10.23104319839996
 20
16.134977904
 30
0.0
 40
0.625
100
AcDbArc
 50
110.0
 51
290.0
  0
LWPOLYLINE
  5
10F7
330
1F
100
AcDbEntity
  8
0
100
AcDbPolyline
 90
        2
 70
     0
 43
0.0
 10
13.57266857759998
 20
16.3776444496
 10
13.77840540922717
 20
17.63069291395087
  0
LWPOLYLINE
  5
10F8
330
1F
100
AcDbEntity
  8
0
  6
HIDDEN
 62
     8
100
AcDbPolyline
 90
       55
 70
     0
 43
0.0
 10
12.77815856639995
 20
17.72716318879999
 10
12.77988817119995
 20
17.72736120959999
 10
12.78151645759999
 20
17.7267721472
 10
12.78303538879998
 20
17.72556227519999
 10
12.78509117119995
 20
17.72294718239999
 10
12.7868557072
 20
17.71987057439999
 10
12.78931095199999
 20
17.7142862832
 10
12.79088026559998
 20
17.7089698944
 10
12.79175559839996
 20
17.7038518736
 10
12.79212890079998
 20
17.69886268959999
 10
12.79219212479995
 20
17.693932808
 10
12.79213722079998
 20
17.6889926944
 10
12.79222860479996
 20
17.6755096992
 10
12.7926200608
 20
17.6616344288
 10
12.79308826879997
 20
17.6475401088
 10
12.79340991519996
 20
17.6333999648
 10
12.79332054719998
 20
17.6138006624
 10
12.79268128799998
 20
17.5943755072
 10
12.79166455199998
 20
17.57504985439999
 10
12.79044275199999
 20
17.5557490592
 10
12.78725069119997
 20
17.50898748959999
 10
12.78364778399998
 20
17.46214413919999
 10
12.77874606399996
 20
17.407795528
 10
12.77321534399999
 20
17.3535426304
 10
12.76644371359998
 20
17.29232173759999
 10
12.7591719408
 20
17.2311477424
 10
12.7504308192
 20
17.16250850719999
 10
12.74112195199995
 20
17.09394512
 10
12.73058579359997
 20
17.0207658624
 10
12.71943669439997
 20
16.94768513439999
 10
12.70719673439998
 20
16.87194849919999
 10
12.69423744799996
 20
16.79629762559999
 10
12.68543393919998
 20
16.7473487376
 10
12.67625512799998
 20
16.698492256
 10
12.666645904
 20
16.64980399039999
 10
12.65771532639996
 20
16.6067721968
 10
12.64835959359999
 20
16.5637549024
 10
12.63853570079999
 20
16.5205745392
 10
12.6322569472
 20
16.4940445568
 10
12.62566831999998
 20
16.4676404464
 10
12.6186513408
 20
16.4416156192
 10
12.61108753279995
 20
16.4162234912
 10
12.60669943039999
 20
16.4027273408
 10
12.60207940799995
 20
16.3892811712
 10
12.5971923408
 20
16.3756728672
 10
12.59200309919998
 20
16.3616903088
 10
12.58647655199996
 20
16.34712137919999
 10
12.5848377616
 20
16.34288545279999
 10
12.58310527999998
 20
16.3386892592
 10
12.58121517759997
 20
16.33463634079999
 10
12.57910352319999
 20
16.3308302368
 10
12.57670639039997
 20
16.32737448959999
 10
12.57395984479996
 20
16.32437263999999
 10
12.57079996159996
 20
16.32192822879999
 10
12.5671628064
 20
16.3201447968
  0
LINE
  5
1146
330
1F
100
AcDbEntity
  8
0
  6
HIDDEN
 62
     8
100
AcDbLine
 10
16.96987362
 20
20.62490585635087
 30
0.0
 11
13.52697672445165
 21
20.51069086112734
 31
0.0
  0
ARC
  5
1148
330
1F
100
AcDbEntity
  8
0
  6
HIDDEN
 62
     8
100
AcDbCircle
 10
13.53321305508856
 20
20.3232946013456
 30
0.0
 40
0.1875
100
AcDbArc
 50
91.90003738619997
 51
180.0000000015
  0
LINE
  5
1149
330
1F
100
AcDbEntity
  8
0
  6
HIDDEN
 62
     8
100
AcDbLine
 10
13.34571305988856
 20
20.30717759974559
 30
0.0
 11
13.34571305988856
 21
20.3232946013456
 31
0.0
  0
ARC
  5
114A
330
1F
100
AcDbEntity
  8
0
  6
HIDDEN
 62
     8
100
AcDbCircle
 10
13.16821305988858
 20
20.30717759974559
 30
0.0
 40
0.1775
100
AcDbArc
 50
270.0
 51
359.9999999552999
  0
ARC
  5
114B
330
1F
100
AcDbEntity
  8
0
  6
HIDDEN
 62
     8
100
AcDbCircle
 10
13.07979109348858
 20
19.94217759974558
 30
0.0
 40
0.1875
100
AcDbArc
 50
89.9983105055
 51
172.0488833976082
  0
LINE
  5
114C
330
1F
100
AcDbEntity
  8
0
  6
HIDDEN
 62
     8
100
AcDbLine
 10
13.07979109348858
 20
20.12967759974558
 30
0.0
 11
13.16821305988857
 21
20.12967759974558
 31
0.0
  0
LINE
  5
114D
330
1F
100
AcDbEntity
  8
0
  6
CONTINUOUS
 62
     7
100
AcDbLine
 10
17.65566237679999
 20
18.14570000195088
 30
0.0
 11
17.7097918024
 21
17.63069291395087
 31
0.0
  0
ARC
  5
114E
330
1F
100
AcDbEntity
  8
0
  6
CONTINUOUS
 62
     7
100
AcDbCircle
 10
16.9760903384
 20
20.43750894595087
 30
0.0
 40
0.1875
100
AcDbArc
 50
5.999999655299999
 51
89.9415950915
  0
LWPOLYLINE
  5
114F
330
1F
100
AcDbEntity
  8
0
  6
CONTINUOUS
 62
     7
100
AcDbPolyline
 90
       23
 70
     0
 43
0.0
 10
17.67229831759999
 20
18.19505857155088
 10
17.73651205999999
 20
18.26996007715088
 10
17.79676810799999
 20
18.35486149475088
 10
17.8512863656
 20
18.44872138595088
 10
17.8985970776
 20
18.55013750435089
 10
17.9379064072
 20
18.65846071235086
 10
17.9683761512
 20
18.77268559875089
 10
17.98918588880001
 20
18.89103781795087
 10
17.99985739599999
 20
19.01183616515087
 10
18.000142604
 20
19.13416541475087
 10
17.9899379528
 20
19.25579418915087
 10
17.9695985192
 20
19.37435505795089
 10
17.93968256240001
 20
19.48847321635089
 10
17.90078909039999
 20
19.59716210435088
 10
17.8539285816
 20
19.69882175235089
 10
17.80032151759999
 20
19.79221405155088
 10
17.7406163256
 20
19.87738646115088
 10
17.67573610799999
 20
19.95390052515089
 10
17.6068444312
 20
20.02124901475089
 10
17.5350363864
 20
20.07925492675088
 10
17.46073478159999
 20
20.12832943875089
 10
17.38464679759999
 20
20.16859278595087
 10
17.30710520879999
 20
20.20033776035087
  0
ARC
  5
1150
330
1F
100
AcDbEntity
  8
0
  6
CONTINUOUS
 62
     7
100
AcDbCircle
 10
17.71781999440001
 20
18.15223303075087
 30
0.0
 40
0.0625
100
AcDbArc
 50
136.7479142127
 51
186.0
  0
LINE
  5
1151
330
1F
100
AcDbEntity
  8
0
  6
CONTINUOUS
 62
     7
100
AcDbLine
 10
17.30710520879999
 20
20.20033776035087
 30
0.0
 11
17.22872734
 21
20.22368471075087
 31
0.0
  0
LINE
  5
1152
330
1F
100
AcDbEntity
  8
0
  6
CONTINUOUS
 62
     7
100
AcDbLine
 10
17.1625631976
 20
20.45710803235088
 30
0.0
 11
17.1814022792
 21
20.27786613955087
 31
0.0
  0
ARC
  5
1153
330
1F
100
AcDbEntity
  8
0
  6
CONTINUOUS
 62
     7
100
AcDbCircle
 10
17.24355989840002
 20
20.28439916835087
 30
0.0
 40
0.0625
100
AcDbArc
 50
186.0
 51
256.2715340177999
  0
LINE
  5
1242
330
1F
100
AcDbEntity
  8
0
100
AcDbLine
 10
11.44042491359999
 20
9.446863934400006
 30
0.0
 11
11.35058412845199
 21
9.446863934400006
 31
0.0
  0
LINE
  5
1243
330
1F
100
AcDbEntity
  8
0
  6
HIDDEN
 62
     8
100
AcDbLine
 10
14.09459374716677
 20
20.00793964003638
 30
0.0
 11
13.76214249430629
 21
17.62769273812012
 31
0.0
  0
LINE
  5
124A
330
1F
100
AcDbEntity
  8
0
  6
HIDDEN
 62
     8
100
AcDbLine
 10
14.54621317247244
 20
20.34700310680678
 30
0.0
 11
14.54621317247244
 21
20.36312010840679
 31
0.0
  0
LINE
  5
124B
330
1F
100
AcDbEntity
  8
0
  6
HIDDEN
 62
     8
100
AcDbLine
 10
14.28029120607246
 20
20.16950310680678
 30
0.0
 11
14.36871317247245
 21
20.16950310680678
 31
0.0
  0
ARC
  5
124C
330
1F
100
AcDbEntity
  8
0
  6
HIDDEN
 62
     8
100
AcDbCircle
 10
14.73371316767244
 20
20.36312010840679
 30
0.0
 40
0.1875
100
AcDbArc
 50
91.90003738619997
 51
180.0000000015
  0
ARC
  5
124D
330
1F
100
AcDbEntity
  8
0
  6
HIDDEN
 62
     8
100
AcDbCircle
 10
14.36871317247246
 20
20.34700310680678
 30
0.0
 40
0.1775
100
AcDbArc
 50
270.0
 51
359.9999999552999
  0
ARC
  5
124E
330
1F
100
AcDbEntity
  8
0
  6
HIDDEN
 62
     8
100
AcDbCircle
 10
14.28029120607246
 20
19.98200310680678
 30
0.0
 40
0.1875
100
AcDbArc
 50
89.9983105055
 51
172.0488833976082
  0
LINE
  5
124F
330
1F
100
AcDbEntity
  8
0
100
AcDbLine
 10
-17.67229836731127
 20
18.19505862435088
 30
0.0
 11
17.67229836731127
 21
18.19505862435088
 31
0.0
  0
LINE
  5
1250
330
1F
100
AcDbEntity
  8
0
100
AcDbLine
 10
-17.22872734537135
 20
20.22368470915087
 30
0.0
 11
17.22872735161763
 21
20.22368470915087
 31
0.0
  0
ARC
  5
1251
330
1F
100
AcDbEntity
  8
0
  6
HIDDEN
 62
     8
100
AcDbCircle
 10
-14.36871317247246
 20
20.34700310680678
 30
0.0
 40
0.1775
100
AcDbArc
 50
180.0000000447
 51
270.0
  0
LINE
  5
1252
330
1F
100
AcDbEntity
  8
0
  6
HIDDEN
 62
     8
100
AcDbLine
 10
-16.96987362
 20
20.62490585635087
 30
0.0
 11
-13.52697672445165
 21
20.51069086112734
 31
0.0
  0
LINE
  5
1253
330
1F
100
AcDbEntity
  8
0
  6
HIDDEN
 62
     8
100
AcDbLine
 10
-14.09459374716677
 20
20.00793964003638
 30
0.0
 11
-13.76214249430629
 21
17.62769273812012
 31
0.0
  0
LINE
  5
1254
330
1F
100
AcDbEntity
  8
0
  6
HIDDEN
 62
     8
100
AcDbLine
 10
-13.34571305988856
 20
20.30717759974559
 30
0.0
 11
-13.34571305988856
 21
20.3232946013456
 31
0.0
  0
LINE
  5
1255
330
1F
100
AcDbEntity
  8
0
  6
HIDDEN
 62
     8
100
AcDbLine
 10
-13.07979109348858
 20
20.12967759974558
 30
0.0
 11
-13.16821305988857
 21
20.12967759974558
 31
0.0
  0
ARC
  5
1256
330
1F
100
AcDbEntity
  8
0
  6
HIDDEN
 62
     8
100
AcDbCircle
 10
-13.53321305508856
 20
20.3232946013456
 30
0.0
 40
0.1875
100
AcDbArc
 50
359.9999999984999
 51
88.09996261380003
  0
ARC
  5
1257
330
1F
100
AcDbEntity
  8
0
  6
HIDDEN
 62
     8
100
AcDbCircle
 10
-13.16821305988858
 20
20.30717759974559
 30
0.0
 40
0.1775
100
AcDbArc
 50
180.0000000447
 51
270.0
  0
ARC
  5
1258
330
1F
100
AcDbEntity
  8
0
  6
HIDDEN
 62
     8
100
AcDbCircle
 10
-13.07979109348858
 20
19.94217759974558
 30
0.0
 40
0.1875
100
AcDbArc
 50
7.951116602391745
 51
90.00168949449999
  0
ARC
  5
1259
330
1F
100
AcDbEntity
  8
0
  6
HIDDEN
 62
     8
100
AcDbCircle
 10
-14.28029120607246
 20
19.98200310680678
 30
0.0
 40
0.1875
100
AcDbArc
 50
7.951116602391745
 51
90.00168949449999
  0
LINE
  5
125A
330
1F
100
AcDbEntity
  8
0
  6
HIDDEN
 62
     8
100
AcDbLine
 10
-14.28029120607246
 20
20.16950310680678
 30
0.0
 11
-14.36871317247245
 21
20.16950310680678
 31
0.0
  0
LINE
  5
125B
330
1F
100
AcDbEntity
  8
0
  6
CONTINUOUS
 62
     7
100
AcDbLine
 10
-17.65566237679999
 20
18.14570000195088
 30
0.0
 11
-17.7097918024
 21
17.63069291395087
 31
0.0
  0
ARC
  5
125C
330
1F
100
AcDbEntity
  8
0
  6
HIDDEN
 62
     8
100
AcDbCircle
 10
-14.73371316767244
 20
20.36312010840679
 30
0.0
 40
0.1875
100
AcDbArc
 50
359.9999999984999
 51
88.09996261380003
  0
LINE
  5
125D
330
1F
100
AcDbEntity
  8
0
  6
HIDDEN
 62
     8
100
AcDbLine
 10
-14.54621317247244
 20
20.34700310680678
 30
0.0
 11
-14.54621317247244
 21
20.36312010840679
 31
0.0
  0
LWPOLYLINE
  5
125E
330
1F
100
AcDbEntity
  8
0
  6
CONTINUOUS
 62
     7
100
AcDbPolyline
 90
       23
 70
     0
 43
0.0
 10
-17.67229831759999
 20
18.19505857155088
 10
-17.73651205999999
 20
18.26996007715088
 10
-17.79676810799999
 20
18.35486149475088
 10
-17.8512863656
 20
18.44872138595088
 10
-17.8985970776
 20
18.55013750435089
 10
-17.9379064072
 20
18.65846071235086
 10
-17.9683761512
 20
18.77268559875089
 10
-17.98918588880001
 20
18.89103781795087
 10
-17.99985739599999
 20
19.01183616515087
 10
-18.000142604
 20
19.13416541475087
 10
-17.9899379528
 20
19.25579418915087
 10
-17.9695985192
 20
19.37435505795089
 10
-17.93968256240001
 20
19.48847321635089
 10
-17.90078909039999
 20
19.59716210435088
 10
-17.8539285816
 20
19.69882175235089
 10
-17.80032151759999
 20
19.79221405155088
 10
-17.7406163256
 20
19.87738646115088
 10
-17.67573610799999
 20
19.95390052515089
 10
-17.6068444312
 20
20.02124901475089
 10
-17.5350363864
 20
20.07925492675088
 10
-17.46073478159999
 20
20.12832943875089
 10
-17.38464679759999
 20
20.16859278595087
 10
-17.30710520879999
 20
20.20033776035087
  0
ARC
  5
125F
330
1F
100
AcDbEntity
  8
0
  6
CONTINUOUS
 62
     7
100
AcDbCircle
 10
-17.71781999440001
 20
18.15223303075087
 30
0.0
 40
0.0625
100
AcDbArc
 50
354.0
 51
43.25208578729998
  0
ARC
  5
1260
330
1F
100
AcDbEntity
  8
0
  6
CONTINUOUS
 62
     7
100
AcDbCircle
 10
-16.9760903384
 20
20.43750894595087
 30
0.0
 40
0.1875
100
AcDbArc
 50
90.05840490849998
 51
174.0000003447
  0
LINE
  5
1261
330
1F
100
AcDbEntity
  8
0
  6
CONTINUOUS
 62
     7
100
AcDbLine
 10
-17.30710520879999
 20
20.20033776035087
 30
0.0
 11
-17.22872734
 21
20.22368471075087
 31
0.0
  0
LINE
  5
1262
330
1F
100
AcDbEntity
  8
0
  6
CONTINUOUS
 62
     7
100
AcDbLine
 10
-17.1625631976
 20
20.45710803235088
 30
0.0
 11
-17.1814022792
 21
20.27786613955087
 31
0.0
  0
ARC
  5
1263
330
1F
100
AcDbEntity
  8
0
  6
CONTINUOUS
 62
     7
100
AcDbCircle
 10
-17.24355989840002
 20
20.28439916835087
 30
0.0
 40
0.0625
100
AcDbArc
 50
283.7284659822
 51
354.0
  0
LINE
  5
1264
330
1F
100
AcDbEntity
  8
0
  6
HIDDEN
 62
     8
100
AcDbLine
 10
-12.89409363458288
 20
19.96811413297518
 30
0.0
 11
-11.42416199867911
 21
9.443863758569255
 31
0.0
  0
LINE
  5
1265
330
1F
100
AcDbEntity
  8
0
100
AcDbLine
 10
-16.97628146798302
 20
20.62500884853613
 30
0.0
 11
16.97628146798301
 21
20.62500884853613
 31
0.0
  0
ENDSEC
  0
SECTION
  2
OBJECTS
  0
DICTIONARY
  5
C
330
0
100
AcDbDictionary
  3
ACAD_GROUP
350
D
  3
ACAD_LAYOUT
350
1A
  3
ACAD_MLINESTYLE
350
17
  3
ACAD_PLOTSETTINGS
350
19
  3
ACAD_PLOTSTYLENAME
350
E
  3
ACDBHEADERROUNDTRIPXREC
350
126C
  0
DICTIONARY
  5
128F
330
1F
100
AcDbDictionary
280
     1
  3
ACAD_LAYOUTSELFREF
360
1290
  0
DICTIONARY
  5
128D
330
1B
100
AcDbDictionary
280
     1
  3
ACAD_LAYOUTSELFREF
360
128E
  0
DICTIONARY
  5
D
102
{ACAD_REACTORS
330
C
102
}
330
C
100
AcDbDictionary
  0
DICTIONARY
  5
1A
102
{ACAD_REACTORS
330
C
102
}
330
C
100
AcDbDictionary
  0
DICTIONARY
  5
17
102
{ACAD_REACTORS
330
C
102
}
330
C
100
AcDbDictionary
  3
STANDARD
350
18
  0
DICTIONARY
  5
19
102
{ACAD_REACTORS
330
C
102
}
330
C
100
AcDbDictionary
  0
ACDBDICTIONARYWDFLT
  5
E
102
{ACAD_REACTORS
330
C
102
}
330
C
100
AcDbDictionary
281
     1
  3
Normal
350
F
100
AcDbDictionaryWithDefault
340
F
  0
DICTIONARY
  5
126C
102
{ACAD_REACTORS
330
C
102
}
330
C
100
AcDbDictionary
  3
CEPSNTYPE
350
1276
  3
DIMSTYLEDATA
350
127A
  3
FINGERPRINTGUID
350
1277
  3
HYPERLINKBASE
350
126F
  3
INSUNITS
350
1275
  3
LAYOUTDICT
350
1271
  3
LWETCUNION
350
1274
  3
PLOTSETDICT
350
1272
  3
PLOTSTYLNAMDICT
350
1273
  3
PSVPSCALE
350
1279
  3
PUCSBASE
350
127D
  3
PUCSORGBACK
350
1283
  3
PUCSORGBOTTOM
350
127F
  3
PUCSORGFRONT
350
1282
  3
PUCSORGLEFT
350
1280
  3
PUCSORGRIGHT
350
1281
  3
PUCSORGTOP
350
127E
  3
PUCSORTHOREF
350
127B
  3
PUCSORTHOVIEW
350
127C
  3
STYLESHEET
350
1270
  3
TSTACKALIGN
350
126D
  3
TSTACKSIZE
350
126E
  3
UCSBASE
350
1286
  3
UCSORGBACK
350
128C
  3
UCSORGBOTTOM
350
1288
  3
UCSORGFRONT
350
128B
  3
UCSORGLEFT
350
1289
  3
UCSORGRIGHT
350
128A
  3
UCSORGTOP
350
1287
  3
UCSORTHOREF
350
1284
  3
UCSORTHOVIEW
350
1285
  3
VERSIONGUID
350
1278
  0
XRECORD
  5
1290
102
{ACAD_REACTORS
330
128F
102
}
330
128F
100
AcDbXrecord
340
1F
  0
XRECORD
  5
128E
102
{ACAD_REACTORS
330
128D
102
}
330
128D
100
AcDbXrecord
340
1B
  0
MLINESTYLE
  5
18
102
{ACAD_REACTORS
330
17
102
}
330
17
100
AcDbMlineStyle
  2
STANDARD
 70
     0
  3

 62
   256
 51
90.0
 52
90.0
 71
     2
 49
0.5
 62
   256
  6
BYLAYER
 49
-0.5
 62
   256
  6
BYLAYER
  0
ACDBPLACEHOLDER
  5
F
102
{ACAD_REACTORS
330
E
102
}
330
0
100
AcDbPlaceHolder
280
     0
  0
XRECORD
  5
1276
102
{ACAD_REACTORS
330
126C
102
}
330
126C
100
AcDbXrecord
 90
        0
  0
XRECORD
  5
127A
102
{ACAD_REACTORS
330
126C
102
}
330
126C
100
AcDbXrecord
1000
DSTYLE
1002
{
1070
   278
 70
     0
1070
   342
340
223
1070
   371
 70
     0
1070
   372
 70
     0
1002
}
  0
XRECORD
  5
1277
102
{ACAD_REACTORS
330
126C
102
}
330
126C
100
AcDbXrecord
  1

  0
XRECORD
  5
126F
102
{ACAD_REACTORS
330
126C
102
}
330
126C
100
AcDbXrecord
  1

  0
XRECORD
  5
1275
102
{ACAD_REACTORS
330
126C
102
}
330
126C
100
AcDbXrecord
 90
        1
  0
XRECORD
  5
1271
102
{ACAD_REACTORS
330
126C
102
}
330
126C
100
AcDbXrecord
340
1A
  0
XRECORD
  5
1274
102
{ACAD_REACTORS
330
126C
102
}
330
126C
100
AcDbXrecord
 90
    10781
  0
XRECORD
  5
1272
102
{ACAD_REACTORS
330
126C
102
}
330
126C
100
AcDbXrecord
340
19
  0
XRECORD
  5
1273
102
{ACAD_REACTORS
330
126C
102
}
330
126C
100
AcDbXrecord
340
E
  0
XRECORD
  5
1279
102
{ACAD_REACTORS
330
126C
102
}
330
126C
100
AcDbXrecord
 40
0.0
  0
XRECORD
  5
127D
102
{ACAD_REACTORS
330
126C
102
}
330
126C
100
AcDbXrecord
340
0
  0
XRECORD
  5
1283
102
{ACAD_REACTORS
330
126C
102
}
330
126C
100
AcDbXrecord
 10
0.0
 20
0.0
 30
0.0
  0
XRECORD
  5
127F
102
{ACAD_REACTORS
330
126C
102
}
330
126C
100
AcDbXrecord
 10
0.0
 20
0.0
 30
0.0
  0
XRECORD
  5
1282
102
{ACAD_REACTORS
330
126C
102
}
330
126C
100
AcDbXrecord
 10
0.0
 20
0.0
 30
0.0
  0
XRECORD
  5
1280
102
{ACAD_REACTORS
330
126C
102
}
330
126C
100
AcDbXrecord
 10
0.0
 20
0.0
 30
0.0
  0
XRECORD
  5
1281
102
{ACAD_REACTORS
330
126C
102
}
330
126C
100
AcDbXrecord
 10
0.0
 20
0.0
 30
0.0
  0
XRECORD
  5
127E
102
{ACAD_REACTORS
330
126C
102
}
330
126C
100
AcDbXrecord
 10
0.0
 20
0.0
 30
0.0
  0
XRECORD
  5
127B
102
{ACAD_REACTORS
330
126C
102
}
330
126C
100
AcDbXrecord
340
0
  0
XRECORD
  5
127C
102
{ACAD_REACTORS
330
126C
102
}
330
126C
100
AcDbXrecord
 70
     0
  0
XRECORD
  5
1270
102
{ACAD_REACTORS
330
126C
102
}
330
126C
100
AcDbXrecord
  1

  0
XRECORD
  5
126D
102
{ACAD_REACTORS
330
126C
102
}
330
126C
100
AcDbXrecord
 90
        1
  0
XRECORD
  5
126E
102
{ACAD_REACTORS
330
126C
102
}
330
126C
100
AcDbXrecord
 90
       70
  0
XRECORD
  5
1286
102
{ACAD_REACTORS
330
126C
102
}
330
126C
100
AcDbXrecord
340
0
  0
XRECORD
  5
128C
102
{ACAD_REACTORS
330
126C
102
}
330
126C
100
AcDbXrecord
 10
0.0
 20
0.0
 30
0.0
  0
XRECORD
  5
1288
102
{ACAD_REACTORS
330
126C
102
}
330
126C
100
AcDbXrecord
 10
0.0
 20
0.0
 30
0.0
  0
XRECORD
  5
128B
102
{ACAD_REACTORS
330
126C
102
}
330
126C
100
AcDbXrecord
 10
0.0
 20
0.0
 30
0.0
  0
XRECORD
  5
1289
102
{ACAD_REACTORS
330
126C
102
}
330
126C
100
AcDbXrecord
 10
0.0
 20
0.0
 30
0.0
  0
XRECORD
  5
128A
102
{ACAD_REACTORS
330
126C
102
}
330
126C
100
AcDbXrecord
 10
0.0
 20
0.0
 30
0.0
  0
XRECORD
  5
1287
102
{ACAD_REACTORS
330
126C
102
}
330
126C
100
AcDbXrecord
 10
0.0
 20
0.0
 30
0.0
  0
XRECORD
  5
1284
102
{ACAD_REACTORS
330
126C
102
}
330
126C
100
AcDbXrecord
340
0
  0
XRECORD
  5
1285
102
{ACAD_REACTORS
330
126C
102
}
330
126C
100
AcDbXrecord
 70
     0
  0
XRECORD
  5
1278
102
{ACAD_REACTORS
330
126C
102
}
330
126C
100
AcDbXrecord
  1
{E8F2F9D7-4B33-45D5-A34C-DC892DB0667B}
  0
ENDSEC
  0
EOF
