  0
SECTION
  2
HEADER
  9
$ACADVER
  1
AC1014
  9
$ACADMAINTVER
 70
     9
  9
$DWGCODEPAGE
  3
ANSI_1252
  9
$INSBASE
 10
0.0
 20
0.0
 30
0.0
  9
$EXTMIN
 10
-36.00000000000001
 20
-2.011201200687569
 30
0.0
  9
$EXTMAX
 10
80.11328831806006
 20
74.06526775854198
 30
0.0
  9
$LIMMIN
 10
0.0
 20
0.0
  9
$LIMMAX
 10
17.0
 20
11.0
  9
$ORTHOMODE
 70
     1
  9
$REGENMODE
 70
     1
  9
$FILLMODE
 70
     1
  9
$QTEXTMODE
 70
     0
  9
$MIRRTEXT
 70
     1
  9
$DRAGMODE
 70
     2
  9
$LTSCALE
 40
0.9350000000000001
  9
$OSMODE
 70
    37
  9
$ATTMODE
 70
     1
  9
$TEXTSIZE
 40
0.2
  9
$TRACEWID
 40
0.05
  9
$TEXTSTYLE
  7
STANDARD
  9
$CLAYER
  8
0
  9
$CELTYPE
  6
BYLAYER
  9
$CECOLOR
 62
   256
  9
$CELTSCALE
 40
1.0
  9
$DELOBJ
 70
     1
  9
$DISPSILH
 70
     0
  9
$DIMSCALE
 40
1.0
  9
$DIMASZ
 40
0.1875
  9
$DIMEXO
 40
0.10625
  9
$DIMDLI
 40
0.646
  9
$DIMRND
 40
0.0
  9
$DIMDLE
 40
0.0
  9
$DIMEXE
 40
0.306
  9
$DIMTP
 40
0.0
  9
$DIMTM
 40
0.0
  9
$DIMTXT
 40
0.125
  9
$DIMCEN
 40
0.153
  9
$DIMTSZ
 40
0.0
  9
$DIMTOL
 70
     0
  9
$DIMLIM
 70
     0
  9
$DIMTIH
 70
     1
  9
$DIMTOH
 70
     1
  9
$DIMSE1
 70
     0
  9
$DIMSE2
 70
     0
  9
$DIMTAD
 70
     0
  9
$DIMZIN
 70
     0
  9
$DIMBLK
  1
_FILLED
  9
$DIMASO
 70
     1
  9
$DIMSHO
 70
     1
  9
$DIMPOST
  1

  9
$DIMAPOST
  1

  9
$DIMALT
 70
     0
  9
$DIMALTD
 70
     2
  9
$DIMALTF
 40
25.4
  9
$DIMLFAC
 40
1.0
  9
$DIMTOFL
 70
     0
  9
$DIMTVP
 40
0.0
  9
$DIMTIX
 70
     0
  9
$DIMSOXD
 70
     0
  9
$DIMSAH
 70
     0
  9
$DIMBLK1
  1

  9
$DIMBLK2
  1

  9
$DIMSTYLE
  2
STANDARD
  9
$DIMCLRD
 70
     0
  9
$DIMCLRE
 70
     0
  9
$DIMCLRT
 70
     0
  9
$DIMTFAC
 40
1.0
  9
$DIMGAP
 40
0.09
  9
$DIMJUST
 70
     0
  9
$DIMSD1
 70
     0
  9
$DIMSD2
 70
     0
  9
$DIMTOLJ
 70
     1
  9
$DIMTZIN
 70
     0
  9
$DIMALTZ
 70
     0
  9
$DIMALTTZ
 70
     0
  9
$DIMFIT
 70
     3
  9
$DIMUPT
 70
     0
  9
$DIMUNIT
 70
     2
  9
$DIMDEC
 70
     4
  9
$DIMTDEC
 70
     4
  9
$DIMALTU
 70
     2
  9
$DIMALTTD
 70
     2
  9
$DIMTXSTY
  7
STANDARD
  9
$DIMAUNIT
 70
     0
  9
$LUNITS
 70
     2
  9
$LUPREC
 70
     4
  9
$SKETCHINC
 40
0.1
  9
$FILLETRAD
 40
0.0
  9
$AUNITS
 70
     0
  9
$AUPREC
 70
     0
  9
$MENU
  1
acad
  9
$ELEVATION
 40
0.0
  9
$PELEVATION
 40
0.0
  9
$THICKNESS
 40
0.0
  9
$LIMCHECK
 70
     0
  9
$BLIPMODE
 70
     0
  9
$CHAMFERA
 40
0.0
  9
$CHAMFERB
 40
0.0
  9
$CHAMFERC
 40
0.0
  9
$CHAMFERD
 40
0.0
  9
$SKPOLY
 70
     0
  9
$TDCREATE
 40
2454054.603402673
  9
$TDUPDATE
 40
2454071.701375463
  9
$TDINDWG
 40
0.0142363310
  9
$TDUSRTIMER
 40
0.0142363310
  9
$USRTIMER
 70
     1
  9
$ANGBASE
 50
0.0
  9
$ANGDIR
 70
     0
  9
$PDMODE
 70
     3
  9
$PDSIZE
 40
0.03125
  9
$PLINEWID
 40
0.0
  9
$COORDS
 70
     0
  9
$SPLFRAME
 70
     0
  9
$SPLINETYPE
 70
     6
  9
$SPLINESEGS
 70
     8
  9
$ATTDIA
 70
     0
  9
$ATTREQ
 70
     1
  9
$HANDLING
 70
-16383
  9
$HANDSEED
  5
D08
  9
$SURFTAB1
 70
     6
  9
$SURFTAB2
 70
     6
  9
$SURFTYPE
 70
     6
  9
$SURFU
 70
     6
  9
$SURFV
 70
     6
  9
$UCSNAME
  2

  9
$UCSORG
 10
0.0
 20
0.0
 30
0.0
  9
$UCSXDIR
 10
1.0
 20
0.0
 30
0.0
  9
$UCSYDIR
 10
0.0
 20
1.0
 30
0.0
  9
$PUCSNAME
  2

  9
$PUCSORG
 10
0.0
 20
0.0
 30
0.0
  9
$PUCSXDIR
 10
1.0
 20
0.0
 30
0.0
  9
$PUCSYDIR
 10
0.0
 20
1.0
 30
0.0
  9
$USERI1
 70
     0
  9
$USERI2
 70
     0
  9
$USERI3
 70
     0
  9
$USERI4
 70
     0
  9
$USERI5
 70
     0
  9
$USERR1
 40
0.0
  9
$USERR2
 40
0.0
  9
$USERR3
 40
0.0
  9
$USERR4
 40
0.0
  9
$USERR5
 40
0.0
  9
$WORLDVIEW
 70
     1
  9
$SHADEDGE
 70
     3
  9
$SHADEDIF
 70
    70
  9
$TILEMODE
 70
     1
  9
$MAXACTVP
 70
    16
  9
$PINSBASE
 10
0.0
 20
0.0
 30
0.0
  9
$PLIMCHECK
 70
     0
  9
$PEXTMIN
 10
1.000000000000000E+20
 20
1.000000000000000E+20
 30
1.000000000000000E+20
  9
$PEXTMAX
 10
-1.000000000000000E+20
 20
-1.000000000000000E+20
 30
-1.000000000000000E+20
  9
$PLIMMIN
 10
0.0
 20
0.0
  9
$PLIMMAX
 10
12.0
 20
9.0
  9
$UNITMODE
 70
     0
  9
$VISRETAIN
 70
     0
  9
$PLINEGEN
 70
     1
  9
$PSLTSCALE
 70
     0
  9
$TREEDEPTH
 70
  3020
  9
$PICKSTYLE
 70
     1
  9
$CMLSTYLE
  2
STANDARD
  9
$CMLJUST
 70
     0
  9
$CMLSCALE
 40
1.0
  9
$PROXYGRAPHICS
 70
     0
  9
$MEASUREMENT
 70
     0
  0
ENDSEC
  0
SECTION
  2
CLASSES
  0
CLASS
  1
ACDBDICTIONARYWDFLT
  2
AcDbDictionaryWithDefault
  3
AutoCAD 2000
 90
        0
280
     0
281
     0
  0
CLASS
  1
ACDBPLACEHOLDER
  2
AcDbPlaceHolder
  3
AutoCAD 2000
 90
        0
280
     0
281
     0
  0
CLASS
  1
LAYOUT
  2
AcDbLayout
  3
AutoCAD 2000
 90
        0
280
     0
281
     0
  0
CLASS
  1
LWPOLYLINE
  2
AcDbPolyline
  3
AutoCAD 2000
 90
        0
280
     0
281
     1
  0
CLASS
  1
IMAGE
  2
AcDbRasterImage
  3
ISM
 90
      127
280
     0
281
     1
  0
CLASS
  1
OLE2FRAME
  2
AcDbOle2Frame
  3
AutoCAD 2000
 90
        0
280
     0
281
     1
  0
CLASS
  1
HATCH
  2
AcDbHatch
  3
AutoCAD 2000
 90
        0
280
     0
281
     1
  0
CLASS
  1
DICTIONARYVAR
  2
AcDbDictionaryVar
  3
AutoCAD 2000
 90
        0
280
     0
281
     0
  0
CLASS
  1
RASTERVARIABLES
  2
AcDbRasterVariables
  3
ISM
 90
        0
280
     0
281
     0
  0
CLASS
  1
IMAGEDEF
  2
AcDbRasterImageDef
  3
ISM
 90
        0
280
     0
281
     0
  0
CLASS
  1
IMAGEDEF_REACTOR
  2
AcDbRasterImageDefReactor
  3
ISM
 90
        1
280
     0
281
     0
  0
CLASS
  1
IDBUFFER
  2
AcDbIdBuffer
  3
AutoCAD 2000
 90
        0
280
     0
281
     0
  0
CLASS
  1
SPATIAL_FILTER
  2
AcDbSpatialFilter
  3
AutoCAD 2000
 90
        0
280
     0
281
     0
  0
CLASS
  1
XRECORD
  2
AcDbXrecord
  3
AutoCAD 2000
 90
        0
280
     0
281
     0
  0
CLASS
  1
SORTENTSTABLE
  2
AcDbSortentsTable
  3
AutoCAD 2000
 90
        0
280
     0
281
     0
  0
CLASS
  1
LAYER_INDEX
  2
AcDbLayerIndex
  3
AutoCAD 2000
 90
        0
280
     0
281
     0
  0
CLASS
  1
SPATIAL_INDEX
  2
AcDbSpatialIndex
  3
AutoCAD 2000
 90
        0
280
     0
281
     0
  0
CLASS
  1
OBJECT_PTR
  2
CAseDLPNTableRecord
  3
ASE-LPNTableRecord
 90
        1
280
     0
281
     0
  0
CLASS
  1
PLOTSETTINGS
  2
AcDbPlotSettings
  3
AutoCAD 2000
 90
        0
280
     0
281
     0
  0
CLASS
  1
VBA_PROJECT
  2
AcDbVbaProject
  3
acadvba
 90
        0
280
     0
281
     0
  0
CLASS
  1
WIPEOUT
  2
AcDbWipeout
  3
WipeOut|AutoCAD Express Tool|expresstools@autodesk.com
 90
      127
280
     0
281
     1
  0
CLASS
  1
WIPEOUTVARIABLES
  2
AcDbWipeoutVariables
  3
WipeOut|AutoCAD Express Tool|expresstools@autodesk.com
 90
        0
280
     0
281
     0
  0
CLASS
  1
RTEXT
  2
RText
  3
RText|AutoCAD Express Tool|expresstools@autodesk.com
 90
        0
280
     0
281
     1
  0
CLASS
  1
ARCALIGNEDTEXT
  2
AcDbArcAlignedText
  3
ATEXT|AutoCAD Express Tool|expresstools@autodesk.com
 90
        0
280
     0
281
     1
  0
CLASS
  1
LONG_TRANSACTION
  2
AcDbLongTransaction
  3
AutoCAD 2000
 90
        0
280
     0
281
     0
  0
CLASS
  1
LWPOLYLINE
  2
AcDbPolyline
  3
AutoCAD 2000
 90
        0
280
     0
281
     1
  0
CLASS
  1
HATCH
  2
AcDbHatch
  3
AutoCAD 2000
 90
        0
280
     0
281
     1
  0
CLASS
  1
XRECORD
  2
AcDbXrecord
  3
AutoCAD 2000
 90
        0
280
     0
281
     0
  0
ENDSEC
  0
SECTION
  2
TABLES
  0
TABLE
  2
VPORT
  5
8
330
0
100
AcDbSymbolTable
 70
     3
  0
VPORT
  5
CE2
330
8
100
AcDbSymbolTableRecord
100
AcDbViewportTableRecord
  2
*ACTIVE
 70
     0
 10
0.0
 20
0.0
 11
1.0
 21
1.0
 12
1.088490715731325
 22
17.07527223272836
 13
0.0
 23
0.0
 14
1.0
 24
1.0
 15
0.0
 25
0.0
 16
0.0
 26
0.0
 36
1.0
 17
0.0
 27
0.0
 37
0.0
 40
46.92293593533405
 41
1.745424292845257
 42
50.0
 43
0.0
 44
0.0
 50
0.0
 51
0.0
 71
     0
 72
   100
 73
     1
 74
     1
 75
     0
 76
     0
 77
     0
 78
     0
  0
ENDTAB
  0
TABLE
  2
LTYPE
  5
5
330
0
100
AcDbSymbolTable
 70
     3
  0
LTYPE
  5
14
330
5
100
AcDbSymbolTableRecord
100
AcDbLinetypeTableRecord
  2
BYBLOCK
 70
     0
  3

 72
    65
 73
     0
 40
0.0
  0
LTYPE
  5
15
330
5
100
AcDbSymbolTableRecord
100
AcDbLinetypeTableRecord
  2
BYLAYER
 70
     0
  3

 72
    65
 73
     0
 40
0.0
  0
LTYPE
  5
16
330
5
100
AcDbSymbolTableRecord
100
AcDbLinetypeTableRecord
  2
CONTINUOUS
 70
     0
  3
Solid line
 72
    65
 73
     0
 40
0.0
  0
LTYPE
  5
9A0
330
5
100
AcDbSymbolTableRecord
100
AcDbLinetypeTableRecord
  2
CENTERX2
 70
     0
  3
Center (2x) ________  __  ________  __  _____
 72
    65
 73
     4
 40
4.0
 49
2.5
 74
     0
 49
-0.5
 74
     0
 49
0.5
 74
     0
 49
-0.5
 74
     0
  0
ENDTAB
  0
TABLE
  2
LAYER
  5
2
330
0
100
AcDbSymbolTable
 70
     2
  0
LAYER
  5
10
330
2
100
AcDbSymbolTableRecord
100
AcDbLayerTableRecord
  2
0
 70
     0
 62
     7
  6
CONTINUOUS
  0
LAYER
  5
9A1
330
2
100
AcDbSymbolTableRecord
100
AcDbLayerTableRecord
  2
CENTER
 70
     0
 62
     1
  6
CENTERX2
  0
ENDTAB
  0
TABLE
  2
STYLE
  5
3
330
0
100
AcDbSymbolTable
 70
     2
  0
STYLE
  5
11
330
3
100
AcDbSymbolTableRecord
100
AcDbTextStyleTableRecord
  2
STANDARD
 70
     0
 40
0.0
 41
0.8
 50
0.0
 71
     0
 42
0.2
  3
txt
  4

  0
STYLE
  5
21E
330
3
100
AcDbSymbolTableRecord
100
AcDbTextStyleTableRecord
  2
TEXTSTYLE_1
 70
     0
 40
0.0
 41
0.8
 50
0.0
 71
     0
 42
0.2
  3
txt
  4

  0
ENDTAB
  0
TABLE
  2
VIEW
  5
6
330
0
100
AcDbSymbolTable
 70
     0
  0
ENDTAB
  0
TABLE
  2
UCS
  5
7
330
0
100
AcDbSymbolTable
 70
     0
  0
ENDTAB
  0
TABLE
  2
APPID
  5
9
330
0
100
AcDbSymbolTable
 70
     2
  0
APPID
  5
222
330
9
100
AcDbSymbolTableRecord
100
AcDbRegAppTableRecord
  2
ACAD
 70
     0
  0
APPID
  5
99D
330
9
100
AcDbSymbolTableRecord
100
AcDbRegAppTableRecord
  2
DCO15
 70
     0
  0
ENDTAB
  0
TABLE
  2
DIMSTYLE
  5
A
330
0
100
AcDbSymbolTable
 70
     1
  0
DIMSTYLE
105
23B
330
A
100
AcDbSymbolTableRecord
100
AcDbDimStyleTableRecord
  2
STANDARD
 70
     0
  3

  4

  5
_FILLED
  6
_FILLED
  7
_FILLED
 40
1.0
 41
0.1875
 42
0.0625
 43
0.38
 44
0.18
 45
0.0
 46
0.0
 47
0.00001
 48
0.00001
140
0.125
141
0.09
142
0.0
143
25.4
144
1.0
145
0.0
146
1.0
147
0.09
 71
     0
 72
     0
 73
     1
 74
     1
 75
     0
 76
     0
 77
     0
 78
     4
170
     0
171
     2
172
     0
173
     0
174
     0
175
     0
176
     0
177
     0
178
     0
270
     2
271
     5
272
     5
273
     2
274
     2
340
11
275
     0
280
     0
281
     0
282
     0
283
     1
284
     4
285
     0
286
     0
287
     3
288
     0
  0
ENDTAB
  0
TABLE
  2
BLOCK_RECORD
  5
1
330
0
100
AcDbSymbolTable
 70
     1
  0
BLOCK_RECORD
  5
1F
102
{ACAD_XDICTIONARY
360
D06
102
}
330
1
100
AcDbSymbolTableRecord
100
AcDbBlockTableRecord
  2
*MODEL_SPACE
  0
BLOCK_RECORD
  5
1B
102
{ACAD_XDICTIONARY
360
D04
102
}
330
1
100
AcDbSymbolTableRecord
100
AcDbBlockTableRecord
  2
*PAPER_SPACE
  0
BLOCK_RECORD
  5
223
330
1
100
AcDbSymbolTableRecord
100
AcDbBlockTableRecord
  2
_FILLED
  0
ENDTAB
  0
ENDSEC
  0
SECTION
  2
BLOCKS
  0
BLOCK
  5
20
330
1F
100
AcDbEntity
  8
0
100
AcDbBlockBegin
  2
*MODEL_SPACE
 70
     0
 10
0.0
 20
0.0
 30
0.0
  3
*MODEL_SPACE
  1

  0
ENDBLK
  5
21
330
1F
100
AcDbEntity
  8
0
100
AcDbBlockEnd
  0
BLOCK
  5
1C
330
1B
100
AcDbEntity
 67
     1
  8
0
100
AcDbBlockBegin
  2
*PAPER_SPACE
 70
     0
 10
0.0
 20
0.0
 30
0.0
  3
*PAPER_SPACE
  1

  0
ENDBLK
  5
1D
330
1B
100
AcDbEntity
 67
     1
  8
0
100
AcDbBlockEnd
  0
BLOCK
  5
3E2
330
223
100
AcDbEntity
  8
0
100
AcDbBlockBegin
  2
_FILLED
 70
     0
 10
0.0
 20
0.0
 30
0.0
  3
_FILLED
  1

  0
SOLID
  5
3E3
330
223
100
AcDbEntity
  8
0
  6
BYBLOCK
 62
     0
100
AcDbTrace
 10
0.0
 20
0.0
 30
0.0
 11
-1.0
 21
0.1666666667
 31
0.0
 12
-1.0
 22
-0.1666666667
 32
0.0
 13
-1.0
 23
-0.1666666667
 33
0.0
  0
ENDBLK
  5
3E4
330
223
100
AcDbEntity
  8
0
  6
BYBLOCK
 62
     0
100
AcDbBlockEnd
  0
ENDSEC
  0
SECTION
  2
ENTITIES
  0
MTEXT
  5
453
330
1F
100
AcDbEntity
  8
0
  6
CONTINUOUS
 62
     2
100
AcDbMText
 10
15.84375
 20
2.3125
 30
0.0
 40
0.09375
 41
0.075
 71
     2
 72
     1
  1
 \P \P 
  7
TEXTSTYLE_1
1001
ACAD
1000
MTEXTBEGIN
1070
    73
1070
     1
1070
    44
1040
1.0
1070
    74
1070
     0
1000
MTEXTEND
  0
LINE
  5
666
330
1F
100
AcDbEntity
  8
0
100
AcDbLine
 10
-36.0
 20
35.75095132479998
 30
0.0
 11
-36.0
 21
0.2490486736000008
 31
0.0
  0
LINE
  5
667
330
1F
100
AcDbEntity
  8
0
100
AcDbLine
 10
-35.8449885536
 20
0.404060119999997
 30
0.0
 11
-35.8449885536
 21
35.59593987999997
 31
0.0
  0
LWPOLYLINE
  5
668
330
1F
100
AcDbEntity
  8
0
100
AcDbPolyline
 90
        7
 70
     0
 43
0.0
 10
-35.8449885536
 20
35.59593988
 10
-35.8360845712
 20
35.6601395376
 10
-35.8109848432
 20
35.7199388848
 10
-35.7713820112
 20
35.77137544160001
 10
-35.71994687200001
 20
35.81098030079999
 10
-35.66014822399999
 20
35.83608223360002
 10
-35.59593988
 20
35.84498855360001
  0
LINE
  5
66B
330
1F
100
AcDbEntity
  8
0
100
AcDbLine
 10
-31.870608296
 20
3.450420104000009
 30
0.0
 11
-31.870557208
 21
4.723548372800003
 31
0.0
  0
LINE
  5
66C
330
1F
100
AcDbEntity
  8
0
100
AcDbLine
 10
-31.870557208
 20
31.2764516272
 30
0.0
 11
-31.870608296
 21
32.54957989600001
 31
0.0
  0
LWPOLYLINE
  5
66E
330
1F
100
AcDbEntity
  8
0
100
AcDbPolyline
 90
       16
 70
     0
 43
0.0
 10
-31.87060829600001
 20
32.54957989600001
 10
-31.8685887424
 20
32.6308285584
 10
-31.86171923359999
 20
32.7195596656
 10
-31.8485812768
 20
32.816459624
 10
-31.82743231359999
 20
32.92189372640001
 10
-31.79616238079999
 20
33.03599767040001
 10
-31.75227412319999
 20
33.1585222944
 10
-31.6928134656
 20
33.2888218768
 10
-31.61413840000001
 20
33.42595369120002
 10
-31.5117159584
 20
33.56835145600001
 10
-31.3799130752
 20
33.71331878240002
 10
-31.2121719632
 20
33.8559836608
 10
-31.00627428
 20
33.9856542176
 10
-30.7676252704
 20
34.08853614880001
 10
-30.50822280800001
 20
34.15328224160001
 10
-30.24559350880001
 20
34.1746134032
  0
LWPOLYLINE
  5
679
330
1F
100
AcDbEntity
  8
0
100
AcDbPolyline
 90
        7
 70
     0
 43
0.0
 10
35.75095132479999
 20
0.0
 10
35.8156385312
 20
0.0084980367999918
 10
35.8757030352
 20
0.0333515888000022
 10
35.9271702896
 20
0.0728309039999999
 10
35.96664905919998
 20
0.1242980880000033
 10
35.99150208799999
 20
0.1843619360000019
 10
35.99999999999998
 20
0.2490486736000008
  0
LWPOLYLINE
  5
67A
330
1F
100
AcDbEntity
  8
0
100
AcDbPolyline
 90
        7
 70
     0
 43
0.0
 10
-35.75095132479999
 20
0.0
 10
-35.8156385312
 20
0.0084980367999918
 10
-35.8757030368
 20
0.0333515888000022
 10
-35.9271702896
 20
0.0728309039999999
 10
-35.9666490592
 20
0.1242980880000033
 10
-35.991502088
 20
0.1843619360000019
 10
-36.00000000000001
 20
0.2490486736000008
  0
LWPOLYLINE
  5
67B
330
1F
100
AcDbEntity
  8
0
100
AcDbPolyline
 90
        7
 70
     0
 43
0.0
 10
-35.59593988
 20
0.1550114463999961
 10
-35.66014855679999
 20
0.1639178575999978
 10
-35.7199470288
 20
0.1890197903999962
 10
-35.7713820464
 20
0.2286245936000029
 10
-35.8109849552
 20
0.2800613072000004
 10
-35.83608466880001
 20
0.3398608207999985
 10
-35.8449885536
 20
0.404060119999997
  0
LINE
  5
684
330
1F
100
AcDbEntity
  8
0
100
AcDbLine
 10
-35.75095132479999
 20
0.0
 30
0.0
 11
35.75095132479999
 21
0.0
 31
0.0
  0
LINE
  5
685
330
1F
100
AcDbEntity
  8
0
100
AcDbLine
 10
35.59593988
 20
0.1550114463999961
 30
0.0
 11
-35.59593988
 21
0.1550114463999961
 31
0.0
  0
LWPOLYLINE
  5
686
330
1F
100
AcDbEntity
  8
0
100
AcDbPolyline
 90
       16
 70
     0
 43
0.0
 10
-30.24559350880001
 20
1.825386596800008
 10
-30.50822280800001
 20
1.846717758400011
 10
-30.7676252704
 20
1.911463849600004
 10
-31.00627428
 20
2.014345782400006
 10
-31.2121719632
 20
2.1440163392
 10
-31.3799130752
 20
2.286681217599998
 10
-31.5117159584
 20
2.431648544000005
 10
-31.61413840000001
 20
2.574046307199999
 10
-31.6928134656
 20
2.711178123200006
 10
-31.75227412319999
 20
2.841477705600006
 10
-31.79616238079999
 20
2.964002329599999
 10
-31.82743231359999
 20
3.078106272000006
 10
-31.8485812768
 20
3.183540374400003
 10
-31.86171923359999
 20
3.280440334400005
 10
-31.8685887424
 20
3.369171441600009
 10
-31.87060829600001
 20
3.450420104000009
  0
LINE
  5
68A
330
1F
100
AcDbEntity
  8
0
100
AcDbLine
 10
30.2455935088
 20
1.825386596800008
 30
0.0
 11
26.1205935088
 21
1.825524083200001
 31
0.0
  0
LINE
  5
68B
330
1F
100
AcDbEntity
  8
0
100
AcDbLine
 10
-26.12059350880001
 20
1.825524083200001
 30
0.0
 11
-30.2455935088
 21
1.825386596800008
 31
0.0
  0
LINE
  5
768
330
1F
100
AcDbEntity
  8
0
100
AcDbLine
 10
-30.2455935088
 20
34.17461340319997
 30
0.0
 11
-26.12059350880001
 21
34.17447591679999
 31
0.0
  0
LINE
  5
769
330
1F
100
AcDbEntity
  8
0
100
AcDbLine
 10
26.1205935088
 20
34.17447591679999
 30
0.0
 11
30.2455935088
 21
34.17461340319997
 31
0.0
  0
LINE
  5
76D
330
1F
100
AcDbEntity
  8
0
100
AcDbLine
 10
-35.59593988
 20
35.84498855359999
 30
0.0
 11
35.59593988
 21
35.84498855359999
 31
0.0
  0
LINE
  5
76E
330
1F
100
AcDbEntity
  8
0
100
AcDbLine
 10
-35.75095132479999
 20
35.99999999999997
 30
0.0
 11
35.75095132479999
 21
35.99999999999997
 31
0.0
  0
LWPOLYLINE
  5
76F
330
1F
100
AcDbEntity
  8
0
100
AcDbPolyline
 90
       16
 70
     0
 43
0.0
 10
30.24559350879998
 20
34.1746134032
 10
30.50822280799998
 20
34.15328224160001
 10
30.76762527039999
 20
34.08853614880001
 10
31.00627428
 20
33.9856542176
 10
31.21217196319999
 20
33.8559836608
 10
31.3799130752
 20
33.71331878240002
 10
31.51171595839999
 20
33.56835145600001
 10
31.61413839999998
 20
33.42595369120002
 10
31.6928134656
 20
33.2888218768
 10
31.75227412319999
 20
33.1585222944
 10
31.79616238079999
 20
33.03599767040001
 10
31.82743231359999
 20
32.92189372640001
 10
31.8485812768
 20
32.816459624
 10
31.86171923359999
 20
32.7195596656
 10
31.8685887424
 20
32.6308285584
 10
31.87060829599998
 20
32.54957989600001
  0
LWPOLYLINE
  5
772
330
1F
100
AcDbEntity
  8
0
100
AcDbPolyline
 90
        7
 70
     0
 43
0.0
 10
-35.75095132479999
 20
36.0
 10
-35.8156385312
 20
35.99150196320002
 10
-35.8757030368
 20
35.96664840959999
 10
-35.9271702896
 20
35.927169096
 10
-35.9666490592
 20
35.87570191200001
 10
-35.991502088
 20
35.81563806400001
 10
-36.00000000000001
 20
35.75095132480001
  0
LWPOLYLINE
  5
773
330
1F
100
AcDbEntity
  8
0
100
AcDbPolyline
 90
        7
 70
     0
 43
0.0
 10
35.75095132479999
 20
36.0
 10
35.8156385312
 20
35.99150196320002
 10
35.8757030352
 20
35.96664840959999
 10
35.9271702896
 20
35.927169096
 10
35.96664905919998
 20
35.87570191200001
 10
35.99150208799999
 20
35.81563806400001
 10
35.99999999999998
 20
35.75095132480001
  0
LWPOLYLINE
  5
774
330
1F
100
AcDbEntity
  8
0
100
AcDbPolyline
 90
        7
 70
     0
 43
0.0
 10
35.59593987999999
 20
35.84498855360001
 10
35.66014855679999
 20
35.83608214240001
 10
35.7199470288
 20
35.81098020960002
 10
35.7713820464
 20
35.77137540640001
 10
35.8109849552
 20
35.71993869280001
 10
35.83608466879998
 20
35.6601391792
 10
35.8449885536
 20
35.59593988
  0
LINE
  5
785
330
1F
100
AcDbEntity
  8
0
100
AcDbLine
 10
31.870608296
 20
32.54957989600001
 30
0.0
 11
31.870557208
 21
31.2764516272
 31
0.0
  0
LINE
  5
786
330
1F
100
AcDbEntity
  8
0
100
AcDbLine
 10
31.870557208
 20
4.723548372800003
 30
0.0
 11
31.870608296
 21
3.450420104000009
 31
0.0
  0
LWPOLYLINE
  5
788
330
1F
100
AcDbEntity
  8
0
100
AcDbPolyline
 90
       16
 70
     0
 43
0.0
 10
31.87060829599998
 20
3.450420104000009
 10
31.8685887424
 20
3.369171441600009
 10
31.86171923359999
 20
3.280440334400005
 10
31.8485812768
 20
3.183540374400003
 10
31.82743231359999
 20
3.078106272000006
 10
31.79616238079999
 20
2.964002329599999
 10
31.75227412319999
 20
2.841477705600006
 10
31.6928134656
 20
2.711178123200006
 10
31.61413839999998
 20
2.574046307199999
 10
31.51171595839999
 20
2.431648544000005
 10
31.3799130752
 20
2.286681217599998
 10
31.21217196319999
 20
2.1440163392
 10
31.00627428
 20
2.014345782400006
 10
30.76762527039999
 20
1.911463849600004
 10
30.50822280799998
 20
1.846717758400011
 10
30.24559350879998
 20
1.825386596800008
  0
LINE
  5
78A
330
1F
100
AcDbEntity
  8
0
100
AcDbLine
 10
35.8449885536
 20
35.59593987999997
 30
0.0
 11
35.8449885536
 21
0.404060119999997
 31
0.0
  0
LINE
  5
78B
330
1F
100
AcDbEntity
  8
0
100
AcDbLine
 10
36.0
 20
35.75095132479998
 30
0.0
 11
36.0
 21
0.2490486736000008
 31
0.0
  0
LWPOLYLINE
  5
78C
330
1F
100
AcDbEntity
  8
0
100
AcDbPolyline
 90
        7
 70
     0
 43
0.0
 10
35.8449885536
 20
0.404060119999997
 10
35.8360845712
 20
0.3398604623999972
 10
35.81098484319999
 20
0.2800611135999986
 10
35.7713820112
 20
0.2286245583999999
 10
35.71994687199999
 20
0.1890196992000028
 10
35.66014822399999
 20
0.1639177663999902
 10
35.59593987999999
 20
0.1550114463999961
  0
ARC
  5
975
330
1F
100
AcDbEntity
  8
0
100
AcDbCircle
 10
-0.0000000000000142
 20
285.3080208335999
 30
0.0
 40
284.3093350271999
100
AcDbArc
 50
266.3732772462001
 51
273.6267227537999
  0
ARC
  5
976
330
1F
100
AcDbEntity
  8
0
100
AcDbCircle
 10
-26.12059350880001
 20
-126.7996975088
 30
0.0
 40
128.6254220559999
100
AcDbArc
 50
86.3732772462
 51
90.0
  0
ARC
  5
977
330
1F
100
AcDbEntity
  8
0
100
AcDbCircle
 10
-40.36935683360001
 20
4.723548372800003
 30
0.0
 40
8.498810998399999
100
AcDbArc
 50
0.0
 51
26.53898117969999
  0
ARC
  5
978
330
1F
100
AcDbEntity
  8
0
100
AcDbCircle
 10
-13.78622165599999
 20
18.0
 30
0.0
 40
21.215260824
100
AcDbArc
 50
153.4610188203
 51
206.5389811796999
  0
ARC
  5
979
330
1F
100
AcDbEntity
  8
0
100
AcDbCircle
 10
-0.0000000000000142
 20
-249.3080208335999
 30
0.0
 40
284.3093350048
100
AcDbArc
 50
86.3732772462
 51
93.62672275379999
  0
ARC
  5
97A
330
1F
100
AcDbEntity
  8
0
100
AcDbCircle
 10
-26.12059350880001
 20
162.7996975087999
 30
0.0
 40
128.6254207183999
100
AcDbArc
 50
270.0
 51
273.6267227537999
  0
ARC
  5
97B
330
1F
100
AcDbEntity
  8
0
100
AcDbCircle
 10
-40.36935683360001
 20
31.2764516272
 30
0.0
 40
8.498811036799999
100
AcDbArc
 50
333.4610188203
 51
0.0
  0
ARC
  5
97C
330
1F
100
AcDbEntity
  8
0
100
AcDbCircle
 10
26.1205935088
 20
-126.7996975088
 30
0.0
 40
128.6254207183999
100
AcDbArc
 50
90.0
 51
93.62672275379999
  0
ARC
  5
97D
330
1F
100
AcDbEntity
  8
0
100
AcDbCircle
 10
40.36935683359999
 20
4.723548372800003
 30
0.0
 40
8.498811036799999
100
AcDbArc
 50
153.4610188203
 51
180.0
  0
ARC
  5
97E
330
1F
100
AcDbEntity
  8
0
100
AcDbCircle
 10
13.78622165599999
 20
18.0
 30
0.0
 40
21.215260832
100
AcDbArc
 50
333.4610188203
 51
26.53898117969999
  0
ARC
  5
97F
330
1F
100
AcDbEntity
  8
0
100
AcDbCircle
 10
26.1205935088
 20
162.7996975087999
 30
0.0
 40
128.6254220559999
100
AcDbArc
 50
266.3732772462001
 51
270.0
  0
ARC
  5
980
330
1F
100
AcDbEntity
  8
0
100
AcDbCircle
 10
40.36935683359999
 20
31.2764516272
 30
0.0
 40
8.498810998399999
100
AcDbArc
 50
180.0
 51
206.5389811796999
  0
LWPOLYLINE
  5
B27
330
1F
100
AcDbEntity
  8
0
100
AcDbPolyline
 90
        6
 70
     0
 43
0.0
 10
4.331180668799973
 20
7.384944768000011
 10
4.906616947199964
 20
7.050304068800016
 10
5.439566951999964
 20
6.657755736000012
 10
5.923651411199969
 20
6.212150878400009
 10
6.353077060799975
 20
5.719003264000008
 10
6.681076945599969
 20
5.251500648000003
  0
LWPOLYLINE
  5
B28
330
1F
100
AcDbEntity
  8
0
100
AcDbPolyline
 90
       16
 70
     0
 43
0.0
 10
5.594211236799978
 20
6.515404038400006
 10
6.031488043199985
 20
6.61920778080001
 10
6.582970487999986
 20
6.724270385600007
 10
7.197032937599985
 20
6.816392480000004
 10
7.871861470399963
 20
6.893991150400012
 10
8.605960663999965
 20
6.956123969600014
 10
9.290965089599964
 20
6.99767734560001
 10
9.894877894399982
 20
7.024217222400011
 10
10.42965938239997
 20
7.041857404800012
 10
10.94604695519997
 20
7.055250920000005
 10
11.46480312479998
 20
7.06656344640001
 10
11.98839816639996
 20
7.077637528000011
 10
12.53359884319998
 20
7.091376636800006
 10
13.12692901439997
 20
7.112875067200008
 10
13.80533948959997
 20
7.15234430080001
 10
14.51262098719998
 20
7.219033460800005
  0
LWPOLYLINE
  5
B29
330
1F
100
AcDbEntity
  8
0
100
AcDbPolyline
 90
        7
 70
     0
 43
0.0
 10
2.817583609599964
 20
6.739677446400008
 10
2.03409278559998
 20
6.975147988800003
 10
1.229156665599973
 20
7.133518777600016
 10
0.4112207695999786
 20
7.213130891200009
 10
-0.4110740016000279
 20
7.213138012800015
 10
-1.229043809600014
 20
7.133535326400007
 10
-2.034048073600033
 20
6.975159073600011
  0
LWPOLYLINE
  5
B2A
330
1F
100
AcDbEntity
  8
0
100
AcDbPolyline
 90
        6
 70
     0
 43
0.0
 10
-4.33118066720003
 20
7.384944768000011
 10
-4.906616139200039
 20
7.050304596800003
 10
-5.43956547200004
 20
6.657756955200014
 10
-5.923649416000031
 20
6.212152928000008
 10
-6.353074734400038
 20
5.719006254400014
 10
-6.681076944000025
 20
5.251500648000003
  0
LWPOLYLINE
  5
B2B
330
1F
100
AcDbEntity
  8
0
100
AcDbPolyline
 90
       16
 70
     0
 43
0.0
 10
-5.594211211200033
 20
6.515404032000006
 10
-6.031488041600013
 20
6.61920778080001
 10
-6.582970486400014
 20
6.724270385600007
 10
-7.197032936000013
 20
6.816392480000004
 10
-7.87186146880002
 20
6.893991150400012
 10
-8.605960662400022
 20
6.956123969600014
 10
-9.290965088000021
 20
6.99767734560001
 10
-9.894877892800039
 20
7.024217222400011
 10
-10.42965938240003
 20
7.041857404800012
 10
-10.94604695360003
 20
7.055250920000005
 10
-11.46480312480004
 20
7.06656344640001
 10
-11.98839816480001
 20
7.077637528000011
 10
-12.53359884320004
 20
7.091376636800006
 10
-13.12692901280003
 20
7.112875067200008
 10
-13.80533948800003
 20
7.15234430080001
 10
-14.51262098560003
 20
7.219033460800005
  0
LWPOLYLINE
  5
B2C
330
1F
100
AcDbEntity
  8
0
100
AcDbPolyline
 90
       15
 70
     0
 43
0.0
 10
16.50580296319996
 20
5.472506950400017
 10
16.93403511039996
 20
5.566649166400011
 10
17.32674909919997
 20
5.675397636800013
 10
17.69130764159997
 20
5.798344886400016
 10
18.03337942399996
 20
5.935545992000015
 10
18.35714878239996
 20
6.087330243200014
 10
18.66780911039997
 20
6.255400320000006
 10
18.98410693919997
 20
6.450789680000013
 10
19.31287271039998
 20
6.680181779200012
 10
19.65617318879997
 20
6.948581601600011
 10
20.01554694399998
 20
7.261438635200008
 10
20.39208117119996
 20
7.624690766400007
 10
20.78645136959996
 20
8.04477425280001
 10
21.19859590399998
 20
8.528255675200014
 10
21.62435590719998
 20
9.077194467200015
  0
LWPOLYLINE
  5
B31
330
1F
100
AcDbEntity
  8
0
100
AcDbPolyline
 90
       62
 70
     0
 43
0.0
 10
28.83539589919998
 20
9.062720337600012
 10
28.72441375199996
 20
8.906701238400003
 10
28.62038529119998
 20
8.764702497600012
 10
28.52303139199996
 20
8.63533069120001
 10
28.43203185279996
 20
8.517326240000016
 10
28.34701195679996
 20
8.409515899200016
 10
28.26756503359998
 20
8.310818316800009
 10
28.19328006399997
 20
8.220257476800014
 10
28.12379765599997
 20
8.137010454400012
 10
28.05908356639996
 20
8.060707344000007
 10
27.99959455039997
 20
7.991584369600005
 10
27.94536542079997
 20
7.929403473600004
 10
27.89522873279996
 20
7.872604515200009
 10
27.84742103679998
 20
7.819048835200007
 10
27.79979157439997
 20
7.766269284800003
 10
27.74936335519997
 20
7.711003329600004
 10
27.69326115199997
 20
7.650245649600009
 10
27.62950252959997
 20
7.582108323200003
 10
27.55716456639997
 20
7.505955227200004
 10
27.47667838399998
 20
7.422628123200013
 10
27.38846859519997
 20
7.332958425600011
 10
27.29215981119996
 20
7.236974473600014
 10
27.18708716799996
 20
7.134472528000003
 10
27.07248564799998
 20
7.025228881600014
 10
26.94750072159997
 20
6.909025908800003
 10
26.81118342399996
 20
6.785663008000014
 10
26.66253901599997
 20
6.655016033600006
 10
26.50050729759998
 20
6.517027496000011
 10
26.32361512799998
 20
6.371439139200006
 10
26.12978942879998
 20
6.217717876800008
 10
25.91673351999996
 20
6.055431683200012
 10
25.68205090239997
 20
5.884391916800012
 10
25.42324657599998
 20
5.704699905600008
 10
25.13757024479996
 20
5.516689059200004
 10
24.82075126559998
 20
5.320234467200009
 10
24.46656607199996
 20
5.114852209600016
 10
24.06713561759996
 20
4.900348456000017
 10
23.62307435039995
 20
4.682084654400014
 10
23.16014711679996
 20
4.476060996800015
 10
22.70184635199997
 20
4.292610132800007
 10
22.24876695839996
 20
4.130372470400004
 10
21.80263104319998
 20
3.988457694400011
 10
21.36515667039997
 20
3.865909014400017
 10
20.93793910399996
 20
3.761667556800006
 10
20.52208653119997
 20
3.674528129600005
 10
20.12127004159997
 20
3.603679401600004
 10
19.74934290079995
 20
3.549289784000009
 10
19.41650057439996
 20
3.509752809600016
 10
19.11699592639998
 20
3.48147096480001
 10
18.84494276639996
 20
3.461733036800012
 10
18.59609209919996
 20
3.448623019200013
 10
18.36802925759998
 20
3.440744680000008
 10
18.15849155199997
 20
3.436985264000014
 10
17.96509965439996
 20
3.436468742400009
 10
17.78569112639998
 20
3.438523459200013
 10
17.61933658399998
 20
3.442608371200009
 10
17.46620835679998
 20
3.448223980800008
 10
17.32592401119997
 20
3.454931777600009
 10
17.19736243359996
 20
3.462393992000016
 10
17.07928087679998
 20
3.470358208000007
 10
16.97053960639998
 20
3.478634809600009
 10
16.87006675199997
 20
3.487087251200009
  0
LWPOLYLINE
  5
B32
330
1F
100
AcDbEntity
  8
0
100
AcDbPolyline
 90
       23
 70
     0
 43
0.0
 10
28.48271226879997
 20
9.30403548320001
 10
28.12328991359997
 20
8.816025622400005
 10
27.73925020959997
 20
8.343431056000014
 10
27.33223590399997
 20
7.888596200000009
 10
26.90403961759996
 20
7.453623150400005
 10
26.45617653439997
 20
7.040023044800008
 10
25.98944805279997
 20
6.648541300800005
 10
25.50371760159997
 20
6.27909205760001
 10
24.99976834399997
 20
5.932338019200017
 10
24.47939600799996
 20
5.609610272000011
 10
23.94548109599996
 20
5.312632955200015
 10
23.39947532479997
 20
5.042055865600005
 10
22.84145893919996
 20
4.797854200000017
 10
22.27155590079998
 20
4.580028193600014
 10
21.69142658719998
 20
4.389244595200011
 10
21.10426826239997
 20
4.226490336000011
 10
20.51217695359996
 20
4.092164942400003
 10
19.91627876319997
 20
3.986379204800016
 10
19.31681913439997
 20
3.909042547200016
 10
18.71406615199997
 20
3.860137548800011
 10
18.10868015199996
 20
3.839825248000011
 10
17.50227239199996
 20
3.848238569600013
 10
16.89663939519998
 20
3.885378569600007
  0
LWPOLYLINE
  5
B33
330
1F
100
AcDbEntity
  8
0
100
AcDbPolyline
 90
       15
 70
     0
 43
0.0
 10
-16.50580296160002
 20
5.472506950400017
 10
-16.93403510880001
 20
5.566649166400011
 10
-17.32674909760002
 20
5.675397636800013
 10
-17.69130764000003
 20
5.798344886400016
 10
-18.03337942240001
 20
5.935545992000015
 10
-18.35714878080001
 20
6.087330243200014
 10
-18.66780910880002
 20
6.255400320000006
 10
-18.98410693760003
 20
6.450789680000013
 10
-19.31287271040004
 20
6.680181779200012
 10
-19.65617318720002
 20
6.948581601600011
 10
-20.01554694240002
 20
7.261438635200008
 10
-20.39208116960002
 20
7.624690766400007
 10
-20.78645136800003
 20
8.04477425280001
 10
-21.19859590240003
 20
8.528255675200014
 10
-21.62435590560002
 20
9.077194467200015
  0
LWPOLYLINE
  5
B34
330
1F
100
AcDbEntity
  8
0
100
AcDbPolyline
 90
       23
 70
     0
 43
0.0
 10
-28.48271226880003
 20
9.30403548320001
 10
-28.12328991200003
 20
8.816025622400005
 10
-27.73925020800003
 20
8.343431056000014
 10
-27.33223590240003
 20
7.888596200000009
 10
-26.90403961600002
 20
7.453623150400005
 10
-26.45617653280003
 20
7.040023044800008
 10
-25.98944805120003
 20
6.648541300800005
 10
-25.50371760160003
 20
6.27909205760001
 10
-24.99976834400003
 20
5.932338019200017
 10
-24.47939600800002
 20
5.609610272000011
 10
-23.94548109440002
 20
5.312632955200015
 10
-23.39947532320003
 20
5.042055865600005
 10
-22.84145893920002
 20
4.797854200000017
 10
-22.27155589920002
 20
4.580028193600014
 10
-21.69142658560002
 20
4.389244595200011
 10
-21.10426826080002
 20
4.226490336000011
 10
-20.51217695200001
 20
4.092164942400003
 10
-19.91627876160002
 20
3.986379204800016
 10
-19.31681913440003
 20
3.909042547200016
 10
-18.71406615040003
 20
3.860137548800011
 10
-18.10868015040002
 20
3.839825248000011
 10
-17.50227239040002
 20
3.848238569600013
 10
-16.89663939360004
 20
3.885378569600007
  0
LWPOLYLINE
  5
B35
330
1F
100
AcDbEntity
  8
0
100
AcDbPolyline
 90
       62
 70
     0
 43
0.0
 10
-16.87006675040002
 20
3.487087251200009
 10
-16.96986287520003
 20
3.478689150400015
 10
-17.07799295840003
 20
3.470450944000006
 10
-17.19526174880003
 20
3.462526380800014
 10
-17.32255333440004
 20
3.455111358400003
 10
-17.46085052160002
 20
3.448452699200004
 10
-17.61104282560002
 20
3.442866947200016
 10
-17.77340760640002
 20
3.438753352000006
 10
-17.94769789760003
 20
3.436561236800017
 10
-18.13447377440003
 20
3.436766979200015
 10
-18.33535887520004
 20
3.439939428800016
 10
-18.55221803680002
 20
3.446800449600004
 10
-18.78684382400003
 20
3.458249996800006
 10
-19.04098745120002
 20
3.475387118400007
 10
-19.31700356160003
 20
3.499593771200011
 10
-19.61797779680002
 20
3.532660916800011
 10
-19.94752404960001
 20
3.576920892800004
 10
-20.30494368480002
 20
3.634559240000015
 10
-20.68233726560002
 20
3.706450187200005
 10
-21.07664236480002
 20
3.793861811200017
 10
-21.49015758080003
 20
3.899275526400003
 10
-21.92465730400003
 20
4.025551913600011
 10
-22.38151762400002
 20
4.175986209600011
 10
-22.86165053440002
 20
4.354323660800005
 10
-23.36742880640002
 20
4.565670382400014
 10
-23.88440390880002
 20
4.808017097600014
 10
-24.35510418880002
 20
5.053208712000014
 10
-24.75526583520003
 20
5.28115068800001
 10
-25.10122127520002
 20
5.493517777600004
 10
-25.40660438400003
 20
5.693454758400008
 10
-25.67972590720002
 20
5.882736619200017
 10
-25.92459085760002
 20
6.061296105600007
 10
-26.14446793600002
 20
6.229152800000008
 10
-26.34253958080002
 20
6.386769078400007
 10
-26.52184808640003
 20
6.534944256000017
 10
-26.68503566240002
 20
6.674535358400007
 10
-26.83387252480002
 20
6.805956768000015
 10
-26.96961493920003
 20
6.929367561600017
 10
-27.09345882080002
 20
7.045026139200004
 10
-27.20653568160003
 20
7.153274028800012
 10
-27.30984774240002
 20
7.254455235200012
 10
-27.40428939520002
 20
7.34891592480001
 10
-27.49064500800002
 20
7.436983315200009
 10
-27.56933833280003
 20
7.518686580800007
 10
-27.63988524320002
 20
7.59313851840001
 10
-27.70201611520002
 20
7.659677409600007
 10
-27.75679841120002
 20
7.719112547200012
 10
-27.80633155040003
 20
7.773482675200014
 10
-27.85353416000002
 20
7.825864425600016
 10
-27.90122636160002
 20
7.879364688000009
 10
-27.95144246080002
 20
7.936332769600014
 10
-28.00589398240002
 20
7.998858481600009
 10
-28.06559818560002
 20
8.068335820800015
 10
-28.13039393440003
 20
8.144854078400015
 10
-28.19983424800003
 20
8.228182131200014
 10
-28.27395147680003
 20
8.318680956800008
 10
-28.35305552160003
 20
8.417103776000004
 10
-28.43749041920002
 20
8.524327446400008
 10
-28.52759656480002
 20
8.641323865600014
 10
-28.62372720000003
 20
8.769202784000015
 10
-28.72622402080001
 20
8.90920788000001
 10
-28.83539589760003
 20
9.062720337600012
  0
LINE
  5
B3A
330
1F
100
AcDbEntity
  8
CENTER
100
AcDbLine
 10
-0.0000000000000284
 20
2.684077906300728
 30
0.0
 11
-0.0000000000000284
 21
15.45819319978736
 31
0.0
  0
LWPOLYLINE
  5
B43
330
1F
100
AcDbEntity
  8
0
100
AcDbPolyline
 90
        6
 70
     0
 43
0.0
 10
-2.81758360800002
 20
6.739677446400008
 10
-3.253744004800026
 20
6.556202593600005
 10
-3.663723808000028
 20
6.325008086400004
 10
-4.041655884800022
 20
6.049311966400011
 10
-4.382118638400029
 20
5.732949041600008
 10
-4.612564364800036
 20
5.468258372800008
  0
LWPOLYLINE
  5
B44
330
1F
100
AcDbEntity
  8
0
100
AcDbPolyline
 90
       22
 70
     0
 43
0.0
 10
-2.98895652480003
 20
4.687081601600013
 10
-3.897840300800012
 20
4.656163102400014
 10
-4.72636454560002
 20
4.620856321600015
 10
-5.484558417600013
 20
4.58258811200001
 10
-6.182213323200031
 20
4.542339204800015
 10
-6.829120524800018
 20
4.500699913600016
 10
-7.43509932480002
 20
4.457921190400014
 10
-8.009814142400031
 20
4.413972363200016
 10
-8.542968601600037
 20
4.370258163200006
 10
-9.03030520960003
 20
4.327819001600005
 10
-9.475124646400033
 20
4.287010688000009
 10
-9.881266486400036
 20
4.248021806400004
 10
-10.25252012480002
 20
4.210936678400017
 10
-10.59267165280003
 20
4.175745086400013
 10
-10.90550261280002
 20
4.142354724800014
 10
-11.19478862720002
 20
4.11060229600001
 10
-11.46430039680002
 20
4.08026292960001
 10
-11.71780458560003
 20
4.051058180800012
 10
-11.95906846400002
 20
4.022662185600012
 10
-12.19184637920004
 20
3.994708508800016
 10
-12.41985818880003
 20
3.966797014400015
 10
-12.64728112960001
 20
3.938434300800011
  0
LWPOLYLINE
  5
B45
330
1F
100
AcDbEntity
  8
0
100
AcDbPolyline
 90
       14
 70
     0
 43
0.0
 10
-12.69496878240004
 20
4.327699753600015
 10
-11.42488862080001
 20
4.478809984000008
 10
-10.28508741760002
 20
4.601235145600014
 10
-9.258745622400041
 20
4.700746769600016
 10
-8.331871524800035
 20
4.781837227200014
 10
-7.492736096000029
 20
4.848031841600004
 10
-6.731268254400035
 20
4.902134464000013
 10
-6.038772867200023
 20
4.946387140800013
 10
-5.408163627200039
 20
4.98256194240001
 10
-4.832996748800027
 20
5.012106721600005
 10
-4.30715595360003
 20
5.036215627200007
 10
-3.825046150400012
 20
5.055856337600005
 10
-3.384596131200041
 20
5.071704670400009
 10
-2.985379017600038
 20
5.084294044800003
  0
LWPOLYLINE
  5
B69
330
1F
100
AcDbEntity
  8
0
100
AcDbPolyline
 90
       10
 70
     0
 43
0.0
 10
-6.362672083200024
 20
5.705327033600013
 10
-6.78653707520003
 20
5.693015940800009
 10
-7.449419545600036
 20
5.663843742400004
 10
-8.16543895200003
 20
5.623041600000007
 10
-8.941704268800023
 20
5.570717708800003
 10
-9.749051144000034
 20
5.510727934400009
 10
-10.53118296640003
 20
5.450610808000007
 10
-11.29165937120002
 20
5.393794001600014
 10
-12.03109956640004
 20
5.343877928000011
 10
-12.74683072800003
 20
5.304529566400006
  0
LWPOLYLINE
  5
B6A
330
1F
100
AcDbEntity
  8
0
100
AcDbPolyline
 90
        7
 70
     0
 43
0.0
 10
-12.74683072800003
 20
5.304529566400006
 10
-13.46058810080002
 20
5.278601984000005
 10
-14.16137947360003
 20
5.271400684800013
 10
-14.85039384640002
 20
5.288095368000014
 10
-15.47520506560003
 20
5.329770312000007
 10
-16.02098172800002
 20
5.392205908800008
 10
-16.50580296320002
 20
5.472506948800017
  0
LWPOLYLINE
  5
B6B
330
1F
100
AcDbEntity
  8
0
100
AcDbPolyline
 90
        4
 70
     0
 43
0.0
 10
-16.89663939360004
 20
3.885378569600007
 10
-15.51848390560003
 20
4.011819339200016
 10
-14.11968502720002
 20
4.158905913600008
 10
-12.69496878240004
 20
4.327699753600015
  0
LWPOLYLINE
  5
B6C
330
1F
100
AcDbEntity
  8
0
100
AcDbPolyline
 90
       14
 70
     0
 43
0.0
 10
-12.64728112960001
 20
3.938434300800011
 10
-12.94528684960003
 20
3.90132701440001
 10
-13.28804178560004
 20
3.859638016000005
 10
-13.65969952000001
 20
3.815629580800006
 10
-14.04567655840001
 20
3.771241369600005
 10
-14.43126638560004
 20
3.728234745600005
 10
-14.80620684480003
 20
3.687695987200015
 10
-15.16666347200002
 20
3.649911936000009
 10
-15.50931852800003
 20
3.615073220800013
 10
-15.83084655520003
 20
3.583338368000013
 10
-16.12791527200004
 20
3.554839470400011
 10
-16.39961753280003
 20
3.529464625600013
 10
-16.64676346880001
 20
3.506955828800016
 10
-16.87006675040002
 20
3.487087251200009
  0
LINE
  5
B6D
330
1F
100
AcDbEntity
  8
0
100
AcDbLine
 10
-6.086246384000034
 20
5.223854009600003
 30
0.0
 11
-5.358094913600027
 21
5.278705144000014
 31
0.0
  0
LWPOLYLINE
  5
B6E
330
1F
100
AcDbEntity
  8
0
100
AcDbPolyline
 90
        9
 70
     0
 43
0.0
 10
-6.086246384000034
 20
5.223854009600003
 10
-6.22029184160003
 20
5.215149494400009
 10
-6.347919990400029
 20
5.209914192000013
 10
-6.462524244800036
 20
5.208768475200017
 10
-6.556055988800025
 20
5.211934337600013
 10
-6.623740937600032
 20
5.218971220800014
 10
-6.666567974400024
 20
5.229653664000011
 10
-6.683018078400024
 20
5.243930750400011
 10
-6.681019145600018
 20
5.25150416000001
  0
LWPOLYLINE
  5
B6F
330
1F
100
AcDbEntity
  8
0
100
AcDbPolyline
 90
        3
 70
     0
 43
0.0
 10
-4.631749448000036
 20
5.456172627200004
 10
-4.721588102400019
 20
5.415077190400012
 10
-4.80729485280004
 20
5.372804691200016
  0
LWPOLYLINE
  5
B70
330
1F
100
AcDbEntity
  8
0
100
AcDbPolyline
 90
        3
 70
     0
 43
0.0
 10
-4.612549564800033
 20
5.468259222400007
 10
-4.613817596800018
 20
5.466864296000011
 10
-4.631749448000036
 20
5.456172627200004
  0
LWPOLYLINE
  5
B71
330
1F
100
AcDbEntity
  8
0
100
AcDbPolyline
 90
        8
 70
     0
 43
0.0
 10
-4.80729485280004
 20
5.372804691200016
 10
-4.842348724800032
 20
5.359138076800007
 10
-4.898740513600031
 20
5.343776496000003
 10
-4.973615286400033
 20
5.327912134400008
 10
-5.061741905600015
 20
5.312733828800006
 10
-5.160558798400032
 20
5.298769545600009
 10
-5.262441966400032
 20
5.287151476800005
 10
-5.358094913600027
 20
5.278705144000014
  0
LWPOLYLINE
  5
BAB
330
1F
100
AcDbEntity
  8
0
100
AcDbPolyline
 90
       10
 70
     0
 43
0.0
 10
6.362672308799986
 20
5.705327027200013
 10
6.786537076799973
 20
5.693015940800009
 10
7.44941954719998
 20
5.663843742400004
 10
8.165438953599974
 20
5.623041600000007
 10
8.941704270399966
 20
5.570717708800003
 10
9.749051143999977
 20
5.510727934400009
 10
10.53118296639998
 20
5.450610808000007
 10
11.29165937279996
 20
5.393794001600014
 10
12.03109956799996
 20
5.343877928000011
 10
12.74683072799997
 20
5.304529566400006
  0
LWPOLYLINE
  5
BAC
330
1F
100
AcDbEntity
  8
0
100
AcDbPolyline
 90
       22
 70
     0
 43
0.0
 10
12.64728112959996
 20
3.938434300800011
 10
12.41985818879997
 20
3.966797014400015
 10
12.19184638079998
 20
3.994708508800016
 10
11.95906846559996
 20
4.022662185600012
 10
11.71780458719997
 20
4.051058180800012
 10
11.46430039839997
 20
4.08026292960001
 10
11.19478862879996
 20
4.11060229600001
 10
10.90550261439996
 20
4.142354724800014
 10
10.59267165439997
 20
4.175745086400013
 10
10.25252012639997
 20
4.210936678400017
 10
9.88126648959998
 20
4.248021806400004
 10
9.475124647999976
 20
4.287010688000009
 10
9.030305211199973
 20
4.327819001600005
 10
8.54296860319998
 20
4.370258163200006
 10
8.009814145599975
 20
4.413972363200016
 10
7.435099327999964
 20
4.457921190400014
 10
6.829120527999961
 20
4.500699913600016
 10
6.182213326399974
 20
4.542339204800015
 10
5.484558420799984
 20
4.58258811200001
 10
4.726364548799963
 20
4.620856321600015
 10
3.897840307199984
 20
4.656163102400014
 10
2.988956526399974
 20
4.687081601600013
  0
LWPOLYLINE
  5
BAD
330
1F
100
AcDbEntity
  8
0
100
AcDbPolyline
 90
       14
 70
     0
 43
0.0
 10
12.69496878399998
 20
4.327699753600015
 10
11.42488862079996
 20
4.478809984000008
 10
10.28508741759996
 20
4.601235145600014
 10
9.258745623999985
 20
4.700746769600016
 10
8.331871526399979
 20
4.781837227200014
 10
7.492736097599973
 20
4.848031841600004
 10
6.731268255999978
 20
4.902134464000013
 10
6.038772868799966
 20
4.946387140800013
 10
5.408163628799982
 20
4.98256194240001
 10
4.832996750399971
 20
5.012106721600005
 10
4.307155955199974
 20
5.036215627200007
 10
3.825046151999984
 20
5.055856337600005
 10
3.384596132799984
 20
5.071704670400009
 10
2.985379019199982
 20
5.084294044800003
  0
LWPOLYLINE
  5
BAE
330
1F
100
AcDbEntity
  8
0
100
AcDbPolyline
 90
        4
 70
     0
 43
0.0
 10
2.988956526399974
 20
4.687081601600013
 10
1.992807923199976
 20
4.711587835200006
 10
0.9964424543999683
 20
4.726292953600008
 10
-0.0000000000000142
 20
4.731194848000015
  0
LWPOLYLINE
  5
BAF
330
1F
100
AcDbEntity
  8
0
100
AcDbPolyline
 90
        4
 70
     0
 43
0.0
 10
2.985379019199982
 20
5.084294044800003
 10
1.990402092799982
 20
5.108643280000009
 10
0.9952655151999607
 20
5.123253422400011
 10
-0.0000000000000142
 20
5.128124000000013
  0
LWPOLYLINE
  5
BB0
330
1F
100
AcDbEntity
  8
0
100
AcDbPolyline
 90
        4
 70
     0
 43
0.0
 10
-0.0000000000000142
 20
4.731194848000015
 10
-0.9964424544000252
 20
4.726292953600008
 10
-1.992807921600032
 20
4.711587835200006
 10
-2.98895652480003
 20
4.687081601600013
  0
LWPOLYLINE
  5
BB1
330
1F
100
AcDbEntity
  8
0
100
AcDbPolyline
 90
        4
 70
     0
 43
0.0
 10
-2.985379017600038
 20
5.084294044800003
 10
-1.990402075200037
 20
5.108643281600009
 10
-0.9952654800000146
 20
5.123253422400011
 10
-0.0000000000000142
 20
5.128124000000013
  0
LWPOLYLINE
  5
BB2
330
1F
100
AcDbEntity
  8
0
100
AcDbPolyline
 90
       12
 70
     0
 43
0.0
 10
-2.808830284800038
 20
5.545865099200014
 10
-2.882419177600027
 20
5.556811136000007
 10
-2.956914635200021
 20
5.567397588800005
 10
-3.032609524800037
 20
5.577663257600008
 10
-3.109927592000033
 20
5.587656131200006
 10
-3.188775364800036
 20
5.597351921600008
 10
-3.268638019200025
 20
5.606680988800007
 10
-3.34990511040003
 20
5.615684174400016
 10
-3.432746078400029
 20
5.624370904000016
 10
-3.516059652800024
 20
5.632624462400016
 10
-3.600468793600029
 20
5.640509748800013
 10
-3.687369286400027
 20
5.648143428800011
  0
LWPOLYLINE
  5
BB3
330
1F
100
AcDbEntity
  8
0
100
AcDbPolyline
 90
       13
 70
     0
 43
0.0
 10
-2.678139368000032
 20
5.570259076800013
 10
-2.790664780800014
 20
5.591419993600013
 10
-2.904383876800025
 20
5.618538408000006
 10
-3.013190396800027
 20
5.648593257600012
 10
-3.111602273600013
 20
5.678452510400006
 10
-3.199142777600016
 20
5.706696609600015
 10
-3.276232416000013
 20
5.732623913600008
 10
-3.346510398400013
 20
5.756962580800006
 10
-3.413667665600016
 20
5.780734953600017
 10
-3.481122401600018
 20
5.805025734400004
 10
-3.549539371200026
 20
5.830002806400017
 10
-3.618429593600026
 20
5.855421947200014
 10
-3.687698688000025
 20
5.881183155200005
  0
LWPOLYLINE
  5
BB4
330
1F
100
AcDbEntity
  8
0
100
AcDbPolyline
 90
        3
 70
     0
 43
0.0
 10
-3.687369286400027
 20
5.648143428800011
 10
-4.115651334400027
 20
5.679115833600008
 10
-4.416295067200039
 20
5.693693892800013
  0
LINE
  5
BB5
330
1F
100
AcDbEntity
  8
0
100
AcDbLine
 10
-3.68769868800004
 20
5.881183155200005
 30
0.0
 11
-4.068899041600033
 21
6.023997232000013
 31
0.0
  0
LINE
  5
BB6
330
1F
100
AcDbEntity
  8
0
100
AcDbLine
 10
-2.034048073600033
 20
6.975159073600011
 30
0.0
 11
-2.817583608000035
 21
6.739677446400008
 31
0.0
  0
LINE
  5
BB7
330
1F
100
AcDbEntity
  8
0
100
AcDbLine
 10
-2.703975515200028
 20
5.529393699200014
 30
0.0
 11
-2.678139369600032
 21
5.570259076800013
 31
0.0
  0
LWPOLYLINE
  5
BB8
330
1F
100
AcDbEntity
  8
0
100
AcDbPolyline
 90
        3
 70
     0
 43
0.0
 10
-2.808830284800038
 20
5.545865099200014
 10
-2.756148475200021
 20
5.537719984000005
 10
-2.703975515200014
 20
5.529393699200014
  0
LWPOLYLINE
  5
BB9
330
1F
100
AcDbEntity
  8
0
100
AcDbPolyline
 90
       17
 70
     0
 43
0.0
 10
1.17218224799997
 20
5.511643257600013
 10
1.15080995519996
 20
5.497568195200017
 10
1.12042730559996
 20
5.483898409600016
 10
1.081343043199964
 20
5.470758569600008
 10
1.033750811199965
 20
5.458204057600013
 10
0.9781170655999602
 20
5.446349574400016
 10
0.9148065295999714
 20
5.435259608000009
 10
0.8443602607999736
 20
5.425016500800012
 10
0.7673605311999694
 20
5.415688710400004
 10
0.684283881599967
 20
5.407321065600015
 10
0.5958773935999631
 20
5.399976958400003
 10
0.5027379759999775
 20
5.393694297600006
 10
0.4060626383999733
 20
5.388535512000004
 10
0.3065390479999763
 20
5.384513553600015
 10
0.2052203679999849
 20
5.381647076800007
 10
0.1027320639999658
 20
5.37993113440001
 10
-0.0000000000000142
 20
5.379362051200004
  0
LWPOLYLINE
  5
BBA
330
1F
100
AcDbEntity
  8
0
100
AcDbPolyline
 90
       18
 70
     0
 43
0.0
 10
1.181117889599974
 20
5.524186753600005
 10
1.165964667199986
 20
5.538582668800003
 10
1.14228829119996
 20
5.55268516000001
 10
1.110450251199964
 20
5.566423139200011
 10
1.070866227199971
 20
5.579702758400003
 10
1.023748039999972
 20
5.592492846400006
 10
0.9695003615999695
 20
5.604695481600003
 10
0.908252955199984
 20
5.61627373280001
 10
0.8403543903999803
 20
5.627136604800014
 10
0.7660268623999827
 20
5.637214929600006
 10
0.6854831743999768
 20
5.646433632000011
 10
0.5991610415999702
 20
5.654691169600013
 10
0.5074205311999691
 20
5.661899104000013
 10
0.4112864783999868
 20
5.667931768000016
 10
0.3114003215999759
 20
5.672715177600011
 10
0.2089512735999648
 20
5.676169558400005
 10
0.10476176319996
 20
5.678256601600011
 10
-0.0000000000000142
 20
5.678952289600005
  0
LWPOLYLINE
  5
BBB
330
1F
100
AcDbEntity
  8
0
100
AcDbPolyline
 90
       20
 70
     0
 43
0.0
 10
-0.0000000000000142
 20
5.709898166400009
 10
0.1047618319999657
 20
5.709202494400017
 10
0.2089514671999808
 20
5.707115496000014
 10
0.3114006671999761
 20
5.703661185600012
 10
0.4112869711999707
 20
5.698877868800011
 10
0.5074211375999625
 20
5.692845321600003
 10
0.599161689599967
 20
5.685637524800014
 10
0.6854837567999681
 20
5.677380148800011
 10
0.7660272815999605
 20
5.668161627200007
 10
0.840354596799969
 20
5.658083504000003
 10
0.9082529471999833
 20
5.647220840000017
 10
0.9695001679999819
 20
5.635642796800013
 10
1.023747707199973
 20
5.623440364800003
 10
1.070865819199966
 20
5.610650464000016
 10
1.110449835199986
 20
5.59737100640001
 10
1.142287929599959
 20
5.583633156800004
 10
1.165964403199964
 20
5.569530756800006
 10
1.181117745599962
 20
5.555134894400012
 10
1.187348822399982
 20
5.540583307200009
 10
1.187499999999985
 20
5.53794846880001
  0
LINE
  5
BBC
330
1F
100
AcDbEntity
  8
0
100
AcDbLine
 10
-1.165972798400034
 20
5.538576713600008
 30
0.0
 11
-1.181125100800031
 21
5.52417702240001
 31
0.0
  0
LINE
  5
BBD
330
1F
100
AcDbEntity
  8
0
100
AcDbLine
 10
-1.181125100800031
 20
5.52417702240001
 30
0.0
 11
-1.181693529600039
 21
5.522848120000006
 31
0.0
  0
LWPOLYLINE
  5
BBE
330
1F
100
AcDbEntity
  8
0
100
AcDbPolyline
 90
        3
 70
     0
 43
0.0
 10
-1.172165281600015
 20
5.511628888000004
 10
-1.184395041600041
 20
5.526029070400014
 10
-1.187499998400014
 20
5.537948492800012
  0
LWPOLYLINE
  5
BBF
330
1F
100
AcDbEntity
  8
0
100
AcDbPolyline
 90
       17
 70
     0
 43
0.0
 10
-0.0000000000000142
 20
5.379362051200004
 10
-0.10271313920002
 20
5.379930924800007
 10
-0.2051918208000387
 20
5.381646435200011
 10
-0.3064947568000349
 20
5.384512036800003
 10
-0.4060093312000248
 20
5.388533019200011
 10
-0.5026690704000174
 20
5.393690147200004
 10
-0.5958028960000235
 20
5.39997136960001
 10
-0.6842138720000293
 20
5.40731465280001
 10
-0.7672937872000177
 20
5.415681332800005
 10
-0.8443013168000135
 20
5.425008680000004
 10
-0.9147472784000143
 20
5.435250161600009
 10
-0.9780661584000398
 20
5.446339756800014
 10
-1.033703232000036
 20
5.458192809600006
 10
-1.081304136000014
 20
5.470747036800005
 10
-1.120394662400016
 20
5.483885817600011
 10
-1.150784529600016
 20
5.497554568000012
 10
-1.172165281600015
 20
5.511628888000004
  0
LWPOLYLINE
  5
BC0
330
1F
100
AcDbEntity
  8
0
100
AcDbPolyline
 90
       17
 70
     0
 43
0.0
 10
-0.0000000000000142
 20
5.678952289600005
 10
-0.1047610880000178
 20
5.678256609600012
 10
-0.2089482656000285
 20
5.676169638400011
 10
-0.311403934400019
 20
5.672715030400013
 10
-0.4112894064000301
 20
5.667931606400003
 10
-0.5074309136000324
 20
5.66189837120001
 10
-0.5991724592000339
 20
5.654690176000016
 10
-0.6854875376000252
 20
5.646433174400016
 10
-0.7660299552000396
 20
5.637214542400016
 10
-0.8403513936000166
 20
5.627137046400008
 10
-0.908256494400021
 20
5.616273118400016
 10
-0.969502822400031
 20
5.604694974400004
 10
-1.023754724800014
 20
5.592491198400011
 10
-1.070874192000033
 20
5.579700364800004
 10
-1.110458161600021
 20
5.566420148800006
 10
-1.142297286400022
 20
5.552680654400006
 10
-1.165972798400034
 20
5.538576713600008
  0
LWPOLYLINE
  5
BC1
330
1F
100
AcDbEntity
  8
0
100
AcDbPolyline
 90
       20
 70
     0
 43
0.0
 10
-1.187499998400014
 20
5.537948492800012
 10
-1.187350116800033
 20
5.540571964800008
 10
-1.181124958400019
 20
5.555125160000017
 10
-1.16597253760004
 20
5.56952480000001
 10
-1.142296928000021
 20
5.583628648000015
 10
-1.110457750400016
 20
5.597368012800004
 10
-1.070873788800028
 20
5.610648067200017
 10
-1.023754398400015
 20
5.623438715200009
 10
-0.9695026368000156
 20
5.635642288000013
 10
-0.9082564960000212
 20
5.647220222400008
 10
-0.8403516096000345
 20
5.658083944000011
 10
-0.7660303840000183
 20
5.668161241600003
 10
-0.6854881312000174
 20
5.677379689600016
 10
-0.5991731184000316
 20
5.685636531200003
 10
-0.5074315312000266
 20
5.692844588800014
 10
-0.4112899088000149
 20
5.698877707200011
 10
-0.3114042864000197
 20
5.703661038400014
 10
-0.2089484624000164
 20
5.707115576000006
 10
-0.1047611584000236
 20
5.709202502400003
 10
-0.0000000000000142
 20
5.709898166400009
  0
LINE
  5
BC2
330
1F
100
AcDbEntity
  8
0
100
AcDbLine
 10
1.184402347199963
 20
5.526043035200004
 30
0.0
 11
1.17218224799997
 21
5.511643257600013
 31
0.0
  0
LINE
  5
BC3
330
1F
100
AcDbEntity
  8
0
100
AcDbLine
 10
1.187499999999971
 20
5.53794846880001
 30
0.0
 11
1.184402347199963
 21
5.526043035200004
 31
0.0
  0
LINE
  5
BC4
330
1F
100
AcDbEntity
  8
0
100
AcDbLine
 10
1.181691073599964
 20
5.522848156800009
 30
0.0
 11
1.18111788959996
 21
5.524186753600005
 31
0.0
  0
LWPOLYLINE
  5
BC5
330
1F
100
AcDbEntity
  8
0
100
AcDbPolyline
 90
        8
 70
     0
 43
0.0
 10
5.35809491519997
 20
5.278705144000014
 10
5.262441967999976
 20
5.287151476800005
 10
5.160558798399975
 20
5.298769545600009
 10
5.061741905599959
 20
5.312733828800006
 10
4.973615287999976
 20
5.327912134400008
 10
4.898740515199975
 20
5.343776496000003
 10
4.842348724799975
 20
5.359138076800007
 10
4.807294852799984
 20
5.372804691200016
  0
LINE
  5
BC6
330
1F
100
AcDbEntity
  8
0
100
AcDbLine
 10
3.600468793599972
 20
5.640509748800013
 30
0.0
 11
3.68736928799997
 21
5.648143428800011
 31
0.0
  0
LWPOLYLINE
  5
BC7
330
1F
100
AcDbEntity
  8
0
100
AcDbPolyline
 90
       13
 70
     0
 43
0.0
 10
2.678139369599975
 20
5.570259076800013
 10
2.790664782399986
 20
5.591419993600013
 10
2.904383876799968
 20
5.618538408000006
 10
3.01319039839997
 20
5.648593257600012
 10
3.111602275199985
 20
5.678452510400006
 10
3.199142777599959
 20
5.706696609600015
 10
3.276232415999984
 20
5.732623913600008
 10
3.346510399999985
 20
5.756962580800006
 10
3.413667667199959
 20
5.780734953600017
 10
3.481122403199961
 20
5.805025734400004
 10
3.549539371199969
 20
5.830002806400017
 10
3.61842959519997
 20
5.855421947200014
 10
3.687698689599969
 20
5.881183155200005
  0
LWPOLYLINE
  5
BC8
330
1F
100
AcDbEntity
  8
0
100
AcDbPolyline
 90
        6
 70
     0
 43
0.0
 10
4.612564369599979
 20
5.468258369600007
 10
4.382105308799978
 20
5.732963008000012
 10
4.041666313599975
 20
6.049303374400011
 10
3.66375550879998
 20
6.324987694400007
 10
3.253786401599981
 20
6.556181817600005
 10
2.817583609599964
 20
6.739677446400008
  0
LINE
  5
BC9
330
1F
100
AcDbEntity
  8
0
100
AcDbLine
 10
2.703975516799971
 20
5.529393699200014
 30
0.0
 11
2.678139369599961
 21
5.570259076800013
 31
0.0
  0
LWPOLYLINE
  5
BCA
330
1F
100
AcDbEntity
  8
0
100
AcDbPolyline
 90
        3
 70
     0
 43
0.0
 10
2.808830286399981
 20
5.545865099200014
 10
2.756148476799964
 20
5.537719984000005
 10
2.703975516799985
 20
5.529393699200014
  0
LWPOLYLINE
  5
BCB
330
1F
100
AcDbEntity
  8
0
100
AcDbPolyline
 90
       11
 70
     0
 43
0.0
 10
2.808830286399981
 20
5.545865099200014
 10
2.88241917919997
 20
5.556811136000007
 10
2.956914636799965
 20
5.567397588800005
 10
3.03260952639998
 20
5.577663257600008
 10
3.109927593599977
 20
5.587656131200006
 10
3.18877536639998
 20
5.597351921600008
 10
3.268638020799969
 20
5.606680988800007
 10
3.349905111999973
 20
5.615684174400016
 10
3.432746079999972
 20
5.624370904000016
 10
3.516059654399967
 20
5.632624462400016
 10
3.600468793599972
 20
5.640509748800013
  0
LWPOLYLINE
  5
BCC
330
1F
100
AcDbEntity
  8
0
100
AcDbPolyline
 90
        3
 70
     0
 43
0.0
 10
4.631749447999979
 20
5.456172627200004
 10
4.61381976479997
 20
5.466862136000017
 10
4.61254971199996
 20
5.468259211200006
  0
LWPOLYLINE
  5
BCD
330
1F
100
AcDbEntity
  8
0
100
AcDbPolyline
 90
        3
 70
     0
 43
0.0
 10
4.807294852799984
 20
5.372804691200016
 10
4.721595892799982
 20
5.415073492800004
 10
4.631749447999979
 20
5.456172627200004
  0
LINE
  5
BCE
330
1F
100
AcDbEntity
  8
0
100
AcDbLine
 10
3.687698689599969
 20
5.881183155200005
 30
0.0
 11
4.068899919999964
 21
6.023997550400011
 31
0.0
  0
LWPOLYLINE
  5
BCF
330
1F
100
AcDbEntity
  8
0
100
AcDbPolyline
 90
        3
 70
     0
 43
0.0
 10
3.68736928799997
 20
5.648143428800011
 10
4.11565133599997
 20
5.679115833600008
 10
4.416294108799959
 20
5.693693846400009
  0
LWPOLYLINE
  5
BD0
330
1F
100
AcDbEntity
  8
0
100
AcDbPolyline
 90
        9
 70
     0
 43
0.0
 10
6.086246383999977
 20
5.223854009600003
 10
6.220717945599986
 20
5.215126601600005
 10
6.348378929599974
 20
5.209901928000007
 10
6.462846094399978
 20
5.208771651200009
 10
6.556234433599982
 20
5.211945851200013
 10
6.623834116799983
 20
5.218986174400015
 10
6.666613339199969
 20
5.229672534400009
 10
6.683020753599961
 20
5.243949064000005
 10
6.681019086399984
 20
5.25150416480001
  0
LINE
  5
BD1
330
1F
100
AcDbEntity
  8
0
100
AcDbLine
 10
6.086246383999963
 20
5.223854009600003
 30
0.0
 11
5.35809491519997
 21
5.278705144000014
 31
0.0
  0
LWPOLYLINE
  5
BD2
330
1F
100
AcDbEntity
  8
0
100
AcDbPolyline
 90
        4
 70
     0
 43
0.0
 10
16.89663939519998
 20
3.885378569600007
 10
15.51848390719998
 20
4.011819339200016
 10
14.11968502879996
 20
4.158905913600008
 10
12.69496878399998
 20
4.327699753600015
  0
LWPOLYLINE
  5
BD3
330
1F
100
AcDbEntity
  8
0
100
AcDbPolyline
 90
       13
 70
     0
 43
0.0
 10
16.87006675199997
 20
3.487087251200009
 10
16.62852382719997
 20
3.508598345600006
 10
16.35975397279996
 20
3.533146297600012
 10
16.06522594559997
 20
3.560787806400014
 10
15.74673875839998
 20
3.59155048960001
 10
15.40474513279995
 20
3.625594019200008
 10
15.03893308639997
 20
3.663167758400007
 10
14.64902797759997
 20
3.704536684800004
 10
14.23490501119998
 20
3.749968945600016
 10
13.80271319679998
 20
3.799026433600005
 10
13.37630071519997
 20
3.849074545600004
 10
12.98179438239996
 20
3.896836248000013
 10
12.64728112959996
 20
3.938434300800011
  0
LWPOLYLINE
  5
BD4
330
1F
100
AcDbEntity
  8
0
100
AcDbPolyline
 90
        7
 70
     0
 43
0.0
 10
12.74683072799997
 20
5.304529566400006
 10
13.46058810079996
 20
5.278601984000005
 10
14.16137947519997
 20
5.271400684800013
 10
14.85039384799996
 20
5.288095368000014
 10
15.47520506719997
 20
5.329770312000007
 10
16.02098172959996
 20
5.392205908800008
 10
16.50580296319996
 20
5.472506948800017
  0
LWPOLYLINE
  5
BEA
330
1F
100
AcDbEntity
  8
0
100
AcDbPolyline
 90
        6
 70
     0
 43
0.0
 10
-4.612564368000036
 20
30.531741632
 10
-4.382105307200035
 20
30.26703699360001
 10
-4.041666312000032
 20
29.95069662720002
 10
-3.663755507200036
 20
29.6750123072
 10
-3.253786401600038
 20
29.44381818240001
 10
-2.81758360800002
 20
29.26032255360002
  0
LWPOLYLINE
  5
BEB
330
1F
100
AcDbEntity
  8
0
100
AcDbPolyline
 90
        6
 70
     0
 43
0.0
 10
-4.33118066720003
 20
28.6150552336
 10
-4.906616945600021
 20
28.94969593280001
 10
-5.439566952000021
 20
29.34224426560001
 10
-5.923651409600026
 20
29.7878491216
 10
-6.353077059200032
 20
30.28099673760002
 10
-6.681076944000025
 20
30.74849935200001
  0
LWPOLYLINE
  5
BEC
330
1F
100
AcDbEntity
  8
0
100
AcDbPolyline
 90
       22
 70
     0
 43
0.0
 10
-12.64728112960001
 20
32.0615656992
 10
-12.41985818880003
 20
32.03320298720001
 10
-12.19184637920004
 20
32.00529149120001
 10
-11.95906846400002
 20
31.97733781440001
 10
-11.71780458560003
 20
31.9489418192
 10
-11.46430039680002
 20
31.9197370704
 10
-11.19478862720002
 20
31.889397704
 10
-10.90550261280002
 20
31.85764527680001
 10
-10.59267165280003
 20
31.82425491360001
 10
-10.25252012480002
 20
31.78906332319999
 10
-9.881266488000036
 20
31.75197819360002
 10
-9.475124646400033
 20
31.71298931200002
 10
-9.03030521120003
 20
31.67218100000002
 10
-8.542968601600037
 20
31.62974183680001
 10
-8.009814144000031
 20
31.58602763679999
 10
-7.43509932640002
 20
31.54207881120001
 10
-6.829120528000018
 20
31.49930008800001
 10
-6.182213324800031
 20
31.45766079520001
 10
-5.484558420800013
 20
31.4174118896
 10
-4.72636454720002
 20
31.37914368
 10
-3.897840305600013
 20
31.34383689919999
 10
-2.98895652480003
 20
31.3129183984
  0
LWPOLYLINE
  5
BED
330
1F
100
AcDbEntity
  8
0
100
AcDbPolyline
 90
       14
 70
     0
 43
0.0
 10
-12.69496878240004
 20
31.6723002464
 10
-11.42488862080001
 20
31.52119001760002
 10
-10.28508741760002
 20
31.39876485600001
 10
-9.258745622400041
 20
31.29925323040001
 10
-8.331871524800035
 20
31.21816277440001
 10
-7.492736096000029
 20
31.15196815840002
 10
-6.731268254400035
 20
31.097865536
 10
-6.038772867200023
 20
31.0536128608
 10
-5.408163627200039
 20
31.0174380592
 10
-4.832996748800027
 20
30.98789328
 10
-4.30715595360003
 20
30.9637843744
 10
-3.825046150400012
 20
30.94414366240002
 10
-3.384596131200041
 20
30.92829532960001
 10
-2.985379017600038
 20
30.91570595519999
  0
LWPOLYLINE
  5
BEE
330
1F
100
AcDbEntity
  8
0
100
AcDbPolyline
 90
       29
 70
     0
 43
0.0
 10
-4.083118094400035
 20
28.50432524640001
 10
-4.19688795360004
 20
28.49772687840001
 10
-4.716841516800016
 20
28.46554667840001
 10
-5.276744772800029
 20
28.43029926240001
 10
-5.79521044960002
 20
28.398210048
 10
-6.298039406400036
 20
28.36796319360002
 10
-6.793418019200018
 20
28.3388261744
 10
-7.274111619200013
 20
28.31106201920002
 10
-7.740727694400035
 20
28.28448507360002
 10
-8.190152662400024
 20
28.25910574880001
 10
-8.624033848000024
 20
28.23465315520002
 10
-9.04511863360004
 20
28.21078896
 10
-9.456083353600021
 20
28.18717798080001
 10
-9.856569051200025
 20
28.16365795680002
 10
-10.24332629920003
 20
28.1402873728
 10
-10.61409785120004
 20
28.11715594240002
 10
-10.97073074080002
 20
28.09412468960002
 10
-11.31473168800003
 20
28.07107912960001
 10
-11.64715137760002
 20
28.04793870560001
 10
-11.96915517440003
 20
28.02461850720002
 10
-12.28143228800003
 20
28.00107081760001
 10
-12.58476752000002
 20
27.97724446080002
 10
-12.87968590080002
 20
27.95311116160002
 10
-13.16711533760003
 20
27.9286104688
 10
-13.44782715360001
 20
27.9036908768
 10
-13.72232867680001
 20
27.87832172
 10
-13.99113922560003
 20
27.85247016959999
 10
-14.25451680000001
 20
27.82612774080002
 10
-14.51262098560003
 20
27.79929720320001
  0
LWPOLYLINE
  5
BF4
330
1F
100
AcDbEntity
  8
0
100
AcDbPolyline
 90
       19
 70
     0
 43
0.0
 10
-14.51262098560003
 20
8.253648787200006
 10
-13.97277899360001
 20
8.19855583040001
 10
-13.39586207680004
 20
8.143852272000003
 10
-12.77656021440002
 20
8.089509249600013
 10
-12.10030214240002
 20
8.034808052800016
 10
-11.36834208640003
 20
7.980366755200009
 10
-10.66814429280002
 20
7.932218032000008
 10
-10.03576207040002
 20
7.891466190400009
 10
-9.440136305600034
 20
7.855021368000009
 10
-8.841094760000018
 20
7.819789102400008
 10
-8.224535332800044
 20
7.784465688000011
 10
-7.586507251200018
 20
7.748435083200007
 10
-6.959662480000034
 20
7.713216499200015
 10
-6.365749337600036
 20
7.679824436800004
 10
-5.81293348000004
 20
7.648611936000008
 10
-5.293355438400013
 20
7.619018200000013
 10
-4.781551240000013
 20
7.589892966400014
 10
-4.264403897600018
 20
7.561277310400015
 10
-3.970107214400016
 20
7.546123798400003
  0
LWPOLYLINE
  5
BF5
330
1F
100
AcDbEntity
  8
0
100
AcDbPolyline
 90
       10
 70
     0
 43
0.0
 10
-28.83539589760003
 20
9.062720337600012
 10
-29.26864427360003
 20
9.719405033600011
 10
-29.70006852320001
 20
10.469091832
 10
-30.11614962240003
 20
11.32493797120001
 10
-30.50185284800003
 20
12.3027604208
 10
-30.83896931680003
 20
13.4156037696
 10
-31.10677190080002
 20
14.66514340319999
 10
-31.27357262080002
 20
15.89866408639999
 10
-31.35298684960003
 20
17.0118975392
 10
-31.37425536960002
 20
18.0
  0
LWPOLYLINE
  5
BF6
330
1F
100
AcDbEntity
  8
0
100
AcDbPolyline
 90
       15
 70
     0
 43
0.0
 10
-30.94608431680002
 20
18.0000000128
 10
-30.93229552960002
 20
17.20907678559999
 10
-30.88951370400002
 20
16.4240984928
 10
-30.81719378720002
 20
15.66045605920001
 10
-30.71718345600003
 20
14.93300342239999
 10
-30.59345545920002
 20
14.2533154608
 10
-30.44828959520002
 20
13.6163914144
 10
-30.28182217920003
 20
13.0118313472
 10
-30.09439581280003
 20
12.434566136
 10
-29.88647523680002
 20
11.88159223680001
 10
-29.65710521440003
 20
11.3475040736
 10
-29.40395741760002
 20
10.82593930720001
 10
-29.12497382240003
 20
10.31303930560001
 10
-28.81848329920002
 20
9.806493593600009
 10
-28.48271226720003
 20
9.30403548320001
  0
LWPOLYLINE
  5
BF7
330
1F
100
AcDbEntity
  8
0
100
AcDbPolyline
 90
       10
 70
     0
 43
0.0
 10
-31.37425536960002
 20
18.0
 10
-31.35297880320003
 20
18.9882857552
 10
-31.27796978240003
 20
20.056856912
 10
-31.12215292640003
 20
21.2440912016
 10
-30.86131374240002
 20
22.49694250879999
 10
-30.51875322240003
 20
23.6485765312
 10
-30.12422815040002
 20
24.65672732960001
 10
-29.70403213120004
 20
25.52345830079999
 10
-29.27010847520001
 20
26.27823150080002
 10
-28.83539589760003
 20
26.93727966400001
  0
LWPOLYLINE
  5
BF8
330
1F
100
AcDbEntity
  8
0
100
AcDbPolyline
 90
       16
 70
     0
 43
0.0
 10
-30.94608431680002
 20
18.0000000128
 10
-30.93409505120003
 20
18.738306136
 10
-30.89692376320003
 20
19.4723118944
 10
-30.83394320000003
 20
20.18948638079999
 10
-30.74634418720002
 20
20.87743538400001
 10
-30.63719291360003
 20
21.52506487359999
 10
-30.50891256480003
 20
22.13318287200001
 10
-30.36213215040003
 20
22.70970213759999
 10
-30.19693433600002
 20
23.26075649439999
 10
-30.01371839680003
 20
23.78924309919999
 10
-29.81247337920002
 20
24.2982690288
 10
-29.59197375840003
 20
24.79269619520001
 10
-29.35025508640002
 20
25.27730336960001
 10
-29.08571107680002
 20
25.7548600976
 10
-28.79700648000003
 20
26.22714126720001
 10
-28.48271226720003
 20
26.69596451680002
  0
LWPOLYLINE
  5
BF9
330
1F
100
AcDbEntity
  8
0
100
AcDbPolyline
 90
       35
 70
     0
 43
0.0
 10
-22.10948914080002
 20
22.9928154208
 10
-22.18276067680002
 20
22.8593542176
 10
-22.25405242080002
 20
22.72470595680001
 10
-22.32334402400003
 20
22.58890303840001
 10
-22.39061548960002
 20
22.45197867040001
 10
-22.45584752320003
 20
22.3139683072
 10
-22.51902265280001
 20
22.17490405599999
 10
-22.58012317600003
 20
22.03481833439999
 10
-22.63912703680002
 20
21.8937558592
 10
-22.69601468800003
 20
21.75175906719999
 10
-22.75077691200003
 20
21.608846128
 10
-22.80340131840002
 20
21.4650447312
 10
-22.85387324480002
 20
21.3203914672
 10
-22.90217882400001
 20
21.17491975360001
 10
-22.94830311680003
 20
21.028665592
 10
-22.99223374240001
 20
20.88166368959999
 10
-23.03396069920002
 20
20.73394239520001
 10
-23.07346829600003
 20
20.5855487872
 10
-23.11074273120003
 20
20.43652816
 10
-23.14577318720002
 20
20.28692164959999
 10
-23.17854946400002
 20
20.13676941279999
 10
-23.20906136480003
 20
19.9861132784
 10
-23.23730020160003
 20
19.834993544
 10
-23.26325890560002
 20
19.6834460896
 10
-23.28693036960002
 20
19.5315096736
 10
-23.30830833440002
 20
19.3792259216
 10
-23.32738527040003
 20
19.2266569104
 10
-23.34415739200002
 20
19.0738396384
 10
-23.35862199520002
 20
18.9207996032
 10
-23.37077717280003
 20
18.7675745184
 10
-23.38062126240002
 20
18.61420352799999
 10
-23.38815206080002
 20
18.4607254848
 10
-23.39336771360002
 20
18.3071788528
 10
-23.39626788960002
 20
18.15359427519999
 10
-23.39685290880002
 20
18.0000003488
  0
LWPOLYLINE
  5
BFA
330
1F
100
AcDbEntity
  8
0
100
AcDbPolyline
 90
       12
 70
     0
 43
0.0
 10
-24.55907471840002
 20
18.00000141120001
 10
-24.54788150400001
 20
18.5277520416
 10
-24.51152260800002
 20
19.0872729984
 10
-24.44841999040002
 20
19.65704665439999
 10
-24.35972588640002
 20
20.2207514096
 10
-24.24587310400002
 20
20.777541656
 10
-24.10667557440003
 20
21.32888956800001
 10
-23.94578922080002
 20
21.86276432479999
 10
-23.77210851360003
 20
22.3590447136
 10
-23.59122602880002
 20
22.81432372639999
 10
-23.40209124160002
 20
23.24057701279999
 10
-23.20257274080002
 20
23.64747454079999
  0
LWPOLYLINE
  5
BFB
330
1F
100
AcDbEntity
  8
0
100
AcDbPolyline
 90
       39
 70
     0
 43
0.0
 10
-19.05851215200003
 20
9.877702160000012
 10
-18.92937200160004
 20
9.794884131200007
 10
-18.79907568800003
 20
9.714053374400009
 10
-18.66681796960001
 20
9.634722699200011
 10
-18.53230427200001
 20
9.556759225600004
 10
-18.39645532160004
 20
9.480721547200005
 10
-18.26155374080004
 20
9.407819912000007
 10
-18.12725052640003
 20
9.337750323200012
 10
-17.99167850720003
 20
9.269496174400003
 10
-17.85286072640003
 20
9.202126006400007
 10
-17.71213227040003
 20
9.136367334400006
 10
-17.57193469920004
 20
9.073343628800003
 10
-17.43249480480004
 20
9.013075382400003
 10
-17.29590119040001
 20
8.956330452800017
 10
-17.16240125280002
 20
8.903026124800007
 10
-17.03213130240003
 20
8.853035601600012
 10
-16.90463692800001
 20
8.806021297600011
 10
-16.77972405760003
 20
8.761770822400009
 10
-16.65850241760002
 20
8.720525291200004
 10
-16.54026314560003
 20
8.681889305600009
 10
-16.42401290240003
 20
8.645422976000006
 10
-16.30922732000003
 20
8.610881043200009
 10
-16.19561735360004
 20
8.578115556800014
 10
-16.08454964800002
 20
8.54744276320001
 10
-15.97657681760002
 20
8.518905480000015
 10
-15.86962123680002
 20
8.491876348800005
 10
-15.76366497280004
 20
8.466310761600013
 10
-15.65883679040003
 20
8.442198488000016
 10
-15.55515102400003
 20
8.419500561600017
 10
-15.45236189280002
 20
8.398123886400014
 10
-15.35020680480003
 20
8.377983686400014
 10
-15.24825601920004
 20
8.358975902400004
 10
-15.14639532000002
 20
8.341069080000011
 10
-15.04462675680004
 20
8.324254785600004
 10
-14.94266942240004
 20
8.308482680000011
 10
-14.84026217120002
 20
8.29371642880001
 10
-14.73800615840004
 20
8.280041552000014
 10
-14.63452552160002
 20
8.267284934400009
 10
-14.52776689600001
 20
8.255258446400006
  0
LWPOLYLINE
  5
BFC
330
1F
100
AcDbEntity
  8
0
100
AcDbPolyline
 90
       12
 70
     0
 43
0.0
 10
-14.51262098560003
 20
7.219033460800005
 10
-15.11720342400003
 20
7.303468964800003
 10
-15.69544259520002
 20
7.411896745600003
 10
-16.28151081120002
 20
7.550302836800014
 10
-16.88753127680003
 20
7.72287888160001
 10
-17.50101380640002
 20
7.92774476160001
 10
-18.10737002720001
 20
8.160917235200017
 10
-18.69529244960001
 20
8.418016843200007
 10
-19.25630615200002
 20
8.694547692800014
 10
-19.78394636800001
 20
8.985859198400007
 10
-20.27400833760002
 20
9.287612995200007
 10
-20.72500842720002
 20
9.596445638400012
  0
LWPOLYLINE
  5
BFD
330
1F
100
AcDbEntity
  8
0
100
AcDbPolyline
 90
       35
 70
     0
 43
0.0
 10
-23.39664100480003
 20
17.9620722336
 10
-23.39435039200002
 20
17.80893704319999
 10
-23.38975943040002
 20
17.65588353599999
 10
-23.38286914080002
 20
17.5029319952
 10
-23.37368089760002
 20
17.350106904
 10
-23.36219860000003
 20
17.19745584319999
 10
-23.34842753920001
 20
17.0450332912
 10
-23.33237162240003
 20
16.89287758239999
 10
-23.31402875360002
 20
16.7409750288
 10
-23.29339861440003
 20
16.5893299856
 10
-23.27049316640003
 20
16.4380367184
 10
-23.24532735840001
 20
16.287187824
 10
-23.21790410560002
 20
16.1367889232
 10
-23.18822322240002
 20
15.9868349728
 10
-23.15628629280003
 20
15.837338592
 10
-23.12210251680002
 20
15.68834764159999
 10
-23.08569109120001
 20
15.53994310560001
 10
-23.04706451200003
 20
15.3921701168
 10
-23.00623081440002
 20
15.24505548319999
 10
-22.96320476160002
 20
15.0986450352
 10
-22.91799989280002
 20
14.95297663680001
 10
-22.87062925600003
 20
14.8080870752
 10
-22.82110800160002
 20
14.66401637119999
 10
-22.76944951520003
 20
14.52079328319999
 10
-22.71566731360003
 20
14.37844832319999
 10
-22.65977358560003
 20
14.23700991519999
 10
-22.60178120000002
 20
14.0965057984
 10
-22.54170186240001
 20
13.956959136
 10
-22.47954830080003
 20
13.8183955456
 10
-22.41534177920003
 20
13.68085787679999
 10
-22.34910143680002
 20
13.5443815968
 10
-22.28084570080003
 20
13.40900030880001
 10
-22.21059554720003
 20
13.2747518976
 10
-22.13837009760003
 20
13.14166689759999
 10
-22.06418726720002
 20
13.00977262079999
  0
LWPOLYLINE
  5
BFE
330
1F
100
AcDbEntity
  8
0
100
AcDbPolyline
 90
       12
 70
     0
 43
0.0
 10
-24.55907471840002
 20
18.00000141120001
 10
-24.54788150400001
 20
17.47224795999999
 10
-24.51152260800002
 20
16.91272700159999
 10
-24.44841999040002
 20
16.3429533456
 10
-24.35972588640002
 20
15.77924859040001
 10
-24.24587310400002
 20
15.22245834400001
 10
-24.10667557440003
 20
14.671110432
 10
-23.94578922080002
 20
14.13723567520001
 10
-23.77210851360003
 20
13.640955288
 10
-23.59122602880002
 20
13.1856762752
 10
-23.40209124160002
 20
12.7594229888
 10
-23.20257274080002
 20
12.3525254608
  0
LWPOLYLINE
  5
BFF
330
1F
100
AcDbEntity
  8
0
100
AcDbPolyline
 90
       15
 70
     0
 43
0.0
 10
-20.71308006560002
 20
11.23052673920001
 10
-20.60931387840003
 20
11.12608189600001
 10
-20.50338803200002
 20
11.0227708384
 10
-20.39503441120003
 20
10.92036817440001
 10
-20.28402158560003
 20
10.81871361600001
 10
-20.17059583360001
 20
10.71808929920001
 10
-20.05518511680001
 20
10.61890053920001
 10
-19.93770343680002
 20
10.52108753120001
 10
-19.81811015040001
 20
10.42464042400001
 10
-19.69640862880003
 20
10.3295882208
 10
-19.57244911040002
 20
10.23584517920001
 10
-19.44650515680002
 20
10.1436479072
 10
-19.31872525920003
 20
10.053122416
 10
-19.18930337120004
 20
9.964413510400007
 10
-19.05851215200003
 20
9.877702160000012
  0
LWPOLYLINE
  5
C00
330
1F
100
AcDbEntity
  8
0
100
AcDbPolyline
 90
       26
 70
     0
 43
0.0
 10
-23.42814771360002
 20
12.0343071104
 10
-23.37852283360003
 20
11.93856248320001
 10
-23.35247288000003
 20
11.8883803488
 10
-23.32420503360002
 20
11.83408551680001
 10
-23.29258075840003
 20
11.77359726240001
 10
-23.25694751040002
 20
11.70581228479999
 10
-23.21709289440002
 20
11.6305069184
 10
-23.17297580320003
 20
11.547811232
 10
-23.12394583680001
 20
11.45675263199999
 10
-23.06902548480003
 20
11.35582901760001
 10
-23.00746728320003
 20
11.24406419040001
 10
-22.93862333280002
 20
11.12076323360001
 10
-22.86103322400002
 20
10.98391725920001
 10
-22.77252411520002
 20
10.83051410560001
 10
-22.67161257760002
 20
10.65905227040001
 10
-22.55799458080002
 20
10.4702736816
 10
-22.43689275200002
 20
10.27391360960001
 10
-22.32023402560002
 20
10.0893697392
 10
-22.21347835840002
 20
9.924362945600009
 10
-22.11923796160003
 20
9.781712182400013
 10
-22.03441938880003
 20
9.65569656640001
 10
-21.95414033600003
 20
9.538466489600011
 10
-21.87352013920002
 20
9.422709660800009
 10
-21.79131870720003
 20
9.306692041600015
 10
-21.70809059200003
 20
9.191268771200014
 10
-21.62435590560002
 20
9.077194467200015
  0
LWPOLYLINE
  5
C01
330
1F
100
AcDbEntity
  8
0
100
AcDbPolyline
 90
       10
 70
     0
 43
0.0
 10
-23.20257274080002
 20
12.3525254608
 10
-23.02724512000001
 20
12.0344495904
 10
-22.82773097440002
 20
11.71687657759999
 10
-22.60218940320002
 20
11.3992060384
 10
-22.34891602240002
 20
11.08150904480001
 10
-22.06468067680002
 20
10.76252521280001
 10
-21.75278087840003
 20
10.44810807360001
 10
-21.44294422880002
 20
10.16525835840001
 10
-21.11582337440002
 20
9.892753121600009
 10
-20.72500842720002
 20
9.596445638400012
  0
LWPOLYLINE
  5
C02
330
1F
100
AcDbEntity
  8
0
100
AcDbPolyline
 90
       17
 70
     0
 43
0.0
 10
-22.04767748960001
 20
12.981047744
 10
-21.98114316640003
 20
12.86789739200001
 10
-21.91234962880002
 20
12.7550211808
 10
-21.84129208480003
 20
12.64246174880001
 10
-21.76796678560002
 20
12.5302626064
 10
-21.69237300320002
 20
12.41847092319999
 10
-21.61451230080003
 20
12.30713592
 10
-21.53438888320003
 20
12.19630905759999
 10
-21.45200784480003
 20
12.0860413728
 10
-21.36737644320003
 20
11.9763850336
 10
-21.28050441760002
 20
11.8673935872
 10
-21.19140840480003
 20
11.7591270816
 10
-21.10009945760002
 20
11.65163642720001
 10
-21.00659241120002
 20
11.54497515039999
 10
-20.91090680320002
 20
11.4392000672
 10
-20.81305873280002
 20
11.3343621088
 10
-20.71308006560002
 20
11.23052673920001
  0
LWPOLYLINE
  5
C03
330
1F
100
AcDbEntity
  8
0
100
AcDbPolyline
 90
        4
 70
     0
 43
0.0
 10
-23.50403640800003
 20
12.17847533119999
 10
-23.47871358720003
 20
12.1311628928
 10
-23.45322794880003
 20
12.082550512
 10
-23.42814771360002
 20
12.0343071104
  0
LINE
  5
C04
330
1F
100
AcDbEntity
  8
0
100
AcDbLine
 10
-22.06418728640002
 20
13.00977260799999
 30
0.0
 11
-22.04767748960001
 21
12.981047744
 31
0.0
  0
LINE
  5
C05
330
1F
100
AcDbEntity
  8
0
100
AcDbLine
 10
-23.39685290720002
 20
18.0000003488
 30
0.0
 11
-23.39664100480003
 21
17.9620722336
 31
0.0
  0
LWPOLYLINE
  5
C06
330
1F
100
AcDbEntity
  8
0
100
AcDbPolyline
 90
       15
 70
     0
 43
0.0
 10
-16.50580296160002
 20
30.52749304959999
 10
-16.93403510880001
 20
30.4333508336
 10
-17.32674909760002
 20
30.3246023648
 10
-17.69130764000003
 20
30.2016551152
 10
-18.03337942240001
 20
30.06445400800001
 10
-18.35714878080001
 20
29.9126697584
 10
-18.66780910880002
 20
29.74459968160002
 10
-18.98410693760003
 20
29.54921032160001
 10
-19.31287271040004
 20
29.31981822080001
 10
-19.65617318720002
 20
29.05141839840002
 10
-20.01554694240002
 20
28.7385613648
 10
-20.39208116960002
 20
28.37530923520001
 10
-20.78645136800003
 20
27.95522574880001
 10
-21.19859590240003
 20
27.4717443248
 10
-21.62435590560002
 20
26.92280553439999
  0
LWPOLYLINE
  5
C07
330
1F
100
AcDbEntity
  8
0
100
AcDbPolyline
 90
       23
 70
     0
 43
0.0
 10
-28.48271226880003
 20
26.69596451840002
 10
-28.12328991200003
 20
27.18397437920001
 10
-27.73925020800003
 20
27.65656894400001
 10
-27.33223590240003
 20
28.1114038016
 10
-26.90403961600002
 20
28.54637684960002
 10
-26.45617653280003
 20
28.9599769552
 10
-25.98944805120003
 20
29.35145869920001
 10
-25.50371760160003
 20
29.720907944
 10
-24.99976834400003
 20
30.06766198240001
 10
-24.47939600800002
 20
30.390389728
 10
-23.94548109440002
 20
30.6873670464
 10
-23.39947532320003
 20
30.95794413440001
 10
-22.84145893920002
 20
31.20214580000001
 10
-22.27155589920002
 20
31.41997180800001
 10
-21.69142658560002
 20
31.61075540480001
 10
-21.10426826080002
 20
31.77350966400001
 10
-20.51217695200001
 20
31.90783505760001
 10
-19.91627876160002
 20
32.01362079680001
 10
-19.31681913440003
 20
32.09095745440001
 10
-18.71406615040003
 20
32.1398624528
 10
-18.10868015040002
 20
32.16017475200001
 10
-17.50227239040002
 20
32.1517614304
 10
-16.89663939360004
 20
32.114621432
  0
LWPOLYLINE
  5
C08
330
1F
100
AcDbEntity
  8
0
100
AcDbPolyline
 90
       62
 70
     0
 43
0.0
 10
-28.83539589760003
 20
26.93727966400001
 10
-28.72441375040001
 20
27.09329876320001
 10
-28.62038528960003
 20
27.23529750240001
 10
-28.52303139040002
 20
27.36466930880002
 10
-28.43203185120002
 20
27.48267376160001
 10
-28.34701195520001
 20
27.59048410240001
 10
-28.26756503200003
 20
27.68918168320002
 10
-28.19328006240003
 20
27.77974252320001
 10
-28.12379765440003
 20
27.86298954720001
 10
-28.05908356640001
 20
27.93929265600002
 10
-27.99959454880003
 20
28.0084156304
 10
-27.94536542080003
 20
28.07059652640001
 10
-27.89522873120002
 20
28.12739548640001
 10
-27.84742103520002
 20
28.1809511648
 10
-27.79979157280003
 20
28.23373071680001
 10
-27.74936335360003
 20
28.28899667200002
 10
-27.69326115040003
 20
28.34975435200002
 10
-27.62950252800003
 20
28.4178916784
 10
-27.55716456480003
 20
28.49404477280001
 10
-27.47667838240002
 20
28.57737187680001
 10
-27.38846859360002
 20
28.667041576
 10
-27.29215981120002
 20
28.76302552640001
 10
-27.18708716640001
 20
28.86552747359999
 10
-27.07248564640002
 20
28.97477111840001
 10
-26.94750072000003
 20
29.09097409280002
 10
-26.81118342400002
 20
29.21433699199999
 10
-26.66253901440002
 20
29.344983968
 10
-26.50050729600003
 20
29.482972504
 10
-26.32361512800002
 20
29.6285608608
 10
-26.12978942720002
 20
29.78228212320002
 10
-25.91673352000002
 20
29.9445683168
 10
-25.68205090080003
 20
30.11560808320001
 10
-25.42324657600002
 20
30.2953000944
 10
-25.13757024320002
 20
30.48331094080001
 10
-24.82075126400003
 20
30.67976553280002
 10
-24.46656607200002
 20
30.885147792
 10
-24.06713561600003
 20
31.09965154560001
 10
-23.62307434880001
 20
31.3179153472
 10
-23.16014711520002
 20
31.52393900320001
 10
-22.70184635040003
 20
31.70738986720002
 10
-22.24876695840002
 20
31.86962752960002
 10
-21.80263104160003
 20
32.01154230560002
 10
-21.36515666880002
 20
32.13409098560001
 10
-20.93793910240002
 20
32.23833244320002
 10
-20.52208652960001
 20
32.32547187200001
 10
-20.12127004000002
 20
32.39632060000002
 10
-19.74934289920003
 20
32.4507102176
 10
-19.41650057280001
 20
32.49024719199999
 10
-19.11699592480003
 20
32.5185290368
 10
-18.84494276480002
 20
32.53826696320001
 10
-18.59609209920002
 20
32.5513769808
 10
-18.36802925600004
 20
32.5592553216
 10
-18.15849155200003
 20
32.56301473760001
 10
-17.96509965440002
 20
32.5635312576
 10
-17.78569112480004
 20
32.56147654240001
 10
-17.61933658400003
 20
32.55739162880002
 10
-17.46620835520003
 20
32.55177601920002
 10
-17.32592401120003
 20
32.545068224
 10
-17.19736243200002
 20
32.53760600960001
 10
-17.07928087680004
 20
32.52964179200001
 10
-16.97053960480003
 20
32.52136519200002
 10
-16.87006675040002
 20
32.5129127504
  0
LWPOLYLINE
  5
C09
330
1F
100
AcDbEntity
  8
0
100
AcDbPolyline
 90
       12
 70
     0
 43
0.0
 10
-14.51262098560003
 20
28.78096654080002
 10
-15.11720342400003
 20
28.69653103520002
 10
-15.69544259520002
 20
28.58810325440001
 10
-16.28151081120002
 20
28.44969716479999
 10
-16.88753127680003
 20
28.2771211184
 10
-17.50101380640002
 20
28.0722552384
 10
-18.10737002720001
 20
27.8390827664
 10
-18.69529244960001
 20
27.58198315680002
 10
-19.25630615200002
 20
27.3054523088
 10
-19.78394636800001
 20
27.01414080320001
 10
-20.27400833760002
 20
26.7123870064
 10
-20.72500842720002
 20
26.40355436160001
  0
LWPOLYLINE
  5
C0A
330
1F
100
AcDbEntity
  8
0
100
AcDbPolyline
 90
       63
 70
     0
 43
0.0
 10
-14.53857400160002
 20
27.79652384160002
 10
-14.68785654240004
 20
27.779250832
 10
-14.83949200640002
 20
27.75941213280001
 10
-14.99260547040002
 20
27.73701369120002
 10
-15.14586083680002
 20
27.71219225120001
 10
-15.29795253280004
 20
27.68516297440001
 10
-15.44926071840002
 20
27.65588540160001
 10
-15.60041163840002
 20
27.62424303840001
 10
-15.75150022720002
 20
27.59020497440002
 10
-15.90245988000002
 20
27.553777752
 10
-16.05296689280002
 20
27.51504083840001
 10
-16.20252371840003
 20
27.474142712
 10
-16.35161165760003
 20
27.43097090400002
 10
-16.50087429120002
 20
27.38532605439999
 10
-16.64984235520002
 20
27.33732964480001
 10
-16.79800142080002
 20
27.28714570880001
 10
-16.94500295360002
 20
27.23491219999999
 10
-17.09123798880001
 20
27.18050841440001
 10
-17.23725514240003
 20
27.1237211712
 10
-17.38283781920002
 20
27.06461321439999
 10
-17.52763422080003
 20
27.00331634880001
 10
-17.67141165120001
 20
26.93992946560001
 10
-17.81419373120003
 20
26.87444440000001
 10
-17.95598440000001
 20
26.80685722399999
 10
-18.09676396160002
 20
26.7371718944
 10
-18.23647080480002
 20
26.66541192319999
 10
-18.37500960960004
 20
26.59161990079999
 10
-18.51224065600003
 20
26.515866856
 10
-18.64812177440002
 20
26.43817444320001
 10
-18.78262563200003
 20
26.35855525760002
 10
-18.91574509280003
 20
26.2770083984
 10
-19.04747036640002
 20
26.1935353392
 10
-19.17778436480001
 20
26.1081418576
 10
-19.30649315360004
 20
26.02095324480001
 10
-19.43327261760002
 20
25.93220132640001
 10
-19.55808517440003
 20
25.8419344064
 10
-19.68089301280004
 20
25.75020233599999
 10
-19.80164734400001
 20
25.65706518559999
 10
-19.92029299680003
 20
25.56259121920001
 10
-20.03678465600002
 20
25.46684452160001
 10
-20.15107793280002
 20
25.36989179039999
 10
-20.26314671520002
 20
25.27178713119999
 10
-20.37297656160002
 20
25.17257599520001
 10
-20.48054716800002
 20
25.07231034240001
 10
-20.58583275040003
 20
24.97104932480001
 10
-20.68884540800002
 20
24.86881686400002
 10
-20.78962421440002
 20
24.7656086048
 10
-20.88821971360002
 20
24.66140735839999
 10
-20.98463098720002
 20
24.5562466368
 10
-21.07884101760002
 20
24.4501781872
 10
-21.17083012320001
 20
24.34325910559999
 10
-21.26058593920002
 20
24.23554046240001
 10
-21.34811148160002
 20
24.127055936
 10
-21.43340004320002
 20
24.01785156799999
 10
-21.51643958880002
 20
23.90798200319999
 10
-21.59722335360002
 20
23.7974972304
 10
-21.67575025600002
 20
23.68644103039999
 10
-21.75201818560002
 20
23.5748598192
 10
-21.82602501440003
 20
23.46280153279999
 10
-21.89776939200002
 20
23.35031465760001
 10
-21.96725604800002
 20
23.237439496
 10
-22.03449906720003
 20
23.12420098559999
 10
-22.09951257600002
 20
23.01062245760001
  0
LWPOLYLINE
  5
C0B
330
1F
100
AcDbEntity
  8
0
100
AcDbPolyline
 90
       30
 70
     0
 43
0.0
 10
-23.50403640800003
 20
23.8215246688
 10
-23.47871358720003
 20
23.86883710880001
 10
-23.45322794880003
 20
23.9174494896
 10
-23.42814771360002
 20
23.96569288959999
 10
-23.40342289440003
 20
24.01339329599999
 10
-23.37852283360003
 20
24.06143751679999
 10
-23.35247288000003
 20
24.11161965280001
 10
-23.32420503360002
 20
24.16591448479999
 10
-23.29258075840003
 20
24.2264027392
 10
-23.25694751040002
 20
24.29418771520001
 10
-23.21709289440002
 20
24.3694930816
 10
-23.17297580320003
 20
24.452188768
 10
-23.12394583680001
 20
24.543247368
 10
-23.06902548480003
 20
24.64417098399999
 10
-23.00746728320003
 20
24.7559358112
 10
-22.93862333280002
 20
24.87923676799999
 10
-22.86103322400002
 20
25.0160827408
 10
-22.77252411520002
 20
25.16948589599999
 10
-22.67161257760002
 20
25.34094772959999
 10
-22.55799458080002
 20
25.52972632
 10
-22.43689275200002
 20
25.7260863904
 10
-22.32023402560002
 20
25.91063026080001
 10
-22.21347835840002
 20
26.075637056
 10
-22.11923796160003
 20
26.21828781920001
 10
-22.03441938880003
 20
26.3443034352
 10
-21.95414033600003
 20
26.46153351040001
 10
-21.87352013920002
 20
26.5772903392
 10
-21.79131870720003
 20
26.69330796
 10
-21.70809059200003
 20
26.80873123040001
 10
-21.62435590560002
 20
26.92280553439999
  0
LWPOLYLINE
  5
C0C
330
1F
100
AcDbEntity
  8
0
100
AcDbPolyline
 90
       10
 70
     0
 43
0.0
 10
-23.20257274080002
 20
23.64747454079999
 10
-23.02724512000001
 20
23.9655504096
 10
-22.82773097440002
 20
24.28312342240001
 10
-22.60218940320002
 20
24.60079396319999
 10
-22.34891602240002
 20
24.91849095520001
 10
-22.06468067680002
 20
25.23747478719999
 10
-21.75278087840003
 20
25.55189192799999
 10
-21.44294422880002
 20
25.8347416416
 10
-21.11582337440002
 20
26.10724687840002
 10
-20.72500842720002
 20
26.40355436160001
  0
LINE
  5
C0D
330
1F
100
AcDbEntity
  8
0
100
AcDbLine
 10
-22.09951258880002
 20
23.01062246400001
 30
0.0
 11
-22.10948914080002
 21
22.9928154208
 31
0.0
  0
LWPOLYLINE
  5
C0E
330
1F
100
AcDbEntity
  8
0
100
AcDbPolyline
 90
       16
 70
     0
 43
0.0
 10
-5.594211236800035
 20
29.48459596160001
 10
-6.031488041600013
 20
29.3807922208
 10
-6.582970486400014
 20
29.27572961440001
 10
-7.197032936000013
 20
29.18360752160001
 10
-7.87186146880002
 20
29.10600885120001
 10
-8.605960662400022
 20
29.04387603040001
 10
-9.290965088000021
 20
29.00232265600001
 10
-9.894877892800039
 20
28.97578277760001
 10
-10.42965938240003
 20
28.9581425968
 10
-10.94604695360003
 20
28.94474908000001
 10
-11.46480312480004
 20
28.93343655520002
 10
-11.98839816480001
 20
28.922362472
 10
-12.53359884320004
 20
28.90862336320001
 10
-13.12692901280003
 20
28.88712493280002
 10
-13.80533948800003
 20
28.8476556992
 10
-14.51262098560003
 20
28.78096654080002
  0
LINE
  5
C0F
330
1F
100
AcDbEntity
  8
0
100
AcDbLine
 10
-14.51262098560003
 20
27.79929720320001
 30
0.0
 11
-14.53857400160002
 21
27.79652384160002
 31
0.0
  0
LWPOLYLINE
  5
C10
330
1F
100
AcDbEntity
  8
0
100
AcDbPolyline
 90
       10
 70
     0
 43
0.0
 10
-6.362672307200014
 20
30.29467297280001
 10
-6.78653707520003
 20
30.3069840608
 10
-7.449419545600036
 20
30.33615625760001
 10
-8.16543895200003
 20
30.3769584
 10
-8.941704268800023
 20
30.42928229119999
 10
-9.749051144000034
 20
30.4892720672
 10
-10.53118296640003
 20
30.5493891936
 10
-11.29165937120002
 20
30.60620599840001
 10
-12.03109956640004
 20
30.65612207360001
 10
-12.74683072800003
 20
30.6954704336
  0
LWPOLYLINE
  5
C11
330
1F
100
AcDbEntity
  8
0
100
AcDbPolyline
 90
        7
 70
     0
 43
0.0
 10
-12.74683072800003
 20
30.6954704336
 10
-13.46058810080002
 20
30.72139801760002
 10
-14.16137947360003
 20
30.7285993168
 10
-14.85039384640002
 20
30.7119046336
 10
-15.47520506560003
 20
30.670229688
 10
-16.02098172800002
 20
30.60779409120002
 10
-16.50580296320002
 20
30.52749305279999
  0
LWPOLYLINE
  5
C12
330
1F
100
AcDbEntity
  8
0
100
AcDbPolyline
 90
        4
 70
     0
 43
0.0
 10
-16.89663939360004
 20
32.114621432
 10
-15.51848390560003
 20
31.98818066079999
 10
-14.11968502720002
 20
31.8410940864
 10
-12.69496878240004
 20
31.6723002464
  0
LWPOLYLINE
  5
C13
330
1F
100
AcDbEntity
  8
0
100
AcDbPolyline
 90
       13
 70
     0
 43
0.0
 10
-16.87006675040002
 20
32.5129127504
 10
-16.62852382560002
 20
32.49140165600002
 10
-16.35975397120002
 20
32.46685370400001
 10
-16.06522594560003
 20
32.43921219360001
 10
-15.74673875680004
 20
32.408449512
 10
-15.40474513120004
 20
32.37440598240002
 10
-15.03893308480003
 20
32.3368322432
 10
-14.64902797600002
 20
32.29546331520001
 10
-14.23490500960004
 20
32.25003105440001
 10
-13.80271319520004
 20
32.20097356800002
 10
-13.37630071360003
 20
32.15092545600001
 10
-12.98179438080002
 20
32.1031637536
 10
-12.64728112960001
 20
32.0615656992
  0
LWPOLYLINE
  5
C14
330
1F
100
AcDbEntity
  8
0
100
AcDbPolyline
 90
        9
 70
     0
 43
0.0
 10
-6.086246384000034
 20
30.77614599200001
 10
-6.220717945600014
 20
30.78487340000001
 10
-6.348378929600031
 20
30.790098072
 10
-6.462846092800035
 20
30.79122835040001
 10
-6.556234432000039
 20
30.7880541504
 10
-6.62383411520004
 20
30.78101382720001
 10
-6.666613337600026
 20
30.77032746720002
 10
-6.683020752000018
 20
30.75605093600001
 10
-6.681019086400013
 20
30.7484958368
  0
LWPOLYLINE
  5
C15
330
1F
100
AcDbEntity
  8
0
100
AcDbPolyline
 90
        3
 70
     0
 43
0.0
 10
-4.80729485280004
 20
30.62719531039999
 10
-4.721595891200038
 20
30.58492650720001
 10
-4.631749448000036
 20
30.54382737440002
  0
LWPOLYLINE
  5
C16
330
1F
100
AcDbEntity
  8
0
100
AcDbPolyline
 90
        3
 70
     0
 43
0.0
 10
-4.631749448000036
 20
30.54382737440002
 10
-4.613819763200027
 20
30.53313786559999
 10
-4.612549710400017
 20
30.53174079040002
  0
LINE
  5
C17
330
1F
100
AcDbEntity
  8
0
100
AcDbLine
 10
-6.086246384000034
 20
30.77614599200001
 30
0.0
 11
-5.358094913600027
 21
30.72129485760001
 31
0.0
  0
LWPOLYLINE
  5
C18
330
1F
100
AcDbEntity
  8
0
100
AcDbPolyline
 90
        8
 70
     0
 43
0.0
 10
-5.358094913600027
 20
30.72129485760001
 10
-5.262441966400032
 20
30.71284852480002
 10
-5.160558798400032
 20
30.70123045600002
 10
-5.061741905600015
 20
30.68726617280001
 10
-4.973615286400033
 20
30.67208786720001
 10
-4.898740513600031
 20
30.65622350400002
 10
-4.842348724800032
 20
30.64086192480002
 10
-4.80729485280004
 20
30.62719531039999
  0
LWPOLYLINE
  5
C19
330
1F
100
AcDbEntity
  8
0
100
AcDbPolyline
 90
       10
 70
     0
 43
0.0
 10
23.20257274239996
 20
23.64747454079999
 10
23.02724512159996
 20
23.9655504096
 10
22.82773097599998
 20
24.28312342240001
 10
22.60218940479997
 20
24.60079396319999
 10
22.34891602399996
 20
24.91849095520001
 10
22.06468067679996
 20
25.23747478719999
 10
21.75278087999997
 20
25.55189192799999
 10
21.44294423039995
 20
25.8347416416
 10
21.11582337599996
 20
26.10724687840002
 10
20.72500842879996
 20
26.40355436160001
  0
LWPOLYLINE
  5
C1A
330
1F
100
AcDbEntity
  8
0
100
AcDbPolyline
 90
       26
 70
     0
 43
0.0
 10
23.42814771519998
 20
23.96569288959999
 10
23.37852283519997
 20
24.06143751679999
 10
23.35247288159997
 20
24.11161965280001
 10
23.32420503519996
 20
24.16591448479999
 10
23.29258075839998
 20
24.2264027392
 10
23.25694751199996
 20
24.29418771520001
 10
23.21709289599998
 20
24.3694930816
 10
23.17297580319997
 20
24.452188768
 10
23.12394583679996
 20
24.543247368
 10
23.06902548639997
 20
24.64417098399999
 10
23.00746728319997
 20
24.7559358112
 10
22.93862333279996
 20
24.87923676799999
 10
22.86103322559996
 20
25.0160827408
 10
22.77252411679997
 20
25.16948589599999
 10
22.67161257919998
 20
25.34094772959999
 10
22.55799458239998
 20
25.52972632
 10
22.43689275199996
 20
25.7260863904
 10
22.32023402719995
 20
25.91063026080001
 10
22.21347835839996
 20
26.075637056
 10
22.11923796159998
 20
26.21828781920001
 10
22.03441938879997
 20
26.3443034352
 10
21.95414033759998
 20
26.46153351040001
 10
21.87352014079998
 20
26.5772903392
 10
21.79131870719997
 20
26.69330796
 10
21.70809059359997
 20
26.80873123040001
 10
21.62435590719998
 20
26.92280553439999
  0
LWPOLYLINE
  5
C1B
330
1F
100
AcDbEntity
  8
0
100
AcDbPolyline
 90
       63
 70
     0
 43
0.0
 10
22.09951257599997
 20
23.01062245760001
 10
22.03451445759996
 20
23.12417459199999
 10
21.96728624479998
 20
23.23738955679999
 10
21.89781367519997
 20
23.35024399039999
 10
21.82608349599998
 20
23.46271143040001
 10
21.75209113119997
 20
23.5747512544
 10
21.67583843359996
 20
23.68631419999999
 10
21.59732788639998
 20
23.79735185439999
 10
21.51656080479996
 20
23.9078189472
 10
21.43353902079998
 20
24.0176706784
 10
21.34827209759997
 20
24.12685359679999
 10
21.26077438559998
 20
24.23531062240001
 10
21.17104665599997
 20
24.3430033616
 10
21.07907813119997
 20
24.44990693600001
 10
20.98490249279997
 20
24.55594575040001
 10
20.88852903519996
 20
24.66107523519999
 10
20.78995809759998
 20
24.76526123039999
 10
20.68917257279996
 20
24.86848701760001
 10
20.58614259679997
 20
24.9707465968
 10
20.48086805919997
 20
25.07200649759999
 10
20.37333268479996
 20
25.1722491984
 10
20.26353496959997
 20
25.27144185120001
 10
20.15149121599996
 20
25.3695356208
 10
20.03721948959996
 20
25.46648140640001
 10
19.92075962559998
 20
25.56221368480001
 10
19.80214450879996
 20
25.65667552640001
 10
19.68142455999996
 20
25.7497988352
 10
19.55864826239998
 20
25.8415204944
 10
19.43385354879997
 20
25.93178791999999
 10
19.30708076319997
 20
26.020548544
 10
19.17840340159996
 20
26.10772936960001
 10
19.04814612639997
 20
26.1930998272
 10
18.91653051839996
 20
26.2765189696
 10
18.78355146079998
 20
26.35799765440001
 10
18.64919992959995
 20
26.4375470848
 10
18.51346501439998
 20
26.5151788592
 10
18.37631272639997
 20
26.59091312640001
 10
18.23780985119997
 20
26.66471134560001
 10
18.09813897439998
 20
26.7364783808
 10
17.95739740159997
 20
26.8061706704
 10
17.81563840319996
 20
26.87376871520001
 10
17.67290320799996
 20
26.93925854400001
 10
17.52917888159997
 20
27.0026487968
 10
17.38446501759996
 20
27.063938352
 10
17.23890476479998
 20
27.1230654096
 10
17.09298092799996
 20
27.17984516480001
 10
16.94676924639996
 20
27.23426968640001
 10
16.79989639519997
 20
27.28648790880001
 10
16.65149690559998
 20
27.33678276
 10
16.50212937279998
 20
27.38493190240001
 10
16.35259420959998
 20
27.4306783872
 10
16.20334245599996
 20
27.4739121936
 10
16.05384144159997
 20
27.51480866720001
 10
15.90310054079997
 20
27.5536179888
 10
15.75187318399996
 20
27.59011796320001
 10
15.60055731839996
 20
27.6242113808
 10
15.44933785759998
 20
27.65586986560001
 10
15.29796531839996
 20
27.68516060160001
 10
15.14584824479998
 20
27.71219439040001
 10
14.99253017759996
 20
27.73702529280001
 10
14.83943988639997
 20
27.759419352
 10
14.68786492639996
 20
27.7792497984
 10
14.53857400319996
 20
27.79652384160002
  0
LWPOLYLINE
  5
C1C
330
1F
100
AcDbEntity
  8
0
100
AcDbPolyline
 90
       17
 70
     0
 43
0.0
 10
20.71308006719998
 20
11.23052673920001
 10
20.81305873439997
 20
11.3343621088
 10
20.91090680479998
 20
11.4392000672
 10
21.00659241279997
 20
11.54497515039999
 10
21.10009945919996
 20
11.65163642720001
 10
21.19140840639998
 20
11.7591270816
 10
21.28050441919997
 20
11.8673935872
 10
21.36737644479997
 20
11.9763850336
 10
21.45200784639997
 20
12.0860413728
 10
21.53438888479997
 20
12.19630905759999
 10
21.61451230079997
 20
12.30713592
 10
21.69237300479996
 20
12.41847092319999
 10
21.76796678559996
 20
12.5302626064
 10
21.84129208639997
 20
12.64246174880001
 10
21.91234963039998
 20
12.7550211808
 10
21.98114316799997
 20
12.86789739200001
 10
22.04767749119996
 20
12.981047744
  0
LWPOLYLINE
  5
C1D
330
1F
100
AcDbEntity
  8
0
100
AcDbPolyline
 90
       10
 70
     0
 43
0.0
 10
23.20257274239996
 20
12.3525254608
 10
23.02724512159996
 20
12.0344495904
 10
22.82773097599998
 20
11.71687657759999
 10
22.60218940479997
 20
11.3992060384
 10
22.34891602399996
 20
11.08150904480001
 10
22.06468067679996
 20
10.76252521280001
 10
21.75278087999997
 20
10.44810807360001
 10
21.44294423039995
 20
10.16525835840001
 10
21.11582337599996
 20
9.892753121600009
 10
20.72500842879996
 20
9.596445638400012
  0
LWPOLYLINE
  5
C1E
330
1F
100
AcDbEntity
  8
0
100
AcDbPolyline
 90
       30
 70
     0
 43
0.0
 10
23.50403640959997
 20
12.17847533119999
 10
23.47871358879997
 20
12.1311628928
 10
23.45322795039997
 20
12.082550512
 10
23.42814771519998
 20
12.0343071104
 10
23.40342289439998
 20
11.9866067056
 10
23.37852283519997
 20
11.93856248320001
 10
23.35247288159997
 20
11.8883803488
 10
23.32420503519996
 20
11.83408551680001
 10
23.29258075839998
 20
11.77359726240001
 10
23.25694751199996
 20
11.70581228479999
 10
23.21709289599998
 20
11.6305069184
 10
23.17297580319997
 20
11.547811232
 10
23.12394583679996
 20
11.45675263199999
 10
23.06902548639997
 20
11.35582901760001
 10
23.00746728319997
 20
11.24406419040001
 10
22.93862333279996
 20
11.12076323360001
 10
22.86103322559996
 20
10.98391725920001
 10
22.77252411679997
 20
10.83051410560001
 10
22.67161257919998
 20
10.65905227040001
 10
22.55799458239998
 20
10.4702736816
 10
22.43689275199996
 20
10.27391360960001
 10
22.32023402719995
 20
10.0893697392
 10
22.21347835839996
 20
9.924362945600009
 10
22.11923796159998
 20
9.781712182400013
 10
22.03441938879997
 20
9.65569656640001
 10
21.95414033759998
 20
9.538466489600011
 10
21.87352014079998
 20
9.422709660800009
 10
21.79131870719997
 20
9.306692041600015
 10
21.70809059359997
 20
9.191268771200014
 10
21.62435590719998
 20
9.077194467200015
  0
LWPOLYLINE
  5
C1F
330
1F
100
AcDbEntity
  8
0
100
AcDbPolyline
 90
       23
 70
     0
 43
0.0
 10
28.48271226879997
 20
26.69596451840002
 10
28.12328991359997
 20
27.18397437920001
 10
27.73925020959997
 20
27.65656894400001
 10
27.33223590399997
 20
28.1114038016
 10
26.90403961759996
 20
28.54637684960002
 10
26.45617653439997
 20
28.9599769552
 10
25.98944805279997
 20
29.35145869920001
 10
25.50371760159997
 20
29.720907944
 10
24.99976834399997
 20
30.06766198240001
 10
24.47939600799996
 20
30.390389728
 10
23.94548109599996
 20
30.6873670464
 10
23.39947532479997
 20
30.95794413440001
 10
22.84145893919996
 20
31.20214580000001
 10
22.27155590079998
 20
31.41997180800001
 10
21.69142658719998
 20
31.61075540480001
 10
21.10426826239997
 20
31.77350966400001
 10
20.51217695359996
 20
31.90783505760001
 10
19.91627876319997
 20
32.01362079680001
 10
19.31681913439997
 20
32.09095745440001
 10
18.71406615199997
 20
32.1398624528
 10
18.10868015199996
 20
32.16017475200001
 10
17.50227239199996
 20
32.1517614304
 10
16.89663939519998
 20
32.114621432
  0
LWPOLYLINE
  5
C20
330
1F
100
AcDbEntity
  8
0
100
AcDbPolyline
 90
       62
 70
     0
 43
0.0
 10
16.87006675199997
 20
32.5129127504
 10
16.96986287679997
 20
32.52131084960001
 10
17.07799295999997
 20
32.52954905760001
 10
17.19526175039997
 20
32.5374736208
 10
17.32255333599998
 20
32.54488864160001
 10
17.46085052319996
 20
32.55154730080002
 10
17.61104282719996
 20
32.5571330528
 10
17.77340760639997
 20
32.56124664800001
 10
17.94769789919998
 20
32.56343876479999
 10
18.13447377439997
 20
32.5632330224
 10
18.33535887679998
 20
32.56006057280001
 10
18.55221803839997
 20
32.55319955040002
 10
18.78684382559997
 20
32.5417500048
 10
19.04098745279996
 20
32.52461288320001
 10
19.31700356159997
 20
32.50040623040002
 10
19.61797779839996
 20
32.46733908320001
 10
19.94752405119997
 20
32.42307910720001
 10
20.30494368479996
 20
32.36544076160001
 10
20.68233726559996
 20
32.29354981440002
 10
21.07664236639998
 20
32.20613819039999
 10
21.49015758239996
 20
32.10072447360002
 10
21.92465730559998
 20
31.974448088
 10
22.38151762559998
 20
31.82401379040001
 10
22.86165053599997
 20
31.6456763408
 10
23.36742880799998
 20
31.43432961760001
 10
23.88440390879996
 20
31.19198290400001
 10
24.35510419039998
 20
30.94679128960001
 10
24.75526583679998
 20
30.718849312
 10
25.10122127519996
 20
30.50648222400002
 10
25.40660438559998
 20
30.30654524320002
 10
25.67972590879996
 20
30.11726338240001
 10
25.92459085759996
 20
29.93870389440002
 10
26.14446793599997
 20
29.77084720160002
 10
26.34253958239996
 20
29.6132309232
 10
26.52184808799997
 20
29.46505574560001
 10
26.68503566399998
 20
29.32546464320001
 10
26.83387252479998
 20
29.19404323200001
 10
26.96961494079998
 20
29.07063243839999
 10
27.09345882239996
 20
28.9549738624
 10
27.20653568319995
 20
28.84672597120001
 10
27.30984774399998
 20
28.7455447664
 10
27.40428939519996
 20
28.6510840752
 10
27.49064500959995
 20
28.5630166848
 10
27.56933833279997
 20
28.4813134208
 10
27.63988524479997
 20
28.4068614832
 10
27.70201611519998
 20
28.3403225904
 10
27.75679841279997
 20
28.28088745440001
 10
27.80633155199997
 20
28.2265173248
 10
27.85353416159996
 20
28.174135576
 10
27.90122636319996
 20
28.12063531360001
 10
27.95144246239998
 20
28.0636672304
 10
28.00589398399996
 20
28.0011415184
 10
28.06559818719996
 20
27.9316641792
 10
28.13039393599997
 20
27.85514592160001
 10
28.19983424959996
 20
27.77181786880001
 10
28.27395147679998
 20
27.6813190448
 10
28.35305552319998
 20
27.58289622400002
 10
28.43749042079996
 20
27.47567255520002
 10
28.52759656639996
 20
27.35867613600001
 10
28.62372720159997
 20
27.23079721600001
 10
28.72622402239996
 20
27.0907921216
 10
28.83539589919998
 20
26.93727966400001
  0
LWPOLYLINE
  5
C21
330
1F
100
AcDbEntity
  8
0
100
AcDbPolyline
 90
       13
 70
     0
 43
0.0
 10
6.385052916799978
 20
7.680911246400015
 10
7.605158814399985
 20
7.749484393600013
 10
8.239559710399973
 20
7.785318865600004
 10
8.851842374399964
 20
7.820411857600007
 10
9.449315012799971
 20
7.855570897600003
 10
10.04411044159998
 20
7.891989379200012
 10
10.67612714399997
 20
7.932747932800012
 10
11.37639465599995
 20
7.980941507200014
 10
12.10690701279996
 20
8.035320601600005
 10
12.77906891679997
 20
8.089720940800006
 10
13.39625578399996
 20
8.143888299200014
 10
13.97070402239997
 20
8.198351512000016
 10
14.51262098719998
 20
8.253648780800006
  0
LINE
  5
C22
330
1F
100
AcDbEntity
  8
CENTER
100
AcDbLine
 10
3.940786236479041
 20
11.5
 30
0.0
 11
-3.940786236479098
 21
11.5
 31
0.0
  0
LWPOLYLINE
  5
C23
330
1F
100
AcDbEntity
  8
0
100
AcDbPolyline
 90
       10
 70
     0
 43
0.0
 10
4.331180668799973
 20
7.384944768000011
 10
3.424178814399979
 20
7.789811579200005
 10
2.475667795199981
 20
8.097867571200012
 10
1.497275327999986
 20
8.305308358400012
 10
0.5008560047999851
 20
8.40963176160001
 10
-0.5015656496000389
 20
8.409594712000014
 10
-1.497881251200013
 20
8.305212683200011
 10
-2.476065865600034
 20
8.097761068800011
 10
-3.424313443200034
 20
7.789759849600017
 10
-4.33118066720003
 20
7.384944768000011
  0
LWPOLYLINE
  5
C24
330
1F
100
AcDbEntity
  8
0
100
AcDbPolyline
 90
       25
 70
     0
 43
0.0
 10
-0.0000000000000142
 20
9.616764331200016
 10
0.0813936959999779
 20
9.618603076800013
 10
0.1678843055999692
 20
9.624656667200014
 10
0.2593043311999708
 20
9.635745526400015
 10
0.3532944687999731
 20
9.652283814400007
 10
0.4481183551999806
 20
9.674393488000006
 10
0.5431144639999701
 20
9.702200000000004
 10
0.6378929599999737
 20
9.735836358400007
 10
0.7323276063999771
 20
9.775527672000009
 10
0.8267329055999681
 20
9.821783371200012
 10
0.9211856479999624
 20
9.875178390400009
 10
1.015588204799982
 20
9.936356737600007
 10
1.110285591999982
 20
10.0065077952
 10
1.205124732799973
 20
10.08686138720001
 10
1.299377788799986
 20
10.1785246784
 10
1.392030839999975
 20
10.28266524000001
 10
1.480315172799961
 20
10.3984650688
 10
1.559851887999982
 20
10.52147077440001
 10
1.629582207999973
 20
10.65018356320001
 10
1.689137926399965
 20
10.78389312000001
 10
1.73811111359997
 20
10.9216465024
 10
1.776259398399972
 20
11.06271779360001
 10
1.803324503999974
 20
11.2060732208
 10
1.819202508799961
 20
11.35109651200001
 10
1.823773001599974
 20
11.4979873536
  0
CIRCLE
  5
C25
330
1F
100
AcDbEntity
  8
0
100
AcDbCircle
 10
-0.0000000000000142
 20
11.5
 30
0.0
 40
1.2714466064
  0
LWPOLYLINE
  5
C26
330
1F
100
AcDbEntity
  8
0
100
AcDbPolyline
 90
       25
 70
     0
 43
0.0
 10
-1.823773000000031
 20
11.4979873536
 10
-1.819204008000028
 20
11.35111783680001
 10
-1.803327768000016
 20
11.2060951568
 10
-1.776263553600031
 20
11.0627359248
 10
-1.738116014400034
 20
10.92166219520001
 10
-1.689143235200035
 20
10.7839064048
 10
-1.629588291200022
 20
10.65019591520001
 10
-1.559858665600032
 20
10.52148220800001
 10
-1.480323918400031
 20
10.39847751040001
 10
-1.392040366400024
 20
10.28267678400001
 10
-1.299386912000031
 20
10.17853419840001
 10
-1.205134316800027
 20
10.08687007680001
 10
-1.110297411200022
 20
10.00651714880001
 10
-1.015603108800021
 20
9.936367059200009
 10
-0.9212019744000343
 20
9.875188272000016
 10
-0.8267531264000211
 20
9.821794019200012
 10
-0.7323507536000165
 20
9.775538187200012
 10
-0.6379149040000272
 20
9.735844851200013
 10
-0.5431368800000343
 20
9.702207249600007
 10
-0.4481429824000287
 20
9.674399955200016
 10
-0.3533199840000378
 20
9.652289022400012
 10
-0.2593252464000244
 20
9.635748622400015
 10
-0.1679094272000299
 20
9.624659048000012
 10
-0.0814212800000149
 20
9.618604328000003
 10
-0.0000000000000142
 20
9.616764331200016
  0
LWPOLYLINE
  5
C27
330
1F
100
AcDbEntity
  8
0
100
AcDbPolyline
 90
       25
 70
     0
 43
0.0
 10
-0.0000000000000142
 20
13.3480028896
 10
-0.1372737888000159
 20
13.3428049344
 10
-0.272670979200015
 20
13.32739647679999
 10
-0.4063521200000224
 20
13.3018937232
 10
-0.5384285536000136
 20
13.266206896
 10
-0.6684725664000411
 20
13.2202333408
 10
-0.7956540016000276
 20
13.16399574079999
 10
-0.9188246960000157
 20
13.0977659296
 10
-1.036519379200015
 20
13.0222379872
 10
-1.148100041600017
 20
12.93782568160001
 10
-1.25305063840004
 20
12.8448884448
 10
-1.350672928000037
 20
12.7439958432
 10
-1.44035162560003
 20
12.6357542208
 10
-1.521554248000015
 20
12.5207860752
 10
-1.59399568160002
 20
12.3993996464
 10
-1.655820585600039
 20
12.27525263039999
 10
-1.705242584000032
 20
12.154837944
 10
-1.743086236800039
 20
12.0416070272
 10
-1.770956484800038
 20
11.93775272799999
 10
-1.790806811200027
 20
11.8439773296
 10
-1.804493796800031
 20
11.75994845919999
 10
-1.813581361600014
 20
11.6846588576
 10
-1.819263667200019
 20
11.61702129759999
 10
-1.822436310400021
 20
11.5558868656
 10
-1.823753099200033
 20
11.5
  0
LWPOLYLINE
  5
C28
330
1F
100
AcDbEntity
  8
0
100
AcDbPolyline
 90
       25
 70
     0
 43
0.0
 10
1.823753099199976
 20
11.5
 10
1.822431612799974
 20
11.5560139392
 10
1.819246900799967
 20
11.61727138559999
 10
1.813543244799959
 20
11.6850351632
 10
1.80442173119998
 20
11.7604612304
 10
1.790682998399987
 20
11.84464367359999
 10
1.770755836799978
 20
11.9385945488
 10
1.742780182399982
 20
12.04262898239999
 10
1.704808035199974
 20
12.1560108368
 10
1.655257027199965
 20
12.27649816480001
 10
1.593327655999971
 20
12.4006224528
 10
1.520851139199962
 20
12.5218665808
 10
1.439629339199981
 20
12.636697032
 10
1.349945710399978
 20
12.74480731679999
 10
1.25233405119998
 20
12.845573688
 10
1.147409671999966
 20
12.93839078079999
 10
1.035869684799976
 20
13.0226909952
 10
0.9182238559999831
 20
13.09811940000001
 10
0.7951187535999651
 20
13.16425732639999
 10
0.6680170847999847
 20
13.2204140976
 10
0.538059078399968
 20
13.2663218336
 10
0.4060743183999734
 20
13.3019576048
 10
0.2724847247999804
 20
13.32742479200001
 10
0.1371793199999871
 20
13.34281209760001
 10
-0.0000000000000142
 20
13.3480028896
  0
LWPOLYLINE
  5
C29
330
1F
100
AcDbEntity
  8
0
100
AcDbPolyline
 90
        6
 70
     0
 43
0.0
 10
3.970083366399975
 20
7.546131112000011
 10
4.256710273599978
 20
7.560863638400007
 10
4.783244564799971
 20
7.589988507200004
 10
5.30523365599997
 20
7.619697136000013
 10
5.831929001599959
 20
7.649688465600007
 10
6.385052916799978
 20
7.680911246400015
  0
LWPOLYLINE
  5
C2A
330
1F
100
AcDbEntity
  8
0
100
AcDbPolyline
 90
       39
 70
     0
 43
0.0
 10
14.52776689759996
 20
8.255258446400006
 10
14.63427676639996
 20
8.26725557760001
 10
14.73764254399996
 20
8.279994819200013
 10
14.83965730559997
 20
8.293632409600007
 10
14.94176501119996
 20
8.308347558400015
 10
15.04354897919997
 20
8.324082454400013
 10
15.14512921599997
 20
8.340853294400005
 10
15.24669477119998
 20
8.358693278400011
 10
15.34852931359997
 20
8.37766211200001
 10
15.45066419839996
 20
8.397780208000014
 10
15.55332899999997
 20
8.419111896000003
 10
15.65677818239997
 20
8.441736729600009
 10
15.76133241919997
 20
8.465761488000012
 10
15.86702825599998
 20
8.491236297600011
 10
15.97362471039996
 20
8.518142900800015
 10
16.08145544959997
 20
8.546607374400011
 10
16.19230435359996
 20
8.577181368000012
 10
16.30484708959996
 20
8.609591737600013
 10
16.41861404799998
 20
8.643765593600008
 10
16.53456877919997
 20
8.680067828800005
 10
16.65322605919998
 20
8.718767768000006
 10
16.77446736479997
 20
8.759947900800014
 10
16.89816990239997
 20
8.803686612800007
 10
17.02534655359996
 20
8.850486323200016
 10
17.15628494399997
 20
8.900634281600005
 10
17.29056145919996
 20
8.954157152000007
 10
17.42769691999997
 20
9.011044294400008
 10
17.56727215999997
 20
9.071290740800009
 10
17.70862213919996
 20
9.134759105600011
 10
17.85044097279997
 20
9.200972688000007
 10
17.98916455359996
 20
9.268253707200017
 10
18.12597799039996
 20
9.337099336000008
 10
18.26239065439996
 20
9.408264524800003
 10
18.39935126559997
 20
9.482314089600009
 10
18.53474183199996
 20
9.55814774880001
 10
18.66769318879998
 20
9.635239032000015
 10
18.79873911999998
 20
9.713848374400015
 10
18.92867034559996
 20
9.794441720000008
 10
19.05845278239998
 20
9.87766332480001
  0
LWPOLYLINE
  5
C2B
330
1F
100
AcDbEntity
  8
0
100
AcDbPolyline
 90
       12
 70
     0
 43
0.0
 10
14.51262098719998
 20
7.219033460800005
 10
15.11720342559998
 20
7.303468964800003
 10
15.69544259519996
 20
7.411896745600003
 10
16.28151081279996
 20
7.550302836800014
 10
16.88753127839997
 20
7.72287888160001
 10
17.50101380639996
 20
7.92774476160001
 10
18.10737002879996
 20
8.160917235200017
 10
18.69529244959996
 20
8.418016843200007
 10
19.25630615359996
 20
8.694547692800014
 10
19.78394636959997
 20
8.985859198400007
 10
20.27400833919996
 20
9.287612995200007
 10
20.72500842879996
 20
9.596445638400012
  0
LWPOLYLINE
  5
C2C
330
1F
100
AcDbEntity
  8
0
100
AcDbPolyline
 90
       16
 70
     0
 43
0.0
 10
19.05845278239998
 20
9.87766332480001
 10
19.18065752639996
 20
9.958591368000014
 10
19.30160285439997
 20
10.041216552
 10
19.42104240959996
 20
10.1253703856
 10
19.53894875199996
 20
10.2110267392
 10
19.65514291039996
 20
10.29804354720001
 10
19.76943543679998
 20
10.38625696000001
 10
19.88189115359996
 20
10.4756935472
 10
19.99252670399998
 20
10.5663457952
 10
20.10141288159998
 20
10.65825348480001
 10
20.20864718399998
 20
10.75149083680001
 10
20.31397463679998
 20
10.84582584
 10
20.41699657439996
 20
10.94086476640001
 10
20.51762729599998
 20
11.03647071680001
 10
20.61621676799997
 20
11.132928488
 10
20.71308006719998
 20
11.23052673920001
  0
LWPOLYLINE
  5
C2D
330
1F
100
AcDbEntity
  8
0
100
AcDbPolyline
 90
       10
 70
     0
 43
0.0
 10
6.362672084799967
 20
30.29467296640001
 10
6.786537076799973
 20
30.3069840608
 10
7.44941954719998
 20
30.33615625760001
 10
8.165438953599974
 20
30.3769584
 10
8.941704270399966
 20
30.42928229119999
 10
9.749051143999977
 20
30.4892720672
 10
10.53118296639998
 20
30.5493891936
 10
11.29165937279996
 20
30.60620599840001
 10
12.03109956799996
 20
30.65612207360001
 10
12.74683072799997
 20
30.6954704336
  0
LWPOLYLINE
  5
C2E
330
1F
100
AcDbEntity
  8
0
100
AcDbPolyline
 90
       16
 70
     0
 43
0.0
 10
5.594211212799976
 20
29.48459596800001
 10
6.031488043199985
 20
29.3807922208
 10
6.582970487999986
 20
29.27572961440001
 10
7.197032937599985
 20
29.18360752160001
 10
7.871861470399963
 20
29.10600885120001
 10
8.605960663999965
 20
29.04387603040001
 10
9.290965089599964
 20
29.00232265600001
 10
9.894877894399982
 20
28.97578277760001
 10
10.42965938239997
 20
28.9581425968
 10
10.94604695519997
 20
28.94474908000001
 10
11.46480312479998
 20
28.93343655520002
 10
11.98839816639996
 20
28.922362472
 10
12.53359884319998
 20
28.90862336320001
 10
13.12692901439997
 20
28.88712493280002
 10
13.80533948959997
 20
28.8476556992
 10
14.51262098719998
 20
28.78096654080002
  0
LWPOLYLINE
  5
C2F
330
1F
100
AcDbEntity
  8
0
100
AcDbPolyline
 90
       22
 70
     0
 43
0.0
 10
2.988956526399974
 20
31.3129183984
 10
3.897840302399984
 20
31.34383689919999
 10
4.726364545599963
 20
31.37914368
 10
5.484558419199984
 20
31.4174118896
 10
6.182213324799974
 20
31.45766079520001
 10
6.829120526399961
 20
31.49930008800001
 10
7.435099326399964
 20
31.54207881120001
 10
8.009814143999975
 20
31.58602763679999
 10
8.54296860159998
 20
31.62974183680001
 10
9.030305211199973
 20
31.67218099840002
 10
9.475124647999976
 20
31.71298931200002
 10
9.88126648799998
 20
31.75197819360002
 10
10.25252012479997
 20
31.78906332319999
 10
10.59267165279997
 20
31.82425491360001
 10
10.90550261279996
 20
31.85764527520001
 10
11.19478862719996
 20
31.889397704
 10
11.46430039839997
 20
31.9197370704
 10
11.71780458719997
 20
31.9489418192
 10
11.95906846559996
 20
31.97733781440001
 10
12.19184638079998
 20
32.00529149120001
 10
12.41985818879997
 20
32.03320298720001
 10
12.64728112959996
 20
32.0615656992
  0
LWPOLYLINE
  5
C30
330
1F
100
AcDbEntity
  8
0
100
AcDbPolyline
 90
       14
 70
     0
 43
0.0
 10
12.69496878399998
 20
31.6723002464
 10
11.42488862079996
 20
31.52119001760002
 10
10.28508741759996
 20
31.39876485600001
 10
9.258745623999985
 20
31.29925323040001
 10
8.331871526399979
 20
31.21816277440001
 10
7.492736097599973
 20
31.15196815840002
 10
6.731268255999978
 20
31.097865536
 10
6.038772868799966
 20
31.0536128608
 10
5.408163628799982
 20
31.0174380592
 10
4.832996750399971
 20
30.98789328
 10
4.307155955199974
 20
30.9637843744
 10
3.825046151999984
 20
30.94414366240002
 10
3.384596132799984
 20
30.92829532960001
 10
2.985379019199982
 20
30.91570595519999
  0
LWPOLYLINE
  5
C31
330
1F
100
AcDbEntity
  8
0
100
AcDbPolyline
 90
       29
 70
     0
 43
0.0
 10
14.51262098719998
 20
27.79929720320001
 10
14.25441769119997
 20
27.826137848
 10
13.99102912959996
 20
27.85248096800001
 10
13.72223203199998
 20
27.87833083200002
 10
13.44772579679998
 20
27.90370005760002
 10
13.16699822399998
 20
27.92862065600002
 10
12.87956189919997
 20
27.95312151840002
 10
12.58461983359997
 20
27.9772563024
 10
12.28125945599997
 20
28.0010841184
 10
11.96897971999997
 20
28.02463147200001
 10
11.64698644479996
 20
28.04795041440002
 10
11.31455160159997
 20
28.0710914256
 10
10.97054400159997
 20
28.09413696960001
 10
10.61389319679996
 20
28.11716892800001
 10
10.24305609919996
 20
28.14030395520001
 10
9.856294014399978
 20
28.16367433120001
 10
9.455719265599967
 20
28.1871991008
 10
9.044759644799981
 20
28.21080941600001
 10
8.623662595199974
 20
28.23467411040002
 10
8.189737241599985
 20
28.25912915680001
 10
7.740302118399981
 20
28.2845091856
 10
7.27400117919997
 20
28.3110683488
 10
6.793207302399977
 20
28.33883844960002
 10
6.297893295999969
 20
28.367971872
 10
5.794357103999985
 20
28.39826208960002
 10
5.277661588799972
 20
28.430241768
 10
4.71841935999997
 20
28.46544752639999
 10
4.198237343999963
 20
28.49764544800001
 10
4.08311937919997
 20
28.50432353120001
  0
LWPOLYLINE
  5
C32
330
1F
100
AcDbEntity
  8
0
100
AcDbPolyline
 90
        6
 70
     0
 43
0.0
 10
4.331180668799973
 20
28.6150552336
 10
4.906616140799982
 20
28.94969540320002
 10
5.439565473599984
 20
29.3422430448
 10
5.923649417599975
 20
29.7878470736
 10
6.353074735999982
 20
30.2809937472
 10
6.681076945599969
 20
30.74849935200001
  0
LWPOLYLINE
  5
C33
330
1F
100
AcDbEntity
  8
0
100
AcDbPolyline
 90
        6
 70
     0
 43
0.0
 10
2.817583609599964
 20
29.26032255360002
 10
3.253744006399969
 20
29.44379740640002
 10
3.663723809599972
 20
29.67499191520002
 10
4.041655886399965
 20
29.95068803360002
 10
4.382118639999973
 20
30.2670509584
 10
4.612564366399979
 20
30.5317416288
  0
LWPOLYLINE
  5
C34
330
1F
100
AcDbEntity
  8
0
100
AcDbPolyline
 90
        7
 70
     0
 43
0.0
 10
-2.81758360800002
 20
29.26032255360002
 10
-2.034092784000037
 20
29.02485201280001
 10
-1.229156664000029
 20
28.86648122400001
 10
-0.4112207680000353
 20
28.7868691104
 10
0.4110740031999712
 20
28.78686198720001
 10
1.229043811199986
 20
28.8664646752
 10
2.034048075199976
 20
29.0248409264
  0
LWPOLYLINE
  5
C35
330
1F
100
AcDbEntity
  8
0
100
AcDbPolyline
 90
       10
 70
     0
 43
0.0
 10
-4.33118066720003
 20
28.6150552336
 10
-3.424178814400036
 20
28.21018842080002
 10
-2.475667793600038
 20
27.9021324288
 10
-1.497275328000014
 20
27.6946916416
 10
-0.5008560048000135
 20
27.5903682384
 10
0.5015656511999822
 20
27.59040528799999
 10
1.497881252799984
 20
27.69478731840001
 10
2.476065865599977
 20
27.9022389328
 10
3.424313443199977
 20
28.21024015040001
 10
4.331180668799973
 20
28.6150552336
  0
LINE
  5
C36
330
1F
100
AcDbEntity
  8
0
100
AcDbLine
 10
2.034048075199962
 20
29.0248409264
 30
0.0
 11
2.817583609599964
 21
29.26032255360002
 31
0.0
  0
LWPOLYLINE
  5
C37
330
1F
100
AcDbEntity
  8
0
100
AcDbPolyline
 90
        4
 70
     0
 43
0.0
 10
-0.0000000000000142
 20
31.26880515359999
 10
0.9964424543999683
 20
31.2737070464
 10
1.992807923199976
 20
31.28841216480001
 10
2.988956526399974
 20
31.3129183984
  0
LWPOLYLINE
  5
C38
330
1F
100
AcDbEntity
  8
0
100
AcDbPolyline
 90
        4
 70
     0
 43
0.0
 10
2.985379019199982
 20
30.91570595519999
 10
1.990402092799982
 20
30.89135672
 10
0.9952655151999607
 20
30.87674657760001
 10
-0.0000000000000142
 20
30.87187600160001
  0
LWPOLYLINE
  5
C39
330
1F
100
AcDbEntity
  8
0
100
AcDbPolyline
 90
        4
 70
     0
 43
0.0
 10
-2.98895652480003
 20
31.3129183984
 10
-1.992807921600032
 20
31.28841216480001
 10
-0.9964424544000252
 20
31.2737070464
 10
-0.0000000000000142
 20
31.26880515359999
  0
LWPOLYLINE
  5
C3A
330
1F
100
AcDbEntity
  8
0
100
AcDbPolyline
 90
        4
 70
     0
 43
0.0
 10
-2.985379017600038
 20
30.91570595519999
 10
-1.990402075200037
 20
30.89135672
 10
-0.9952654800000146
 20
30.87674657760001
 10
-0.0000000000000142
 20
30.87187600160001
  0
LWPOLYLINE
  5
C3B
330
1F
100
AcDbEntity
  8
0
100
AcDbPolyline
 90
       11
 70
     0
 43
0.0
 10
-2.808830284800038
 20
30.4541349024
 10
-2.882419177600027
 20
30.44318886560001
 10
-2.956914635200021
 20
30.4326024128
 10
-3.032609524800037
 20
30.4223367424
 10
-3.109927592000033
 20
30.41234387040001
 10
-3.188775364800036
 20
30.40264808
 10
-3.268638019200025
 20
30.39331901280002
 10
-3.34990511040003
 20
30.38431582719999
 10
-3.432746078400029
 20
30.37562909600001
 10
-3.516059652800024
 20
30.3673755376
 10
-3.600468793600029
 20
30.35949025280001
  0
LWPOLYLINE
  5
C3C
330
1F
100
AcDbEntity
  8
0
100
AcDbPolyline
 90
       13
 70
     0
 43
0.0
 10
-2.678139368000032
 20
30.4297409248
 10
-2.790664780800014
 20
30.408580008
 10
-2.904383876800025
 20
30.38146159360002
 10
-3.013190396800027
 20
30.3514067424
 10
-3.111602273600013
 20
30.32154748960002
 10
-3.199142777600016
 20
30.29330339040001
 10
-3.276232416000013
 20
30.26737608800002
 10
-3.346510398400013
 20
30.24303741920002
 10
-3.413667665600016
 20
30.21926504640001
 10
-3.481122401600018
 20
30.19497426560002
 10
-3.549539371200026
 20
30.16999719360001
 10
-3.618429593600026
 20
30.1445780528
 10
-3.687698688000025
 20
30.11881684640002
  0
LWPOLYLINE
  5
C3D
330
1F
100
AcDbEntity
  8
0
100
AcDbPolyline
 90
        3
 70
     0
 43
0.0
 10
-3.687369286400027
 20
30.35185657280001
 10
-4.115651334400027
 20
30.32088416800002
 10
-4.416294108800016
 20
30.30630615520002
  0
LINE
  5
C3E
330
1F
100
AcDbEntity
  8
0
100
AcDbLine
 10
-3.600468793600029
 20
30.35949025280001
 30
0.0
 11
-3.687369286400027
 21
30.35185657280001
 31
0.0
  0
LINE
  5
C3F
330
1F
100
AcDbEntity
  8
0
100
AcDbLine
 10
-3.68769868800004
 20
30.11881684640002
 30
0.0
 11
-4.068899918400035
 21
29.9760024496
 31
0.0
  0
LWPOLYLINE
  5
C40
330
1F
100
AcDbEntity
  8
0
100
AcDbPolyline
 90
        3
 70
     0
 43
0.0
 10
-2.808830284800038
 20
30.4541349024
 10
-2.756148475200021
 20
30.46228001600002
 10
-2.703975515200014
 20
30.4706063008
  0
LINE
  5
C41
330
1F
100
AcDbEntity
  8
0
100
AcDbLine
 10
-2.703975515200028
 20
30.4706063008
 30
0.0
 11
-2.678139369600032
 21
30.4297409248
 31
0.0
  0
LWPOLYLINE
  5
C42
330
1F
100
AcDbEntity
  8
0
100
AcDbPolyline
 90
        8
 70
     0
 43
0.0
 10
4.807294852799984
 20
30.62719531039999
 10
4.842348724799975
 20
30.64086192480002
 10
4.898740515199975
 20
30.65622350400002
 10
4.973615287999976
 20
30.67208786720001
 10
5.061741905599959
 20
30.68726617280001
 10
5.160558798399975
 20
30.70123045600002
 10
5.262441967999976
 20
30.71284852480002
 10
5.35809491519997
 20
30.72129485760001
  0
LWPOLYLINE
  5
C43
330
1F
100
AcDbEntity
  8
0
100
AcDbPolyline
 90
       12
 70
     0
 43
0.0
 10
2.808830286399981
 20
30.4541349024
 10
2.88241917919997
 20
30.44318886560001
 10
2.956914636799965
 20
30.4326024128
 10
3.03260952639998
 20
30.4223367424
 10
3.109927593599977
 20
30.41234387040001
 10
3.18877536639998
 20
30.40264808
 10
3.268638020799969
 20
30.39331901280002
 10
3.349905111999973
 20
30.38431582719999
 10
3.432746079999972
 20
30.37562909600001
 10
3.516059654399967
 20
30.3673755376
 10
3.600468793599972
 20
30.35949025280001
 10
3.68736928799997
 20
30.35185657280001
  0
LWPOLYLINE
  5
C44
330
1F
100
AcDbEntity
  8
0
100
AcDbPolyline
 90
       13
 70
     0
 43
0.0
 10
2.678139369599975
 20
30.4297409248
 10
2.790664782399986
 20
30.408580008
 10
2.904383876799968
 20
30.38146159360002
 10
3.01319039839997
 20
30.3514067424
 10
3.111602275199985
 20
30.32154748960002
 10
3.199142777599959
 20
30.29330339040001
 10
3.276232415999984
 20
30.26737608800002
 10
3.346510399999985
 20
30.24303741920002
 10
3.413667667199959
 20
30.21926504640001
 10
3.481122403199961
 20
30.19497426560002
 10
3.549539371199969
 20
30.16999719360001
 10
3.61842959519997
 20
30.1445780528
 10
3.687698689599969
 20
30.11881684640002
  0
LINE
  5
C45
330
1F
100
AcDbEntity
  8
0
100
AcDbLine
 10
2.703975516799971
 20
30.4706063008
 30
0.0
 11
2.678139369599961
 21
30.4297409248
 31
0.0
  0
LWPOLYLINE
  5
C46
330
1F
100
AcDbEntity
  8
0
100
AcDbPolyline
 90
        3
 70
     0
 43
0.0
 10
2.808830286399981
 20
30.4541349024
 10
2.756148476799964
 20
30.46228001600002
 10
2.703975516799985
 20
30.4706063008
  0
LWPOLYLINE
  5
C47
330
1F
100
AcDbEntity
  8
0
100
AcDbPolyline
 90
        3
 70
     0
 43
0.0
 10
4.612549566399977
 20
30.53174077760002
 10
4.613817596799961
 20
30.53313570560002
 10
4.631749447999979
 20
30.54382737440002
  0
LWPOLYLINE
  5
C48
330
1F
100
AcDbEntity
  8
0
100
AcDbPolyline
 90
        3
 70
     0
 43
0.0
 10
4.631749447999979
 20
30.54382737440002
 10
4.721588103999962
 20
30.58492280960001
 10
4.807294852799984
 20
30.62719531039999
  0
LINE
  5
C49
330
1F
100
AcDbEntity
  8
0
100
AcDbLine
 10
3.687698689599969
 20
30.11881684640002
 30
0.0
 11
4.068899041599962
 21
29.9760027696
 31
0.0
  0
LWPOLYLINE
  5
C4A
330
1F
100
AcDbEntity
  8
0
100
AcDbPolyline
 90
        3
 70
     0
 43
0.0
 10
3.68736928799997
 20
30.35185657280001
 10
4.11565133599997
 20
30.32088416800002
 10
4.416295067199982
 20
30.30630610880001
  0
LWPOLYLINE
  5
C4B
330
1F
100
AcDbEntity
  8
0
100
AcDbPolyline
 90
        9
 70
     0
 43
0.0
 10
6.086246383999977
 20
30.77614599200001
 10
6.220291843199973
 20
30.78485050720002
 10
6.347919991999972
 20
30.79008580960001
 10
6.462524244799979
 20
30.79123152479999
 10
6.556055990399968
 20
30.78806566240001
 10
6.623740937599976
 20
30.7810287792
 10
6.666567975999967
 20
30.77034633600002
 10
6.683018079999968
 20
30.75606925120001
 10
6.681019147199961
 20
30.74849584
  0
LINE
  5
C4C
330
1F
100
AcDbEntity
  8
0
100
AcDbLine
 10
6.086246383999963
 20
30.77614599200001
 30
0.0
 11
5.35809491519997
 21
30.72129485760001
 31
0.0
  0
LWPOLYLINE
  5
C4D
330
1F
100
AcDbEntity
  8
0
100
AcDbPolyline
 90
       15
 70
     0
 43
0.0
 10
16.50580296319996
 20
30.52749304959999
 10
16.93403511039996
 20
30.4333508336
 10
17.32674909919997
 20
30.3246023648
 10
17.69130764159997
 20
30.2016551152
 10
18.03337942399996
 20
30.06445400800001
 10
18.35714878239996
 20
29.9126697584
 10
18.66780911039997
 20
29.74459968160002
 10
18.98410693919997
 20
29.54921032160001
 10
19.31287271039998
 20
29.31981822080001
 10
19.65617318879997
 20
29.05141839840002
 10
20.01554694399998
 20
28.7385613648
 10
20.39208117119996
 20
28.37530923520001
 10
20.78645136959996
 20
27.95522574880001
 10
21.19859590399998
 20
27.4717443248
 10
21.62435590719998
 20
26.92280553439999
  0
LWPOLYLINE
  5
C4E
330
1F
100
AcDbEntity
  8
0
100
AcDbPolyline
 90
       12
 70
     0
 43
0.0
 10
14.51262098719998
 20
28.78096654080002
 10
15.11720342559998
 20
28.69653103520002
 10
15.69544259519996
 20
28.58810325440001
 10
16.28151081279996
 20
28.44969716479999
 10
16.88753127839997
 20
28.2771211184
 10
17.50101380639996
 20
28.0722552384
 10
18.10737002879996
 20
27.8390827664
 10
18.69529244959996
 20
27.58198315680002
 10
19.25630615359996
 20
27.3054523088
 10
19.78394636959997
 20
27.01414080320001
 10
20.27400833919996
 20
26.7123870064
 10
20.72500842879996
 20
26.40355436160001
  0
LINE
  5
C4F
330
1F
100
AcDbEntity
  8
0
100
AcDbLine
 10
14.53857400319996
 20
27.79652384160002
 30
0.0
 11
14.51262098719998
 21
27.79929720320001
 31
0.0
  0
LWPOLYLINE
  5
C50
330
1F
100
AcDbEntity
  8
0
100
AcDbPolyline
 90
       14
 70
     0
 43
0.0
 10
12.64728112959996
 20
32.0615656992
 10
12.94528684959998
 20
32.09867298720002
 10
13.28804178719998
 20
32.14036198560001
 10
13.65969952159996
 20
32.18437042080001
 10
14.04567655999996
 20
32.22875863200002
 10
14.43126638719998
 20
32.2717652544
 10
14.80620684639997
 20
32.31230401440001
 10
15.16666347359996
 20
32.350088064
 10
15.50931852959998
 20
32.38492677920001
 10
15.83084655519998
 20
32.416661632
 10
16.12791527199998
 20
32.4451605296
 10
16.39961753279997
 20
32.47053537440001
 10
16.64676346879996
 20
32.49304417280001
 10
16.87006675199997
 20
32.5129127504
  0
LWPOLYLINE
  5
C51
330
1F
100
AcDbEntity
  8
0
100
AcDbPolyline
 90
        7
 70
     0
 43
0.0
 10
12.74683072799997
 20
30.6954704336
 10
13.46058810079996
 20
30.72139801760002
 10
14.16137947519997
 20
30.7285993168
 10
14.85039384799996
 20
30.7119046336
 10
15.47520506719997
 20
30.670229688
 10
16.02098172959996
 20
30.60779409120002
 10
16.50580296319996
 20
30.52749305279999
  0
LWPOLYLINE
  5
C52
330
1F
100
AcDbEntity
  8
0
100
AcDbPolyline
 90
        4
 70
     0
 43
0.0
 10
16.89663939519998
 20
32.114621432
 10
15.51848390719998
 20
31.98818066079999
 10
14.11968502879996
 20
31.8410940864
 10
12.69496878399998
 20
31.6723002464
  0
LWPOLYLINE
  5
C53
330
1F
100
AcDbEntity
  8
0
100
AcDbPolyline
 90
       16
 70
     0
 43
0.0
 10
30.94608431679997
 20
18.0000000128
 10
30.93409505119997
 20
18.738306136
 10
30.89692376479998
 20
19.4723118944
 10
30.83394320159998
 20
20.18948638079999
 10
30.74634418879996
 20
20.87743538400001
 10
30.63719291519997
 20
21.52506487359999
 10
30.50891256639998
 20
22.13318287200001
 10
30.36213215199997
 20
22.70970213759999
 10
30.19693433759998
 20
23.26075649439999
 10
30.01371839839997
 20
23.78924309919999
 10
29.81247338079997
 20
24.2982690288
 10
29.59197375999996
 20
24.79269619520001
 10
29.35025508799997
 20
25.27730336960001
 10
29.08571107679996
 20
25.7548600976
 10
28.79700648159998
 20
26.22714126720001
 10
28.48271226879997
 20
26.69596451680002
  0
LWPOLYLINE
  5
C54
330
1F
100
AcDbEntity
  8
0
100
AcDbPolyline
 90
       10
 70
     0
 43
0.0
 10
28.83539589919998
 20
26.93727966400001
 10
29.26864427519997
 20
26.280594968
 10
29.70006852479995
 20
25.53090816959999
 10
30.11614962239995
 20
24.67506202879999
 10
30.50185284799998
 20
23.69723958080001
 10
30.83896931839997
 20
22.58439623040001
 10
31.10677190079998
 20
21.33485659680001
 10
31.27357262239998
 20
20.1013359152
 10
31.35298685119998
 20
18.9881024608
 10
31.37425537119996
 20
18.0
  0
LWPOLYLINE
  5
C55
330
1F
100
AcDbEntity
  8
0
100
AcDbPolyline
 90
       35
 70
     0
 43
0.0
 10
23.39685290879997
 20
18.0000003488
 10
23.39626796799997
 20
18.1535875008
 10
23.39336780479997
 20
18.3071754224
 10
23.38815177759998
 20
18.4607323552
 10
23.38062008639998
 20
18.61422431679999
 10
23.37077465279996
 20
18.76760966239999
 10
23.35861792959998
 20
18.92084638880001
 10
23.34415204479996
 20
19.0738920112
 10
23.32737899519996
 20
19.226710376
 10
23.30830037919996
 20
19.3792858784
 10
23.28692197279996
 20
19.53156638240001
 10
23.26325033599998
 20
19.6834984992
 10
23.23729174399996
 20
19.8350407856
 10
23.20905336479996
 20
19.9861543728
 10
23.17854307039998
 20
20.1367998032
 10
23.14577094719997
 20
20.2869315552
 10
23.11074656639998
 20
20.43651232479999
 10
23.07347876799998
 20
20.5855082288
 10
23.03397687679996
 20
20.7338834256
 10
22.99225199999996
 20
20.88160087519999
 10
22.94832097279997
 20
21.02860744959999
 10
22.90219651679997
 20
21.17486509920001
 10
22.85388692319996
 20
21.3203512992
 10
22.80340729439997
 20
21.46502801120001
 10
22.75077334719996
 20
21.60885565119999
 10
22.69600223839997
 20
21.7517908416
 10
22.63911159359996
 20
21.8937935792
 10
22.58010978079998
 20
22.0348496928
 10
22.51900770879997
 20
22.17493762720001
 10
22.45582953919996
 20
22.3140071168
 10
22.39059717279998
 20
22.4520166784
 10
22.32332836159996
 20
22.58893432000001
 10
22.25404215999997
 20
22.7247256976
 10
22.18275654399998
 20
22.85936188480001
 10
22.10948914079996
 20
22.9928154208
  0
LWPOLYLINE
  5
C56
330
1F
100
AcDbEntity
  8
0
100
AcDbPolyline
 90
       12
 70
     0
 43
0.0
 10
24.55907471999997
 20
18.00000141120001
 10
24.54788150559996
 20
18.5277520416
 10
24.51152260959996
 20
19.0872729984
 10
24.44841999199998
 20
19.65704665439999
 10
24.35972588799997
 20
20.2207514096
 10
24.24587310559998
 20
20.777541656
 10
24.10667557599997
 20
21.32888956800001
 10
23.94578922239996
 20
21.86276432479999
 10
23.77210851359997
 20
22.3590447136
 10
23.59122602879996
 20
22.81432372639999
 10
23.40209124319996
 20
23.24057701279999
 10
23.20257274239996
 20
23.64747454079999
  0
LWPOLYLINE
  5
C57
330
1F
100
AcDbEntity
  8
0
100
AcDbPolyline
 90
       10
 70
     0
 43
0.0
 10
31.37425537119996
 20
18.0
 10
31.35297880319997
 20
17.01171424639999
 10
31.27796978399997
 20
15.943143088
 10
31.12215292799997
 20
14.7559088
 10
30.86131374399998
 20
13.5030574928
 10
30.51875322399998
 20
12.3514234704
 10
30.12422815199998
 20
11.34327267040001
 10
29.70403213279998
 20
10.47654170080001
 10
29.27010847679996
 20
9.72176849920001
 10
28.83539589919998
 20
9.062720337600012
  0
LWPOLYLINE
  5
C58
330
1F
100
AcDbEntity
  8
0
100
AcDbPolyline
 90
       15
 70
     0
 43
0.0
 10
30.94608431839997
 20
18.0000000128
 10
30.93229553119998
 20
17.20907678559999
 10
30.88951370399998
 20
16.4240984928
 10
30.81719378879997
 20
15.66045605920001
 10
30.71718345759997
 20
14.93300342239999
 10
30.59345546079997
 20
14.2533154608
 10
30.44828959519996
 20
13.6163914144
 10
30.28182217919997
 20
13.0118313472
 10
30.09439581439996
 20
12.434566136
 10
29.88647523839997
 20
11.88159223680001
 10
29.65710521599998
 20
11.3475040736
 10
29.40395741919998
 20
10.82593930720001
 10
29.12497382399998
 20
10.31303930560001
 10
28.81848330079996
 20
9.806493593600009
 10
28.48271226879997
 20
9.30403548320001
  0
LWPOLYLINE
  5
C59
330
1F
100
AcDbEntity
  8
0
100
AcDbPolyline
 90
       34
 70
     0
 43
0.0
 10
22.06418726879998
 20
13.00977262079999
 10
22.14058689119995
 20
13.1456811424
 10
22.21490684319998
 20
13.28285024000001
 10
22.28712789279997
 20
13.4212504896
 10
22.35723011679998
 20
13.560849952
 10
22.42519204959997
 20
13.7016101264
 10
22.49099404159996
 20
13.84349569439999
 10
22.55461317919996
 20
13.9864636352
 10
22.61602617599997
 20
14.1304662992
 10
22.67522076319996
 20
14.27547933279999
 10
22.73218460479996
 20
14.4214785488
 10
22.78690427039997
 20
14.5684345024
 10
22.83936473599998
 20
14.7163121056
 10
22.88955043839997
 20
14.8650764832
 10
22.93744583679996
 20
15.0146915472
 10
22.98303575679996
 20
15.1651149856
 10
23.02630695359998
 20
15.3163102416
 10
23.06724286719996
 20
15.46822913599999
 10
23.10583009439996
 20
15.6208270928
 10
23.14206008479998
 20
15.77407541920001
 10
23.17591329439996
 20
15.92789667520001
 10
23.20737467839997
 20
16.0822208944
 10
23.23643977599998
 20
16.2370201648
 10
23.26310865759997
 20
16.3922956176
 10
23.28737950399998
 20
16.54804797279999
 10
23.30924055519996
 20
16.70421121759999
 10
23.32867464639996
 20
16.86065890719999
 10
23.34568034879997
 20
17.0173697296
 10
23.36026036319997
 20
17.17436080320001
 10
23.37241187839997
 20
17.33160338559999
 10
23.38212904639998
 20
17.4890381792
 10
23.38940731839996
 20
17.6466116048
 10
23.39424504479997
 20
17.804296872
 10
23.39664100479997
 20
17.9620722336
  0
LWPOLYLINE
  5
C5A
330
1F
100
AcDbEntity
  8
0
100
AcDbPolyline
 90
       12
 70
     0
 43
0.0
 10
24.55907471839997
 20
18.00000141120001
 10
24.54788150559996
 20
17.47224795999999
 10
24.51152260959996
 20
16.91272700159999
 10
24.44841999199998
 20
16.3429533456
 10
24.35972588799997
 20
15.77924859040001
 10
24.24587310559998
 20
15.22245834400001
 10
24.10667557599997
 20
14.671110432
 10
23.94578922239996
 20
14.13723567520001
 10
23.77210851359997
 20
13.640955288
 10
23.59122602879996
 20
13.1856762752
 10
23.40209124319996
 20
12.7594229888
 10
23.20257274239996
 20
12.3525254608
  0
LINE
  5
C5B
330
1F
100
AcDbEntity
  8
0
100
AcDbLine
 10
22.04767749119996
 20
12.981047744
 30
0.0
 11
22.06418728799998
 21
13.00977260799999
 31
0.0
  0
LINE
  5
C5C
330
1F
100
AcDbEntity
  8
0
100
AcDbLine
 10
23.39664100479997
 20
17.9620722336
 30
0.0
 11
23.39685290879997
 21
18.0000003488
 31
0.0
  0
LINE
  5
C5D
330
1F
100
AcDbEntity
  8
0
100
AcDbLine
 10
22.10948914079996
 20
22.9928154208
 30
0.0
 11
22.09951259039998
 21
23.01062246400001
 31
0.0
  0
LWPOLYLINE
  5
C5E
330
1F
100
AcDbEntity
  8
0
100
AcDbPolyline
 90
        4
 70
     0
 43
0.0
 10
23.50403640959997
 20
23.8215246688
 10
23.47871358879997
 20
23.86883710880001
 10
23.45322795039997
 20
23.9174494896
 10
23.42814771519998
 20
23.96569288959999
  0
ENDSEC
  0
SECTION
  2
OBJECTS
  0
DICTIONARY
  5
C
330
0
100
AcDbDictionary
  3
ACAD_GROUP
350
D
  3
ACAD_LAYOUT
350
1A
  3
ACAD_MLINESTYLE
350
17
  3
ACAD_PLOTSETTINGS
350
19
  3
ACAD_PLOTSTYLENAME
350
E
  3
ACDBHEADERROUNDTRIPXREC
350
CE3
  0
DICTIONARY
  5
D06
330
1F
100
AcDbDictionary
280
     1
  3
ACAD_LAYOUTSELFREF
360
D07
  0
DICTIONARY
  5
D04
330
1B
100
AcDbDictionary
280
     1
  3
ACAD_LAYOUTSELFREF
360
D05
  0
DICTIONARY
  5
D
102
{ACAD_REACTORS
330
C
102
}
330
C
100
AcDbDictionary
  0
DICTIONARY
  5
1A
102
{ACAD_REACTORS
330
C
102
}
330
C
100
AcDbDictionary
  0
DICTIONARY
  5
17
102
{ACAD_REACTORS
330
C
102
}
330
C
100
AcDbDictionary
  3
STANDARD
350
18
  0
DICTIONARY
  5
19
102
{ACAD_REACTORS
330
C
102
}
330
C
100
AcDbDictionary
  0
ACDBDICTIONARYWDFLT
  5
E
102
{ACAD_REACTORS
330
C
102
}
330
C
100
AcDbDictionary
281
     1
  3
Normal
350
F
100
AcDbDictionaryWithDefault
340
F
  0
DICTIONARY
  5
CE3
102
{ACAD_REACTORS
330
C
102
}
330
C
100
AcDbDictionary
  3
CEPSNTYPE
350
CED
  3
DIMSTYLEDATA
350
CF1
  3
FINGERPRINTGUID
350
CEE
  3
HYPERLINKBASE
350
CE6
  3
INSUNITS
350
CEC
  3
LAYOUTDICT
350
CE8
  3
LWETCUNION
350
CEB
  3
PLOTSETDICT
350
CE9
  3
PLOTSTYLNAMDICT
350
CEA
  3
PSVPSCALE
350
CF0
  3
PUCSBASE
350
CF4
  3
PUCSORGBACK
350
CFA
  3
PUCSORGBOTTOM
350
CF6
  3
PUCSORGFRONT
350
CF9
  3
PUCSORGLEFT
350
CF7
  3
PUCSORGRIGHT
350
CF8
  3
PUCSORGTOP
350
CF5
  3
PUCSORTHOREF
350
CF2
  3
PUCSORTHOVIEW
350
CF3
  3
STYLESHEET
350
CE7
  3
TSTACKALIGN
350
CE4
  3
TSTACKSIZE
350
CE5
  3
UCSBASE
350
CFD
  3
UCSORGBACK
350
D03
  3
UCSORGBOTTOM
350
CFF
  3
UCSORGFRONT
350
D02
  3
UCSORGLEFT
350
D00
  3
UCSORGRIGHT
350
D01
  3
UCSORGTOP
350
CFE
  3
UCSORTHOREF
350
CFB
  3
UCSORTHOVIEW
350
CFC
  3
VERSIONGUID
350
CEF
  0
XRECORD
  5
D07
102
{ACAD_REACTORS
330
D06
102
}
330
D06
100
AcDbXrecord
340
1F
  0
XRECORD
  5
D05
102
{ACAD_REACTORS
330
D04
102
}
330
D04
100
AcDbXrecord
340
1B
  0
MLINESTYLE
  5
18
102
{ACAD_REACTORS
330
17
102
}
330
17
100
AcDbMlineStyle
  2
STANDARD
 70
     0
  3

 62
   256
 51
90.0
 52
90.0
 71
     2
 49
0.5
 62
   256
  6
BYLAYER
 49
-0.5
 62
   256
  6
BYLAYER
  0
ACDBPLACEHOLDER
  5
F
102
{ACAD_REACTORS
330
E
102
}
330
0
100
AcDbPlaceHolder
280
     0
  0
XRECORD
  5
CED
102
{ACAD_REACTORS
330
CE3
102
}
330
CE3
100
AcDbXrecord
 90
        0
  0
XRECORD
  5
CF1
102
{ACAD_REACTORS
330
CE3
102
}
330
CE3
100
AcDbXrecord
1000
DSTYLE
1002
{
1070
   278
 70
     0
1070
   342
340
223
1070
   371
 70
     0
1070
   372
 70
     0
1002
}
  0
XRECORD
  5
CEE
102
{ACAD_REACTORS
330
CE3
102
}
330
CE3
100
AcDbXrecord
  1

  0
XRECORD
  5
CE6
102
{ACAD_REACTORS
330
CE3
102
}
330
CE3
100
AcDbXrecord
  1

  0
XRECORD
  5
CEC
102
{ACAD_REACTORS
330
CE3
102
}
330
CE3
100
AcDbXrecord
 90
        1
  0
XRECORD
  5
CE8
102
{ACAD_REACTORS
330
CE3
102
}
330
CE3
100
AcDbXrecord
340
1A
  0
XRECORD
  5
CEB
102
{ACAD_REACTORS
330
CE3
102
}
330
CE3
100
AcDbXrecord
 90
    10781
  0
XRECORD
  5
CE9
102
{ACAD_REACTORS
330
CE3
102
}
330
CE3
100
AcDbXrecord
340
19
  0
XRECORD
  5
CEA
102
{ACAD_REACTORS
330
CE3
102
}
330
CE3
100
AcDbXrecord
340
E
  0
XRECORD
  5
CF0
102
{ACAD_REACTORS
330
CE3
102
}
330
CE3
100
AcDbXrecord
 40
0.0
  0
XRECORD
  5
CF4
102
{ACAD_REACTORS
330
CE3
102
}
330
CE3
100
AcDbXrecord
340
0
  0
XRECORD
  5
CFA
102
{ACAD_REACTORS
330
CE3
102
}
330
CE3
100
AcDbXrecord
 10
0.0
 20
0.0
 30
0.0
  0
XRECORD
  5
CF6
102
{ACAD_REACTORS
330
CE3
102
}
330
CE3
100
AcDbXrecord
 10
0.0
 20
0.0
 30
0.0
  0
XRECORD
  5
CF9
102
{ACAD_REACTORS
330
CE3
102
}
330
CE3
100
AcDbXrecord
 10
0.0
 20
0.0
 30
0.0
  0
XRECORD
  5
CF7
102
{ACAD_REACTORS
330
CE3
102
}
330
CE3
100
AcDbXrecord
 10
0.0
 20
0.0
 30
0.0
  0
XRECORD
  5
CF8
102
{ACAD_REACTORS
330
CE3
102
}
330
CE3
100
AcDbXrecord
 10
0.0
 20
0.0
 30
0.0
  0
XRECORD
  5
CF5
102
{ACAD_REACTORS
330
CE3
102
}
330
CE3
100
AcDbXrecord
 10
0.0
 20
0.0
 30
0.0
  0
XRECORD
  5
CF2
102
{ACAD_REACTORS
330
CE3
102
}
330
CE3
100
AcDbXrecord
340
0
  0
XRECORD
  5
CF3
102
{ACAD_REACTORS
330
CE3
102
}
330
CE3
100
AcDbXrecord
 70
     0
  0
XRECORD
  5
CE7
102
{ACAD_REACTORS
330
CE3
102
}
330
CE3
100
AcDbXrecord
  1

  0
XRECORD
  5
CE4
102
{ACAD_REACTORS
330
CE3
102
}
330
CE3
100
AcDbXrecord
 90
        1
  0
XRECORD
  5
CE5
102
{ACAD_REACTORS
330
CE3
102
}
330
CE3
100
AcDbXrecord
 90
       70
  0
XRECORD
  5
CFD
102
{ACAD_REACTORS
330
CE3
102
}
330
CE3
100
AcDbXrecord
340
0
  0
XRECORD
  5
D03
102
{ACAD_REACTORS
330
CE3
102
}
330
CE3
100
AcDbXrecord
 10
0.0
 20
0.0
 30
0.0
  0
XRECORD
  5
CFF
102
{ACAD_REACTORS
330
CE3
102
}
330
CE3
100
AcDbXrecord
 10
0.0
 20
0.0
 30
0.0
  0
XRECORD
  5
D02
102
{ACAD_REACTORS
330
CE3
102
}
330
CE3
100
AcDbXrecord
 10
0.0
 20
0.0
 30
0.0
  0
XRECORD
  5
D00
102
{ACAD_REACTORS
330
CE3
102
}
330
CE3
100
AcDbXrecord
 10
0.0
 20
0.0
 30
0.0
  0
XRECORD
  5
D01
102
{ACAD_REACTORS
330
CE3
102
}
330
CE3
100
AcDbXrecord
 10
0.0
 20
0.0
 30
0.0
  0
XRECORD
  5
CFE
102
{ACAD_REACTORS
330
CE3
102
}
330
CE3
100
AcDbXrecord
 10
0.0
 20
0.0
 30
0.0
  0
XRECORD
  5
CFB
102
{ACAD_REACTORS
330
CE3
102
}
330
CE3
100
AcDbXrecord
340
0
  0
XRECORD
  5
CFC
102
{ACAD_REACTORS
330
CE3
102
}
330
CE3
100
AcDbXrecord
 70
     0
  0
XRECORD
  5
CEF
102
{ACAD_REACTORS
330
CE3
102
}
330
CE3
100
AcDbXrecord
  1
{FF0D65E0-AC90-4B83-94D1-F163B3AC60B6}
  0
ENDSEC
  0
EOF
