  0
SECTION
  2
HEADER
  9
$ACADVER
  1
AC1014
  9
$ACADMAINTVER
 70
     9
  9
$DWGCODEPAGE
  3
ANSI_1252
  9
$INSBASE
 10
0.0
 20
0.0
 30
0.0
  9
$EXTMIN
 10
-35.99999998146929
 20
-2.011201200687569
 30
0.0
  9
$EXTMAX
 10
80.11328831806006
 20
74.06526775854198
 30
0.0
  9
$LIMMIN
 10
0.0
 20
0.0
  9
$LIMMAX
 10
17.0
 20
11.0
  9
$ORTHOMODE
 70
     1
  9
$REGENMODE
 70
     1
  9
$FILLMODE
 70
     1
  9
$QTEXTMODE
 70
     0
  9
$MIRRTEXT
 70
     1
  9
$DRAGMODE
 70
     2
  9
$LTSCALE
 40
0.9350000000000001
  9
$OSMODE
 70
    37
  9
$ATTMODE
 70
     1
  9
$TEXTSIZE
 40
0.2
  9
$TRACEWID
 40
0.05
  9
$TEXTSTYLE
  7
STANDARD
  9
$CLAYER
  8
0
  9
$CELTYPE
  6
BYLAYER
  9
$CECOLOR
 62
   256
  9
$CELTSCALE
 40
1.0
  9
$DELOBJ
 70
     1
  9
$DISPSILH
 70
     0
  9
$DIMSCALE
 40
1.0
  9
$DIMASZ
 40
0.1875
  9
$DIMEXO
 40
0.10625
  9
$DIMDLI
 40
0.646
  9
$DIMRND
 40
0.0
  9
$DIMDLE
 40
0.0
  9
$DIMEXE
 40
0.306
  9
$DIMTP
 40
0.0
  9
$DIMTM
 40
0.0
  9
$DIMTXT
 40
0.125
  9
$DIMCEN
 40
0.153
  9
$DIMTSZ
 40
0.0
  9
$DIMTOL
 70
     0
  9
$DIMLIM
 70
     0
  9
$DIMTIH
 70
     1
  9
$DIMTOH
 70
     1
  9
$DIMSE1
 70
     0
  9
$DIMSE2
 70
     0
  9
$DIMTAD
 70
     0
  9
$DIMZIN
 70
     0
  9
$DIMBLK
  1
_FILLED
  9
$DIMASO
 70
     1
  9
$DIMSHO
 70
     1
  9
$DIMPOST
  1

  9
$DIMAPOST
  1

  9
$DIMALT
 70
     0
  9
$DIMALTD
 70
     2
  9
$DIMALTF
 40
25.4
  9
$DIMLFAC
 40
1.0
  9
$DIMTOFL
 70
     0
  9
$DIMTVP
 40
0.0
  9
$DIMTIX
 70
     0
  9
$DIMSOXD
 70
     0
  9
$DIMSAH
 70
     0
  9
$DIMBLK1
  1

  9
$DIMBLK2
  1

  9
$DIMSTYLE
  2
STANDARD
  9
$DIMCLRD
 70
     0
  9
$DIMCLRE
 70
     0
  9
$DIMCLRT
 70
     0
  9
$DIMTFAC
 40
1.0
  9
$DIMGAP
 40
0.09
  9
$DIMJUST
 70
     0
  9
$DIMSD1
 70
     0
  9
$DIMSD2
 70
     0
  9
$DIMTOLJ
 70
     1
  9
$DIMTZIN
 70
     0
  9
$DIMALTZ
 70
     0
  9
$DIMALTTZ
 70
     0
  9
$DIMFIT
 70
     3
  9
$DIMUPT
 70
     0
  9
$DIMUNIT
 70
     2
  9
$DIMDEC
 70
     4
  9
$DIMTDEC
 70
     4
  9
$DIMALTU
 70
     2
  9
$DIMALTTD
 70
     2
  9
$DIMTXSTY
  7
STANDARD
  9
$DIMAUNIT
 70
     0
  9
$LUNITS
 70
     2
  9
$LUPREC
 70
     4
  9
$SKETCHINC
 40
0.1
  9
$FILLETRAD
 40
0.0
  9
$AUNITS
 70
     0
  9
$AUPREC
 70
     0
  9
$MENU
  1
acad
  9
$ELEVATION
 40
0.0
  9
$PELEVATION
 40
0.0
  9
$THICKNESS
 40
0.0
  9
$LIMCHECK
 70
     0
  9
$BLIPMODE
 70
     0
  9
$CHAMFERA
 40
0.0
  9
$CHAMFERB
 40
0.0
  9
$CHAMFERC
 40
0.0
  9
$CHAMFERD
 40
0.0
  9
$SKPOLY
 70
     0
  9
$TDCREATE
 40
2454054.603402673
  9
$TDUPDATE
 40
2454071.691727523
  9
$TDINDWG
 40
0.0143857060
  9
$TDUSRTIMER
 40
0.0143857060
  9
$USRTIMER
 70
     1
  9
$ANGBASE
 50
0.0
  9
$ANGDIR
 70
     0
  9
$PDMODE
 70
     3
  9
$PDSIZE
 40
0.03125
  9
$PLINEWID
 40
0.0
  9
$COORDS
 70
     0
  9
$SPLFRAME
 70
     0
  9
$SPLINETYPE
 70
     6
  9
$SPLINESEGS
 70
     8
  9
$ATTDIA
 70
     0
  9
$ATTREQ
 70
     1
  9
$HANDLING
 70
-16383
  9
$HANDSEED
  5
D08
  9
$SURFTAB1
 70
     6
  9
$SURFTAB2
 70
     6
  9
$SURFTYPE
 70
     6
  9
$SURFU
 70
     6
  9
$SURFV
 70
     6
  9
$UCSNAME
  2

  9
$UCSORG
 10
0.0
 20
0.0
 30
0.0
  9
$UCSXDIR
 10
1.0
 20
0.0
 30
0.0
  9
$UCSYDIR
 10
0.0
 20
1.0
 30
0.0
  9
$PUCSNAME
  2

  9
$PUCSORG
 10
0.0
 20
0.0
 30
0.0
  9
$PUCSXDIR
 10
1.0
 20
0.0
 30
0.0
  9
$PUCSYDIR
 10
0.0
 20
1.0
 30
0.0
  9
$USERI1
 70
     0
  9
$USERI2
 70
     0
  9
$USERI3
 70
     0
  9
$USERI4
 70
     0
  9
$USERI5
 70
     0
  9
$USERR1
 40
0.0
  9
$USERR2
 40
0.0
  9
$USERR3
 40
0.0
  9
$USERR4
 40
0.0
  9
$USERR5
 40
0.0
  9
$WORLDVIEW
 70
     1
  9
$SHADEDGE
 70
     3
  9
$SHADEDIF
 70
    70
  9
$TILEMODE
 70
     1
  9
$MAXACTVP
 70
    16
  9
$PINSBASE
 10
0.0
 20
0.0
 30
0.0
  9
$PLIMCHECK
 70
     0
  9
$PEXTMIN
 10
1.000000000000000E+20
 20
1.000000000000000E+20
 30
1.000000000000000E+20
  9
$PEXTMAX
 10
-1.000000000000000E+20
 20
-1.000000000000000E+20
 30
-1.000000000000000E+20
  9
$PLIMMIN
 10
0.0
 20
0.0
  9
$PLIMMAX
 10
12.0
 20
9.0
  9
$UNITMODE
 70
     0
  9
$VISRETAIN
 70
     0
  9
$PLINEGEN
 70
     1
  9
$PSLTSCALE
 70
     0
  9
$TREEDEPTH
 70
  3020
  9
$PICKSTYLE
 70
     1
  9
$CMLSTYLE
  2
STANDARD
  9
$CMLJUST
 70
     0
  9
$CMLSCALE
 40
1.0
  9
$PROXYGRAPHICS
 70
     0
  9
$MEASUREMENT
 70
     0
  0
ENDSEC
  0
SECTION
  2
CLASSES
  0
CLASS
  1
ACDBDICTIONARYWDFLT
  2
AcDbDictionaryWithDefault
  3
AutoCAD 2000
 90
        0
280
     0
281
     0
  0
CLASS
  1
ACDBPLACEHOLDER
  2
AcDbPlaceHolder
  3
AutoCAD 2000
 90
        0
280
     0
281
     0
  0
CLASS
  1
LAYOUT
  2
AcDbLayout
  3
AutoCAD 2000
 90
        0
280
     0
281
     0
  0
CLASS
  1
LWPOLYLINE
  2
AcDbPolyline
  3
AutoCAD 2000
 90
        0
280
     0
281
     1
  0
CLASS
  1
IMAGE
  2
AcDbRasterImage
  3
ISM
 90
      127
280
     0
281
     1
  0
CLASS
  1
OLE2FRAME
  2
AcDbOle2Frame
  3
AutoCAD 2000
 90
        0
280
     0
281
     1
  0
CLASS
  1
HATCH
  2
AcDbHatch
  3
AutoCAD 2000
 90
        0
280
     0
281
     1
  0
CLASS
  1
DICTIONARYVAR
  2
AcDbDictionaryVar
  3
AutoCAD 2000
 90
        0
280
     0
281
     0
  0
CLASS
  1
RASTERVARIABLES
  2
AcDbRasterVariables
  3
ISM
 90
        0
280
     0
281
     0
  0
CLASS
  1
IMAGEDEF
  2
AcDbRasterImageDef
  3
ISM
 90
        0
280
     0
281
     0
  0
CLASS
  1
IMAGEDEF_REACTOR
  2
AcDbRasterImageDefReactor
  3
ISM
 90
        1
280
     0
281
     0
  0
CLASS
  1
IDBUFFER
  2
AcDbIdBuffer
  3
AutoCAD 2000
 90
        0
280
     0
281
     0
  0
CLASS
  1
SPATIAL_FILTER
  2
AcDbSpatialFilter
  3
AutoCAD 2000
 90
        0
280
     0
281
     0
  0
CLASS
  1
XRECORD
  2
AcDbXrecord
  3
AutoCAD 2000
 90
        0
280
     0
281
     0
  0
CLASS
  1
SORTENTSTABLE
  2
AcDbSortentsTable
  3
AutoCAD 2000
 90
        0
280
     0
281
     0
  0
CLASS
  1
LAYER_INDEX
  2
AcDbLayerIndex
  3
AutoCAD 2000
 90
        0
280
     0
281
     0
  0
CLASS
  1
SPATIAL_INDEX
  2
AcDbSpatialIndex
  3
AutoCAD 2000
 90
        0
280
     0
281
     0
  0
CLASS
  1
OBJECT_PTR
  2
CAseDLPNTableRecord
  3
ASE-LPNTableRecord
 90
        1
280
     0
281
     0
  0
CLASS
  1
PLOTSETTINGS
  2
AcDbPlotSettings
  3
AutoCAD 2000
 90
        0
280
     0
281
     0
  0
CLASS
  1
VBA_PROJECT
  2
AcDbVbaProject
  3
acadvba
 90
        0
280
     0
281
     0
  0
CLASS
  1
WIPEOUT
  2
AcDbWipeout
  3
WipeOut|AutoCAD Express Tool|expresstools@autodesk.com
 90
      127
280
     0
281
     1
  0
CLASS
  1
WIPEOUTVARIABLES
  2
AcDbWipeoutVariables
  3
WipeOut|AutoCAD Express Tool|expresstools@autodesk.com
 90
        0
280
     0
281
     0
  0
CLASS
  1
RTEXT
  2
RText
  3
RText|AutoCAD Express Tool|expresstools@autodesk.com
 90
        0
280
     0
281
     1
  0
CLASS
  1
ARCALIGNEDTEXT
  2
AcDbArcAlignedText
  3
ATEXT|AutoCAD Express Tool|expresstools@autodesk.com
 90
        0
280
     0
281
     1
  0
CLASS
  1
LONG_TRANSACTION
  2
AcDbLongTransaction
  3
AutoCAD 2000
 90
        0
280
     0
281
     0
  0
CLASS
  1
LWPOLYLINE
  2
AcDbPolyline
  3
AutoCAD 2000
 90
        0
280
     0
281
     1
  0
CLASS
  1
HATCH
  2
AcDbHatch
  3
AutoCAD 2000
 90
        0
280
     0
281
     1
  0
CLASS
  1
XRECORD
  2
AcDbXrecord
  3
AutoCAD 2000
 90
        0
280
     0
281
     0
  0
ENDSEC
  0
SECTION
  2
TABLES
  0
TABLE
  2
VPORT
  5
8
330
0
100
AcDbSymbolTable
 70
     3
  0
VPORT
  5
CE2
330
8
100
AcDbSymbolTableRecord
100
AcDbViewportTableRecord
  2
*ACTIVE
 70
     0
 10
0.0
 20
0.0
 11
1.0
 21
1.0
 12
19.19251914149765
 22
9.949359518837326
 13
0.0
 23
0.0
 14
1.0
 24
1.0
 15
0.0
 25
0.0
 16
0.0
 26
0.0
 36
1.0
 17
0.0
 27
0.0
 37
0.0
 40
29.4849843203662
 41
1.745424292845257
 42
50.0
 43
0.0
 44
0.0
 50
0.0
 51
0.0
 71
     0
 72
   100
 73
     1
 74
     1
 75
     0
 76
     0
 77
     0
 78
     0
  0
ENDTAB
  0
TABLE
  2
LTYPE
  5
5
330
0
100
AcDbSymbolTable
 70
     3
  0
LTYPE
  5
14
330
5
100
AcDbSymbolTableRecord
100
AcDbLinetypeTableRecord
  2
BYBLOCK
 70
     0
  3

 72
    65
 73
     0
 40
0.0
  0
LTYPE
  5
15
330
5
100
AcDbSymbolTableRecord
100
AcDbLinetypeTableRecord
  2
BYLAYER
 70
     0
  3

 72
    65
 73
     0
 40
0.0
  0
LTYPE
  5
16
330
5
100
AcDbSymbolTableRecord
100
AcDbLinetypeTableRecord
  2
CONTINUOUS
 70
     0
  3
Solid line
 72
    65
 73
     0
 40
0.0
  0
LTYPE
  5
1F6
330
5
100
AcDbSymbolTableRecord
100
AcDbLinetypeTableRecord
  2
HIDDEN
 70
     0
  3
- - - - - - - - - - - - - - - - - - - -
 72
    65
 73
     2
 40
0.2
 49
0.1
 74
     0
 49
-0.1
 74
     0
  0
LTYPE
  5
9A0
330
5
100
AcDbSymbolTableRecord
100
AcDbLinetypeTableRecord
  2
CENTERX2
 70
     0
  3
Center (2x) ________  __  ________  __  _____
 72
    65
 73
     4
 40
4.0
 49
2.5
 74
     0
 49
-0.5
 74
     0
 49
0.5
 74
     0
 49
-0.5
 74
     0
  0
ENDTAB
  0
TABLE
  2
LAYER
  5
2
330
0
100
AcDbSymbolTable
 70
     2
  0
LAYER
  5
10
330
2
100
AcDbSymbolTableRecord
100
AcDbLayerTableRecord
  2
0
 70
     0
 62
     7
  6
CONTINUOUS
  0
LAYER
  5
9A1
330
2
100
AcDbSymbolTableRecord
100
AcDbLayerTableRecord
  2
CENTER
 70
     0
 62
     1
  6
CENTERX2
  0
ENDTAB
  0
TABLE
  2
STYLE
  5
3
330
0
100
AcDbSymbolTable
 70
     2
  0
STYLE
  5
11
330
3
100
AcDbSymbolTableRecord
100
AcDbTextStyleTableRecord
  2
STANDARD
 70
     0
 40
0.0
 41
0.8
 50
0.0
 71
     0
 42
0.2
  3
txt
  4

  0
STYLE
  5
21E
330
3
100
AcDbSymbolTableRecord
100
AcDbTextStyleTableRecord
  2
TEXTSTYLE_1
 70
     0
 40
0.0
 41
0.8
 50
0.0
 71
     0
 42
0.2
  3
txt
  4

  0
ENDTAB
  0
TABLE
  2
VIEW
  5
6
330
0
100
AcDbSymbolTable
 70
     0
  0
ENDTAB
  0
TABLE
  2
UCS
  5
7
330
0
100
AcDbSymbolTable
 70
     0
  0
ENDTAB
  0
TABLE
  2
APPID
  5
9
330
0
100
AcDbSymbolTable
 70
     2
  0
APPID
  5
222
330
9
100
AcDbSymbolTableRecord
100
AcDbRegAppTableRecord
  2
ACAD
 70
     0
  0
APPID
  5
99D
330
9
100
AcDbSymbolTableRecord
100
AcDbRegAppTableRecord
  2
DCO15
 70
     0
  0
ENDTAB
  0
TABLE
  2
DIMSTYLE
  5
A
330
0
100
AcDbSymbolTable
 70
     1
  0
DIMSTYLE
105
23B
330
A
100
AcDbSymbolTableRecord
100
AcDbDimStyleTableRecord
  2
STANDARD
 70
     0
  3

  4

  5
_FILLED
  6
_FILLED
  7
_FILLED
 40
1.0
 41
0.1875
 42
0.0625
 43
0.38
 44
0.18
 45
0.0
 46
0.0
 47
0.00001
 48
0.00001
140
0.125
141
0.09
142
0.0
143
25.4
144
1.0
145
0.0
146
1.0
147
0.09
 71
     0
 72
     0
 73
     1
 74
     1
 75
     0
 76
     0
 77
     0
 78
     4
170
     0
171
     2
172
     0
173
     0
174
     0
175
     0
176
     0
177
     0
178
     0
270
     2
271
     5
272
     5
273
     2
274
     2
340
11
275
     0
280
     0
281
     0
282
     0
283
     1
284
     4
285
     0
286
     0
287
     3
288
     0
  0
ENDTAB
  0
TABLE
  2
BLOCK_RECORD
  5
1
330
0
100
AcDbSymbolTable
 70
     1
  0
BLOCK_RECORD
  5
1F
102
{ACAD_XDICTIONARY
360
D06
102
}
330
1
100
AcDbSymbolTableRecord
100
AcDbBlockTableRecord
  2
*MODEL_SPACE
  0
BLOCK_RECORD
  5
1B
102
{ACAD_XDICTIONARY
360
D04
102
}
330
1
100
AcDbSymbolTableRecord
100
AcDbBlockTableRecord
  2
*PAPER_SPACE
  0
BLOCK_RECORD
  5
223
330
1
100
AcDbSymbolTableRecord
100
AcDbBlockTableRecord
  2
_FILLED
  0
ENDTAB
  0
ENDSEC
  0
SECTION
  2
BLOCKS
  0
BLOCK
  5
20
330
1F
100
AcDbEntity
  8
0
100
AcDbBlockBegin
  2
*MODEL_SPACE
 70
     0
 10
0.0
 20
0.0
 30
0.0
  3
*MODEL_SPACE
  1

  0
ENDBLK
  5
21
330
1F
100
AcDbEntity
  8
0
100
AcDbBlockEnd
  0
BLOCK
  5
1C
330
1B
100
AcDbEntity
 67
     1
  8
0
100
AcDbBlockBegin
  2
*PAPER_SPACE
 70
     0
 10
0.0
 20
0.0
 30
0.0
  3
*PAPER_SPACE
  1

  0
ENDBLK
  5
1D
330
1B
100
AcDbEntity
 67
     1
  8
0
100
AcDbBlockEnd
  0
BLOCK
  5
3E2
330
223
100
AcDbEntity
  8
0
100
AcDbBlockBegin
  2
_FILLED
 70
     0
 10
0.0
 20
0.0
 30
0.0
  3
_FILLED
  1

  0
SOLID
  5
3E3
330
223
100
AcDbEntity
  8
0
  6
BYBLOCK
 62
     0
100
AcDbTrace
 10
0.0
 20
0.0
 30
0.0
 11
-1.0
 21
0.1666666667
 31
0.0
 12
-1.0
 22
-0.1666666667
 32
0.0
 13
-1.0
 23
-0.1666666667
 33
0.0
  0
ENDBLK
  5
3E4
330
223
100
AcDbEntity
  8
0
  6
BYBLOCK
 62
     0
100
AcDbBlockEnd
  0
ENDSEC
  0
SECTION
  2
ENTITIES
  0
MTEXT
  5
453
330
1F
100
AcDbEntity
  8
0
  6
CONTINUOUS
 62
     2
100
AcDbMText
 10
15.84375
 20
2.3125
 30
0.0
 40
0.09375
 41
0.075
 71
     2
 72
     1
  1
 \P \P 
  7
TEXTSTYLE_1
1001
ACAD
1000
MTEXTBEGIN
1070
    73
1070
     1
1070
    44
1040
1.0
1070
    74
1070
     0
1000
MTEXTEND
  0
LINE
  5
B25
330
1F
100
AcDbEntity
  8
0
100
AcDbLine
 10
35.99999999999998
 20
19.0
 30
0.0
 11
-0.0000000000000142
 21
19.0
 31
0.0
  0
LINE
  5
B26
330
1F
100
AcDbEntity
  8
CENTER
100
AcDbLine
 10
9.401617961599967
 20
17.54206429119999
 30
0.0
 11
1.776656238399979
 21
16.4704458064
 31
0.0
  0
LWPOLYLINE
  5
C61
330
1F
100
AcDbEntity
  8
0
100
AcDbPolyline
 90
       12
 70
     0
 43
0.0
 10
4.427325276799976
 20
16.3719505248
 10
4.486716340799986
 20
15.9934191744
 10
4.552360164799992
 20
15.5611513296
 10
4.620589193599968
 20
15.0978458976
 10
4.691107121599983
 20
14.6053880432
 10
4.763709513599977
 20
14.0852703952
 10
4.838226783999985
 20
13.538876784
 10
4.914478481599971
 20
12.967754432
 10
4.992745308799968
 20
12.3699467376
 10
5.074192633599992
 20
11.73632469919999
 10
5.160016871999985
 20
11.05680870879999
 10
5.245979699199992
 20
10.3647389936
  0
ARC
  5
C62
330
1F
100
AcDbEntity
  8
0
  6
HIDDEN
 62
     8
100
AcDbCircle
 10
7.77089039839997
 20
16.113553832
 30
0.0
 40
0.625
100
AcDbArc
 50
249.9999999999999
 51
69.99999999999999
  0
LINE
  5
C63
330
1F
100
AcDbEntity
  8
0
  6
HIDDEN
 62
     8
100
AcDbLine
 10
30.89479313362683
 20
19.96742936716262
 30
0.0
 11
29.42416199867912
 21
9.438170798569258
 31
0.0
  0
LWPOLYLINE
  5
C64
330
1F
100
AcDbEntity
  8
0
100
AcDbPolyline
 90
       12
 70
     0
 43
0.0
 10
30.75402030239998
 20
10.3647389936
 10
30.83998312959998
 20
11.05680870879999
 10
30.92580736639998
 20
11.73632469919999
 10
31.00725469279997
 20
12.3699467376
 10
31.08552151839997
 20
12.967754432
 10
31.16177321599998
 20
13.538876784
 10
31.23629048799996
 20
14.0852703952
 10
31.30889287839998
 20
14.6053880432
 10
31.37941080799997
 20
15.0978458976
 10
31.44763983519998
 20
15.5611513296
 10
31.51328365919998
 20
15.9934191744
 10
31.57267472319996
 20
16.3719505248
  0
LWPOLYLINE
  5
C65
330
1F
100
AcDbEntity
  8
0
100
AcDbPolyline
 90
        3
 70
     0
 43
0.0
 10
29.86912917447797
 20
9.545715397437206
 10
30.04005812639998
 20
9.604005739199998
 10
30.19516065439997
 20
9.670416769600002
  0
LINE
  5
C66
330
1F
100
AcDbEntity
  8
0
100
AcDbLine
 10
13.01795504159999
 20
0.399772089599999
 30
0.0
 11
13.77747811062081
 21
1.484483446583097
 31
0.0
  0
LINE
  5
C67
330
1F
100
AcDbEntity
  8
0
100
AcDbLine
 10
11.48204495907366
 20
0.3997720900717141
 30
0.0
 11
11.08364233742531
 21
0.9687499999999987
 31
0.0
  0
LINE
  5
C68
330
1F
100
AcDbEntity
  8
0
100
AcDbLine
 10
21.9803920213278
 20
1.830280735666654
 30
0.0
 11
22.98204495839998
 21
0.399772089599999
 31
0.0
  0
ARC
  5
C69
330
1F
100
AcDbEntity
  8
0
100
AcDbCircle
 10
23.74999999999998
 20
0.9375
 30
0.0
 40
0.9375
100
AcDbArc
 50
215.0
 51
339.9999999999999
  0
LINE
  5
C6A
330
1F
100
AcDbEntity
  8
CENTER
100
AcDbLine
 10
11.49999999999998
 20
4.21843154050666
 30
0.0
 11
11.49999999999998
 21
-2.011201200687569
 31
0.0
  0
ARC
  5
C6B
330
1F
100
AcDbEntity
  8
0
100
AcDbCircle
 10
12.24999999999998
 20
0.9375
 30
0.0
 40
0.9375
100
AcDbArc
 50
215.0000000633562
 51
324.9999999999999
  0
LINE
  5
C6C
330
1F
100
AcDbEntity
  8
0
100
AcDbLine
 10
26.69148764959997
 20
2.030217671999999
 30
0.0
 11
13.81789729759997
 21
1.483867859200001
 31
0.0
  0
LINE
  5
C6D
330
1F
100
AcDbEntity
  8
0
100
AcDbLine
 10
6.575815838127496
 20
9.438176858292266
 30
0.0
 11
7.437400820799965
 21
3.307696063999994
 31
0.0
  0
LINE
  5
C6E
330
1F
100
AcDbEntity
  8
0
100
AcDbLine
 10
10.22855339039996
 20
0.96875
 30
0.0
 11
12.7714466096
 21
0.9687499999999964
 31
0.0
  0
LINE
  5
C6F
330
1F
100
AcDbEntity
  8
0
100
AcDbLine
 10
9.459441652799981
 20
1.550247480000001
 30
0.0
 11
13.81789729759997
 21
1.483867859200001
 31
0.0
  0
ARC
  5
C70
330
1F
100
AcDbEntity
  8
0
100
AcDbCircle
 10
9.463546632382914
 20
3.605686519655641
 30
0.0
 40
2.047941688978728
100
AcDbArc
 50
188.3666566204141
 51
264.0476729329605
  0
LINE
  5
C71
330
1F
100
AcDbEntity
  8
0
100
AcDbLine
 10
10.02967960799996
 20
1.0511262176
 30
0.0
 11
9.594667244799993
 21
1.4861385808
 31
0.0
  0
ARC
  5
C72
330
1F
100
AcDbEntity
  8
0
100
AcDbCircle
 10
9.439987636799983
 20
1.3314589728
 30
0.0
 40
0.21875
100
AcDbArc
 50
45.00000011550016
 51
84.93683189350001
  0
LWPOLYLINE
  5
C73
330
1F
100
AcDbEntity
  8
0
100
AcDbPolyline
 90
        4
 70
     0
 43
0.0
 10
9.459286230399968
 20
1.549357380800003
 10
9.389949524799973
 20
1.555614555200001
 10
9.320601679999967
 20
1.562093587200003
 10
9.251173163199965
 20
1.568786259200003
  0
ARC
  5
C74
330
1F
100
AcDbEntity
  8
0
100
AcDbCircle
 10
10.22855339039996
 20
1.25
 30
0.0
 40
0.28125
100
AcDbArc
 50
225.0000000000001
 51
270.0
  0
ARC
  5
C75
330
1F
100
AcDbEntity
  8
0
100
AcDbCircle
 10
13.51125659340302
 20
1.238509028409769
 30
0.0
 40
0.25
100
AcDbArc
 50
89.12744825109149
 51
135.000000000001
  0
LINE
  5
C76
330
1F
100
AcDbEntity
  8
0
100
AcDbLine
 10
12.970320392
 20
1.0511262176
 30
0.0
 11
13.33447989810638
 21
1.4152857237064
 31
0.0
  0
ARC
  5
C77
330
1F
100
AcDbEntity
  8
0
100
AcDbCircle
 10
12.7714466096
 20
1.25
 30
0.0
 40
0.28125
100
AcDbArc
 50
270.0
 51
314.9999999999998
  0
LWPOLYLINE
  5
C79
330
1F
100
AcDbEntity
  8
0
100
AcDbPolyline
 90
       11
 70
     0
 43
0.0
 10
6.130756052799981
 20
9.545746944000001
 10
6.320717609599981
 20
9.493528816000001
 10
6.53231193599997
 20
9.446203472
 10
6.769553102399967
 20
9.4024316928
 10
7.038427267199992
 20
9.360971195200001
 10
7.344062796799974
 20
9.3212426368
 10
7.686262086399992
 20
9.283556478400001
 10
8.062941422399987
 20
9.248227167999999
 10
8.47145675519998
 20
9.215430385600001
 10
8.909128948799988
 20
9.185278150400002
 10
9.331995054399968
 20
9.160038836799998
  0
LWPOLYLINE
  5
C7A
330
1F
100
AcDbEntity
  8
0
100
AcDbPolyline
 90
        6
 70
     0
 43
0.0
 10
5.245879095999967
 20
10.3655531408
 10
5.260866671999977
 20
10.27902690719999
 10
5.301579465599971
 20
10.15126816
 10
5.363198327999967
 20
10.0339790944
 10
5.444668468799974
 20
9.927835795200003
 10
5.541239927999967
 20
9.8357437728
  0
LWPOLYLINE
  5
C7B
330
1F
100
AcDbEntity
  8
0
100
AcDbPolyline
 90
        3
 70
     0
 43
0.0
 10
6.130970945599969
 20
9.545681254400001
 10
6.32090286879999
 20
9.493482971200002
 10
6.532476876799975
 20
9.446170038399998
  0
LWPOLYLINE
  5
C7C
330
1F
100
AcDbEntity
  8
0
100
AcDbPolyline
 90
        3
 70
     0
 43
0.0
 10
5.541249518399965
 20
9.835735961600001
 10
5.664709063999978
 20
9.747184939200003
 10
5.80503785919997
 20
9.670321033600004
  0
LINE
  5
C7D
330
1F
100
AcDbEntity
  8
0
100
AcDbLine
 10
5.804839345599972
 20
9.670416769600006
 30
0.0
 11
5.959941873599987
 21
9.604005739200001
 31
0.0
  0
LINE
  5
C7E
330
1F
100
AcDbEntity
  8
0
100
AcDbLine
 10
5.959716195199987
 20
9.604091744000005
 30
0.0
 11
6.130970945599969
 21
9.545681254400005
 31
0.0
  0
LINE
  5
C7F
330
1F
100
AcDbEntity
  8
0
100
AcDbLine
 10
5.54124948319999
 20
9.835735990400007
 30
0.0
 11
5.664830606399974
 21
9.747109099200006
 31
0.0
  0
LINE
  5
C80
330
1F
100
AcDbEntity
  8
0
100
AcDbLine
 10
28.62857362103126
 20
3.777128609874868
 30
0.0
 11
29.44042491359998
 21
9.441170974400002
 31
0.0
  0
LINE
  5
C81
330
1F
100
AcDbEntity
  8
0
100
AcDbLine
 10
24.63096183199998
 20
0.616856115200001
 30
0.0
 11
25.12194897600405
 21
1.963607104391851
 31
0.0
  0
ARC
  5
C82
330
1F
100
AcDbEntity
  8
0
100
AcDbCircle
 10
26.61709160639996
 20
4.0598239712
 30
0.0
 40
2.03125
100
AcDbArc
 50
272.2325971047999
 51
351.9999999999998
  0
LINE
  5
C83
330
1F
100
AcDbEntity
  8
0
100
AcDbLine
 10
26.69570982239999
 20
2.030360878399999
 30
0.0
 11
26.69622259999998
 21
2.0301158832
 31
0.0
  0
LWPOLYLINE
  5
C84
330
1F
100
AcDbEntity
  8
0
100
AcDbPolyline
 90
        4
 70
     0
 43
0.0
 10
26.69561814079996
 20
2.030417894400002
 10
26.69167084639998
 20
2.030245088
 10
26.69148764959997
 20
2.030217671999999
 10
26.69570982239999
 20
2.030360878400003
  0
LWPOLYLINE
  5
C85
330
1F
100
AcDbEntity
  8
0
100
AcDbPolyline
 90
       11
 70
     0
 43
0.0
 10
26.66800494719997
 20
9.160038836799998
 10
27.09083764799997
 20
9.185276017600003
 10
27.52847127999997
 20
9.215425035199999
 10
27.93694876639996
 20
9.2482176464
 10
28.31359635839998
 20
9.283542100799998
 10
28.65577464799999
 20
9.321223198399998
 10
28.96140346079998
 20
9.360947238400001
 10
29.23028256959999
 20
9.402404012799998
 10
29.46752312319997
 20
9.446170038399998
 10
29.67909713279998
 20
9.493482971200002
 10
29.86912917447797
 20
9.545715397437202
  0
LWPOLYLINE
  5
C86
330
1F
100
AcDbEntity
  8
0
100
AcDbPolyline
 90
        3
 70
     0
 43
0.0
 10
29.44042526079998
 20
9.441173395200003
 10
29.46768806399997
 20
9.446203472
 10
29.67928239039999
 20
9.493528816000001
  0
LWPOLYLINE
  5
C87
330
1F
100
AcDbEntity
  8
0
100
AcDbPolyline
 90
        5
 70
     0
 43
0.0
 10
30.45875976959997
 20
9.835743523200001
 10
30.55476333599996
 20
9.927208550400003
 10
30.63588147519998
 20
10.03254928479999
 10
30.69742723359998
 20
10.14890327519999
 10
30.73836656799999
 20
10.27568305439999
  0
LINE
  5
C88
330
1F
100
AcDbEntity
  8
0
100
AcDbLine
 10
30.19516065439997
 20
9.670416769600006
 30
0.0
 11
30.33522405599997
 21
9.747148300800002
 31
0.0
  0
LWPOLYLINE
  5
C89
330
1F
100
AcDbEntity
  8
0
100
AcDbPolyline
 90
        3
 70
     0
 43
0.0
 10
30.19496214079997
 20
9.670321033600004
 10
30.33516939359997
 20
9.747109099200002
 10
30.45875051679998
 20
9.835735990400003
  0
LINE
  5
C8A
330
1F
100
AcDbEntity
  8
0
100
AcDbLine
 10
30.73836656799999
 20
10.2756830544
 30
0.0
 11
30.75411991039997
 21
10.3655450032
 31
0.0
  0
LINE
  5
C8B
330
1F
100
AcDbEntity
  8
0
100
AcDbLine
 10
30.55501088479998
 20
9.927530020800002
 30
0.0
 11
30.55533153279997
 21
9.927835795200007
 31
0.0
  0
LINE
  5
C8C
330
1F
100
AcDbEntity
  8
0
  6
HIDDEN
 62
     8
100
AcDbLine
 10
28.02942075999998
 20
16.7210114864
 30
0.0
 11
30.77815856639996
 21
17.7214702288
 31
0.0
  0
LINE
  5
C8D
330
1F
100
AcDbEntity
  8
0
  6
HIDDEN
 62
     8
100
AcDbLine
 10
28.45694593919997
 20
15.5463957104
 30
0.0
 11
30.56716280639999
 21
16.3144518368
 31
0.0
  0
LINE
  5
C8E
330
1F
100
AcDbEntity
  8
0
  6
HIDDEN
 62
     8
100
AcDbLine
 10
5.223775030399977
 20
17.7057391168
 30
0.0
 11
7.972512836799992
 21
16.70528037439999
 31
0.0
  0
LINE
  5
C8F
330
1F
100
AcDbEntity
  8
0
  6
HIDDEN
 62
     8
100
AcDbLine
 10
5.43477079039998
 20
16.2987207264
 30
0.0
 11
7.544987657599975
 21
15.5306645984
 31
0.0
  0
LINE
  5
C90
330
1F
100
AcDbEntity
  8
0
100
AcDbLine
 10
4.211172300799987
 20
17.68847734079999
 30
0.0
 11
4.427331422399973
 21
16.3719514896
 31
0.0
  0
LWPOLYLINE
  5
C91
330
1F
100
AcDbEntity
  8
0
  6
HIDDEN
 62
     8
100
AcDbPolyline
 90
       55
 70
     0
 43
0.0
 10
5.223775030399977
 20
17.7057391168
 10
5.222038591999975
 20
17.70593698559999
 10
5.220405220799975
 20
17.7053426176
 10
5.218882683199964
 20
17.7041235296
 10
5.216823671999989
 20
17.70148999359999
 10
5.215057708799989
 20
17.6983931248
 10
5.21260635839998
 20
17.6927874272
 10
5.21103974559999
 20
17.6874549248
 10
5.210166155199985
 20
17.6823247616
 10
5.209793873599991
 20
17.6773260832
 10
5.209731190399978
 20
17.672388032
 10
5.209786387199969
 20
17.66743975039999
 10
5.209696427199972
 20
17.65396249119999
 10
5.209307963199975
 20
17.640088384
 10
5.208843436799966
 20
17.62599270239999
 10
5.20852529279999
 20
17.6118507264
 10
5.208617724799992
 20
17.592267536
 10
5.20925765119999
 20
17.5728603184
 10
5.210273550399975
 20
17.5535536
 10
5.211493900799965
 20
17.5342719024
 10
5.214682983999992
 20
17.487554632
 10
5.218282916799992
 20
17.4407540656
 10
5.223180835199983
 20
17.3864427744
 10
5.228706723199977
 20
17.33222761439999
 10
5.235469625599975
 20
17.2710735008
 10
5.242731825599989
 20
17.2099660096
 10
5.251461907199981
 20
17.1413951248
 10
5.260758702399968
 20
17.0728999888
 10
5.271286079999967
 20
16.9997582224
 10
5.282425723199978
 20
16.9267148288
 10
5.294662113599983
 20
16.8509738976
 10
5.307617551999967
 20
16.7753186624
 10
5.31642447999998
 20
16.7263333856
 10
5.32560692959997
 20
16.67744053279999
 10
5.335219967999975
 20
16.628715952
 10
5.344158987199975
 20
16.585628824
 10
5.353523828799993
 20
16.5425562224
 10
5.36335765279999
 20
16.4993203248
 10
5.369643003199982
 20
16.4727560464
 10
5.376238711999988
 20
16.4463178064
 10
5.383263367999987
 20
16.4202593696
 10
5.390835567999985
 20
16.3948344992
 10
5.39522618399998
 20
16.3813282432
 10
5.399848995199974
 20
16.36787198719999
 10
5.404739375999966
 20
16.3542535536
 10
5.409932699199984
 20
16.340260768
 10
5.415464340799971
 20
16.32568145279999
 10
5.417102721599988
 20
16.3214479056
 10
5.418834763199967
 20
16.3172541472
 10
5.420724339199992
 20
16.31320363679999
 10
5.422835321599976
 20
16.3093998272
 10
5.425231583999973
 20
16.30594617599999
 10
5.427977001599984
 20
16.3029461376
 10
5.431135444799977
 20
16.3005031696
 10
5.43477079039998
 20
16.2987207264
  0
LWPOLYLINE
  5
C92
330
1F
100
AcDbEntity
  8
0
100
AcDbPolyline
 90
        3
 70
     0
 43
0.0
 10
3.983510797451572
 20
19.0
 10
3.997423732799987
 20
18.9232183872
 10
4.211172300799987
 20
17.68847734079999
  0
ARC
  5
C93
330
1F
100
AcDbEntity
  8
0
  6
HIDDEN
 62
     8
100
AcDbCircle
 10
28.23104319839997
 20
16.129284944
 30
0.0
 40
0.625
100
AcDbArc
 50
110.0
 51
290.0
  0
LWPOLYLINE
  5
C95
330
1F
100
AcDbEntity
  8
0
100
AcDbPolyline
 90
        4
 70
     0
 43
0.0
 10
31.57266857759997
 20
16.3719514896
 10
31.78882770079998
 20
17.68847734079999
 10
32.00257626719998
 20
18.9232183872
 10
32.01648920254839
 20
19.0
  0
LWPOLYLINE
  5
C96
330
1F
100
AcDbEntity
  8
0
  6
HIDDEN
 62
     8
100
AcDbPolyline
 90
       55
 70
     0
 43
0.0
 10
30.77815856639996
 20
17.7214702288
 10
30.77988817119997
 20
17.7216682496
 10
30.78151645759998
 20
17.72107918719999
 10
30.78303538879997
 20
17.7198693152
 10
30.78509117119996
 20
17.7172542224
 10
30.78685570719999
 20
17.7141776144
 10
30.78931095199997
 20
17.70859332319999
 10
30.79088026559996
 20
17.7032769344
 10
30.79175559839997
 20
17.6981589136
 10
30.79212890079996
 20
17.6931697296
 10
30.79219212479996
 20
17.688239848
 10
30.79213722079997
 20
17.6832997344
 10
30.79222860479997
 20
17.6698167392
 10
30.79262006079999
 20
17.6559414688
 10
30.79308826879999
 20
17.6418471488
 10
30.79340991519997
 20
17.6277070048
 10
30.79332054719996
 20
17.60810770239999
 10
30.79268128799997
 20
17.5886825472
 10
30.79166455199997
 20
17.5693568944
 10
30.79044275199997
 20
17.55005609919999
 10
30.78725069119998
 20
17.50329452959999
 10
30.78364778399997
 20
17.4564511792
 10
30.77874606399997
 20
17.402102568
 10
30.77321534399998
 20
17.3478496704
 10
30.76644371359996
 20
17.2866287776
 10
30.75917194079998
 20
17.22545478239999
 10
30.75043081919999
 20
17.15681554719999
 10
30.74112195199997
 20
17.08825216
 10
30.73058579359998
 20
17.0150729024
 10
30.71943669439999
 20
16.9419921744
 10
30.70719673439997
 20
16.86625553919999
 10
30.69423744799998
 20
16.7906046656
 10
30.68543393919997
 20
16.7416557776
 10
30.67625512799996
 20
16.692799296
 10
30.66664590399999
 20
16.64411103039999
 10
30.65771532639998
 20
16.6010792368
 10
30.64835959359998
 20
16.5580619424
 10
30.63853570079997
 20
16.5148815792
 10
30.63225694719999
 20
16.4883515968
 10
30.62566831999997
 20
16.4619474864
 10
30.61865134079998
 20
16.4359226592
 10
30.61108753279997
 20
16.4105305312
 10
30.60669943039998
 20
16.3970343808
 10
30.60207940799996
 20
16.38358821119999
 10
30.59719234079999
 20
16.36997990719999
 10
30.59200309919997
 20
16.3559973488
 10
30.58647655199997
 20
16.3414284192
 10
30.58483776159998
 20
16.3371924928
 10
30.58310527999997
 20
16.33299629919999
 10
30.58121517759998
 20
16.32894338079999
 10
30.57910352319997
 20
16.3251372768
 10
30.57670639039999
 20
16.3216815296
 10
30.57395984479997
 20
16.31867968
 10
30.57079996159997
 20
16.3162352688
 10
30.56716280639999
 20
16.3144518368
  0
LINE
  5
CB9
330
1F
100
AcDbEntity
  8
0
  6
HIDDEN
 62
     8
100
AcDbLine
 10
34.83116147039997
 20
20.6191779824
 30
0.0
 11
31.61410303519997
 21
20.50824493599999
 31
0.0
  0
ARC
  5
CBA
330
1F
100
AcDbEntity
  8
0
  6
HIDDEN
 62
     8
100
AcDbCircle
 10
31.59343222059588
 20
20.2573835543935
 30
0.0
 40
0.25
100
AcDbArc
 50
91.97488568769999
 51
174.0780621986
  0
ARC
  5
CBC
330
1F
100
AcDbEntity
  8
0
  6
HIDDEN
 62
     8
100
AcDbCircle
 10
31.16821382699588
 20
20.30149013199349
 30
0.0
 40
0.1775
100
AcDbArc
 50
270.0
 51
354.0780714888999
  0
LINE
  5
CBD
330
1F
100
AcDbEntity
  8
0
  6
HIDDEN
 62
     8
100
AcDbLine
 10
31.07979186059587
 20
20.1239901319935
 30
0.0
 11
31.16821382699589
 21
20.1239901319935
 31
0.0
  0
ARC
  5
CBE
330
1F
100
AcDbEntity
  8
0
  6
HIDDEN
 62
     8
100
AcDbCircle
 10
31.07979186059587
 20
19.9364901319935
 30
0.0
 40
0.1875
100
AcDbArc
 50
89.9983105055
 51
172.0488833976071
  0
ARC
  5
CBF
330
1F
100
AcDbEntity
  8
0
  6
HIDDEN
 62
     8
100
AcDbCircle
 10
34.82504432159996
 20
20.7965725488
 30
0.0
 40
0.1775
100
AcDbArc
 50
271.9749593245999
 51
353.7456935285999
  0
ARC
  5
CC0
330
1F
100
AcDbEntity
  8
0
  6
HIDDEN
 62
     8
100
AcDbCircle
 10
35.24999999999997
 20
20.75
 30
0.0
 40
0.25
100
AcDbArc
 50
90.0
 51
173.7456922423
  0
LINE
  5
CC1
330
1F
100
AcDbEntity
  8
0
100
AcDbLine
 10
35.99999999999997
 20
19.0
 30
0.0
 11
35.84498855359997
 21
20.771788936
 31
0.0
  0
ARC
  5
CC2
330
1F
100
AcDbEntity
  8
0
100
AcDbCircle
 10
35.59593987999997
 20
20.75
 30
0.0
 40
0.25
100
AcDbArc
 50
5.0
 51
90.0
  0
ARC
  5
CC7
330
1F
100
AcDbEntity
  8
0
  6
HIDDEN
 62
     8
100
AcDbCircle
 10
32.840411903941
 20
20.3003828526216
 30
0.0
 40
0.25
100
AcDbArc
 50
91.97488568769999
 51
174.0780621986
  0
ARC
  5
CC8
330
1F
100
AcDbEntity
  8
0
  6
HIDDEN
 62
     8
100
AcDbCircle
 10
32.41519351034099
 20
20.34448943022159
 30
0.0
 40
0.1775
100
AcDbArc
 50
270.0
 51
354.0780714888999
  0
LINE
  5
CC9
330
1F
100
AcDbEntity
  8
0
  6
HIDDEN
 62
     8
100
AcDbLine
 10
32.32677154394099
 20
20.1669894302216
 30
0.0
 11
32.41519351034101
 21
20.1669894302216
 31
0.0
  0
ARC
  5
CCA
330
1F
100
AcDbEntity
  8
0
  6
HIDDEN
 62
     8
100
AcDbCircle
 10
32.32677154394099
 20
19.9794894302216
 30
0.0
 40
0.1875
100
AcDbArc
 50
89.9983105055
 51
172.0488833976071
  0
LINE
  5
CCB
330
1F
100
AcDbEntity
  8
0
  6
HIDDEN
 62
     8
100
AcDbLine
 10
32.14107408503529
 20
20.0054259634512
 30
0.0
 11
32.00022628762754
 21
18.99699982416925
 31
0.0
  0
LINE
  5
CCC
330
1F
100
AcDbEntity
  8
0
  6
HIDDEN
 62
     8
100
AcDbLine
 10
1.168838529599995
 20
20.6191779824
 30
0.0
 11
4.385896964799997
 21
20.50824493599999
 31
0.0
  0
ARC
  5
CCD
330
1F
100
AcDbEntity
  8
0
  6
HIDDEN
 62
     8
100
AcDbCircle
 10
3.584806489658973
 20
20.34448943022159
 30
0.0
 40
0.1775
100
AcDbArc
 50
185.9219285111
 51
270.0
  0
ARC
  5
CCE
330
1F
100
AcDbEntity
  8
0
  6
HIDDEN
 62
     8
100
AcDbCircle
 10
4.406567779404085
 20
20.2573835543935
 30
0.0
 40
0.25
100
AcDbArc
 50
5.921937801400006
 51
88.02511431230001
  0
LINE
  5
CCF
330
1F
100
AcDbEntity
  8
0
  6
HIDDEN
 62
     8
100
AcDbLine
 10
3.858925914964672
 20
20.0054259634512
 30
0.0
 11
3.99977371237243
 21
18.99699982416925
 31
0.0
  0
ARC
  5
CD0
330
1F
100
AcDbEntity
  8
0
  6
HIDDEN
 62
     8
100
AcDbCircle
 10
3.673228456058978
 20
19.9794894302216
 30
0.0
 40
0.1875
100
AcDbArc
 50
7.951116602392815
 51
90.00168949449999
  0
ARC
  5
CD1
330
1F
100
AcDbEntity
  8
0
  6
HIDDEN
 62
     8
100
AcDbCircle
 10
4.83178617300409
 20
20.30149013199349
 30
0.0
 40
0.1775
100
AcDbArc
 50
185.9219285111
 51
270.0
  0
LINE
  5
CD2
330
1F
100
AcDbEntity
  8
0
  6
HIDDEN
 62
     8
100
AcDbLine
 10
4.920208139404095
 20
20.1239901319935
 30
0.0
 11
4.831786173004076
 21
20.1239901319935
 31
0.0
  0
ARC
  5
CD3
330
1F
100
AcDbEntity
  8
0
  6
HIDDEN
 62
     8
100
AcDbCircle
 10
4.920208139404095
 20
19.9364901319935
 30
0.0
 40
0.1875
100
AcDbArc
 50
7.951116602392815
 51
90.00168949449999
  0
LINE
  5
CD4
330
1F
100
AcDbEntity
  8
0
  6
HIDDEN
 62
     8
100
AcDbLine
 10
3.673228456058978
 20
20.1669894302216
 30
0.0
 11
3.584806489658959
 21
20.1669894302216
 31
0.0
  0
ARC
  5
CD5
330
1F
100
AcDbEntity
  8
0
  6
HIDDEN
 62
     8
100
AcDbCircle
 10
3.159588096058968
 20
20.3003828526216
 30
0.0
 40
0.25
100
AcDbArc
 50
5.921937801400006
 51
88.02511431230001
  0
LINE
  5
CD6
330
1F
100
AcDbEntity
  8
0
100
AcDbLine
 10
0.0
 20
19.0
 30
0.0
 11
0.1550114463999961
 21
20.771788936
 31
0.0
  0
ARC
  5
CD7
330
1F
100
AcDbEntity
  8
0
  6
HIDDEN
 62
     8
100
AcDbCircle
 10
0.75
 20
20.75
 30
0.0
 40
0.25
100
AcDbArc
 50
6.254307757699987
 51
90.0
  0
ARC
  5
CD8
330
1F
100
AcDbEntity
  8
0
  6
HIDDEN
 62
     8
100
AcDbCircle
 10
1.17495567840001
 20
20.7965725488
 30
0.0
 40
0.1775
100
AcDbArc
 50
186.2543064714
 51
268.0250406754
  0
ARC
  5
CD9
330
1F
100
AcDbEntity
  8
0
100
AcDbCircle
 10
0.404060119999997
 20
20.75
 30
0.0
 40
0.25
100
AcDbArc
 50
90.0
 51
175.0
  0
LINE
  5
CDA
330
1F
100
AcDbEntity
  8
0
  6
HIDDEN
 62
     8
100
AcDbLine
 10
5.105206866373137
 20
19.96742936716262
 30
0.0
 11
6.575838001320846
 21
9.438170798569258
 31
0.0
  0
LINE
  5
CDB
330
1F
100
AcDbEntity
  8
0
100
AcDbLine
 10
0.404060119999997
 20
21.0
 30
0.0
 11
35.59593987999997
 21
21.0
 31
0.0
  0
ENDSEC
  0
SECTION
  2
OBJECTS
  0
DICTIONARY
  5
C
330
0
100
AcDbDictionary
  3
ACAD_GROUP
350
D
  3
ACAD_LAYOUT
350
1A
  3
ACAD_MLINESTYLE
350
17
  3
ACAD_PLOTSETTINGS
350
19
  3
ACAD_PLOTSTYLENAME
350
E
  3
ACDBHEADERROUNDTRIPXREC
350
CE3
  0
DICTIONARY
  5
D06
330
1F
100
AcDbDictionary
280
     1
  3
ACAD_LAYOUTSELFREF
360
D07
  0
DICTIONARY
  5
D04
330
1B
100
AcDbDictionary
280
     1
  3
ACAD_LAYOUTSELFREF
360
D05
  0
DICTIONARY
  5
D
102
{ACAD_REACTORS
330
C
102
}
330
C
100
AcDbDictionary
  0
DICTIONARY
  5
1A
102
{ACAD_REACTORS
330
C
102
}
330
C
100
AcDbDictionary
  0
DICTIONARY
  5
17
102
{ACAD_REACTORS
330
C
102
}
330
C
100
AcDbDictionary
  3
STANDARD
350
18
  0
DICTIONARY
  5
19
102
{ACAD_REACTORS
330
C
102
}
330
C
100
AcDbDictionary
  0
ACDBDICTIONARYWDFLT
  5
E
102
{ACAD_REACTORS
330
C
102
}
330
C
100
AcDbDictionary
281
     1
  3
Normal
350
F
100
AcDbDictionaryWithDefault
340
F
  0
DICTIONARY
  5
CE3
102
{ACAD_REACTORS
330
C
102
}
330
C
100
AcDbDictionary
  3
CEPSNTYPE
350
CED
  3
DIMSTYLEDATA
350
CF1
  3
FINGERPRINTGUID
350
CEE
  3
HYPERLINKBASE
350
CE6
  3
INSUNITS
350
CEC
  3
LAYOUTDICT
350
CE8
  3
LWETCUNION
350
CEB
  3
PLOTSETDICT
350
CE9
  3
PLOTSTYLNAMDICT
350
CEA
  3
PSVPSCALE
350
CF0
  3
PUCSBASE
350
CF4
  3
PUCSORGBACK
350
CFA
  3
PUCSORGBOTTOM
350
CF6
  3
PUCSORGFRONT
350
CF9
  3
PUCSORGLEFT
350
CF7
  3
PUCSORGRIGHT
350
CF8
  3
PUCSORGTOP
350
CF5
  3
PUCSORTHOREF
350
CF2
  3
PUCSORTHOVIEW
350
CF3
  3
STYLESHEET
350
CE7
  3
TSTACKALIGN
350
CE4
  3
TSTACKSIZE
350
CE5
  3
UCSBASE
350
CFD
  3
UCSORGBACK
350
D03
  3
UCSORGBOTTOM
350
CFF
  3
UCSORGFRONT
350
D02
  3
UCSORGLEFT
350
D00
  3
UCSORGRIGHT
350
D01
  3
UCSORGTOP
350
CFE
  3
UCSORTHOREF
350
CFB
  3
UCSORTHOVIEW
350
CFC
  3
VERSIONGUID
350
CEF
  0
XRECORD
  5
D07
102
{ACAD_REACTORS
330
D06
102
}
330
D06
100
AcDbXrecord
340
1F
  0
XRECORD
  5
D05
102
{ACAD_REACTORS
330
D04
102
}
330
D04
100
AcDbXrecord
340
1B
  0
MLINESTYLE
  5
18
102
{ACAD_REACTORS
330
17
102
}
330
17
100
AcDbMlineStyle
  2
STANDARD
 70
     0
  3

 62
   256
 51
90.0
 52
90.0
 71
     2
 49
0.5
 62
   256
  6
BYLAYER
 49
-0.5
 62
   256
  6
BYLAYER
  0
ACDBPLACEHOLDER
  5
F
102
{ACAD_REACTORS
330
E
102
}
330
0
100
AcDbPlaceHolder
280
     0
  0
XRECORD
  5
CED
102
{ACAD_REACTORS
330
CE3
102
}
330
CE3
100
AcDbXrecord
 90
        0
  0
XRECORD
  5
CF1
102
{ACAD_REACTORS
330
CE3
102
}
330
CE3
100
AcDbXrecord
1000
DSTYLE
1002
{
1070
   278
 70
     0
1070
   342
340
223
1070
   371
 70
     0
1070
   372
 70
     0
1002
}
  0
XRECORD
  5
CEE
102
{ACAD_REACTORS
330
CE3
102
}
330
CE3
100
AcDbXrecord
  1

  0
XRECORD
  5
CE6
102
{ACAD_REACTORS
330
CE3
102
}
330
CE3
100
AcDbXrecord
  1

  0
XRECORD
  5
CEC
102
{ACAD_REACTORS
330
CE3
102
}
330
CE3
100
AcDbXrecord
 90
        1
  0
XRECORD
  5
CE8
102
{ACAD_REACTORS
330
CE3
102
}
330
CE3
100
AcDbXrecord
340
1A
  0
XRECORD
  5
CEB
102
{ACAD_REACTORS
330
CE3
102
}
330
CE3
100
AcDbXrecord
 90
    10781
  0
XRECORD
  5
CE9
102
{ACAD_REACTORS
330
CE3
102
}
330
CE3
100
AcDbXrecord
340
19
  0
XRECORD
  5
CEA
102
{ACAD_REACTORS
330
CE3
102
}
330
CE3
100
AcDbXrecord
340
E
  0
XRECORD
  5
CF0
102
{ACAD_REACTORS
330
CE3
102
}
330
CE3
100
AcDbXrecord
 40
0.0
  0
XRECORD
  5
CF4
102
{ACAD_REACTORS
330
CE3
102
}
330
CE3
100
AcDbXrecord
340
0
  0
XRECORD
  5
CFA
102
{ACAD_REACTORS
330
CE3
102
}
330
CE3
100
AcDbXrecord
 10
0.0
 20
0.0
 30
0.0
  0
XRECORD
  5
CF6
102
{ACAD_REACTORS
330
CE3
102
}
330
CE3
100
AcDbXrecord
 10
0.0
 20
0.0
 30
0.0
  0
XRECORD
  5
CF9
102
{ACAD_REACTORS
330
CE3
102
}
330
CE3
100
AcDbXrecord
 10
0.0
 20
0.0
 30
0.0
  0
XRECORD
  5
CF7
102
{ACAD_REACTORS
330
CE3
102
}
330
CE3
100
AcDbXrecord
 10
0.0
 20
0.0
 30
0.0
  0
XRECORD
  5
CF8
102
{ACAD_REACTORS
330
CE3
102
}
330
CE3
100
AcDbXrecord
 10
0.0
 20
0.0
 30
0.0
  0
XRECORD
  5
CF5
102
{ACAD_REACTORS
330
CE3
102
}
330
CE3
100
AcDbXrecord
 10
0.0
 20
0.0
 30
0.0
  0
XRECORD
  5
CF2
102
{ACAD_REACTORS
330
CE3
102
}
330
CE3
100
AcDbXrecord
340
0
  0
XRECORD
  5
CF3
102
{ACAD_REACTORS
330
CE3
102
}
330
CE3
100
AcDbXrecord
 70
     0
  0
XRECORD
  5
CE7
102
{ACAD_REACTORS
330
CE3
102
}
330
CE3
100
AcDbXrecord
  1

  0
XRECORD
  5
CE4
102
{ACAD_REACTORS
330
CE3
102
}
330
CE3
100
AcDbXrecord
 90
        1
  0
XRECORD
  5
CE5
102
{ACAD_REACTORS
330
CE3
102
}
330
CE3
100
AcDbXrecord
 90
       70
  0
XRECORD
  5
CFD
102
{ACAD_REACTORS
330
CE3
102
}
330
CE3
100
AcDbXrecord
340
0
  0
XRECORD
  5
D03
102
{ACAD_REACTORS
330
CE3
102
}
330
CE3
100
AcDbXrecord
 10
0.0
 20
0.0
 30
0.0
  0
XRECORD
  5
CFF
102
{ACAD_REACTORS
330
CE3
102
}
330
CE3
100
AcDbXrecord
 10
0.0
 20
0.0
 30
0.0
  0
XRECORD
  5
D02
102
{ACAD_REACTORS
330
CE3
102
}
330
CE3
100
AcDbXrecord
 10
0.0
 20
0.0
 30
0.0
  0
XRECORD
  5
D00
102
{ACAD_REACTORS
330
CE3
102
}
330
CE3
100
AcDbXrecord
 10
0.0
 20
0.0
 30
0.0
  0
XRECORD
  5
D01
102
{ACAD_REACTORS
330
CE3
102
}
330
CE3
100
AcDbXrecord
 10
0.0
 20
0.0
 30
0.0
  0
XRECORD
  5
CFE
102
{ACAD_REACTORS
330
CE3
102
}
330
CE3
100
AcDbXrecord
 10
0.0
 20
0.0
 30
0.0
  0
XRECORD
  5
CFB
102
{ACAD_REACTORS
330
CE3
102
}
330
CE3
100
AcDbXrecord
340
0
  0
XRECORD
  5
CFC
102
{ACAD_REACTORS
330
CE3
102
}
330
CE3
100
AcDbXrecord
 70
     0
  0
XRECORD
  5
CEF
102
{ACAD_REACTORS
330
CE3
102
}
330
CE3
100
AcDbXrecord
  1
{6A489C71-2547-4378-8311-A6DEEA3AD753}
  0
ENDSEC
  0
EOF
