  0
SECTION
  2
HEADER
  9
$ACADVER
  1
AC1014
  9
$ACADMAINTVER
 70
     9
  9
$DWGCODEPAGE
  3
ANSI_1252
  9
$INSBASE
 10
0.0
 20
0.0
 30
0.0
  9
$EXTMIN
 10
-35.99999998911254
 20
-2.003571777250579
 30
0.0
  9
$EXTMAX
 10
80.11328831791415
 20
74.065267760142
 30
0.0
  9
$LIMMIN
 10
0.0
 20
0.0
  9
$LIMMAX
 10
17.0
 20
11.0
  9
$ORTHOMODE
 70
     0
  9
$REGENMODE
 70
     1
  9
$FILLMODE
 70
     1
  9
$QTEXTMODE
 70
     0
  9
$MIRRTEXT
 70
     1
  9
$DRAGMODE
 70
     2
  9
$LTSCALE
 40
0.9350000000000001
  9
$OSMODE
 70
    37
  9
$ATTMODE
 70
     1
  9
$TEXTSIZE
 40
0.2
  9
$TRACEWID
 40
0.05
  9
$TEXTSTYLE
  7
STANDARD
  9
$CLAYER
  8
0
  9
$CELTYPE
  6
BYLAYER
  9
$CECOLOR
 62
   256
  9
$CELTSCALE
 40
1.0
  9
$DELOBJ
 70
     1
  9
$DISPSILH
 70
     0
  9
$DIMSCALE
 40
1.0
  9
$DIMASZ
 40
0.1875
  9
$DIMEXO
 40
0.10625
  9
$DIMDLI
 40
0.646
  9
$DIMRND
 40
0.0
  9
$DIMDLE
 40
0.0
  9
$DIMEXE
 40
0.306
  9
$DIMTP
 40
0.0
  9
$DIMTM
 40
0.0
  9
$DIMTXT
 40
0.125
  9
$DIMCEN
 40
0.153
  9
$DIMTSZ
 40
0.0
  9
$DIMTOL
 70
     0
  9
$DIMLIM
 70
     0
  9
$DIMTIH
 70
     1
  9
$DIMTOH
 70
     1
  9
$DIMSE1
 70
     0
  9
$DIMSE2
 70
     0
  9
$DIMTAD
 70
     0
  9
$DIMZIN
 70
     0
  9
$DIMBLK
  1
_FILLED
  9
$DIMASO
 70
     1
  9
$DIMSHO
 70
     1
  9
$DIMPOST
  1

  9
$DIMAPOST
  1

  9
$DIMALT
 70
     0
  9
$DIMALTD
 70
     2
  9
$DIMALTF
 40
25.4
  9
$DIMLFAC
 40
1.0
  9
$DIMTOFL
 70
     0
  9
$DIMTVP
 40
0.0
  9
$DIMTIX
 70
     0
  9
$DIMSOXD
 70
     0
  9
$DIMSAH
 70
     0
  9
$DIMBLK1
  1

  9
$DIMBLK2
  1

  9
$DIMSTYLE
  2
STANDARD
  9
$DIMCLRD
 70
     0
  9
$DIMCLRE
 70
     0
  9
$DIMCLRT
 70
     0
  9
$DIMTFAC
 40
1.0
  9
$DIMGAP
 40
0.09
  9
$DIMJUST
 70
     0
  9
$DIMSD1
 70
     0
  9
$DIMSD2
 70
     0
  9
$DIMTOLJ
 70
     1
  9
$DIMTZIN
 70
     0
  9
$DIMALTZ
 70
     0
  9
$DIMALTTZ
 70
     0
  9
$DIMFIT
 70
     3
  9
$DIMUPT
 70
     0
  9
$DIMUNIT
 70
     2
  9
$DIMDEC
 70
     4
  9
$DIMTDEC
 70
     4
  9
$DIMALTU
 70
     2
  9
$DIMALTTD
 70
     2
  9
$DIMTXSTY
  7
STANDARD
  9
$DIMAUNIT
 70
     0
  9
$LUNITS
 70
     2
  9
$LUPREC
 70
     4
  9
$SKETCHINC
 40
0.1
  9
$FILLETRAD
 40
0.0
  9
$AUNITS
 70
     0
  9
$AUPREC
 70
     0
  9
$MENU
  1
acad
  9
$ELEVATION
 40
0.0
  9
$PELEVATION
 40
0.0
  9
$THICKNESS
 40
0.0
  9
$LIMCHECK
 70
     0
  9
$BLIPMODE
 70
     0
  9
$CHAMFERA
 40
0.0
  9
$CHAMFERB
 40
0.0
  9
$CHAMFERC
 40
0.0
  9
$CHAMFERD
 40
0.0
  9
$SKPOLY
 70
     0
  9
$TDCREATE
 40
2454054.617472858
  9
$TDUPDATE
 40
2454071.694826632
  9
$TDINDWG
 40
0.0475718287
  9
$TDUSRTIMER
 40
0.0475718287
  9
$USRTIMER
 70
     1
  9
$ANGBASE
 50
0.0
  9
$ANGDIR
 70
     0
  9
$PDMODE
 70
     3
  9
$PDSIZE
 40
0.03125
  9
$PLINEWID
 40
0.0
  9
$COORDS
 70
     0
  9
$SPLFRAME
 70
     0
  9
$SPLINETYPE
 70
     6
  9
$SPLINESEGS
 70
     8
  9
$ATTDIA
 70
     0
  9
$ATTREQ
 70
     1
  9
$HANDLING
 70
-16383
  9
$HANDSEED
  5
D6E
  9
$SURFTAB1
 70
     6
  9
$SURFTAB2
 70
     6
  9
$SURFTYPE
 70
     6
  9
$SURFU
 70
     6
  9
$SURFV
 70
     6
  9
$UCSNAME
  2

  9
$UCSORG
 10
0.0
 20
0.0
 30
0.0
  9
$UCSXDIR
 10
1.0
 20
0.0
 30
0.0
  9
$UCSYDIR
 10
0.0
 20
1.0
 30
0.0
  9
$PUCSNAME
  2

  9
$PUCSORG
 10
0.0
 20
0.0
 30
0.0
  9
$PUCSXDIR
 10
1.0
 20
0.0
 30
0.0
  9
$PUCSYDIR
 10
0.0
 20
1.0
 30
0.0
  9
$USERI1
 70
     0
  9
$USERI2
 70
     0
  9
$USERI3
 70
     0
  9
$USERI4
 70
     0
  9
$USERI5
 70
     0
  9
$USERR1
 40
0.0
  9
$USERR2
 40
0.0
  9
$USERR3
 40
0.0
  9
$USERR4
 40
0.0
  9
$USERR5
 40
0.0
  9
$WORLDVIEW
 70
     1
  9
$SHADEDGE
 70
     3
  9
$SHADEDIF
 70
    70
  9
$TILEMODE
 70
     1
  9
$MAXACTVP
 70
    16
  9
$PINSBASE
 10
0.0
 20
0.0
 30
0.0
  9
$PLIMCHECK
 70
     0
  9
$PEXTMIN
 10
1.000000000000000E+20
 20
1.000000000000000E+20
 30
1.000000000000000E+20
  9
$PEXTMAX
 10
-1.000000000000000E+20
 20
-1.000000000000000E+20
 30
-1.000000000000000E+20
  9
$PLIMMIN
 10
0.0
 20
0.0
  9
$PLIMMAX
 10
12.0
 20
9.0
  9
$UNITMODE
 70
     0
  9
$VISRETAIN
 70
     0
  9
$PLINEGEN
 70
     1
  9
$PSLTSCALE
 70
     0
  9
$TREEDEPTH
 70
  3020
  9
$PICKSTYLE
 70
     1
  9
$CMLSTYLE
  2
STANDARD
  9
$CMLJUST
 70
     0
  9
$CMLSCALE
 40
1.0
  9
$PROXYGRAPHICS
 70
     0
  9
$MEASUREMENT
 70
     0
  0
ENDSEC
  0
SECTION
  2
CLASSES
  0
CLASS
  1
ACDBDICTIONARYWDFLT
  2
AcDbDictionaryWithDefault
  3
AutoCAD 2000
 90
        0
280
     0
281
     0
  0
CLASS
  1
ACDBPLACEHOLDER
  2
AcDbPlaceHolder
  3
AutoCAD 2000
 90
        0
280
     0
281
     0
  0
CLASS
  1
LAYOUT
  2
AcDbLayout
  3
AutoCAD 2000
 90
        0
280
     0
281
     0
  0
CLASS
  1
LWPOLYLINE
  2
AcDbPolyline
  3
AutoCAD 2000
 90
        0
280
     0
281
     1
  0
CLASS
  1
IMAGE
  2
AcDbRasterImage
  3
ISM
 90
      127
280
     0
281
     1
  0
CLASS
  1
OLE2FRAME
  2
AcDbOle2Frame
  3
AutoCAD 2000
 90
        0
280
     0
281
     1
  0
CLASS
  1
HATCH
  2
AcDbHatch
  3
AutoCAD 2000
 90
        0
280
     0
281
     1
  0
CLASS
  1
DICTIONARYVAR
  2
AcDbDictionaryVar
  3
AutoCAD 2000
 90
        0
280
     0
281
     0
  0
CLASS
  1
RASTERVARIABLES
  2
AcDbRasterVariables
  3
ISM
 90
        0
280
     0
281
     0
  0
CLASS
  1
IMAGEDEF
  2
AcDbRasterImageDef
  3
ISM
 90
        0
280
     0
281
     0
  0
CLASS
  1
IMAGEDEF_REACTOR
  2
AcDbRasterImageDefReactor
  3
ISM
 90
        1
280
     0
281
     0
  0
CLASS
  1
IDBUFFER
  2
AcDbIdBuffer
  3
AutoCAD 2000
 90
        0
280
     0
281
     0
  0
CLASS
  1
SPATIAL_FILTER
  2
AcDbSpatialFilter
  3
AutoCAD 2000
 90
        0
280
     0
281
     0
  0
CLASS
  1
XRECORD
  2
AcDbXrecord
  3
AutoCAD 2000
 90
        0
280
     0
281
     0
  0
CLASS
  1
SORTENTSTABLE
  2
AcDbSortentsTable
  3
AutoCAD 2000
 90
        0
280
     0
281
     0
  0
CLASS
  1
LAYER_INDEX
  2
AcDbLayerIndex
  3
AutoCAD 2000
 90
        0
280
     0
281
     0
  0
CLASS
  1
SPATIAL_INDEX
  2
AcDbSpatialIndex
  3
AutoCAD 2000
 90
        0
280
     0
281
     0
  0
CLASS
  1
OBJECT_PTR
  2
CAseDLPNTableRecord
  3
ASE-LPNTableRecord
 90
        1
280
     0
281
     0
  0
CLASS
  1
PLOTSETTINGS
  2
AcDbPlotSettings
  3
AutoCAD 2000
 90
        0
280
     0
281
     0
  0
CLASS
  1
VBA_PROJECT
  2
AcDbVbaProject
  3
acadvba
 90
        0
280
     0
281
     0
  0
CLASS
  1
WIPEOUT
  2
AcDbWipeout
  3
WipeOut|AutoCAD Express Tool|expresstools@autodesk.com
 90
      127
280
     0
281
     1
  0
CLASS
  1
WIPEOUTVARIABLES
  2
AcDbWipeoutVariables
  3
WipeOut|AutoCAD Express Tool|expresstools@autodesk.com
 90
        0
280
     0
281
     0
  0
CLASS
  1
RTEXT
  2
RText
  3
RText|AutoCAD Express Tool|expresstools@autodesk.com
 90
        0
280
     0
281
     1
  0
CLASS
  1
ARCALIGNEDTEXT
  2
AcDbArcAlignedText
  3
ATEXT|AutoCAD Express Tool|expresstools@autodesk.com
 90
        0
280
     0
281
     1
  0
CLASS
  1
LONG_TRANSACTION
  2
AcDbLongTransaction
  3
AutoCAD 2000
 90
        0
280
     0
281
     0
  0
CLASS
  1
LWPOLYLINE
  2
AcDbPolyline
  3
AutoCAD 2000
 90
        0
280
     0
281
     1
  0
CLASS
  1
HATCH
  2
AcDbHatch
  3
AutoCAD 2000
 90
        0
280
     0
281
     1
  0
CLASS
  1
XRECORD
  2
AcDbXrecord
  3
AutoCAD 2000
 90
        0
280
     0
281
     0
  0
ENDSEC
  0
SECTION
  2
TABLES
  0
TABLE
  2
VPORT
  5
8
330
0
100
AcDbSymbolTable
 70
     3
  0
VPORT
  5
D48
330
8
100
AcDbSymbolTableRecord
100
AcDbViewportTableRecord
  2
*ACTIVE
 70
     0
 10
0.0
 20
0.0
 11
1.0
 21
1.0
 12
0.1578265954572728
 22
12.51793245247316
 13
0.0
 23
0.0
 14
1.0
 24
1.0
 15
0.0
 25
0.0
 16
0.0
 26
0.0
 36
1.0
 17
0.0
 27
0.0
 37
0.0
 40
41.81379118690216
 41
1.745424292845257
 42
50.0
 43
0.0
 44
0.0
 50
0.0
 51
0.0
 71
     0
 72
   100
 73
     1
 74
     1
 75
     0
 76
     0
 77
     0
 78
     0
  0
ENDTAB
  0
TABLE
  2
LTYPE
  5
5
330
0
100
AcDbSymbolTable
 70
     3
  0
LTYPE
  5
14
330
5
100
AcDbSymbolTableRecord
100
AcDbLinetypeTableRecord
  2
BYBLOCK
 70
     0
  3

 72
    65
 73
     0
 40
0.0
  0
LTYPE
  5
15
330
5
100
AcDbSymbolTableRecord
100
AcDbLinetypeTableRecord
  2
BYLAYER
 70
     0
  3

 72
    65
 73
     0
 40
0.0
  0
LTYPE
  5
16
330
5
100
AcDbSymbolTableRecord
100
AcDbLinetypeTableRecord
  2
CONTINUOUS
 70
     0
  3
Solid line
 72
    65
 73
     0
 40
0.0
  0
LTYPE
  5
1F6
330
5
100
AcDbSymbolTableRecord
100
AcDbLinetypeTableRecord
  2
HIDDEN
 70
     0
  3
- - - - - - - - - - - - - - - - - - - -
 72
    65
 73
     2
 40
0.2
 49
0.1
 74
     0
 49
-0.1
 74
     0
  0
LTYPE
  5
9B0
330
5
100
AcDbSymbolTableRecord
100
AcDbLinetypeTableRecord
  2
CENTERX2
 70
     0
  3
Center (2x) ________  __  ________  __  _____
 72
    65
 73
     4
 40
4.0
 49
2.5
 74
     0
 49
-0.5
 74
     0
 49
0.5
 74
     0
 49
-0.5
 74
     0
  0
ENDTAB
  0
TABLE
  2
LAYER
  5
2
330
0
100
AcDbSymbolTable
 70
     3
  0
LAYER
  5
10
330
2
100
AcDbSymbolTableRecord
100
AcDbLayerTableRecord
  2
0
 70
     0
 62
     7
  6
CONTINUOUS
  0
LAYER
  5
987
330
2
100
AcDbSymbolTableRecord
100
AcDbLayerTableRecord
  2
DEFPOINTS
 70
     0
 62
     7
  6
CONTINUOUS
  0
LAYER
  5
9B1
330
2
100
AcDbSymbolTableRecord
100
AcDbLayerTableRecord
  2
CENTER
 70
     0
 62
     1
  6
CENTERX2
  0
ENDTAB
  0
TABLE
  2
STYLE
  5
3
330
0
100
AcDbSymbolTable
 70
     2
  0
STYLE
  5
11
330
3
100
AcDbSymbolTableRecord
100
AcDbTextStyleTableRecord
  2
STANDARD
 70
     0
 40
0.0
 41
0.8
 50
0.0
 71
     0
 42
0.2
  3
txt
  4

  0
STYLE
  5
21E
330
3
100
AcDbSymbolTableRecord
100
AcDbTextStyleTableRecord
  2
TEXTSTYLE_1
 70
     0
 40
0.0
 41
0.8
 50
0.0
 71
     0
 42
0.2
  3
txt
  4

  0
ENDTAB
  0
TABLE
  2
VIEW
  5
6
330
0
100
AcDbSymbolTable
 70
     0
  0
ENDTAB
  0
TABLE
  2
UCS
  5
7
330
0
100
AcDbSymbolTable
 70
     0
  0
ENDTAB
  0
TABLE
  2
APPID
  5
9
330
0
100
AcDbSymbolTable
 70
     2
  0
APPID
  5
222
330
9
100
AcDbSymbolTableRecord
100
AcDbRegAppTableRecord
  2
ACAD
 70
     0
  0
APPID
  5
984
330
9
100
AcDbSymbolTableRecord
100
AcDbRegAppTableRecord
  2
DCO15
 70
     0
  0
ENDTAB
  0
TABLE
  2
DIMSTYLE
  5
A
330
0
100
AcDbSymbolTable
 70
     1
  0
DIMSTYLE
105
239
330
A
100
AcDbSymbolTableRecord
100
AcDbDimStyleTableRecord
  2
STANDARD
 70
     0
  3

  4

  5
_FILLED
  6
_FILLED
  7
_FILLED
 40
1.0
 41
0.1875
 42
0.0625
 43
0.38
 44
0.18
 45
0.0
 46
0.0
 47
0.00001
 48
0.00001
140
0.125
141
0.09
142
0.0
143
25.4
144
1.0
145
0.0
146
1.0
147
0.09
 71
     0
 72
     0
 73
     1
 74
     1
 75
     0
 76
     0
 77
     0
 78
     4
170
     0
171
     2
172
     0
173
     0
174
     0
175
     0
176
     0
177
     0
178
     0
270
     2
271
     5
272
     5
273
     2
274
     2
340
11
275
     0
280
     0
281
     0
282
     0
283
     1
284
     4
285
     0
286
     0
287
     3
288
     0
  0
ENDTAB
  0
TABLE
  2
BLOCK_RECORD
  5
1
330
0
100
AcDbSymbolTable
 70
     1
  0
BLOCK_RECORD
  5
1F
102
{ACAD_XDICTIONARY
360
D6C
102
}
330
1
100
AcDbSymbolTableRecord
100
AcDbBlockTableRecord
  2
*MODEL_SPACE
  0
BLOCK_RECORD
  5
1B
102
{ACAD_XDICTIONARY
360
D6A
102
}
330
1
100
AcDbSymbolTableRecord
100
AcDbBlockTableRecord
  2
*PAPER_SPACE
  0
BLOCK_RECORD
  5
223
330
1
100
AcDbSymbolTableRecord
100
AcDbBlockTableRecord
  2
_FILLED
  0
ENDTAB
  0
ENDSEC
  0
SECTION
  2
BLOCKS
  0
BLOCK
  5
20
330
1F
100
AcDbEntity
  8
0
100
AcDbBlockBegin
  2
*MODEL_SPACE
 70
     0
 10
0.0
 20
0.0
 30
0.0
  3
*MODEL_SPACE
  1

  0
ENDBLK
  5
21
330
1F
100
AcDbEntity
  8
0
100
AcDbBlockEnd
  0
BLOCK
  5
1C
330
1B
100
AcDbEntity
 67
     1
  8
0
100
AcDbBlockBegin
  2
*PAPER_SPACE
 70
     0
 10
0.0
 20
0.0
 30
0.0
  3
*PAPER_SPACE
  1

  0
ENDBLK
  5
1D
330
1B
100
AcDbEntity
 67
     1
  8
0
100
AcDbBlockEnd
  0
BLOCK
  5
3CA
330
223
100
AcDbEntity
  8
0
100
AcDbBlockBegin
  2
_FILLED
 70
     0
 10
0.0
 20
0.0
 30
0.0
  3
_FILLED
  1

  0
SOLID
  5
3CB
330
223
100
AcDbEntity
  8
0
  6
BYBLOCK
 62
     0
100
AcDbTrace
 10
0.0
 20
0.0
 30
0.0
 11
-1.0
 21
0.1666666667
 31
0.0
 12
-1.0
 22
-0.1666666667
 32
0.0
 13
-1.0
 23
-0.1666666667
 33
0.0
  0
ENDBLK
  5
3CC
330
223
100
AcDbEntity
  8
0
  6
BYBLOCK
 62
     0
100
AcDbBlockEnd
  0
ENDSEC
  0
SECTION
  2
ENTITIES
  0
MTEXT
  5
439
330
1F
100
AcDbEntity
  8
0
  6
CONTINUOUS
 62
     2
100
AcDbMText
 10
15.84375
 20
2.3125
 30
0.0
 40
0.09375
 41
0.075
 71
     2
 72
     1
  1
 \P \P 
  7
TEXTSTYLE_1
1001
ACAD
1000
MTEXTBEGIN
1070
    73
1070
     1
1070
    44
1040
1.0
1070
    74
1070
     0
1000
MTEXTEND
  0
LINE
  5
B4B
330
1F
100
AcDbEntity
  8
0
100
AcDbLine
 10
-15.56655426353203
 20
-0.0000000000000036
 30
0.0
 11
15.56655426816598
 21
0.0
 31
0.0
  0
LWPOLYLINE
  5
B4F
330
1F
100
AcDbEntity
  8
0
100
AcDbPolyline
 90
       22
 70
     0
 43
0.0
 10
-1.990330674477909
 20
1.497549461836991
 10
-2.210328408877906
 20
1.500750407436991
 10
-2.483237565677903
 20
1.50482771303699
 10
-2.76433066967791
 20
1.509135495436988
 10
-3.053125226477909
 20
1.513661770636988
 10
-3.349453581677913
 20
1.518399821836988
 10
-3.653495146477901
 20
1.52334906663699
 10
-3.965598586477902
 20
1.528512388236992
 10
-4.285606103277906
 20
1.533884743436987
 10
-4.613431872877903
 20
1.539462345036989
 10
-4.949121730477905
 20
1.545243730636992
 10
-5.292858866477907
 20
1.551229924236993
 10
-5.644976274477905
 20
1.557424719436989
 10
-6.005798508077909
 20
1.563831905036993
 10
-6.375025349677905
 20
1.570444098636992
 10
-6.752269036077912
 20
1.577251985036989
 10
-7.137206248877909
 20
1.58424704743699
 10
-7.529579146477907
 20
1.591421631436988
 10
-7.929197112877908
 20
1.598769028236988
 10
-8.335916560877912
 20
1.606283116236989
 10
-8.749408906477903
 20
1.613954069836987
 10
-9.595398714477902
 20
1.629725655436994
  0
LWPOLYLINE
  5
B50
330
1F
100
AcDbEntity
  8
0
100
AcDbPolyline
 90
       13
 70
     0
 43
0.0
 10
-3.665161742850422
 20
15.55917620423699
 10
-4.142840378050429
 20
15.10102731303699
 10
-4.656647366850428
 20
14.65137927143699
 10
-5.20982913325043
 20
14.20963357063699
 10
-5.806766414850422
 20
13.77495130183698
 10
-6.452585219650423
 20
13.34675085863699
 10
-7.153261477250417
 20
12.92473895943698
 10
-7.915785627650429
 20
12.50893424423699
 10
-8.749050142850428
 20
12.09939372103699
 10
-9.66102982445043
 20
11.69773560423699
 10
-10.65161604525042
 20
11.30941010503698
 10
-11.69215369325042
 20
10.94844369223699
 10
-12.70797017485042
 20
10.63688542983698
  0
LWPOLYLINE
  5
B51
330
1F
100
AcDbEntity
  8
0
  6
HIDDEN
 62
     8
100
AcDbPolyline
 90
       27
 70
     0
 43
0.0
 10
-5.939945747650419
 20
16.38038390823699
 10
-5.800052997250425
 20
16.32413325383699
 10
-5.658960021250429
 20
16.27171997703699
 10
-5.516766157250422
 20
16.22288961863699
 10
-5.373570741250425
 20
16.17738772103699
 10
-5.229473112450428
 20
16.13495982663699
 10
-5.084572608450422
 20
16.09535147623699
 10
-4.923126334850429
 20
16.05443103463699
 10
-4.760950830850426
 20
16.01631610183699
 10
-4.598181416450422
 20
15.98066004423699
 10
-4.434953414850419
 20
15.94711622343698
 10
-4.203766029250424
 20
15.90279232423699
 10
-3.971980467650418
 20
15.86185230503699
 10
-3.739643810050431
 20
15.82415577223699
 10
-3.506803141250422
 20
15.78956234023699
 10
-3.273505544450422
 20
15.75793161383699
 10
-3.039798099650418
 20
15.72912320583699
 10
-2.736868419650427
 20
15.69580725543699
 10
-2.433433389250417
 20
15.66667731783699
 10
-2.129595003650429
 20
15.64142926343699
 10
-1.825455256450417
 20
15.61975896583698
 10
-1.521116146050424
 20
15.60136229223699
 10
-1.216679667650417
 20
15.58593511783699
 10
-0.9122478164504242
 20
15.57317330983699
 10
-0.607922587650428
 20
15.56277274183698
 10
-0.3038059764504266
 20
15.55442928423699
 10
0.0000000187495817
 20
15.54783880743699
  0
LWPOLYLINE
  5
B52
330
1F
100
AcDbEntity
  8
0
  6
HIDDEN
 62
     8
100
AcDbPolyline
 90
       30
 70
     0
 43
0.0
 10
-5.09371096365043
 20
17.62223667623699
 10
-4.999323562050427
 20
17.56899892263699
 10
-4.90327816845042
 20
17.51920355463699
 10
-4.805716270850417
 20
17.47266075943699
 10
-4.706779362050419
 20
17.42918072423699
 10
-4.600611600450427
 20
17.38624343463699
 10
-4.49322741005043
 20
17.34630546663699
 10
-4.384795072450422
 20
17.30914106343699
 10
-4.275482874050418
 20
17.27452446503699
 10
-4.165459099650426
 20
17.24222991143698
 10
-4.016216434050427
 20
17.20200573223699
 10
-3.866101742850425
 20
17.16531767303699
 10
-3.715230904450429
 20
17.13189001703699
 10
-3.563719802050421
 20
17.10144705063699
 10
-3.411684314050425
 20
17.07371305543699
 10
-3.259240325250424
 20
17.04841231943699
 10
-3.061406474050421
 20
17.01885509863699
 10
-2.863145254850429
 20
16.99253903463699
 10
-2.66451988365042
 20
16.96908814343699
 10
-2.465593576450423
 20
16.94812644423699
 10
-2.266429546050424
 20
16.92927795143699
 10
-2.067091008450425
 20
16.91216668423699
 10
-1.795189264450421
 20
16.89115735623699
 10
-1.52310722765042
 20
16.87289813703699
 10
-1.250871382850426
 20
16.85760999463699
 10
-0.9785082132504284
 20
16.84551390183699
 10
-0.706044200450428
 20
16.83683083303699
 10
-0.4335058308504286
 20
16.83178175783698
 10
-0.2167613828504284
 20
16.83050753383699
 10
0.0000000187495817
 20
16.83178175783698
  0
LINE
  5
B5A
330
1F
100
AcDbEntity
  8
0
100
AcDbLine
 10
-24.95214443607791
 20
9.433040410636992
 30
0.0
 11
-30.18304596808162
 21
18.63262936476227
 31
0.0
  0
LINE
  5
B5B
330
1F
100
AcDbEntity
  8
0
100
AcDbLine
 10
-5.012033329853035
 20
1.546339338222275
 30
0.0
 11
-5.550425987696947
 21
0.5313880555853654
 31
0.0
  0
LINE
  5
B5C
330
1F
100
AcDbEntity
  8
0
100
AcDbLine
 10
-16.44933480031102
 20
0.5302143851880868
 30
0.0
 11
-17.10771371927912
 21
1.767383164234941
 31
0.0
  0
ARC
  5
B5D
330
1F
100
AcDbEntity
  8
0
100
AcDbCircle
 10
-15.56655426353203
 20
0.9999999999999982
 30
0.0
 40
1.0
100
AcDbArc
 50
208.0203812298696
 51
270.0
  0
ARC
  5
B5E
330
1F
100
AcDbEntity
  8
0
100
AcDbCircle
 10
-6.433830111273429
 20
0.9999999999999982
 30
0.0
 40
1.0
100
AcDbArc
 50
270.0
 51
332.0557674899265
  0
LWPOLYLINE
  5
B5F
330
1F
100
AcDbEntity
  8
0
100
AcDbPolyline
 90
        6
 70
     0
 43
0.0
 10
-16.1987537736779
 20
1.750753313036989
 10
-16.3644055384779
 20
1.753633765836989
 10
-16.7900957128779
 20
1.761310837836989
 10
-17.2079575288779
 20
1.76929965863699
 10
-17.6104865576779
 20
1.777501881036991
 10
-17.98357294967789
 20
1.785623636236993
  0
LWPOLYLINE
  5
B60
330
1F
100
AcDbEntity
  8
0
100
AcDbPolyline
 90
       16
 70
     0
 43
0.0
 10
-16.40987690125043
 20
9.779850681036991
 10
-16.79653382925042
 20
9.711718682636993
 10
-17.14976702445043
 20
9.652577676236989
 10
-17.47549646605042
 20
9.600593532236993
 10
-17.77906197005042
 20
9.554296044236993
 10
-18.06433340845043
 20
9.512635765836991
 10
-18.33474768525042
 20
9.474762970636989
 10
-18.60311350765042
 20
9.438703089036993
 10
-18.87888273805042
 20
9.40320184263699
 10
-19.16445749485043
 20
9.368066071436993
 10
-19.46098460205042
 20
9.333301484236992
 10
-19.76937691565042
 20
9.298966673036987
 10
-20.09020278125042
 20
9.265178241036993
 10
-20.42376094765042
 20
9.232093615436989
 10
-20.76982725005042
 20
9.199925589836988
 10
-21.12761556525042
 20
9.168928874636991
  0
LINE
  5
B61
330
1F
100
AcDbEntity
  8
0
100
AcDbLine
 10
-24.58950735127791
 20
8.506652889036994
 30
0.0
 11
-23.42728554167791
 21
3.525447804236989
 31
0.0
  0
LWPOLYLINE
  5
B62
330
1F
100
AcDbEntity
  8
0
100
AcDbPolyline
 90
       44
 70
     0
 43
0.0
 10
-20.56438414967791
 20
1.869179621836993
 10
-20.6559655144779
 20
1.873789953036992
 10
-20.74226016087791
 20
1.878328201036987
 10
-20.82350555287791
 20
1.882794874636987
 10
-20.8999337240779
 20
1.887191265036991
 10
-20.97179691447791
 20
1.891520897036992
 10
-21.03935140887791
 20
1.895788780236992
 10
-21.1028478712779
 20
1.900000836236993
 10
-21.1625533656779
 20
1.90416554343699
 10
-21.2187490504779
 20
1.908294405836992
 10
-21.2717209064779
 20
1.912401481036989
 10
-21.3217753656779
 20
1.91650518183699
 10
-21.3692302936779
 20
1.920628553036993
 10
-21.4143865048779
 20
1.924797252236994
 10
-21.4575482216779
 20
1.92904189703699
 10
-21.4990530888779
 20
1.93340225863699
 10
-21.5392815496779
 20
1.937930457036993
 10
-21.57871464247791
 20
1.942701324236994
 10
-21.61789994647791
 20
1.947814733836994
 10
-21.6574484200779
 20
1.953402297036989
 10
-21.69806982007791
 20
1.959642260236991
 10
-21.7404705992779
 20
1.966756492236991
 10
-21.7850650872779
 20
1.974965577036991
 10
-21.8321199048779
 20
1.984503671436991
 10
-21.88180086967791
 20
1.995620892236987
 10
-21.93472536727791
 20
2.008720117836988
 10
-21.9917824552779
 20
2.024373324236991
 10
-22.05390379127791
 20
2.043313665036992
 10
-22.1218141480779
 20
2.066394597836991
 10
-22.19541827607791
 20
2.09435638663699
 10
-22.2742253912779
 20
2.127880860236993
 10
-22.3574050488779
 20
2.16754084903699
 10
-22.4439855848779
 20
2.213823375436989
 10
-22.53294452887791
 20
2.267138221836988
 10
-22.6232079944779
 20
2.327791713036988
 10
-22.7136268872779
 20
2.395937085836992
 10
-22.80325198487791
 20
2.471770130636992
 10
-22.8918234280779
 20
2.556108586636989
 10
-22.97900120727791
 20
2.649968241036988
 10
-23.0641773720779
 20
2.754434500236991
 10
-23.1462489992779
 20
2.87035016583699
 10
-23.2235212568779
 20
2.997925041036987
 10
-23.2941555928779
 20
3.137105703436988
 10
-23.3190012776779
 20
3.193316300236988
  0
LINE
  5
B63
330
1F
100
AcDbEntity
  8
0
100
AcDbLine
 10
-23.3191668952779
 20
3.193706945036986
 30
0.0
 11
-23.3477107064779
 21
3.264742797836987
 31
0.0
  0
LINE
  5
B64
330
1F
100
AcDbEntity
  8
0
100
AcDbLine
 10
-23.3191668952779
 20
3.193706945036986
 30
0.0
 11
-23.3190012776779
 21
3.193316300236986
 31
0.0
  0
LWPOLYLINE
  5
B65
330
1F
100
AcDbEntity
  8
0
100
AcDbPolyline
 90
        4
 70
     0
 43
0.0
 10
-23.3477256968779
 20
3.264782234636991
 10
-23.35543258327791
 20
3.285392137036987
 10
-23.3967199192779
 20
3.409896044236988
 10
-23.42728554167791
 20
3.525447804236989
  0
LWPOLYLINE
  5
B66
330
1F
100
AcDbEntity
  8
0
100
AcDbPolyline
 90
        5
 70
     0
 43
0.0
 10
-17.9835603384779
 20
1.78562335143699
 10
-18.3556480440779
 20
1.794382741836992
 10
-18.7131918856779
 20
1.803574657036991
 10
-19.04728204727791
 20
1.812919596236989
 10
-19.3498153304779
 20
1.822092167436993
  0
LWPOLYLINE
  5
B67
330
1F
100
AcDbEntity
  8
0
100
AcDbPolyline
 90
        6
 70
     0
 43
0.0
 10
-19.3498088584779
 20
1.822091962636991
 10
-19.6027851416779
 20
1.830360293836991
 10
-19.8452110552779
 20
1.838883575436989
 10
-20.0695452280779
 20
1.847398601036987
 10
-20.2755948072779
 20
1.855879055436988
 10
-20.4585356120779
 20
1.864086207436992
  0
LINE
  5
B68
330
1F
100
AcDbEntity
  8
0
100
AcDbLine
 10
-20.45852785047789
 20
1.864085842636989
 30
0.0
 11
-20.56438414967791
 21
1.869179621836991
 31
0.0
  0
LWPOLYLINE
  5
B69
330
1F
100
AcDbEntity
  8
0
100
AcDbPolyline
 90
        8
 70
     0
 43
0.0
 10
-24.95214443767791
 20
9.433040415436993
 10
-24.8796011544779
 20
9.304943293836993
 10
-24.8086711656779
 20
9.175813433036987
 10
-24.7465694776779
 20
9.05011812743699
 10
-24.69831574487791
 20
8.92676523463699
 10
-24.6604073176779
 20
8.799023604236987
 10
-24.62576548087791
 20
8.660660741836993
 10
-24.58950735127791
 20
8.506652889036994
  0
LWPOLYLINE
  5
B6A
330
1F
100
AcDbEntity
  8
0
100
AcDbPolyline
 90
        4
 70
     0
 43
0.0
 10
-9.595398714477902
 20
1.629725655436994
 10
-10.0273407944779
 20
1.637806930636992
 10
-10.46491371927791
 20
1.646005789836993
 10
-11.3560098120779
 20
1.662717303436993
  0
LWPOLYLINE
  5
B6B
330
1F
100
AcDbEntity
  8
0
100
AcDbPolyline
 90
        4
 70
     0
 43
0.0
 10
-13.03435924727791
 20
1.694104252236991
 10
-14.44446730327791
 20
1.719899564236991
 10
-15.7923975688779
 20
1.743724794636991
 10
-16.1915510056779
 20
1.750628397836992
  0
LWPOLYLINE
  5
B6D
330
1F
100
AcDbEntity
  8
0
100
AcDbPolyline
 90
        4
 70
     0
 43
0.0
 10
-11.3560098120779
 20
1.662717303436993
 10
-11.80904386007789
 20
1.671209309836991
 10
-12.2666966600779
 20
1.679776929036991
 10
-13.03435924727791
 20
1.694104252236991
  0
LWPOLYLINE
  5
B6F
330
1F
100
AcDbEntity
  8
0
100
AcDbPolyline
 90
        7
 70
     0
 43
0.0
 10
-12.70797017485042
 20
10.63688542983698
 10
-13.54432211405042
 20
10.40746734343699
 10
-14.27911480045042
 20
10.22433051783699
 10
-14.92205692045042
 20
10.07722065543699
 10
-15.48281433965042
 20
9.958332857036987
 10
-15.97496091885042
 20
9.86086317063699
 10
-16.40987690125043
 20
9.779850681036991
  0
LWPOLYLINE
  5
B76
330
1F
100
AcDbEntity
  8
0
  6
HIDDEN
 62
     8
100
AcDbPolyline
 90
       78
 70
     0
 43
0.0
 10
-5.939945747650419
 20
16.38038390823699
 10
-5.942606634050427
 20
16.38127890823699
 10
-5.976093414850417
 20
16.39310514503699
 10
-6.009238414850422
 20
16.40586071143698
 10
-6.042014379650417
 20
16.41953805543699
 10
-6.074394056450422
 20
16.43412962823699
 10
-6.106350194050428
 20
16.44962787783699
 10
-6.137246838850423
 20
16.46569842823699
 10
-6.16768024205043
 20
16.48262918183699
 10
-6.197620595650427
 20
16.50041583783699
 10
-6.227038093250421
 20
16.51905408903699
 10
-6.255902928450417
 20
16.53853963623699
 10
-6.284015024450418
 20
16.55874294343699
 10
-6.311513998850422
 20
16.57977466503699
 10
-6.338362189250425
 20
16.60163037063699
 10
-6.364521930050422
 20
16.62430562983699
 10
-6.389955562050424
 20
16.64779601063699
 10
-6.410780944450429
 20
16.66820563623699
 10
-6.431034699650417
 20
16.68918495623699
 10
-6.45068680845042
 20
16.71072878983699
 10
-6.469707251650426
 20
16.73283195783699
 10
-6.488066008450424
 20
16.75548927783698
 10
-6.505733061250417
 20
16.77869556743699
 10
-6.522723339650418
 20
16.80251211623699
 10
-6.538946067650421
 20
16.82686162503699
 10
-6.554359512450425
 20
16.85173018503699
 10
-6.568921933250429
 20
16.87710388743699
 10
-6.58259159405042
 20
16.90296882183699
 10
-6.595326758850426
 20
16.92931108103699
 10
-6.606038670850431
 20
16.95361597383699
 10
-6.615906610050423
 20
16.97827821543699
 10
-6.62489059245042
 20
17.00327349543699
 10
-6.632950638850424
 20
17.02857750823699
 10
-6.640046765250424
 20
17.05416594823699
 10
-6.646138994050424
 20
17.08001450663699
 10
-6.650581843650421
 20
17.10263980103698
 10
-6.654210923650417
 20
17.12541195943699
 10
-6.656998898050424
 20
17.14830019143699
 10
-6.658918422850426
 20
17.17127370663699
 10
-6.65994216205042
 20
17.19430171303699
 10
-6.660042774850417
 20
17.21735342343699
 10
-6.659113011650426
 20
17.24177634663699
 10
-6.657094088450428
 20
17.26613521223699
 10
-6.653964768450428
 20
17.29037392743699
 10
-6.649703818050419
 20
17.31443639783698
 10
-6.644289998850418
 20
17.33826653063698
 10
-6.63806532685043
 20
17.36063167943699
 10
-6.630786942850427
 20
17.38267928743699
 10
-6.622460229250428
 20
17.40435198823699
 10
-6.613090563650423
 20
17.42559242183699
 10
-6.602683328450417
 20
17.44634322023699
 10
-6.59133734765043
 20
17.46640085863699
 10
-6.579008549250424
 20
17.48587271143699
 10
-6.565731046850423
 20
17.50471190823699
 10
-6.551538958850422
 20
17.52287157863699
 10
-6.536466397250428
 20
17.54030485063698
 10
-6.522633976450428
 20
17.55487917383699
 10
-6.508192654850425
 20
17.56885165063699
 10
-6.493177011650423
 20
17.58220834823699
 10
-6.477621624450428
 20
17.59493533223698
 10
-6.461561075650429
 20
17.60701866983699
 10
-6.445029939650417
 20
17.61844442503699
 10
-6.427334624450431
 20
17.62964255783699
 10
-6.409202918850418
 20
17.64011541383699
 10
-6.390672166850428
 20
17.64986732903699
 10
-6.371779704450425
 20
17.65890263783699
 10
-6.352562875650427
 20
17.66722567623699
 10
-6.333059018050427
 20
17.67484078183699
 10
-6.308581517250424
 20
17.68329281383699
 10
-6.283770392450428
 20
17.69069498503699
 10
-6.258674280450428
 20
17.69707459463699
 10
-6.233341813250426
 20
17.70245894663699
 10
-6.207821624450424
 20
17.70687533863699
 10
-6.181440464450425
 20
17.71043557703699
 10
-6.154950448450428
 20
17.71303454663699
 10
-6.128389696450419
 20
17.71470500743699
 10
-6.101796333250426
 20
17.71547972103699
 10
-6.07520848045042
 20
17.71539144743699
  0
LINE
  5
B77
330
1F
100
AcDbEntity
  8
0
  6
HIDDEN
 62
     8
100
AcDbLine
 10
-6.07520848045042
 20
17.71539144743699
 30
0.0
 11
-5.357276051650423
 21
17.70164342183699
 31
0.0
  0
LWPOLYLINE
  5
B78
330
1F
100
AcDbEntity
  8
0
  6
HIDDEN
 62
     8
100
AcDbPolyline
 90
       30
 70
     0
 43
0.0
 10
-5.094166896450424
 20
17.62250500423699
 10
-5.095505222850427
 20
17.62328885703699
 10
-5.104355237250423
 20
17.62836470183699
 10
-5.113285130050421
 20
17.63329932263699
 10
-5.122293158850418
 20
17.63808994023699
 10
-5.131377586050426
 20
17.64273377543699
 10
-5.14053667085043
 20
17.64722805223699
 10
-5.149768674050427
 20
17.65156999303699
 10
-5.159071854850431
 20
17.65575682023699
 10
-5.168444474050424
 20
17.65978575463699
 10
-5.17788479245042
 20
17.66365402023699
 10
-5.187435685250427
 20
17.66737564423699
 10
-5.197050965250419
 20
17.67092851783699
 10
-5.206728443650426
 20
17.67430886983699
 10
-5.216465930050425
 20
17.67751292743699
 10
-5.226261235650419
 20
17.68053692583699
 10
-5.236112168450425
 20
17.68337709063699
 10
-5.246016539650419
 20
17.68602965543699
 10
-5.255972157250418
 20
17.68849084903699
 10
-5.265976834050427
 20
17.69075690023699
 10
-5.274999069250419
 20
17.69262199623699
 10
-5.284055307650426
 20
17.69432341863699
 10
-5.293141771650418
 20
17.69585784423699
 10
-5.302254685250424
 20
17.69722194343699
 10
-5.311390269250431
 20
17.69841238983699
 10
-5.320544747650423
 20
17.69942585863699
 10
-5.329714342850429
 20
17.70025902343699
 10
-5.338895275650422
 20
17.70090855623699
 10
-5.348083771650429
 20
17.70137113063698
 10
-5.357276051650423
 20
17.70164342183699
  0
LWPOLYLINE
  5
B82
330
1F
100
AcDbEntity
  8
0
100
AcDbPolyline
 90
       13
 70
     0
 43
0.0
 10
3.665161762728509
 20
15.55917620423699
 10
4.142840397928516
 20
15.10102731303699
 10
4.656647386728515
 20
14.65137927143699
 10
5.209829153128517
 20
14.20963357063699
 10
5.806766434728508
 20
13.77495130183698
 10
6.452585239528509
 20
13.34675085863699
 10
7.153261497128504
 20
12.92473895943698
 10
7.915785647528515
 20
12.50893424423699
 10
8.749050162728515
 20
12.09939372103699
 10
9.661029844328517
 20
11.69773560423699
 10
10.65161606512851
 20
11.30941010503698
 10
11.69215371312851
 20
10.94844369223699
 10
12.70797019472852
 20
10.63688542983698
  0
LINE
  5
B83
330
1F
100
AcDbEntity
  8
CENTER
100
AcDbLine
 10
0.0000000083769651
 20
14.33120462473328
 30
0.0
 11
0.0000000115022021
 21
19.68590741975613
 31
0.0
  0
LINE
  5
B84
330
1F
100
AcDbEntity
  8
0
100
AcDbLine
 10
24.95214444114959
 20
9.433040410636992
 30
0.0
 11
30.18304597315329
 21
18.63262936476227
 31
0.0
  0
LWPOLYLINE
  5
B85
330
1F
100
AcDbEntity
  8
0
100
AcDbPolyline
 90
       44
 70
     0
 43
0.0
 10
20.56438415474958
 20
1.869179621836993
 10
20.65596551954957
 20
1.873789953036992
 10
20.74226016594958
 20
1.878328201036987
 10
20.82350555794957
 20
1.882794874636987
 10
20.89993372914958
 20
1.887191265036991
 10
20.97179691954958
 20
1.891520897036992
 10
21.03935141394959
 20
1.895788780236992
 10
21.10284787634959
 20
1.900000836236993
 10
21.16255337074958
 20
1.90416554343699
 10
21.21874905554958
 20
1.908294405836992
 10
21.27172091154958
 20
1.912401481036989
 10
21.32177537074958
 20
1.91650518183699
 10
21.36923029874959
 20
1.920628553036993
 10
21.41438650994957
 20
1.924797252236994
 10
21.45754822674957
 20
1.92904189703699
 10
21.49905309394959
 20
1.93340225863699
 10
21.53928155474958
 20
1.937930457036993
 10
21.57871464754959
 20
1.942701324236994
 10
21.61789995154959
 20
1.947814733836994
 10
21.65744842514957
 20
1.953402297036989
 10
21.69806982514959
 20
1.959642260236991
 10
21.74047060434959
 20
1.966756492236991
 10
21.78506509234959
 20
1.974965577036991
 10
21.83211990994957
 20
1.984503671436991
 10
21.88180087474959
 20
1.995620892236987
 10
21.93472537234959
 20
2.008720117836988
 10
21.99178246034958
 20
2.024373324236991
 10
22.05390379634958
 20
2.043313665036992
 10
22.12181415314959
 20
2.066394597836991
 10
22.19541828114959
 20
2.09435638663699
 10
22.27422539634958
 20
2.127880860236993
 10
22.35740505394958
 20
2.16754084903699
 10
22.44398558994956
 20
2.213823375436989
 10
22.53294453394958
 20
2.267138221836988
 10
22.62320799954958
 20
2.327791713036988
 10
22.71362689234957
 20
2.395937085836992
 10
22.80325198994959
 20
2.471770130636992
 10
22.89182343314957
 20
2.556108586636989
 10
22.97900121234957
 20
2.649968241036988
 10
23.06417737714958
 20
2.754434500236991
 10
23.14624900434959
 20
2.87035016583699
 10
23.22352126194958
 20
2.997925041036987
 10
23.29415559794959
 20
3.137105703436988
 10
23.31900128274959
 20
3.193316300236988
  0
LINE
  5
B86
330
1F
100
AcDbEntity
  8
0
100
AcDbLine
 10
5.012033334491006
 20
1.546339338214723
 30
0.0
 11
5.550425992330879
 21
0.5313880555853654
 31
0.0
  0
LINE
  5
B87
330
1F
100
AcDbEntity
  8
0
100
AcDbLine
 10
16.44933480494496
 20
0.5302143851880903
 30
0.0
 11
17.10771372390857
 21
1.767383164226486
 31
0.0
  0
LINE
  5
B88
330
1F
100
AcDbEntity
  8
CENTER
100
AcDbLine
 10
-0.000000001029498
 20
-1.785611357767887
 30
0.0
 11
0.0000000025358349
 21
4.323150141380489
 31
0.0
  0
ARC
  5
B89
330
1F
100
AcDbEntity
  8
0
100
AcDbCircle
 10
6.433830115907362
 20
1.0
 30
0.0
 40
1.0
100
AcDbArc
 50
207.9442325100733
 51
270.0
  0
ARC
  5
B8A
330
1F
100
AcDbEntity
  8
0
100
AcDbCircle
 10
15.56655426816598
 20
1.0
 30
0.0
 40
1.0
100
AcDbArc
 50
270.0
 51
331.9796187701302
  0
LWPOLYLINE
  5
B8B
330
1F
100
AcDbEntity
  8
0
100
AcDbPolyline
 90
       22
 70
     0
 43
0.0
 10
1.990330679549579
 20
1.497549461836991
 10
2.210328413949575
 20
1.500750407436991
 10
2.483237570749572
 20
1.50482771303699
 10
2.764330674749579
 20
1.509135495436988
 10
3.053125231549579
 20
1.513661770636988
 10
3.349453586749582
 20
1.518399821836988
 10
3.65349515154957
 20
1.52334906663699
 10
3.965598591549571
 20
1.528512388236992
 10
4.285606108349576
 20
1.533884743436987
 10
4.613431877949572
 20
1.539462345036989
 10
4.949121735549574
 20
1.545243730636992
 10
5.292858871549576
 20
1.551229924236993
 10
5.644976279549574
 20
1.557424719436989
 10
6.005798513149578
 20
1.563831905036993
 10
6.375025354749574
 20
1.570444098636992
 10
6.752269041149581
 20
1.577251985036989
 10
7.137206253949578
 20
1.58424704743699
 10
7.529579151549576
 20
1.591421631436988
 10
7.929197117949577
 20
1.598769028236988
 10
8.335916565949581
 20
1.606283116236989
 10
8.749408911549572
 20
1.613954069836987
 10
9.595398719549571
 20
1.629725655436994
  0
LWPOLYLINE
  5
B8C
330
1F
100
AcDbEntity
  8
0
100
AcDbPolyline
 90
       24
 70
     0
 43
0.0
 10
-0.0000000344778994
 20
1.556986804236993
 10
-0.0849282840779109
 20
1.55691789543699
 10
-0.1751320696779073
 20
1.556644244236993
 10
-0.2704927320779047
 20
1.55608162983699
 10
-0.3687452536779074
 20
1.555186263436988
 10
-0.4680752520779022
 20
1.553949709836994
 10
-0.56770855127791
 20
1.552378924236992
 10
-0.6672202872779066
 20
1.550490045836989
 10
-0.7664091176779023
 20
1.548303255436993
 10
-0.8655046856779121
 20
1.545832199436988
 10
-0.964678663277901
 20
1.543091204236988
 10
-1.063853602477912
 20
1.540101605836989
 10
-1.163229412077903
 20
1.536876348236989
 10
-1.26293895927791
 20
1.53342826183699
 10
-1.362546215277909
 20
1.52978840743699
 10
-1.461290908077906
 20
1.525999492236993
 10
-1.557570170477909
 20
1.52213606343699
 10
-1.647861048877906
 20
1.518352932236988
 10
-1.728744229677907
 20
1.514808897036987
 10
-1.799600901677912
 20
1.511542444236989
 10
-1.860101276077905
 20
1.508570668236993
 10
-1.909865336877906
 20
1.505906989836988
 10
-1.948656258477903
 20
1.50355417543699
 10
-1.976229604077907
 20
1.501514849036988
  0
ARC
  5
B8D
330
1F
100
AcDbEntity
  8
0
100
AcDbCircle
 10
-1.271446623277888
 20
1.257629423436988
 30
0.0
 40
0.28125
100
AcDbArc
 50
225.0
 51
270.0
  0
LWPOLYLINE
  5
B8E
330
1F
100
AcDbEntity
  8
0
100
AcDbPolyline
 90
       12
 70
     0
 43
0.0
 10
-1.845850308077906
 20
1.434285543436994
 10
-1.853619564077909
 20
1.441681946636992
 10
-1.870360224877906
 20
1.45540322663699
 10
-1.887644637677901
 20
1.46695700263699
 10
-1.905009898477906
 20
1.476356263436992
 10
-1.921958768877906
 20
1.483685557836994
 10
-1.937752893677902
 20
1.489041972236991
 10
-1.9515488760779
 20
1.492639209036989
 10
-1.962793805677911
 20
1.49485611303699
 10
-1.971495765677907
 20
1.496137500236992
 10
-1.978045340077905
 20
1.496849741836991
 10
-1.982888864877899
 20
1.497232217036989
  0
LINE
  5
B8F
330
1F
100
AcDbEntity
  8
0
100
AcDbLine
 10
-1.470320405677888
 20
1.058755641036988
 30
0.0
 11
-1.845850200877897
 21
1.43428543463699
 31
0.0
  0
LINE
  5
B90
330
1F
100
AcDbEntity
  8
0
100
AcDbLine
 10
-1.845870088877894
 20
1.434306447436988
 30
0.0
 11
-1.845850200877897
 21
1.43428543463699
 31
0.0
  0
LWPOLYLINE
  5
B91
330
1F
100
AcDbEntity
  8
0
100
AcDbPolyline
 90
        4
 70
     0
 43
0.0
 10
-1.982888864877899
 20
1.497232217036989
 10
-1.986421674477902
 20
1.497428501836987
 10
-1.988883882477899
 20
1.497518946636988
 10
-1.990354621677901
 20
1.497550682636992
  0
LINE
  5
B92
330
1F
100
AcDbEntity
  8
0
100
AcDbLine
 10
-1.976229604077893
 20
1.501514849036986
 30
0.0
 11
-1.992489872877889
 21
1.49978251623699
 31
0.0
  0
LINE
  5
B93
330
1F
100
AcDbEntity
  8
0
100
AcDbLine
 10
-1.992489872877889
 20
1.49978251623699
 30
0.0
 11
-1.997313954477895
 21
1.49834416903699
 31
0.0
  0
LINE
  5
B94
330
1F
100
AcDbEntity
  8
0
100
AcDbLine
 10
-1.997306351277891
 20
1.498344572236988
 30
0.0
 11
-1.997287256877889
 21
1.498322564236986
 31
0.0
  0
LWPOLYLINE
  5
B95
330
1F
100
AcDbEntity
  8
0
100
AcDbPolyline
 90
        4
 70
     0
 43
0.0
 10
-1.997287256877903
 20
1.498322564236987
 10
-1.996231512877905
 20
1.497922257036991
 10
-1.993723599277906
 20
1.497658265036991
 10
-1.990345748077906
 20
1.497549679436987
  0
LINE
  5
B96
330
1F
100
AcDbEntity
  8
0
100
AcDbLine
 10
-1.271446589250423
 20
0.9763794234369884
 30
0.0
 11
1.271446628349572
 21
0.9763794234369884
 31
0.0
  0
LWPOLYLINE
  5
B97
330
1F
100
AcDbEntity
  8
0
100
AcDbPolyline
 90
       24
 70
     0
 43
0.0
 10
0.0000000395495692
 20
1.556986804236993
 10
0.0849282891495806
 20
1.55691789543699
 10
0.175132074749577
 20
1.556644244236993
 10
0.2704927371495744
 20
1.55608162983699
 10
0.3687452587495772
 20
1.555186263436988
 10
0.4680752571495719
 20
1.553949709836994
 10
0.5677085563495796
 20
1.552378924236992
 10
0.6672202923495762
 20
1.550490045836989
 10
0.766409122749572
 20
1.548303255436993
 10
0.8655046907495817
 20
1.545832199436988
 10
0.9646786683495706
 20
1.543091204236988
 10
1.063853607549582
 20
1.540101605836989
 10
1.163229417149573
 20
1.536876348236989
 10
1.26293896434958
 20
1.53342826183699
 10
1.362546220349578
 20
1.52978840743699
 10
1.461290913149575
 20
1.525999492236993
 10
1.557570175549578
 20
1.52213606343699
 10
1.647861053949576
 20
1.518352932236988
 10
1.728744234749577
 20
1.514808897036987
 10
1.799600906749582
 20
1.511542444236989
 10
1.860101281149575
 20
1.508570668236993
 10
1.909865341949576
 20
1.505906989836988
 10
1.948656263549573
 20
1.50355417543699
 10
1.976229609149577
 20
1.501514849036988
  0
LINE
  5
B98
330
1F
100
AcDbEntity
  8
0
100
AcDbLine
 10
1.470320410749572
 20
1.058755641036988
 30
0.0
 11
1.845850205949581
 21
1.43428543463699
 31
0.0
  0
LWPOLYLINE
  5
B99
330
1F
100
AcDbEntity
  8
0
100
AcDbPolyline
 90
       12
 70
     0
 43
0.0
 10
1.845850313149576
 20
1.434285543436994
 10
1.853619569149579
 20
1.441681946636992
 10
1.870360229949575
 20
1.45540322663699
 10
1.88764464274957
 20
1.46695700263699
 10
1.905009903549576
 20
1.476356263436992
 10
1.921958773949576
 20
1.483685557836994
 10
1.937752898749572
 20
1.489041972236991
 10
1.95154888114957
 20
1.492639209036989
 10
1.96279381074958
 20
1.49485611303699
 10
1.971495770749577
 20
1.496137500236992
 10
1.978045345149574
 20
1.496849741836991
 10
1.982888869949569
 20
1.497232217036989
  0
LINE
  5
B9A
330
1F
100
AcDbEntity
  8
0
100
AcDbLine
 10
1.845870093949578
 20
1.434306447436988
 30
0.0
 11
1.845850205949581
 21
1.43428543463699
 31
0.0
  0
LWPOLYLINE
  5
B9B
330
1F
100
AcDbEntity
  8
0
100
AcDbPolyline
 90
        4
 70
     0
 43
0.0
 10
1.997287261949573
 20
1.498322564236987
 10
1.996231517949574
 20
1.497922257036991
 10
1.993723604349576
 20
1.497658265036991
 10
1.990345753149576
 20
1.497549679436987
  0
LINE
  5
B9C
330
1F
100
AcDbEntity
  8
0
100
AcDbLine
 10
1.997306356349575
 20
1.498344572236988
 30
0.0
 11
1.997287261949573
 21
1.498322564236986
 31
0.0
  0
LINE
  5
B9D
330
1F
100
AcDbEntity
  8
0
100
AcDbLine
 10
1.992489877949573
 20
1.49978251623699
 30
0.0
 11
1.997313959549579
 21
1.49834416903699
 31
0.0
  0
LINE
  5
B9E
330
1F
100
AcDbEntity
  8
0
100
AcDbLine
 10
1.976229609149577
 20
1.501514849036986
 30
0.0
 11
1.992489877949573
 21
1.49978251623699
 31
0.0
  0
LWPOLYLINE
  5
B9F
330
1F
100
AcDbEntity
  8
0
100
AcDbPolyline
 90
        4
 70
     0
 43
0.0
 10
1.982888869949569
 20
1.497232217036989
 10
1.986421679549572
 20
1.497428501836987
 10
1.988883887549569
 20
1.497518946636988
 10
1.990354626749571
 20
1.497550682636992
  0
ARC
  5
BA0
330
1F
100
AcDbEntity
  8
0
100
AcDbCircle
 10
1.271446628349572
 20
1.257629423436988
 30
0.0
 40
0.28125
100
AcDbArc
 50
270.0
 51
314.9999999999999
  0
LWPOLYLINE
  5
BA2
330
1F
100
AcDbEntity
  8
0
100
AcDbPolyline
 90
        4
 70
     0
 43
0.0
 10
13.03435925234959
 20
1.694104252236991
 10
14.44446730834958
 20
1.719899564236991
 10
15.79239757394959
 20
1.743724794636991
 10
16.19155101074958
 20
1.750628397836992
  0
LWPOLYLINE
  5
BA3
330
1F
100
AcDbEntity
  8
0
100
AcDbPolyline
 90
        4
 70
     0
 43
0.0
 10
11.35600981714957
 20
1.662717303436993
 10
11.80904386514956
 20
1.671209309836991
 10
12.26669666514957
 20
1.679776929036991
 10
13.03435925234959
 20
1.694104252236991
  0
LWPOLYLINE
  5
BA4
330
1F
100
AcDbEntity
  8
0
100
AcDbPolyline
 90
        4
 70
     0
 43
0.0
 10
9.595398719549571
 20
1.629725655436994
 10
10.02734079954957
 20
1.637806930636992
 10
10.46491372434957
 20
1.646005789836993
 10
11.35600981714957
 20
1.662717303436993
  0
LWPOLYLINE
  5
BA5
330
1F
100
AcDbEntity
  8
0
100
AcDbPolyline
 90
        5
 70
     0
 43
0.0
 10
17.98356034354959
 20
1.78562335143699
 10
18.35564804914958
 20
1.794382741836992
 10
18.71319189074959
 20
1.803574657036991
 10
19.04728205234958
 20
1.812919596236989
 10
19.34981533554958
 20
1.822092167436993
  0
LWPOLYLINE
  5
BA6
330
1F
100
AcDbEntity
  8
0
100
AcDbPolyline
 90
        6
 70
     0
 43
0.0
 10
16.19875377874957
 20
1.750753313036989
 10
16.36440554354957
 20
1.753633765836989
 10
16.79009571794959
 20
1.761310837836989
 10
17.20795753394958
 20
1.76929965863699
 10
17.61048656274957
 20
1.777501881036991
 10
17.98357295474958
 20
1.785623636236993
  0
LWPOLYLINE
  5
BA8
330
1F
100
AcDbEntity
  8
0
100
AcDbPolyline
 90
        6
 70
     0
 43
0.0
 10
19.34980886354959
 20
1.822091962636991
 10
19.60278514674957
 20
1.830360293836991
 10
19.84521106034959
 20
1.838883575436989
 10
20.06954523314957
 20
1.847398601036987
 10
20.27559481234957
 20
1.855879055436988
 10
20.45853561714958
 20
1.864086207436992
  0
LINE
  5
BA9
330
1F
100
AcDbEntity
  8
0
100
AcDbLine
 10
20.45852785554957
 20
1.864085842636989
 30
0.0
 11
20.56438415474958
 21
1.869179621836991
 31
0.0
  0
LWPOLYLINE
  5
BAA
330
1F
100
AcDbEntity
  8
0
100
AcDbPolyline
 90
        7
 70
     0
 43
0.0
 10
12.70797019472852
 20
10.63688542983698
 10
13.54432213392852
 20
10.40746734343699
 10
14.27911482032852
 20
10.22433051783699
 10
14.9220569403285
 20
10.07722065543699
 10
15.48281435952851
 20
9.958332857036987
 10
15.97496093872852
 20
9.86086317063699
 10
16.40987692112853
 20
9.779850681036991
  0
LWPOLYLINE
  5
BAB
330
1F
100
AcDbEntity
  8
0
100
AcDbPolyline
 90
       16
 70
     0
 43
0.0
 10
16.40987692112853
 20
9.779850681036991
 10
16.79653384912851
 20
9.711718682636993
 10
17.14976704432852
 20
9.652577676236989
 10
17.47549648592852
 20
9.600593532236993
 10
17.77906198992853
 20
9.554296044236993
 10
18.06433342832853
 20
9.512635765836991
 10
18.33474770512851
 20
9.474762970636989
 10
18.60311352752851
 20
9.438703089036993
 10
18.87888275792852
 20
9.40320184263699
 10
19.16445751472853
 20
9.368066071436993
 10
19.46098462192851
 20
9.333301484236992
 10
19.76937693552853
 20
9.298966673036987
 10
20.09020280112853
 20
9.265178241036993
 10
20.42376096752853
 20
9.232093615436989
 10
20.76982726992853
 20
9.199925589836988
 10
21.12761558512853
 20
9.168928874636991
  0
LINE
  5
BAC
330
1F
100
AcDbEntity
  8
0
100
AcDbLine
 10
24.58950735634958
 20
8.506652889036994
 30
0.0
 11
23.42728554674958
 21
3.525447804236989
 31
0.0
  0
LINE
  5
BAD
330
1F
100
AcDbEntity
  8
0
100
AcDbLine
 10
23.31916690034959
 20
3.193706945036986
 30
0.0
 11
23.34771071154958
 21
3.264742797836987
 31
0.0
  0
LINE
  5
BAE
330
1F
100
AcDbEntity
  8
0
100
AcDbLine
 10
23.31916690034959
 20
3.193706945036986
 30
0.0
 11
23.31900128274959
 21
3.193316300236986
 31
0.0
  0
LWPOLYLINE
  5
BAF
330
1F
100
AcDbEntity
  8
0
100
AcDbPolyline
 90
        4
 70
     0
 43
0.0
 10
23.34772570194957
 20
3.264782234636991
 10
23.35543258834957
 20
3.285392137036987
 10
23.39671992434959
 20
3.409896044236988
 10
23.42728554674958
 20
3.525447804236989
  0
LWPOLYLINE
  5
BB0
330
1F
100
AcDbEntity
  8
0
100
AcDbPolyline
 90
        8
 70
     0
 43
0.0
 10
24.95214444274959
 20
9.433040415436993
 10
24.87960115954957
 20
9.304943293836993
 10
24.80867117074957
 20
9.175813433036987
 10
24.74656948274958
 20
9.05011812743699
 10
24.69831574994959
 20
8.92676523463699
 10
24.66040732274957
 20
8.799023604236987
 10
24.62576548594959
 20
8.660660741836993
 10
24.58950735634958
 20
8.506652889036994
  0
LINE
  5
BB1
330
1F
100
AcDbEntity
  8
CENTER
100
AcDbLine
 10
2.677351407450466
 20
17.00762942187437
 30
0.0
 11
-2.677351387572379
 21
17.00762942499961
 31
0.0
  0
LWPOLYLINE
  5
BB2
330
1F
100
AcDbEntity
  8
0
  6
HIDDEN
 62
     8
100
AcDbPolyline
 90
       30
 70
     0
 43
0.0
 10
5.093711002749579
 20
17.62223667623699
 10
4.999323601149576
 20
17.56899892263699
 10
4.903278207549568
 20
17.51920355463699
 10
4.80571630994958
 20
17.47266075943699
 10
4.706779399549581
 20
17.42918072423699
 10
4.600611639549576
 20
17.38624343463699
 10
4.493227449149578
 20
17.34630546663699
 10
4.384795111549571
 20
17.30914106343699
 10
4.275482913149581
 20
17.27452446503699
 10
4.165459138749575
 20
17.24222991143698
 10
4.016216473149576
 20
17.20200573223699
 10
3.866101781949573
 20
17.16531767303699
 10
3.715230943549578
 20
17.13189001703699
 10
3.56371983954957
 20
17.10144705063699
 10
3.411684353149574
 20
17.07371305543699
 10
3.259240362749572
 20
17.04841231943699
 10
3.06140651314957
 20
17.01885509863699
 10
2.863145293949578
 20
16.99253903463699
 10
2.664519922749569
 20
16.96908814343699
 10
2.465593613949572
 20
16.94812644423699
 10
2.266429583549573
 20
16.92927795143699
 10
2.067091047549574
 20
16.91216668423699
 10
1.79518930194957
 20
16.89115735623699
 10
1.523107266749569
 20
16.87289813703699
 10
1.250871421949576
 20
16.85760999463699
 10
0.9785082507495774
 20
16.84551390183699
 10
0.7060442395495772
 20
16.83683083303699
 10
0.4335058683495776
 20
16.83178175783698
 10
0.2167614219495777
 20
16.83050753383699
 10
0.0000000187495817
 20
16.83178175783698
  0
LWPOLYLINE
  5
BB3
330
1F
100
AcDbEntity
  8
0
  6
HIDDEN
 62
     8
100
AcDbPolyline
 90
       27
 70
     0
 43
0.0
 10
5.939945786749582
 20
16.38038390823699
 10
5.800053036349574
 20
16.32413325383699
 10
5.658960060349578
 20
16.27171997703699
 10
5.516766194749571
 20
16.22288961863699
 10
5.373570780349574
 20
16.17738772103699
 10
5.229473151549576
 20
16.13495982663699
 10
5.08457264754957
 20
16.09535147623699
 10
4.923126373949578
 20
16.05443103463699
 10
4.760950868349574
 20
16.01631610183699
 10
4.598181455549571
 20
15.98066004423699
 10
4.434953453949582
 20
15.94711622343698
 10
4.203766068349573
 20
15.90279232423699
 10
3.971980505149581
 20
15.86185230503699
 10
3.73964384914958
 20
15.82415577223699
 10
3.506803180349571
 20
15.78956234023699
 10
3.273505581949571
 20
15.75793161383699
 10
3.039798138749581
 20
15.72912320583699
 10
2.736868458749576
 20
15.69580725543699
 10
2.43343342834958
 20
15.66667731783699
 10
2.129595041149578
 20
15.64142926343699
 10
1.825455295549581
 20
15.61975896583698
 10
1.521116185149573
 20
15.60136229223699
 10
1.21667970674958
 20
15.58593511783699
 10
0.9122478555495733
 20
15.57317330983699
 10
0.6079226267495772
 20
15.56277274183698
 10
0.3038060155495759
 20
15.55442928423699
 10
0.0000000187495817
 20
15.54783880743699
  0
LWPOLYLINE
  5
BB4
330
1F
100
AcDbEntity
  8
0
100
AcDbPolyline
 90
       19
 70
     0
 43
0.0
 10
-1.187499979650418
 20
17.00230358983699
 10
-1.184394933250423
 20
17.08732781703699
 10
-1.172165082050419
 20
17.19073552423699
 10
-1.150784256450428
 20
17.29254823783699
 10
-1.120394334850423
 20
17.39214920583699
 10
-1.081303771650418
 20
17.48857505383699
 10
-1.033702848450424
 20
17.58135414503699
 10
-0.978065774850428
 20
17.66954111143699
 10
-0.914746910850418
 20
17.75257748583699
 10
-0.8443009812504199
 20
17.82972708743699
 10
-0.7672934932504275
 20
17.90038503623699
 10
-0.6842136388504299
 20
17.96409101543699
 10
-0.5958027380504304
 20
18.02026205223699
 10
-0.5026689956504312
 20
18.06850259623699
 10
-0.4060093252504301
 20
18.10824493223698
 10
-0.3064947924504293
 20
18.13931703463699
 10
-0.2051918676504199
 20
18.16150687463699
 10
-0.102713166850428
 20
18.17480936103699
 10
0.0000000187495817
 20
18.17922359463699
  0
LWPOLYLINE
  5
BB5
330
1F
100
AcDbEntity
  8
0
100
AcDbPolyline
 90
       19
 70
     0
 43
0.0
 10
0.0000000187495817
 20
18.17922359463699
 10
0.1027321259495795
 20
18.17480773223699
 10
0.2052204475495716
 20
18.16150190823698
 10
0.3065391147495762
 20
18.13930530023699
 10
0.4060626619495695
 20
18.10822569863699
 10
0.502737927549582
 20
18.06847067143699
 10
0.595877263549575
 20
18.02021920583699
 10
0.6842836747495726
 20
17.96404208263699
 10
0.7673602667495702
 20
17.90032901543699
 10
0.8443599515495707
 20
17.82966801063698
 10
0.9148061899495802
 20
17.75250654023698
 10
0.978116711549582
 20
17.66946783783699
 10
1.033750460349573
 20
17.58127075303699
 10
1.081342709949574
 20
17.48849012903699
 10
1.120427010749573
 20
17.39205712903699
 10
1.150809716349577
 20
17.29244931303699
 10
1.172182082749579
 20
17.19063196263699
 10
1.18440227634958
 20
17.08722791463699
 10
1.187500018749581
 20
17.00230375783699
  0
LWPOLYLINE
  5
BB6
330
1F
100
AcDbEntity
  8
0
100
AcDbPolyline
 90
       20
 70
     0
 43
0.0
 10
1.187500018749581
 20
17.00230375783699
 10
1.18734886354958
 20
16.98357839463699
 10
1.18111790834957
 20
16.88059767143699
 10
1.165964685949582
 20
16.77943898503699
 10
1.14228830994957
 20
16.68102038023699
 10
1.110450269949574
 20
16.58577616743699
 10
1.070866245949581
 20
16.49428796263699
 10
1.023748058749582
 20
16.40669810663699
 10
0.9695003803495795
 20
16.32360224423699
 10
0.9082529739495798
 20
16.24517502183699
 10
0.8403544091495762
 20
16.17195570023699
 10
0.7660268811495785
 20
16.10433254663699
 10
0.6854831931495726
 20
16.04273270183699
 10
0.5991610603495803
 20
15.98775959623699
 10
0.5074205499495792
 20
15.93992966823699
 10
0.4112864971495826
 20
15.90000875463698
 10
0.3114003403495718
 20
15.86842544583699
 10
0.2089512923495749
 20
15.84565589543699
 10
0.1047617819495701
 20
15.83191475143699
 10
0.0000000187495817
 20
15.82733693223699
  0
LWPOLYLINE
  5
BB7
330
1F
100
AcDbEntity
  8
0
100
AcDbPolyline
 90
       20
 70
     0
 43
0.0
 10
0.0000000187495817
 20
15.82733693223699
 10
-0.1047610692504219
 20
15.83191469383698
 10
-0.2089482468504185
 20
15.84565536423699
 10
-0.3114039156504231
 20
15.86842641543698
 10
-0.4112893876504201
 20
15.90000982503699
 10
-0.5074308948504223
 20
15.93993452103699
 10
-0.5991724404504238
 20
15.98776619463699
 10
-0.6854875188504293
 20
16.04273575463698
 10
-0.7660299364504296
 20
16.10433513063699
 10
-0.8403513748504208
 20
16.17195273223699
 10
-0.9082564756504252
 20
16.24517918183699
 10
-0.969502803650421
 20
16.32360568903699
 10
-1.023754706050418
 20
16.40670936103699
 10
-1.070874173250423
 20
16.49430441063699
 10
-1.110458142850425
 20
16.58579683303699
 10
-1.142297267650427
 20
16.68105172263699
 10
-1.165972779650424
 20
16.77948068263699
 10
-1.181125082050421
 20
16.88066629543699
 10
-1.187350118850424
 20
16.98365894663699
 10
-1.187499979650418
 20
17.00230358983699
  0
LWPOLYLINE
  5
BB8
330
1F
100
AcDbEntity
  8
0
  6
HIDDEN
 62
     8
100
AcDbPolyline
 90
       30
 70
     0
 43
0.0
 10
5.094166935549573
 20
17.62250500423699
 10
5.095505261949575
 20
17.62328885703699
 10
5.104355276349572
 20
17.62836470183699
 10
5.11328516914957
 20
17.63329932263699
 10
5.122293197949581
 20
17.63808994023699
 10
5.131377625149575
 20
17.64273377543699
 10
5.140536709949579
 20
17.64722805223699
 10
5.149768713149576
 20
17.65156999303699
 10
5.15907189394958
 20
17.65575682023699
 10
5.168444513149573
 20
17.65978575463699
 10
5.177884831549569
 20
17.66365402023699
 10
5.187435722749576
 20
17.66737564423699
 10
5.197051004349582
 20
17.67092851783699
 10
5.206728482749575
 20
17.67430886983699
 10
5.216465969149574
 20
17.67751292743699
 10
5.226261274749582
 20
17.68053692583699
 10
5.236112207549574
 20
17.68337709063699
 10
5.246016577149582
 20
17.68602965543699
 10
5.255972196349581
 20
17.68849084903699
 10
5.265976871549575
 20
17.69075690023699
 10
5.274999106749582
 20
17.69262199623699
 10
5.284055345149575
 20
17.69432341863699
 10
5.293141810749581
 20
17.69585784423699
 10
5.302254724349573
 20
17.69722194343699
 10
5.311390308349579
 20
17.69841238983699
 10
5.320544786749572
 20
17.69942585863699
 10
5.329714381949578
 20
17.70025902343699
 10
5.338895314749571
 20
17.70090855623699
 10
5.348083810749578
 20
17.70137113063698
 10
5.357276090749572
 20
17.70164342183699
  0
LWPOLYLINE
  5
BB9
330
1F
100
AcDbEntity
  8
0
  6
HIDDEN
 62
     8
100
AcDbPolyline
 90
       78
 70
     0
 43
0.0
 10
5.939945786749582
 20
16.38038390823699
 10
5.942606673149576
 20
16.38127890823699
 10
5.97609345394958
 20
16.39310514503699
 10
6.00923845234957
 20
16.40586071143698
 10
6.04201441874958
 20
16.41953805543699
 10
6.074394095549571
 20
16.43412962823699
 10
6.106350231549576
 20
16.44962787783699
 10
6.137246877949571
 20
16.46569842823699
 10
6.167680281149579
 20
16.48262918183699
 10
6.197620634749576
 20
16.50041583783699
 10
6.227038132349569
 20
16.51905408903699
 10
6.25590296754958
 20
16.53853963623699
 10
6.284015063549581
 20
16.55874294343699
 10
6.311514037949571
 20
16.57977466503699
 10
6.338362226749573
 20
16.60163037063699
 10
6.364521969149571
 20
16.62430562983699
 10
6.389955599549573
 20
16.64779601063699
 10
6.410780981949578
 20
16.66820563623699
 10
6.43103473714958
 20
16.68918495623699
 10
6.450686845949569
 20
16.71072878983699
 10
6.469707289149575
 20
16.73283195783699
 10
6.488066047549573
 20
16.75548927783698
 10
6.50573310034958
 20
16.77869556743699
 10
6.522723377149581
 20
16.80251211623699
 10
6.53894610674957
 20
16.82686162503699
 10
6.554359549949573
 20
16.85173018503699
 10
6.568921970749578
 20
16.87710388743699
 10
6.582591633149569
 20
16.90296882183699
 10
6.595326796349574
 20
16.92931108103699
 10
6.606038709949579
 20
16.95361597383699
 10
6.615906647549572
 20
16.97827821543699
 10
6.624890631549568
 20
17.00327349543699
 10
6.632950676349572
 20
17.02857750823699
 10
6.640046804349573
 20
17.05416594823699
 10
6.646139033149573
 20
17.08001450663699
 10
6.65058188274957
 20
17.10263980103698
 10
6.65421096274958
 20
17.12541195943699
 10
6.656998937149573
 20
17.14830019143699
 10
6.658918461949575
 20
17.17127370663699
 10
6.659942201149569
 20
17.19430171303699
 10
6.66004281394958
 20
17.21735342343699
 10
6.659113050749574
 20
17.24177634663699
 10
6.657094125949576
 20
17.26613521223699
 10
6.653964807549577
 20
17.29037392743699
 10
6.649703857149582
 20
17.31443639783698
 10
6.644290037949581
 20
17.33826653063698
 10
6.638065365949579
 20
17.36063167943699
 10
6.630786981949576
 20
17.38267928743699
 10
6.622460268349577
 20
17.40435198823699
 10
6.613090602749572
 20
17.42559242183699
 10
6.60268336754958
 20
17.44634322023699
 10
6.591337386749579
 20
17.46640085863699
 10
6.579008588349573
 20
17.48587271143699
 10
6.565731085949572
 20
17.50471190823699
 10
6.55153899634957
 20
17.52287157863699
 10
6.536466436349577
 20
17.54030485063698
 10
6.522634015549577
 20
17.55487917383699
 10
6.508192693949574
 20
17.56885165063699
 10
6.493177050749572
 20
17.58220834823699
 10
6.477621663549577
 20
17.59493533223698
 10
6.461561113149578
 20
17.60701866983699
 10
6.44502997874958
 20
17.61844442503699
 10
6.427334661949579
 20
17.62964255783699
 10
6.409202957949581
 20
17.64011541383699
 10
6.390672204349577
 20
17.64986732903699
 10
6.371779743549573
 20
17.65890263783699
 10
6.352562914749576
 20
17.66722567623699
 10
6.333059057149576
 20
17.67484078183699
 10
6.308581554749572
 20
17.68329281383699
 10
6.283770431549577
 20
17.69069498503699
 10
6.258674319549577
 20
17.69707459463699
 10
6.233341852349575
 20
17.70245894663699
 10
6.207821663549573
 20
17.70687533863699
 10
6.181440503549573
 20
17.71043557703699
 10
6.154950485949576
 20
17.71303454663699
 10
6.128389735549582
 20
17.71470500743699
 10
6.101796372349575
 20
17.71547972103699
 10
6.075208519549569
 20
17.71539144743699
  0
LINE
  5
BBA
330
1F
100
AcDbEntity
  8
0
  6
HIDDEN
 62
     8
100
AcDbLine
 10
6.075208519549569
 20
17.71539144743699
 30
0.0
 11
5.357276090749572
 21
17.70164342183699
 31
0.0
  0
LINE
  5
CD5
330
1F
100
AcDbEntity
  8
0
  6
HIDDEN
 62
     8
100
AcDbLine
 10
-35.18922383071252
 20
20.62488191836227
 30
0.0
 11
-31.61494275711253
 21
20.51500541756227
 31
0.0
  0
ARC
  5
CD6
330
1F
100
AcDbEntity
  8
0
100
AcDbCircle
 10
-35.62874811711252
 20
20.00762936476227
 30
0.0
 40
0.25
100
AcDbArc
 50
90.0
 51
175.0
  0
LINE
  5
CD7
330
1F
100
AcDbEntity
  8
0
100
AcDbLine
 10
-35.99999998911254
 20
18.63262936476227
 30
0.0
 11
-35.87779679231253
 21
20.02941829916228
 31
0.0
  0
ARC
  5
CD8
330
1F
100
AcDbEntity
  8
0
100
AcDbCircle
 10
-35.19690539551253
 20
20.37499995996227
 30
0.0
 40
0.25
100
AcDbArc
 50
89.9778764136
 51
170.7759360526999
  0
ARC
  5
CD9
330
1F
100
AcDbEntity
  8
0
100
AcDbCircle
 10
-35.62874811711252
 20
20.44512936476227
 30
0.0
 40
0.1875
100
AcDbArc
 50
270.0
 51
350.7759352279999
  0
LINE
  5
CDA
330
1F
100
AcDbEntity
  8
0
  6
HIDDEN
 62
     8
100
AcDbLine
 10
-30.94608430591255
 20
20.03780782716228
 30
0.0
 11
-30.14709750243888
 21
18.63262936476227
 31
0.0
  0
LINE
  5
CDB
330
1F
100
AcDbEntity
  8
0
  6
HIDDEN
 62
     8
100
AcDbLine
 10
-31.10907802271252
 20
20.13262936476227
 30
0.0
 11
-31.19749998911252
 21
20.13262936476227
 31
0.0
  0
ARC
  5
CDC
330
1F
100
AcDbEntity
  8
0
  6
HIDDEN
 62
     8
100
AcDbCircle
 10
-31.19749998911252
 20
20.31012936476228
 30
0.0
 40
0.1775
100
AcDbArc
 50
186.0431232124
 51
270.0
  0
ARC
  5
CDD
330
1F
100
AcDbEntity
  8
0
  6
HIDDEN
 62
     8
100
AcDbCircle
 10
-31.62262433151254
 20
20.26512345916227
 30
0.0
 40
0.2500000016
100
AcDbArc
 50
6.0431247586
 51
88.2392357065
  0
ARC
  5
CDE
330
1F
100
AcDbEntity
  8
0
  6
HIDDEN
 62
     8
100
AcDbCircle
 10
-31.10907802271252
 20
19.94512936476227
 30
0.0
 40
0.1875
100
AcDbArc
 50
29.622621864
 51
90.00168949449999
  0
LINE
  5
CDF
330
1F
100
AcDbEntity
  8
0
  6
CONTINUOUS
 62
     7
100
AcDbLine
 10
-35.99999998911254
 20
18.63262936476227
 30
0.0
 11
36.00000001088746
 21
18.63262936476227
 31
0.0
  0
LINE
  5
CE0
330
1F
100
AcDbEntity
  8
0
100
AcDbLine
 10
35.19680901352468
 20
20.62499994137552
 30
0.0
 11
-35.19700192785983
 21
20.62499994132529
 31
0.0
  0
LINE
  5
CE1
330
1F
100
AcDbEntity
  8
0
  6
HIDDEN
 62
     8
100
AcDbLine
 10
35.18922385248746
 20
20.62488191836227
 30
0.0
 11
31.61494277888746
 21
20.51500541756227
 31
0.0
  0
LINE
  5
CE2
330
1F
100
AcDbEntity
  8
0
  6
HIDDEN
 62
     8
100
AcDbLine
 10
30.94608432768746
 20
20.03780782716228
 30
0.0
 11
30.1470975242138
 21
18.63262936476227
 31
0.0
  0
ARC
  5
CE3
330
1F
100
AcDbEntity
  8
0
  6
HIDDEN
 62
     8
100
AcDbCircle
 10
31.19750001088746
 20
20.31012936476228
 30
0.0
 40
0.1775
100
AcDbArc
 50
270.0
 51
353.9568767875999
  0
LINE
  5
CE4
330
1F
100
AcDbEntity
  8
0
  6
HIDDEN
 62
     8
100
AcDbLine
 10
31.10907804448746
 20
20.13262936476227
 30
0.0
 11
31.19750001088746
 21
20.13262936476227
 31
0.0
  0
ARC
  5
CE5
330
1F
100
AcDbEntity
  8
0
  6
HIDDEN
 62
     8
100
AcDbCircle
 10
31.10907804448746
 20
19.94512936476227
 30
0.0
 40
0.1875
100
AcDbArc
 50
89.9983105055
 51
150.377378136
  0
ARC
  5
CE6
330
1F
100
AcDbEntity
  8
0
  6
HIDDEN
 62
     8
100
AcDbCircle
 10
31.62262435328747
 20
20.26512345916227
 30
0.0
 40
0.2500000016
100
AcDbArc
 50
91.76076429350001
 51
173.9568752414
  0
LINE
  5
CE7
330
1F
100
AcDbEntity
  8
0
100
AcDbLine
 10
35.87779681408746
 20
20.02941829916228
 30
0.0
 11
36.00000001088746
 21
18.63262936476227
 31
0.0
  0
ARC
  5
CE8
330
1F
100
AcDbEntity
  8
0
100
AcDbCircle
 10
35.62874813888746
 20
20.00762936476227
 30
0.0
 40
0.25
100
AcDbArc
 50
5.0
 51
90.0
  0
ARC
  5
CE9
330
1F
100
AcDbEntity
  8
0
100
AcDbCircle
 10
35.19690541568746
 20
20.37499995996227
 30
0.0
 40
0.25
100
AcDbArc
 50
9.224063947299999
 51
90.02209374880001
  0
ARC
  5
CEA
330
1F
100
AcDbEntity
  8
0
100
AcDbCircle
 10
35.62874813888746
 20
20.44512936476227
 30
0.0
 40
0.1875
100
AcDbArc
 50
189.2240642766999
 51
270.0
  0
ENDSEC
  0
SECTION
  2
OBJECTS
  0
DICTIONARY
  5
C
330
0
100
AcDbDictionary
  3
ACAD_GROUP
350
D
  3
ACAD_LAYOUT
350
1A
  3
ACAD_MLINESTYLE
350
17
  3
ACAD_PLOTSETTINGS
350
19
  3
ACAD_PLOTSTYLENAME
350
E
  3
ACDBHEADERROUNDTRIPXREC
350
D49
  0
DICTIONARY
  5
D6C
330
1F
100
AcDbDictionary
280
     1
  3
ACAD_LAYOUTSELFREF
360
D6D
  0
DICTIONARY
  5
D6A
330
1B
100
AcDbDictionary
280
     1
  3
ACAD_LAYOUTSELFREF
360
D6B
  0
DICTIONARY
  5
D
102
{ACAD_REACTORS
330
C
102
}
330
C
100
AcDbDictionary
  0
DICTIONARY
  5
1A
102
{ACAD_REACTORS
330
C
102
}
330
C
100
AcDbDictionary
  0
DICTIONARY
  5
17
102
{ACAD_REACTORS
330
C
102
}
330
C
100
AcDbDictionary
  3
STANDARD
350
18
  0
DICTIONARY
  5
19
102
{ACAD_REACTORS
330
C
102
}
330
C
100
AcDbDictionary
  0
ACDBDICTIONARYWDFLT
  5
E
102
{ACAD_REACTORS
330
C
102
}
330
C
100
AcDbDictionary
281
     1
  3
Normal
350
F
100
AcDbDictionaryWithDefault
340
F
  0
DICTIONARY
  5
D49
102
{ACAD_REACTORS
330
C
102
}
330
C
100
AcDbDictionary
  3
CEPSNTYPE
350
D53
  3
DIMSTYLEDATA
350
D57
  3
FINGERPRINTGUID
350
D54
  3
HYPERLINKBASE
350
D4C
  3
INSUNITS
350
D52
  3
LAYOUTDICT
350
D4E
  3
LWETCUNION
350
D51
  3
PLOTSETDICT
350
D4F
  3
PLOTSTYLNAMDICT
350
D50
  3
PSVPSCALE
350
D56
  3
PUCSBASE
350
D5A
  3
PUCSORGBACK
350
D60
  3
PUCSORGBOTTOM
350
D5C
  3
PUCSORGFRONT
350
D5F
  3
PUCSORGLEFT
350
D5D
  3
PUCSORGRIGHT
350
D5E
  3
PUCSORGTOP
350
D5B
  3
PUCSORTHOREF
350
D58
  3
PUCSORTHOVIEW
350
D59
  3
STYLESHEET
350
D4D
  3
TSTACKALIGN
350
D4A
  3
TSTACKSIZE
350
D4B
  3
UCSBASE
350
D63
  3
UCSORGBACK
350
D69
  3
UCSORGBOTTOM
350
D65
  3
UCSORGFRONT
350
D68
  3
UCSORGLEFT
350
D66
  3
UCSORGRIGHT
350
D67
  3
UCSORGTOP
350
D64
  3
UCSORTHOREF
350
D61
  3
UCSORTHOVIEW
350
D62
  3
VERSIONGUID
350
D55
  0
XRECORD
  5
D6D
102
{ACAD_REACTORS
330
D6C
102
}
330
D6C
100
AcDbXrecord
340
1F
  0
XRECORD
  5
D6B
102
{ACAD_REACTORS
330
D6A
102
}
330
D6A
100
AcDbXrecord
340
1B
  0
MLINESTYLE
  5
18
102
{ACAD_REACTORS
330
17
102
}
330
17
100
AcDbMlineStyle
  2
STANDARD
 70
     0
  3

 62
   256
 51
90.0
 52
90.0
 71
     2
 49
0.5
 62
   256
  6
BYLAYER
 49
-0.5
 62
   256
  6
BYLAYER
  0
ACDBPLACEHOLDER
  5
F
102
{ACAD_REACTORS
330
E
102
}
330
0
100
AcDbPlaceHolder
280
     0
  0
XRECORD
  5
D53
102
{ACAD_REACTORS
330
D49
102
}
330
D49
100
AcDbXrecord
 90
        0
  0
XRECORD
  5
D57
102
{ACAD_REACTORS
330
D49
102
}
330
D49
100
AcDbXrecord
1000
DSTYLE
1002
{
1070
   278
 70
     0
1070
   342
340
223
1070
   371
 70
     0
1070
   372
 70
     0
1002
}
  0
XRECORD
  5
D54
102
{ACAD_REACTORS
330
D49
102
}
330
D49
100
AcDbXrecord
  1

  0
XRECORD
  5
D4C
102
{ACAD_REACTORS
330
D49
102
}
330
D49
100
AcDbXrecord
  1

  0
XRECORD
  5
D52
102
{ACAD_REACTORS
330
D49
102
}
330
D49
100
AcDbXrecord
 90
        1
  0
XRECORD
  5
D4E
102
{ACAD_REACTORS
330
D49
102
}
330
D49
100
AcDbXrecord
340
1A
  0
XRECORD
  5
D51
102
{ACAD_REACTORS
330
D49
102
}
330
D49
100
AcDbXrecord
 90
    10781
  0
XRECORD
  5
D4F
102
{ACAD_REACTORS
330
D49
102
}
330
D49
100
AcDbXrecord
340
19
  0
XRECORD
  5
D50
102
{ACAD_REACTORS
330
D49
102
}
330
D49
100
AcDbXrecord
340
E
  0
XRECORD
  5
D56
102
{ACAD_REACTORS
330
D49
102
}
330
D49
100
AcDbXrecord
 40
0.0
  0
XRECORD
  5
D5A
102
{ACAD_REACTORS
330
D49
102
}
330
D49
100
AcDbXrecord
340
0
  0
XRECORD
  5
D60
102
{ACAD_REACTORS
330
D49
102
}
330
D49
100
AcDbXrecord
 10
0.0
 20
0.0
 30
0.0
  0
XRECORD
  5
D5C
102
{ACAD_REACTORS
330
D49
102
}
330
D49
100
AcDbXrecord
 10
0.0
 20
0.0
 30
0.0
  0
XRECORD
  5
D5F
102
{ACAD_REACTORS
330
D49
102
}
330
D49
100
AcDbXrecord
 10
0.0
 20
0.0
 30
0.0
  0
XRECORD
  5
D5D
102
{ACAD_REACTORS
330
D49
102
}
330
D49
100
AcDbXrecord
 10
0.0
 20
0.0
 30
0.0
  0
XRECORD
  5
D5E
102
{ACAD_REACTORS
330
D49
102
}
330
D49
100
AcDbXrecord
 10
0.0
 20
0.0
 30
0.0
  0
XRECORD
  5
D5B
102
{ACAD_REACTORS
330
D49
102
}
330
D49
100
AcDbXrecord
 10
0.0
 20
0.0
 30
0.0
  0
XRECORD
  5
D58
102
{ACAD_REACTORS
330
D49
102
}
330
D49
100
AcDbXrecord
340
0
  0
XRECORD
  5
D59
102
{ACAD_REACTORS
330
D49
102
}
330
D49
100
AcDbXrecord
 70
     0
  0
XRECORD
  5
D4D
102
{ACAD_REACTORS
330
D49
102
}
330
D49
100
AcDbXrecord
  1

  0
XRECORD
  5
D4A
102
{ACAD_REACTORS
330
D49
102
}
330
D49
100
AcDbXrecord
 90
        1
  0
XRECORD
  5
D4B
102
{ACAD_REACTORS
330
D49
102
}
330
D49
100
AcDbXrecord
 90
       70
  0
XRECORD
  5
D63
102
{ACAD_REACTORS
330
D49
102
}
330
D49
100
AcDbXrecord
340
0
  0
XRECORD
  5
D69
102
{ACAD_REACTORS
330
D49
102
}
330
D49
100
AcDbXrecord
 10
0.0
 20
0.0
 30
0.0
  0
XRECORD
  5
D65
102
{ACAD_REACTORS
330
D49
102
}
330
D49
100
AcDbXrecord
 10
0.0
 20
0.0
 30
0.0
  0
XRECORD
  5
D68
102
{ACAD_REACTORS
330
D49
102
}
330
D49
100
AcDbXrecord
 10
0.0
 20
0.0
 30
0.0
  0
XRECORD
  5
D66
102
{ACAD_REACTORS
330
D49
102
}
330
D49
100
AcDbXrecord
 10
0.0
 20
0.0
 30
0.0
  0
XRECORD
  5
D67
102
{ACAD_REACTORS
330
D49
102
}
330
D49
100
AcDbXrecord
 10
0.0
 20
0.0
 30
0.0
  0
XRECORD
  5
D64
102
{ACAD_REACTORS
330
D49
102
}
330
D49
100
AcDbXrecord
 10
0.0
 20
0.0
 30
0.0
  0
XRECORD
  5
D61
102
{ACAD_REACTORS
330
D49
102
}
330
D49
100
AcDbXrecord
340
0
  0
XRECORD
  5
D62
102
{ACAD_REACTORS
330
D49
102
}
330
D49
100
AcDbXrecord
 70
     0
  0
XRECORD
  5
D55
102
{ACAD_REACTORS
330
D49
102
}
330
D49
100
AcDbXrecord
  1
{0275DADF-75DD-4824-AA6F-CB42A0B1B324}
  0
ENDSEC
  0
EOF
