  0
SECTION
  2
HEADER
  9
$ACADVER
  1
AC1014
  9
$ACADMAINTVER
 70
     9
  9
$DWGCODEPAGE
  3
ANSI_1252
  9
$INSBASE
 10
0.0
 20
0.0
 30
0.0
  9
$EXTMIN
 10
-0.0056977335952979
 20
-2.006261094360098
 30
-0.0015258207003583
  9
$EXTMAX
 10
36.0024247774287
 20
20.67313562974678
 30
0.0000000349246037
  9
$LIMMIN
 10
0.0
 20
0.0
  9
$LIMMAX
 10
17.0
 20
11.0
  9
$ORTHOMODE
 70
     0
  9
$REGENMODE
 70
     1
  9
$FILLMODE
 70
     1
  9
$QTEXTMODE
 70
     0
  9
$MIRRTEXT
 70
     1
  9
$DRAGMODE
 70
     2
  9
$LTSCALE
 40
0.9350000000000001
  9
$OSMODE
 70
    37
  9
$ATTMODE
 70
     1
  9
$TEXTSIZE
 40
0.2
  9
$TRACEWID
 40
0.05
  9
$TEXTSTYLE
  7
STANDARD
  9
$CLAYER
  8
0
  9
$CELTYPE
  6
BYLAYER
  9
$CECOLOR
 62
   256
  9
$CELTSCALE
 40
1.0
  9
$DELOBJ
 70
     1
  9
$DISPSILH
 70
     0
  9
$DIMSCALE
 40
1.0
  9
$DIMASZ
 40
0.1875
  9
$DIMEXO
 40
0.10625
  9
$DIMDLI
 40
0.646
  9
$DIMRND
 40
0.0
  9
$DIMDLE
 40
0.0
  9
$DIMEXE
 40
0.306
  9
$DIMTP
 40
0.0
  9
$DIMTM
 40
0.0
  9
$DIMTXT
 40
0.125
  9
$DIMCEN
 40
0.153
  9
$DIMTSZ
 40
0.0
  9
$DIMTOL
 70
     0
  9
$DIMLIM
 70
     0
  9
$DIMTIH
 70
     1
  9
$DIMTOH
 70
     1
  9
$DIMSE1
 70
     0
  9
$DIMSE2
 70
     0
  9
$DIMTAD
 70
     0
  9
$DIMZIN
 70
     0
  9
$DIMBLK
  1
_FILLED
  9
$DIMASO
 70
     1
  9
$DIMSHO
 70
     1
  9
$DIMPOST
  1

  9
$DIMAPOST
  1

  9
$DIMALT
 70
     0
  9
$DIMALTD
 70
     2
  9
$DIMALTF
 40
25.4
  9
$DIMLFAC
 40
1.0
  9
$DIMTOFL
 70
     0
  9
$DIMTVP
 40
0.0
  9
$DIMTIX
 70
     0
  9
$DIMSOXD
 70
     0
  9
$DIMSAH
 70
     0
  9
$DIMBLK1
  1

  9
$DIMBLK2
  1

  9
$DIMSTYLE
  2
STANDARD
  9
$DIMCLRD
 70
     0
  9
$DIMCLRE
 70
     0
  9
$DIMCLRT
 70
     0
  9
$DIMTFAC
 40
1.0
  9
$DIMGAP
 40
0.09
  9
$DIMJUST
 70
     0
  9
$DIMSD1
 70
     0
  9
$DIMSD2
 70
     0
  9
$DIMTOLJ
 70
     1
  9
$DIMTZIN
 70
     0
  9
$DIMALTZ
 70
     0
  9
$DIMALTTZ
 70
     0
  9
$DIMFIT
 70
     3
  9
$DIMUPT
 70
     0
  9
$DIMUNIT
 70
     2
  9
$DIMDEC
 70
     4
  9
$DIMTDEC
 70
     4
  9
$DIMALTU
 70
     2
  9
$DIMALTTD
 70
     2
  9
$DIMTXSTY
  7
STANDARD
  9
$DIMAUNIT
 70
     0
  9
$LUNITS
 70
     2
  9
$LUPREC
 70
     4
  9
$SKETCHINC
 40
0.1
  9
$FILLETRAD
 40
0.0
  9
$AUNITS
 70
     0
  9
$AUPREC
 70
     0
  9
$MENU
  1
acad
  9
$ELEVATION
 40
0.0
  9
$PELEVATION
 40
0.0
  9
$THICKNESS
 40
0.0
  9
$LIMCHECK
 70
     0
  9
$BLIPMODE
 70
     0
  9
$CHAMFERA
 40
0.0
  9
$CHAMFERB
 40
0.0
  9
$CHAMFERC
 40
0.0
  9
$CHAMFERD
 40
0.0
  9
$SKPOLY
 70
     0
  9
$TDCREATE
 40
2454054.617472858
  9
$TDUPDATE
 40
2454071.696274016
  9
$TDINDWG
 40
0.0490546528
  9
$TDUSRTIMER
 40
0.0490546528
  9
$USRTIMER
 70
     1
  9
$ANGBASE
 50
0.0
  9
$ANGDIR
 70
     0
  9
$PDMODE
 70
     3
  9
$PDSIZE
 40
0.03125
  9
$PLINEWID
 40
0.0
  9
$COORDS
 70
     0
  9
$SPLFRAME
 70
     0
  9
$SPLINETYPE
 70
     6
  9
$SPLINESEGS
 70
     8
  9
$ATTDIA
 70
     0
  9
$ATTREQ
 70
     1
  9
$HANDLING
 70
-16383
  9
$HANDSEED
  5
D6E
  9
$SURFTAB1
 70
     6
  9
$SURFTAB2
 70
     6
  9
$SURFTYPE
 70
     6
  9
$SURFU
 70
     6
  9
$SURFV
 70
     6
  9
$UCSNAME
  2

  9
$UCSORG
 10
0.0
 20
0.0
 30
0.0
  9
$UCSXDIR
 10
1.0
 20
0.0
 30
0.0
  9
$UCSYDIR
 10
0.0
 20
1.0
 30
0.0
  9
$PUCSNAME
  2

  9
$PUCSORG
 10
0.0
 20
0.0
 30
0.0
  9
$PUCSXDIR
 10
1.0
 20
0.0
 30
0.0
  9
$PUCSYDIR
 10
0.0
 20
1.0
 30
0.0
  9
$USERI1
 70
     0
  9
$USERI2
 70
     0
  9
$USERI3
 70
     0
  9
$USERI4
 70
     0
  9
$USERI5
 70
     0
  9
$USERR1
 40
0.0
  9
$USERR2
 40
0.0
  9
$USERR3
 40
0.0
  9
$USERR4
 40
0.0
  9
$USERR5
 40
0.0
  9
$WORLDVIEW
 70
     1
  9
$SHADEDGE
 70
     3
  9
$SHADEDIF
 70
    70
  9
$TILEMODE
 70
     1
  9
$MAXACTVP
 70
    16
  9
$PINSBASE
 10
0.0
 20
0.0
 30
0.0
  9
$PLIMCHECK
 70
     0
  9
$PEXTMIN
 10
1.000000000000000E+20
 20
1.000000000000000E+20
 30
1.000000000000000E+20
  9
$PEXTMAX
 10
-1.000000000000000E+20
 20
-1.000000000000000E+20
 30
-1.000000000000000E+20
  9
$PLIMMIN
 10
0.0
 20
0.0
  9
$PLIMMAX
 10
12.0
 20
9.0
  9
$UNITMODE
 70
     0
  9
$VISRETAIN
 70
     0
  9
$PLINEGEN
 70
     1
  9
$PSLTSCALE
 70
     0
  9
$TREEDEPTH
 70
  3020
  9
$PICKSTYLE
 70
     1
  9
$CMLSTYLE
  2
STANDARD
  9
$CMLJUST
 70
     0
  9
$CMLSCALE
 40
1.0
  9
$PROXYGRAPHICS
 70
     0
  9
$MEASUREMENT
 70
     0
  0
ENDSEC
  0
SECTION
  2
CLASSES
  0
CLASS
  1
ACDBDICTIONARYWDFLT
  2
AcDbDictionaryWithDefault
  3
AutoCAD 2000
 90
        0
280
     0
281
     0
  0
CLASS
  1
ACDBPLACEHOLDER
  2
AcDbPlaceHolder
  3
AutoCAD 2000
 90
        0
280
     0
281
     0
  0
CLASS
  1
LAYOUT
  2
AcDbLayout
  3
AutoCAD 2000
 90
        0
280
     0
281
     0
  0
CLASS
  1
LWPOLYLINE
  2
AcDbPolyline
  3
AutoCAD 2000
 90
        0
280
     0
281
     1
  0
CLASS
  1
IMAGE
  2
AcDbRasterImage
  3
ISM
 90
      127
280
     0
281
     1
  0
CLASS
  1
OLE2FRAME
  2
AcDbOle2Frame
  3
AutoCAD 2000
 90
        0
280
     0
281
     1
  0
CLASS
  1
HATCH
  2
AcDbHatch
  3
AutoCAD 2000
 90
        0
280
     0
281
     1
  0
CLASS
  1
DICTIONARYVAR
  2
AcDbDictionaryVar
  3
AutoCAD 2000
 90
        0
280
     0
281
     0
  0
CLASS
  1
RASTERVARIABLES
  2
AcDbRasterVariables
  3
ISM
 90
        0
280
     0
281
     0
  0
CLASS
  1
IMAGEDEF
  2
AcDbRasterImageDef
  3
ISM
 90
        0
280
     0
281
     0
  0
CLASS
  1
IMAGEDEF_REACTOR
  2
AcDbRasterImageDefReactor
  3
ISM
 90
        1
280
     0
281
     0
  0
CLASS
  1
IDBUFFER
  2
AcDbIdBuffer
  3
AutoCAD 2000
 90
        0
280
     0
281
     0
  0
CLASS
  1
SPATIAL_FILTER
  2
AcDbSpatialFilter
  3
AutoCAD 2000
 90
        0
280
     0
281
     0
  0
CLASS
  1
XRECORD
  2
AcDbXrecord
  3
AutoCAD 2000
 90
        0
280
     0
281
     0
  0
CLASS
  1
SORTENTSTABLE
  2
AcDbSortentsTable
  3
AutoCAD 2000
 90
        0
280
     0
281
     0
  0
CLASS
  1
LAYER_INDEX
  2
AcDbLayerIndex
  3
AutoCAD 2000
 90
        0
280
     0
281
     0
  0
CLASS
  1
SPATIAL_INDEX
  2
AcDbSpatialIndex
  3
AutoCAD 2000
 90
        0
280
     0
281
     0
  0
CLASS
  1
OBJECT_PTR
  2
CAseDLPNTableRecord
  3
ASE-LPNTableRecord
 90
        1
280
     0
281
     0
  0
CLASS
  1
PLOTSETTINGS
  2
AcDbPlotSettings
  3
AutoCAD 2000
 90
        0
280
     0
281
     0
  0
CLASS
  1
VBA_PROJECT
  2
AcDbVbaProject
  3
acadvba
 90
        0
280
     0
281
     0
  0
CLASS
  1
WIPEOUT
  2
AcDbWipeout
  3
WipeOut|AutoCAD Express Tool|expresstools@autodesk.com
 90
      127
280
     0
281
     1
  0
CLASS
  1
WIPEOUTVARIABLES
  2
AcDbWipeoutVariables
  3
WipeOut|AutoCAD Express Tool|expresstools@autodesk.com
 90
        0
280
     0
281
     0
  0
CLASS
  1
RTEXT
  2
RText
  3
RText|AutoCAD Express Tool|expresstools@autodesk.com
 90
        0
280
     0
281
     1
  0
CLASS
  1
ARCALIGNEDTEXT
  2
AcDbArcAlignedText
  3
ATEXT|AutoCAD Express Tool|expresstools@autodesk.com
 90
        0
280
     0
281
     1
  0
CLASS
  1
LONG_TRANSACTION
  2
AcDbLongTransaction
  3
AutoCAD 2000
 90
        0
280
     0
281
     0
  0
CLASS
  1
LWPOLYLINE
  2
AcDbPolyline
  3
AutoCAD 2000
 90
        0
280
     0
281
     1
  0
CLASS
  1
HATCH
  2
AcDbHatch
  3
AutoCAD 2000
 90
        0
280
     0
281
     1
  0
CLASS
  1
XRECORD
  2
AcDbXrecord
  3
AutoCAD 2000
 90
        0
280
     0
281
     0
  0
ENDSEC
  0
SECTION
  2
TABLES
  0
TABLE
  2
VPORT
  5
8
330
0
100
AcDbSymbolTable
 70
     3
  0
VPORT
  5
D48
330
8
100
AcDbSymbolTableRecord
100
AcDbViewportTableRecord
  2
*ACTIVE
 70
     0
 10
0.0
 20
0.0
 11
1.0
 21
1.0
 12
19.54003712770239
 22
8.07573405713677
 13
0.0
 23
0.0
 14
1.0
 24
1.0
 15
0.0
 25
0.0
 16
0.0
 26
0.0
 36
1.0
 17
0.0
 27
0.0
 37
0.0
 40
32.05236692187549
 41
1.745424292845257
 42
50.0
 43
0.0
 44
0.0
 50
0.0
 51
0.0
 71
     0
 72
   100
 73
     1
 74
     1
 75
     0
 76
     0
 77
     0
 78
     0
  0
ENDTAB
  0
TABLE
  2
LTYPE
  5
5
330
0
100
AcDbSymbolTable
 70
     3
  0
LTYPE
  5
14
330
5
100
AcDbSymbolTableRecord
100
AcDbLinetypeTableRecord
  2
BYBLOCK
 70
     0
  3

 72
    65
 73
     0
 40
0.0
  0
LTYPE
  5
15
330
5
100
AcDbSymbolTableRecord
100
AcDbLinetypeTableRecord
  2
BYLAYER
 70
     0
  3

 72
    65
 73
     0
 40
0.0
  0
LTYPE
  5
16
330
5
100
AcDbSymbolTableRecord
100
AcDbLinetypeTableRecord
  2
CONTINUOUS
 70
     0
  3
Solid line
 72
    65
 73
     0
 40
0.0
  0
LTYPE
  5
1F6
330
5
100
AcDbSymbolTableRecord
100
AcDbLinetypeTableRecord
  2
HIDDEN
 70
     0
  3
- - - - - - - - - - - - - - - - - - - -
 72
    65
 73
     2
 40
0.2
 49
0.1
 74
     0
 49
-0.1
 74
     0
  0
LTYPE
  5
9B0
330
5
100
AcDbSymbolTableRecord
100
AcDbLinetypeTableRecord
  2
CENTERX2
 70
     0
  3
Center (2x) ________  __  ________  __  _____
 72
    65
 73
     4
 40
4.0
 49
2.5
 74
     0
 49
-0.5
 74
     0
 49
0.5
 74
     0
 49
-0.5
 74
     0
  0
ENDTAB
  0
TABLE
  2
LAYER
  5
2
330
0
100
AcDbSymbolTable
 70
     3
  0
LAYER
  5
10
330
2
100
AcDbSymbolTableRecord
100
AcDbLayerTableRecord
  2
0
 70
     0
 62
     7
  6
CONTINUOUS
  0
LAYER
  5
987
330
2
100
AcDbSymbolTableRecord
100
AcDbLayerTableRecord
  2
DEFPOINTS
 70
     0
 62
     7
  6
CONTINUOUS
  0
LAYER
  5
9B1
330
2
100
AcDbSymbolTableRecord
100
AcDbLayerTableRecord
  2
CENTER
 70
     0
 62
     1
  6
CENTERX2
  0
ENDTAB
  0
TABLE
  2
STYLE
  5
3
330
0
100
AcDbSymbolTable
 70
     2
  0
STYLE
  5
11
330
3
100
AcDbSymbolTableRecord
100
AcDbTextStyleTableRecord
  2
STANDARD
 70
     0
 40
0.0
 41
0.8
 50
0.0
 71
     0
 42
0.2
  3
txt
  4

  0
STYLE
  5
21E
330
3
100
AcDbSymbolTableRecord
100
AcDbTextStyleTableRecord
  2
TEXTSTYLE_1
 70
     0
 40
0.0
 41
0.8
 50
0.0
 71
     0
 42
0.2
  3
txt
  4

  0
ENDTAB
  0
TABLE
  2
VIEW
  5
6
330
0
100
AcDbSymbolTable
 70
     0
  0
ENDTAB
  0
TABLE
  2
UCS
  5
7
330
0
100
AcDbSymbolTable
 70
     0
  0
ENDTAB
  0
TABLE
  2
APPID
  5
9
330
0
100
AcDbSymbolTable
 70
     2
  0
APPID
  5
222
330
9
100
AcDbSymbolTableRecord
100
AcDbRegAppTableRecord
  2
ACAD
 70
     0
  0
APPID
  5
984
330
9
100
AcDbSymbolTableRecord
100
AcDbRegAppTableRecord
  2
DCO15
 70
     0
  0
ENDTAB
  0
TABLE
  2
DIMSTYLE
  5
A
330
0
100
AcDbSymbolTable
 70
     1
  0
DIMSTYLE
105
239
330
A
100
AcDbSymbolTableRecord
100
AcDbDimStyleTableRecord
  2
STANDARD
 70
     0
  3

  4

  5
_FILLED
  6
_FILLED
  7
_FILLED
 40
1.0
 41
0.1875
 42
0.0625
 43
0.38
 44
0.18
 45
0.0
 46
0.0
 47
0.00001
 48
0.00001
140
0.125
141
0.09
142
0.0
143
25.4
144
1.0
145
0.0
146
1.0
147
0.09
 71
     0
 72
     0
 73
     1
 74
     1
 75
     0
 76
     0
 77
     0
 78
     4
170
     0
171
     2
172
     0
173
     0
174
     0
175
     0
176
     0
177
     0
178
     0
270
     2
271
     5
272
     5
273
     2
274
     2
340
11
275
     0
280
     0
281
     0
282
     0
283
     1
284
     4
285
     0
286
     0
287
     3
288
     0
  0
ENDTAB
  0
TABLE
  2
BLOCK_RECORD
  5
1
330
0
100
AcDbSymbolTable
 70
     1
  0
BLOCK_RECORD
  5
1F
102
{ACAD_XDICTIONARY
360
D6C
102
}
330
1
100
AcDbSymbolTableRecord
100
AcDbBlockTableRecord
  2
*MODEL_SPACE
  0
BLOCK_RECORD
  5
1B
102
{ACAD_XDICTIONARY
360
D6A
102
}
330
1
100
AcDbSymbolTableRecord
100
AcDbBlockTableRecord
  2
*PAPER_SPACE
  0
BLOCK_RECORD
  5
223
330
1
100
AcDbSymbolTableRecord
100
AcDbBlockTableRecord
  2
_FILLED
  0
ENDTAB
  0
ENDSEC
  0
SECTION
  2
BLOCKS
  0
BLOCK
  5
20
330
1F
100
AcDbEntity
  8
0
100
AcDbBlockBegin
  2
*MODEL_SPACE
 70
     0
 10
0.0
 20
0.0
 30
0.0
  3
*MODEL_SPACE
  1

  0
ENDBLK
  5
21
330
1F
100
AcDbEntity
  8
0
100
AcDbBlockEnd
  0
BLOCK
  5
1C
330
1B
100
AcDbEntity
 67
     1
  8
0
100
AcDbBlockBegin
  2
*PAPER_SPACE
 70
     0
 10
0.0
 20
0.0
 30
0.0
  3
*PAPER_SPACE
  1

  0
ENDBLK
  5
1D
330
1B
100
AcDbEntity
 67
     1
  8
0
100
AcDbBlockEnd
  0
BLOCK
  5
3CA
330
223
100
AcDbEntity
  8
0
100
AcDbBlockBegin
  2
_FILLED
 70
     0
 10
0.0
 20
0.0
 30
0.0
  3
_FILLED
  1

  0
SOLID
  5
3CB
330
223
100
AcDbEntity
  8
0
  6
BYBLOCK
 62
     0
100
AcDbTrace
 10
0.0
 20
0.0
 30
0.0
 11
-1.0
 21
0.1666666667
 31
0.0
 12
-1.0
 22
-0.1666666667
 32
0.0
 13
-1.0
 23
-0.1666666667
 33
0.0
  0
ENDBLK
  5
3CC
330
223
100
AcDbEntity
  8
0
  6
BYBLOCK
 62
     0
100
AcDbBlockEnd
  0
ENDSEC
  0
SECTION
  2
ENTITIES
  0
MTEXT
  5
439
330
1F
100
AcDbEntity
  8
0
  6
CONTINUOUS
 62
     2
100
AcDbMText
 10
15.84375
 20
2.3125
 30
0.0
 40
0.09375
 41
0.075
 71
     2
 72
     1
  1
 \P \P 
  7
TEXTSTYLE_1
1001
ACAD
1000
MTEXTBEGIN
1070
    73
1070
     1
1070
    44
1040
1.0
1070
    74
1070
     0
1000
MTEXTEND
  0
LINE
  5
B35
330
1F
100
AcDbEntity
  8
0
100
AcDbLine
 10
35.99999999999998
 20
18.63262936476227
 30
0.0
 11
-0.0000000000000071
 21
18.63262936476227
 31
0.0
  0
LINE
  5
B36
330
1F
100
AcDbEntity
  8
CENTER
100
AcDbLine
 10
9.401617961599974
 20
17.54969371463699
 30
0.0
 11
1.776656238399986
 21
16.47807522983699
 31
0.0
  0
LWPOLYLINE
  5
C71
330
1F
100
AcDbEntity
  8
0
100
AcDbPolyline
 90
       12
 70
     0
 43
0.0
 10
4.427325276799983
 20
16.37957994823699
 10
4.486716340799993
 20
16.00104859783699
 10
4.552360164799999
 20
15.56878075303699
 10
4.620589193599975
 20
15.10547532103699
 10
4.691107121599991
 20
14.61301746663699
 10
4.763709513599984
 20
14.09289981863699
 10
4.838226783999992
 20
13.54650620743699
 10
4.914478481599978
 20
12.97538385543699
 10
4.992745308799975
 20
12.37757616103699
 10
5.074192633599999
 20
11.74395412263698
 10
5.160016871999992
 20
11.06443813223698
 10
5.245979699199999
 20
10.37236841703699
  0
ARC
  5
C72
330
1F
100
AcDbEntity
  8
0
  6
HIDDEN
 62
     8
100
AcDbCircle
 10
7.770890398399977
 20
16.12118325543699
 30
0.0
 40
0.625
100
AcDbArc
 50
249.9999999999999
 51
69.99999999999996
  0
LINE
  5
C73
330
1F
100
AcDbEntity
  8
0
  6
HIDDEN
 62
     8
100
AcDbLine
 10
30.89485490106904
 20
19.97550102615043
 30
0.0
 11
29.42416199867912
 21
9.445800222006248
 31
0.0
  0
LWPOLYLINE
  5
C74
330
1F
100
AcDbEntity
  8
0
100
AcDbPolyline
 90
       12
 70
     0
 43
0.0
 10
30.75402030239998
 20
10.37236841703699
 10
30.83998312959998
 20
11.06443813223698
 10
30.92580736639998
 20
11.74395412263698
 10
31.00725469279997
 20
12.37757616103699
 10
31.08552151839997
 20
12.97538385543699
 10
31.16177321599998
 20
13.54650620743699
 10
31.23629048799996
 20
14.09289981863699
 10
31.30889287839998
 20
14.61301746663699
 10
31.37941080799997
 20
15.10547532103699
 10
31.44763983519998
 20
15.56878075303699
 10
31.51328365919998
 20
16.00104859783699
 10
31.57267472319996
 20
16.37957994823699
  0
LWPOLYLINE
  5
C75
330
1F
100
AcDbEntity
  8
0
100
AcDbPolyline
 90
        3
 70
     0
 43
0.0
 10
29.86912917447797
 20
9.553344820874196
 10
30.04005812639998
 20
9.611635162636988
 10
30.19516065439997
 20
9.678046193036992
  0
LINE
  5
C76
330
1F
100
AcDbEntity
  8
0
100
AcDbLine
 10
13.0179550416
 20
0.399772089599999
 30
0.0
 11
13.78276392139818
 21
1.492032366707993
 31
0.0
  0
LINE
  5
C77
330
1F
100
AcDbEntity
  8
0
100
AcDbLine
 10
11.48204495907367
 20
0.3997720900717123
 30
0.0
 11
11.078300157622
 21
0.9763794234369878
 31
0.0
  0
LINE
  5
C78
330
1F
100
AcDbEntity
  8
0
100
AcDbLine
 10
21.97520401111694
 20
1.837689982111056
 30
0.0
 11
22.98204495839998
 21
0.399772089599999
 31
0.0
  0
ARC
  5
C79
330
1F
100
AcDbEntity
  8
0
100
AcDbCircle
 10
23.74999999999998
 20
0.9375
 30
0.0
 40
0.9375
100
AcDbArc
 50
214.9999999999999
 51
339.9999999999999
  0
LINE
  5
C7A
330
1F
100
AcDbEntity
  8
CENTER
100
AcDbLine
 10
11.49999999999999
 20
4.226060963943654
 30
0.0
 11
11.49999999999999
 21
-2.003571777250579
 31
0.0
  0
ARC
  5
C7B
330
1F
100
AcDbEntity
  8
0
100
AcDbCircle
 10
12.25
 20
0.9375
 30
0.0
 40
0.9375
100
AcDbArc
 50
215.0000000633561
 51
324.9999999999999
  0
LINE
  5
C7C
330
1F
100
AcDbEntity
  8
0
100
AcDbLine
 10
26.69148764959997
 20
2.037847095436989
 30
0.0
 11
13.81789729759997
 21
1.491497282636992
 31
0.0
  0
LINE
  5
C7D
330
1F
100
AcDbEntity
  8
0
100
AcDbLine
 10
6.575815838127503
 20
9.445806281729256
 30
0.0
 11
7.437400820799972
 21
3.315325487436984
 31
0.0
  0
LINE
  5
C7E
330
1F
100
AcDbEntity
  8
0
100
AcDbLine
 10
10.22855339039997
 20
0.9763794234369884
 30
0.0
 11
12.77144660960001
 21
0.9763794234369866
 31
0.0
  0
LINE
  5
C7F
330
1F
100
AcDbEntity
  8
0
100
AcDbLine
 10
9.459441652799988
 20
1.557876903436991
 30
0.0
 11
13.81789729759997
 21
1.491497282636992
 31
0.0
  0
ARC
  5
C80
330
1F
100
AcDbEntity
  8
0
100
AcDbCircle
 10
9.463546632382922
 20
3.613315943092631
 30
0.0
 40
2.047941688978728
100
AcDbArc
 50
188.3666566204141
 51
264.0476729329605
  0
LINE
  5
C81
330
1F
100
AcDbEntity
  8
0
100
AcDbLine
 10
10.02967960799997
 20
1.058755641036988
 30
0.0
 11
9.5946672448
 21
1.49376800423699
 31
0.0
  0
ARC
  5
C82
330
1F
100
AcDbEntity
  8
0
100
AcDbCircle
 10
9.43998763679999
 20
1.339088396236988
 30
0.0
 40
0.21875
100
AcDbArc
 50
45.00000011550023
 51
84.93683189350001
  0
LWPOLYLINE
  5
C83
330
1F
100
AcDbEntity
  8
0
100
AcDbPolyline
 90
        4
 70
     0
 43
0.0
 10
9.459286230399975
 20
1.556986804236993
 10
9.38994952479998
 20
1.563243978636992
 10
9.320601679999974
 20
1.569723010636993
 10
9.251173163199972
 20
1.576415682636993
  0
ARC
  5
C84
330
1F
100
AcDbEntity
  8
0
100
AcDbCircle
 10
10.22855339039997
 20
1.257629423436988
 30
0.0
 40
0.28125
100
AcDbArc
 50
225.0
 51
270.0
  0
ARC
  5
C85
330
1F
100
AcDbEntity
  8
0
100
AcDbCircle
 10
13.51125659340302
 20
1.246138451846759
 30
0.0
 40
0.25
100
AcDbArc
 50
89.12744825109149
 51
135.000000000001
  0
LINE
  5
C86
330
1F
100
AcDbEntity
  8
0
100
AcDbLine
 10
12.97032039200001
 20
1.058755641036988
 30
0.0
 11
13.33447989810638
 21
1.42291514714339
 31
0.0
  0
ARC
  5
C87
330
1F
100
AcDbEntity
  8
0
100
AcDbCircle
 10
12.77144660960001
 20
1.257629423436988
 30
0.0
 40
0.28125
100
AcDbArc
 50
270.0
 51
314.9999999999999
  0
LWPOLYLINE
  5
C89
330
1F
100
AcDbEntity
  8
0
100
AcDbPolyline
 90
       11
 70
     0
 43
0.0
 10
6.130756052799988
 20
9.553376367436991
 10
6.320717609599988
 20
9.501158239436991
 10
6.532311935999977
 20
9.45383289543699
 10
6.769553102399974
 20
9.41006111623699
 10
7.038427267199999
 20
9.368600618636991
 10
7.344062796799981
 20
9.328872060236991
 10
7.686262086399999
 20
9.291185901836991
 10
8.062941422399994
 20
9.255856591436989
 10
8.471456755199987
 20
9.223059809036991
 10
8.909128948799995
 20
9.192907573836992
 10
9.331995054399975
 20
9.167668260236988
  0
LWPOLYLINE
  5
C8A
330
1F
100
AcDbEntity
  8
0
100
AcDbPolyline
 90
        6
 70
     0
 43
0.0
 10
5.245879095999974
 20
10.37318256423699
 10
5.260866671999984
 20
10.28665633063698
 10
5.301579465599978
 20
10.15889758343699
 10
5.363198327999974
 20
10.04160851783699
 10
5.444668468799982
 20
9.935465218636993
 10
5.541239927999974
 20
9.84337319623699
  0
LWPOLYLINE
  5
C8B
330
1F
100
AcDbEntity
  8
0
100
AcDbPolyline
 90
        3
 70
     0
 43
0.0
 10
6.130970945599976
 20
9.553310677836991
 10
6.320902868799997
 20
9.501112394636992
 10
6.532476876799982
 20
9.453799461836988
  0
LWPOLYLINE
  5
C8C
330
1F
100
AcDbEntity
  8
0
100
AcDbPolyline
 90
        3
 70
     0
 43
0.0
 10
5.541249518399972
 20
9.843365385036991
 10
5.664709063999985
 20
9.754814362636993
 10
5.805037859199977
 20
9.677950457036994
  0
LINE
  5
C8D
330
1F
100
AcDbEntity
  8
0
100
AcDbLine
 10
5.80483934559998
 20
9.678046193036992
 30
0.0
 11
5.959941873599994
 21
9.611635162636988
 31
0.0
  0
LINE
  5
C8E
330
1F
100
AcDbEntity
  8
0
100
AcDbLine
 10
5.959716195199995
 20
9.611721167436991
 30
0.0
 11
6.130970945599976
 21
9.553310677836991
 31
0.0
  0
LINE
  5
C8F
330
1F
100
AcDbEntity
  8
0
100
AcDbLine
 10
5.541249483199997
 20
9.843365413836993
 30
0.0
 11
5.664830606399981
 21
9.754738522636992
 31
0.0
  0
LINE
  5
C90
330
1F
100
AcDbEntity
  8
0
100
AcDbLine
 10
28.62857362103126
 20
3.784758033311858
 30
0.0
 11
29.44042491359998
 21
9.448800397836992
 31
0.0
  0
LINE
  5
C91
330
1F
100
AcDbEntity
  8
0
100
AcDbLine
 10
24.63096183199998
 20
0.616856115200001
 30
0.0
 11
25.12477415898973
 21
1.97135642741809
 31
0.0
  0
ARC
  5
C92
330
1F
100
AcDbEntity
  8
0
100
AcDbCircle
 10
26.61709160639996
 20
4.067453394636993
 30
0.0
 40
2.03125
100
AcDbArc
 50
272.2325971047999
 51
351.9999999999999
  0
LINE
  5
C93
330
1F
100
AcDbEntity
  8
0
100
AcDbLine
 10
26.69570982239999
 20
2.037990301836989
 30
0.0
 11
26.69622259999998
 21
2.03774530663699
 31
0.0
  0
LWPOLYLINE
  5
C94
330
1F
100
AcDbEntity
  8
0
100
AcDbPolyline
 90
        4
 70
     0
 43
0.0
 10
26.69561814079996
 20
2.038047317836992
 10
26.69167084639998
 20
2.03787451143699
 10
26.69148764959997
 20
2.037847095436989
 10
26.69570982239999
 20
2.037990301836993
  0
LWPOLYLINE
  5
C95
330
1F
100
AcDbEntity
  8
0
100
AcDbPolyline
 90
       11
 70
     0
 43
0.0
 10
26.66800494719997
 20
9.167668260236988
 10
27.09083764799997
 20
9.192905441036993
 10
27.52847127999997
 20
9.223054458636989
 10
27.93694876639996
 20
9.25584706983699
 10
28.31359635839998
 20
9.291171524236988
 10
28.65577464799999
 20
9.328852621836988
 10
28.96140346079998
 20
9.368576661836991
 10
29.23028256959999
 20
9.410033436236988
 10
29.46752312319997
 20
9.453799461836988
 10
29.67909713279998
 20
9.501112394636992
 10
29.86912917447797
 20
9.553344820874192
  0
LWPOLYLINE
  5
C96
330
1F
100
AcDbEntity
  8
0
100
AcDbPolyline
 90
        3
 70
     0
 43
0.0
 10
29.44042526079998
 20
9.448802818636993
 10
29.46768806399997
 20
9.45383289543699
 10
29.67928239039999
 20
9.501158239436991
  0
LWPOLYLINE
  5
C97
330
1F
100
AcDbEntity
  8
0
100
AcDbPolyline
 90
        5
 70
     0
 43
0.0
 10
30.45875976959997
 20
9.843372946636991
 10
30.55476333599996
 20
9.934837973836993
 10
30.63588147519998
 20
10.04017870823698
 10
30.69742723359998
 20
10.15653269863698
 10
30.73836656799999
 20
10.28331247783698
  0
LINE
  5
C98
330
1F
100
AcDbEntity
  8
0
100
AcDbLine
 10
30.19516065439997
 20
9.678046193036992
 30
0.0
 11
30.33522405599997
 21
9.754777724236989
 31
0.0
  0
LWPOLYLINE
  5
C99
330
1F
100
AcDbEntity
  8
0
100
AcDbPolyline
 90
        3
 70
     0
 43
0.0
 10
30.19496214079997
 20
9.677950457036994
 10
30.33516939359997
 20
9.754738522636992
 10
30.45875051679998
 20
9.843365413836993
  0
LINE
  5
C9A
330
1F
100
AcDbEntity
  8
0
100
AcDbLine
 10
30.73836656799999
 20
10.28331247783698
 30
0.0
 11
30.75411991039997
 21
10.37317442663698
 31
0.0
  0
LINE
  5
C9B
330
1F
100
AcDbEntity
  8
0
100
AcDbLine
 10
30.55501088479998
 20
9.935159444236989
 30
0.0
 11
30.55533153279997
 21
9.935465218636993
 31
0.0
  0
LINE
  5
C9C
330
1F
100
AcDbEntity
  8
0
  6
HIDDEN
 62
     8
100
AcDbLine
 10
28.02942075999998
 20
16.72864090983699
 30
0.0
 11
30.77815856639996
 21
17.72909965223699
 31
0.0
  0
LINE
  5
C9D
330
1F
100
AcDbEntity
  8
0
  6
HIDDEN
 62
     8
100
AcDbLine
 10
28.45694593919997
 20
15.55402513383699
 30
0.0
 11
30.56716280639999
 21
16.32208126023699
 31
0.0
  0
LINE
  5
C9E
330
1F
100
AcDbEntity
  8
0
  6
HIDDEN
 62
     8
100
AcDbLine
 10
5.223775030399984
 20
17.71336854023699
 30
0.0
 11
7.9725128368
 21
16.71290979783699
 31
0.0
  0
LINE
  5
C9F
330
1F
100
AcDbEntity
  8
0
  6
HIDDEN
 62
     8
100
AcDbLine
 10
5.434770790399987
 20
16.30635014983699
 30
0.0
 11
7.544987657599982
 21
15.53829402183699
 31
0.0
  0
LINE
  5
CA0
330
1F
100
AcDbEntity
  8
0
100
AcDbLine
 10
4.211172300799994
 20
17.69610676423699
 30
0.0
 11
4.42733142239998
 21
16.37958091303699
 31
0.0
  0
LWPOLYLINE
  5
CA1
330
1F
100
AcDbEntity
  8
0
  6
HIDDEN
 62
     8
100
AcDbPolyline
 90
       55
 70
     0
 43
0.0
 10
5.223775030399984
 20
17.71336854023699
 10
5.222038591999982
 20
17.71356640903698
 10
5.220405220799982
 20
17.71297204103699
 10
5.218882683199971
 20
17.71175295303699
 10
5.216823671999996
 20
17.70911941703699
 10
5.215057708799996
 20
17.70602254823699
 10
5.212606358399987
 20
17.70041685063699
 10
5.211039745599997
 20
17.69508434823699
 10
5.210166155199992
 20
17.68995418503699
 10
5.209793873599998
 20
17.68495550663699
 10
5.209731190399985
 20
17.68001745543699
 10
5.209786387199976
 20
17.67506917383699
 10
5.209696427199979
 20
17.66159191463699
 10
5.209307963199982
 20
17.64771780743699
 10
5.208843436799973
 20
17.63362212583698
 10
5.208525292799997
 20
17.61948014983699
 10
5.208617724799999
 20
17.59989695943699
 10
5.209257651199997
 20
17.58048974183699
 10
5.210273550399982
 20
17.56118302343699
 10
5.211493900799972
 20
17.54190132583699
 10
5.214682983999999
 20
17.49518405543699
 10
5.218282916799999
 20
17.44838348903699
 10
5.22318083519999
 20
17.39407219783699
 10
5.228706723199984
 20
17.33985703783698
 10
5.235469625599982
 20
17.27870292423699
 10
5.242731825599996
 20
17.21759543303699
 10
5.251461907199988
 20
17.14902454823699
 10
5.260758702399975
 20
17.08052941223699
 10
5.271286079999974
 20
17.00738764583699
 10
5.282425723199985
 20
16.93434425223699
 10
5.29466211359999
 20
16.85860332103699
 10
5.307617551999975
 20
16.78294808583699
 10
5.316424479999987
 20
16.73396280903699
 10
5.325606929599977
 20
16.68506995623699
 10
5.335219967999982
 20
16.63634537543699
 10
5.344158987199982
 20
16.59325824743699
 10
5.3535238288
 20
16.55018564583699
 10
5.363357652799997
 20
16.50694974823699
 10
5.369643003199989
 20
16.48038546983699
 10
5.376238711999995
 20
16.45394722983699
 10
5.383263367999994
 20
16.42788879303699
 10
5.390835567999992
 20
16.40246392263699
 10
5.395226183999987
 20
16.38895766663699
 10
5.399848995199981
 20
16.37550141063699
 10
5.404739375999973
 20
16.36188297703699
 10
5.409932699199991
 20
16.34789019143699
 10
5.415464340799978
 20
16.33331087623699
 10
5.417102721599995
 20
16.32907732903699
 10
5.418834763199974
 20
16.32488357063699
 10
5.420724339199999
 20
16.32083306023698
 10
5.422835321599983
 20
16.31702925063699
 10
5.42523158399998
 20
16.31357559943699
 10
5.427977001599991
 20
16.31057556103699
 10
5.431135444799984
 20
16.30813259303699
 10
5.434770790399987
 20
16.30635014983699
  0
ARC
  5
CA3
330
1F
100
AcDbEntity
  8
0
  6
HIDDEN
 62
     8
100
AcDbCircle
 10
28.23104319839997
 20
16.13691436743699
 30
0.0
 40
0.625
100
AcDbArc
 50
110.0
 51
290.0
  0
LWPOLYLINE
  5
CA5
330
1F
100
AcDbEntity
  8
0
100
AcDbPolyline
 90
        3
 70
     0
 43
0.0
 10
31.57266857759997
 20
16.37958091303699
 10
31.78882770079998
 20
17.69610676423699
 10
31.9509510576343
 20
18.63262936476227
  0
LWPOLYLINE
  5
CA6
330
1F
100
AcDbEntity
  8
0
  6
HIDDEN
 62
     8
100
AcDbPolyline
 90
       55
 70
     0
 43
0.0
 10
30.77815856639996
 20
17.72909965223699
 10
30.77988817119997
 20
17.72929767303699
 10
30.78151645759998
 20
17.72870861063698
 10
30.78303538879997
 20
17.72749873863699
 10
30.78509117119996
 20
17.72488364583699
 10
30.78685570719999
 20
17.72180703783699
 10
30.78931095199997
 20
17.71622274663699
 10
30.79088026559996
 20
17.71090635783699
 10
30.79175559839997
 20
17.70578833703699
 10
30.79212890079996
 20
17.70079915303699
 10
30.79219212479996
 20
17.69586927143699
 10
30.79213722079997
 20
17.69092915783699
 10
30.79222860479997
 20
17.67744616263699
 10
30.79262006079999
 20
17.66357089223699
 10
30.79308826879999
 20
17.64947657223699
 10
30.79340991519997
 20
17.63533642823699
 10
30.79332054719996
 20
17.61573712583698
 10
30.79268128799997
 20
17.59631197063699
 10
30.79166455199997
 20
17.57698631783699
 10
30.79044275199997
 20
17.55768552263699
 10
30.78725069119998
 20
17.51092395303698
 10
30.78364778399997
 20
17.46408060263699
 10
30.77874606399997
 20
17.40973199143699
 10
30.77321534399998
 20
17.35547909383699
 10
30.76644371359996
 20
17.29425820103699
 10
30.75917194079998
 20
17.23308420583699
 10
30.75043081919999
 20
17.16444497063698
 10
30.74112195199997
 20
17.09588158343699
 10
30.73058579359998
 20
17.02270232583699
 10
30.71943669439999
 20
16.94962159783699
 10
30.70719673439997
 20
16.87388496263698
 10
30.69423744799998
 20
16.79823408903699
 10
30.68543393919997
 20
16.74928520103699
 10
30.67625512799996
 20
16.70042871943699
 10
30.66664590399999
 20
16.65174045383698
 10
30.65771532639998
 20
16.60870866023699
 10
30.64835959359998
 20
16.56569136583699
 10
30.63853570079997
 20
16.52251100263699
 10
30.63225694719999
 20
16.49598102023699
 10
30.62566831999997
 20
16.46957690983699
 10
30.61865134079998
 20
16.44355208263699
 10
30.61108753279997
 20
16.41815995463699
 10
30.60669943039998
 20
16.40466380423699
 10
30.60207940799996
 20
16.39121763463699
 10
30.59719234079999
 20
16.37760933063699
 10
30.59200309919997
 20
16.36362677223699
 10
30.58647655199997
 20
16.34905784263699
 10
30.58483776159998
 20
16.34482191623699
 10
30.58310527999997
 20
16.34062572263698
 10
30.58121517759998
 20
16.33657280423699
 10
30.57910352319997
 20
16.33276670023699
 10
30.57670639039999
 20
16.32931095303699
 10
30.57395984479997
 20
16.32630910343699
 10
30.57079996159997
 20
16.32386469223699
 10
30.56716280639999
 20
16.32208126023699
  0
LINE
  5
CEB
330
1F
100
AcDbEntity
  8
0
  6
HIDDEN
 62
     8
100
AcDbLine
 10
35.18922384159998
 20
20.62488191836227
 30
0.0
 11
31.58556021240707
 21
20.51410217231473
 31
0.0
  0
ARC
  5
CED
330
1F
100
AcDbEntity
  8
0
  6
HIDDEN
 62
     8
100
AcDbCircle
 10
31.59327466233897
 20
20.2642212245371
 30
0.0
 40
0.2500000016
100
AcDbArc
 50
91.76076429350001
 51
173.9568752414
  0
ARC
  5
CEE
330
1F
100
AcDbEntity
  8
0
  6
HIDDEN
 62
     8
100
AcDbCircle
 10
31.07972835353895
 20
19.94422713013709
 30
0.0
 40
0.1875
100
AcDbArc
 50
89.9983105055
 51
170.3985260276473
  0
LINE
  5
CEF
330
1F
100
AcDbEntity
  8
0
  6
HIDDEN
 62
     8
100
AcDbLine
 10
31.07972835353895
 20
20.13172713013709
 30
0.0
 11
31.16815031993896
 21
20.13172713013709
 31
0.0
  0
ARC
  5
CF0
330
1F
100
AcDbEntity
  8
0
  6
HIDDEN
 62
     8
100
AcDbCircle
 10
31.16815031993896
 20
20.3092271301371
 30
0.0
 40
0.1775
100
AcDbArc
 50
270.0
 51
353.9568767875999
  0
LINE
  5
CF1
330
1F
100
AcDbEntity
  8
0
100
AcDbLine
 10
35.87779680319998
 20
20.02941829916228
 30
0.0
 11
35.99999999999998
 21
18.63262936476227
 31
0.0
  0
ARC
  5
CF2
330
1F
100
AcDbEntity
  8
0
100
AcDbCircle
 10
35.62874812799998
 20
20.44512936476227
 30
0.0
 40
0.1875
100
AcDbArc
 50
189.2240642766999
 51
270.0
  0
ARC
  5
CF3
330
1F
100
AcDbEntity
  8
0
100
AcDbCircle
 10
35.19690540479999
 20
20.37499995996227
 30
0.0
 40
0.25
100
AcDbArc
 50
9.224063947299999
 51
90.02209374880001
  0
ARC
  5
CF4
330
1F
100
AcDbEntity
  8
0
100
AcDbCircle
 10
35.62874812799998
 20
20.00762936476227
 30
0.0
 40
0.25
100
AcDbArc
 50
5.0
 51
90.0
  0
LWPOLYLINE
  5
CF6
330
1F
100
AcDbEntity
  8
0
100
AcDbPolyline
 90
        2
 70
     0
 43
0.0
 10
4.049048942752122
 20
18.63262936476227
 10
4.211172300799994
 20
17.69610676423699
  0
LINE
  5
CFA
330
1F
100
AcDbEntity
  8
0
  6
HIDDEN
 62
     8
100
AcDbLine
 10
32.12796176185225
 20
20.01340780073994
 30
0.0
 11
31.9312058208343
 21
18.60469685436227
 31
0.0
  0
ARC
  5
CFF
330
1F
100
AcDbEntity
  8
0
  6
HIDDEN
 62
     8
100
AcDbCircle
 10
32.3128352143221
 20
19.98213390472628
 30
0.0
 40
0.1875
100
AcDbArc
 50
89.9983105055
 51
170.3985260276473
  0
ARC
  5
D00
330
1F
100
AcDbEntity
  8
0
  6
HIDDEN
 62
     8
100
AcDbCircle
 10
32.82638152312212
 20
20.30212799912628
 30
0.0
 40
0.2500000016
100
AcDbArc
 50
91.76076429350001
 51
173.9568752414
  0
LINE
  5
D01
330
1F
100
AcDbEntity
  8
0
  6
HIDDEN
 62
     8
100
AcDbLine
 10
32.3128352143221
 20
20.16963390472628
 30
0.0
 11
32.40125718072211
 21
20.16963390472628
 31
0.0
  0
ARC
  5
D02
330
1F
100
AcDbEntity
  8
0
  6
HIDDEN
 62
     8
100
AcDbCircle
 10
32.40125718072211
 20
20.34713390472629
 30
0.0
 40
0.1775
100
AcDbArc
 50
270.0
 51
353.9568767875999
  0
LINE
  5
D03
330
1F
100
AcDbEntity
  8
0
  6
HIDDEN
 62
     8
100
AcDbLine
 10
5.105145098930918
 20
19.97550102615043
 30
0.0
 11
6.575838001320832
 21
9.445800222006248
 31
0.0
  0
ARC
  5
D04
330
1F
100
AcDbEntity
  8
0
  6
HIDDEN
 62
     8
100
AcDbCircle
 10
3.173618476877834
 20
20.30212799912628
 30
0.0
 40
0.2500000016
100
AcDbArc
 50
6.0431247586
 51
88.2392357065
  0
LINE
  5
D05
330
1F
100
AcDbEntity
  8
0
  6
HIDDEN
 62
     8
100
AcDbLine
 10
0.8107761583999746
 20
20.62488191836227
 30
0.0
 11
4.414439787592883
 21
20.51410217231473
 31
0.0
  0
LINE
  5
D06
330
1F
100
AcDbEntity
  8
0
  6
HIDDEN
 62
     8
100
AcDbLine
 10
3.872038238147709
 20
20.01340780073994
 30
0.0
 11
4.068794179165649
 21
18.60469685436227
 31
0.0
  0
ARC
  5
D07
330
1F
100
AcDbEntity
  8
0
  6
HIDDEN
 62
     8
100
AcDbCircle
 10
4.920271646461003
 20
19.94422713013709
 30
0.0
 40
0.1875
100
AcDbArc
 50
9.60147397235268
 51
90.00168949449999
  0
ARC
  5
D08
330
1F
100
AcDbEntity
  8
0
  6
HIDDEN
 62
     8
100
AcDbCircle
 10
4.406725337660986
 20
20.2642212245371
 30
0.0
 40
0.2500000016
100
AcDbArc
 50
6.0431247586
 51
88.2392357065
  0
LINE
  5
D09
330
1F
100
AcDbEntity
  8
0
  6
HIDDEN
 62
     8
100
AcDbLine
 10
4.920271646461003
 20
20.13172713013709
 30
0.0
 11
4.831849680060997
 21
20.13172713013709
 31
0.0
  0
ARC
  5
D0A
330
1F
100
AcDbEntity
  8
0
  6
HIDDEN
 62
     8
100
AcDbCircle
 10
4.831849680060997
 20
20.3092271301371
 30
0.0
 40
0.1775
100
AcDbArc
 50
186.0431232124
 51
270.0
  0
ARC
  5
D0B
330
1F
100
AcDbEntity
  8
0
  6
HIDDEN
 62
     8
100
AcDbCircle
 10
3.598742819277845
 20
20.34713390472629
 30
0.0
 40
0.1775
100
AcDbArc
 50
186.0431232124
 51
270.0
  0
LINE
  5
D0C
330
1F
100
AcDbEntity
  8
0
  6
HIDDEN
 62
     8
100
AcDbLine
 10
3.68716478567785
 20
20.16963390472628
 30
0.0
 11
3.598742819277845
 21
20.16963390472628
 31
0.0
  0
ARC
  5
D0D
330
1F
100
AcDbEntity
  8
0
  6
HIDDEN
 62
     8
100
AcDbCircle
 10
3.68716478567785
 20
19.98213390472628
 30
0.0
 40
0.1875
100
AcDbArc
 50
9.60147397235268
 51
90.00168949449999
  0
LINE
  5
D0E
330
1F
100
AcDbEntity
  8
0
100
AcDbLine
 10
0.1222031967999726
 20
20.02941829916228
 30
0.0
 11
-0.0000000000000284
 21
18.63262936476227
 31
0.0
  0
ARC
  5
D0F
330
1F
100
AcDbEntity
  8
0
100
AcDbCircle
 10
0.3712518719999736
 20
20.44512936476227
 30
0.0
 40
0.1875
100
AcDbArc
 50
270.0
 51
350.7759357233
  0
ARC
  5
D10
330
1F
100
AcDbEntity
  8
0
100
AcDbCircle
 10
0.8030945951999655
 20
20.37499995996227
 30
0.0
 40
0.25
100
AcDbArc
 50
89.97790625120002
 51
170.7759360527
  0
ARC
  5
D11
330
1F
100
AcDbEntity
  8
0
100
AcDbCircle
 10
0.3712518719999736
 20
20.00762936476227
 30
0.0
 40
0.25
100
AcDbArc
 50
90.0
 51
175.0
  0
LINE
  5
D12
330
1F
100
AcDbEntity
  8
0
100
AcDbLine
 10
0.8031909973627406
 20
20.62499994137552
 30
0.0
 11
35.19680900263721
 21
20.62499994137552
 31
0.0
  0
ENDSEC
  0
SECTION
  2
OBJECTS
  0
DICTIONARY
  5
C
330
0
100
AcDbDictionary
  3
ACAD_GROUP
350
D
  3
ACAD_LAYOUT
350
1A
  3
ACAD_MLINESTYLE
350
17
  3
ACAD_PLOTSETTINGS
350
19
  3
ACAD_PLOTSTYLENAME
350
E
  3
ACDBHEADERROUNDTRIPXREC
350
D49
  0
DICTIONARY
  5
D6C
330
1F
100
AcDbDictionary
280
     1
  3
ACAD_LAYOUTSELFREF
360
D6D
  0
DICTIONARY
  5
D6A
330
1B
100
AcDbDictionary
280
     1
  3
ACAD_LAYOUTSELFREF
360
D6B
  0
DICTIONARY
  5
D
102
{ACAD_REACTORS
330
C
102
}
330
C
100
AcDbDictionary
  0
DICTIONARY
  5
1A
102
{ACAD_REACTORS
330
C
102
}
330
C
100
AcDbDictionary
  0
DICTIONARY
  5
17
102
{ACAD_REACTORS
330
C
102
}
330
C
100
AcDbDictionary
  3
STANDARD
350
18
  0
DICTIONARY
  5
19
102
{ACAD_REACTORS
330
C
102
}
330
C
100
AcDbDictionary
  0
ACDBDICTIONARYWDFLT
  5
E
102
{ACAD_REACTORS
330
C
102
}
330
C
100
AcDbDictionary
281
     1
  3
Normal
350
F
100
AcDbDictionaryWithDefault
340
F
  0
DICTIONARY
  5
D49
102
{ACAD_REACTORS
330
C
102
}
330
C
100
AcDbDictionary
  3
CEPSNTYPE
350
D53
  3
DIMSTYLEDATA
350
D57
  3
FINGERPRINTGUID
350
D54
  3
HYPERLINKBASE
350
D4C
  3
INSUNITS
350
D52
  3
LAYOUTDICT
350
D4E
  3
LWETCUNION
350
D51
  3
PLOTSETDICT
350
D4F
  3
PLOTSTYLNAMDICT
350
D50
  3
PSVPSCALE
350
D56
  3
PUCSBASE
350
D5A
  3
PUCSORGBACK
350
D60
  3
PUCSORGBOTTOM
350
D5C
  3
PUCSORGFRONT
350
D5F
  3
PUCSORGLEFT
350
D5D
  3
PUCSORGRIGHT
350
D5E
  3
PUCSORGTOP
350
D5B
  3
PUCSORTHOREF
350
D58
  3
PUCSORTHOVIEW
350
D59
  3
STYLESHEET
350
D4D
  3
TSTACKALIGN
350
D4A
  3
TSTACKSIZE
350
D4B
  3
UCSBASE
350
D63
  3
UCSORGBACK
350
D69
  3
UCSORGBOTTOM
350
D65
  3
UCSORGFRONT
350
D68
  3
UCSORGLEFT
350
D66
  3
UCSORGRIGHT
350
D67
  3
UCSORGTOP
350
D64
  3
UCSORTHOREF
350
D61
  3
UCSORTHOVIEW
350
D62
  3
VERSIONGUID
350
D55
  0
XRECORD
  5
D6D
102
{ACAD_REACTORS
330
D6C
102
}
330
D6C
100
AcDbXrecord
340
1F
  0
XRECORD
  5
D6B
102
{ACAD_REACTORS
330
D6A
102
}
330
D6A
100
AcDbXrecord
340
1B
  0
MLINESTYLE
  5
18
102
{ACAD_REACTORS
330
17
102
}
330
17
100
AcDbMlineStyle
  2
STANDARD
 70
     0
  3

 62
   256
 51
90.0
 52
90.0
 71
     2
 49
0.5
 62
   256
  6
BYLAYER
 49
-0.5
 62
   256
  6
BYLAYER
  0
ACDBPLACEHOLDER
  5
F
102
{ACAD_REACTORS
330
E
102
}
330
0
100
AcDbPlaceHolder
280
     0
  0
XRECORD
  5
D53
102
{ACAD_REACTORS
330
D49
102
}
330
D49
100
AcDbXrecord
 90
        0
  0
XRECORD
  5
D57
102
{ACAD_REACTORS
330
D49
102
}
330
D49
100
AcDbXrecord
1000
DSTYLE
1002
{
1070
   278
 70
     0
1070
   342
340
223
1070
   371
 70
     0
1070
   372
 70
     0
1002
}
  0
XRECORD
  5
D54
102
{ACAD_REACTORS
330
D49
102
}
330
D49
100
AcDbXrecord
  1

  0
XRECORD
  5
D4C
102
{ACAD_REACTORS
330
D49
102
}
330
D49
100
AcDbXrecord
  1

  0
XRECORD
  5
D52
102
{ACAD_REACTORS
330
D49
102
}
330
D49
100
AcDbXrecord
 90
        1
  0
XRECORD
  5
D4E
102
{ACAD_REACTORS
330
D49
102
}
330
D49
100
AcDbXrecord
340
1A
  0
XRECORD
  5
D51
102
{ACAD_REACTORS
330
D49
102
}
330
D49
100
AcDbXrecord
 90
    10781
  0
XRECORD
  5
D4F
102
{ACAD_REACTORS
330
D49
102
}
330
D49
100
AcDbXrecord
340
19
  0
XRECORD
  5
D50
102
{ACAD_REACTORS
330
D49
102
}
330
D49
100
AcDbXrecord
340
E
  0
XRECORD
  5
D56
102
{ACAD_REACTORS
330
D49
102
}
330
D49
100
AcDbXrecord
 40
0.0
  0
XRECORD
  5
D5A
102
{ACAD_REACTORS
330
D49
102
}
330
D49
100
AcDbXrecord
340
0
  0
XRECORD
  5
D60
102
{ACAD_REACTORS
330
D49
102
}
330
D49
100
AcDbXrecord
 10
0.0
 20
0.0
 30
0.0
  0
XRECORD
  5
D5C
102
{ACAD_REACTORS
330
D49
102
}
330
D49
100
AcDbXrecord
 10
0.0
 20
0.0
 30
0.0
  0
XRECORD
  5
D5F
102
{ACAD_REACTORS
330
D49
102
}
330
D49
100
AcDbXrecord
 10
0.0
 20
0.0
 30
0.0
  0
XRECORD
  5
D5D
102
{ACAD_REACTORS
330
D49
102
}
330
D49
100
AcDbXrecord
 10
0.0
 20
0.0
 30
0.0
  0
XRECORD
  5
D5E
102
{ACAD_REACTORS
330
D49
102
}
330
D49
100
AcDbXrecord
 10
0.0
 20
0.0
 30
0.0
  0
XRECORD
  5
D5B
102
{ACAD_REACTORS
330
D49
102
}
330
D49
100
AcDbXrecord
 10
0.0
 20
0.0
 30
0.0
  0
XRECORD
  5
D58
102
{ACAD_REACTORS
330
D49
102
}
330
D49
100
AcDbXrecord
340
0
  0
XRECORD
  5
D59
102
{ACAD_REACTORS
330
D49
102
}
330
D49
100
AcDbXrecord
 70
     0
  0
XRECORD
  5
D4D
102
{ACAD_REACTORS
330
D49
102
}
330
D49
100
AcDbXrecord
  1

  0
XRECORD
  5
D4A
102
{ACAD_REACTORS
330
D49
102
}
330
D49
100
AcDbXrecord
 90
        1
  0
XRECORD
  5
D4B
102
{ACAD_REACTORS
330
D49
102
}
330
D49
100
AcDbXrecord
 90
       70
  0
XRECORD
  5
D63
102
{ACAD_REACTORS
330
D49
102
}
330
D49
100
AcDbXrecord
340
0
  0
XRECORD
  5
D69
102
{ACAD_REACTORS
330
D49
102
}
330
D49
100
AcDbXrecord
 10
0.0
 20
0.0
 30
0.0
  0
XRECORD
  5
D65
102
{ACAD_REACTORS
330
D49
102
}
330
D49
100
AcDbXrecord
 10
0.0
 20
0.0
 30
0.0
  0
XRECORD
  5
D68
102
{ACAD_REACTORS
330
D49
102
}
330
D49
100
AcDbXrecord
 10
0.0
 20
0.0
 30
0.0
  0
XRECORD
  5
D66
102
{ACAD_REACTORS
330
D49
102
}
330
D49
100
AcDbXrecord
 10
0.0
 20
0.0
 30
0.0
  0
XRECORD
  5
D67
102
{ACAD_REACTORS
330
D49
102
}
330
D49
100
AcDbXrecord
 10
0.0
 20
0.0
 30
0.0
  0
XRECORD
  5
D64
102
{ACAD_REACTORS
330
D49
102
}
330
D49
100
AcDbXrecord
 10
0.0
 20
0.0
 30
0.0
  0
XRECORD
  5
D61
102
{ACAD_REACTORS
330
D49
102
}
330
D49
100
AcDbXrecord
340
0
  0
XRECORD
  5
D62
102
{ACAD_REACTORS
330
D49
102
}
330
D49
100
AcDbXrecord
 70
     0
  0
XRECORD
  5
D55
102
{ACAD_REACTORS
330
D49
102
}
330
D49
100
AcDbXrecord
  1
{FED719CF-D56D-4F3D-AD52-94DD97C0CACD}
  0
ENDSEC
  0
EOF
