  0
SECTION
  2
HEADER
  9
$ACADVER
  1
AC1014
  9
$ACADMAINTVER
 70
     9
  9
$DWGCODEPAGE
  3
ANSI_1252
  9
$INSBASE
 10
0.0
 20
0.0
 30
0.0
  9
$EXTMIN
 10
-36.69241914343881
 20
-1.981857695087573
 30
0.0
  9
$EXTMAX
 10
80.11328831791415
 20
75.9826627286694
 30
0.0
  9
$LIMMIN
 10
0.0
 20
0.0
  9
$LIMMAX
 10
17.0
 20
11.0
  9
$ORTHOMODE
 70
     1
  9
$REGENMODE
 70
     1
  9
$FILLMODE
 70
     1
  9
$QTEXTMODE
 70
     0
  9
$MIRRTEXT
 70
     1
  9
$DRAGMODE
 70
     2
  9
$LTSCALE
 40
0.9350000000000001
  9
$OSMODE
 70
    37
  9
$ATTMODE
 70
     1
  9
$TEXTSIZE
 40
0.2
  9
$TRACEWID
 40
0.05
  9
$TEXTSTYLE
  7
STANDARD
  9
$CLAYER
  8
0
  9
$CELTYPE
  6
BYLAYER
  9
$CECOLOR
 62
   256
  9
$CELTSCALE
 40
1.0
  9
$DELOBJ
 70
     1
  9
$DISPSILH
 70
     0
  9
$DIMSCALE
 40
1.0
  9
$DIMASZ
 40
0.1875
  9
$DIMEXO
 40
0.10625
  9
$DIMDLI
 40
0.646
  9
$DIMRND
 40
0.0
  9
$DIMDLE
 40
0.0
  9
$DIMEXE
 40
0.306
  9
$DIMTP
 40
0.0
  9
$DIMTM
 40
0.0
  9
$DIMTXT
 40
0.125
  9
$DIMCEN
 40
0.153
  9
$DIMTSZ
 40
0.0
  9
$DIMTOL
 70
     0
  9
$DIMLIM
 70
     0
  9
$DIMTIH
 70
     1
  9
$DIMTOH
 70
     1
  9
$DIMSE1
 70
     0
  9
$DIMSE2
 70
     0
  9
$DIMTAD
 70
     0
  9
$DIMZIN
 70
     0
  9
$DIMBLK
  1
_FILLED
  9
$DIMASO
 70
     1
  9
$DIMSHO
 70
     1
  9
$DIMPOST
  1

  9
$DIMAPOST
  1

  9
$DIMALT
 70
     0
  9
$DIMALTD
 70
     2
  9
$DIMALTF
 40
25.4
  9
$DIMLFAC
 40
1.0
  9
$DIMTOFL
 70
     0
  9
$DIMTVP
 40
0.0
  9
$DIMTIX
 70
     0
  9
$DIMSOXD
 70
     0
  9
$DIMSAH
 70
     0
  9
$DIMBLK1
  1

  9
$DIMBLK2
  1

  9
$DIMSTYLE
  2
STANDARD
  9
$DIMCLRD
 70
     0
  9
$DIMCLRE
 70
     0
  9
$DIMCLRT
 70
     0
  9
$DIMTFAC
 40
1.0
  9
$DIMGAP
 40
0.09
  9
$DIMJUST
 70
     0
  9
$DIMSD1
 70
     0
  9
$DIMSD2
 70
     0
  9
$DIMTOLJ
 70
     1
  9
$DIMTZIN
 70
     0
  9
$DIMALTZ
 70
     0
  9
$DIMALTTZ
 70
     0
  9
$DIMFIT
 70
     3
  9
$DIMUPT
 70
     0
  9
$DIMUNIT
 70
     2
  9
$DIMDEC
 70
     4
  9
$DIMTDEC
 70
     4
  9
$DIMALTU
 70
     2
  9
$DIMALTTD
 70
     2
  9
$DIMTXSTY
  7
STANDARD
  9
$DIMAUNIT
 70
     0
  9
$LUNITS
 70
     2
  9
$LUPREC
 70
     4
  9
$SKETCHINC
 40
0.1
  9
$FILLETRAD
 40
0.0
  9
$AUNITS
 70
     0
  9
$AUPREC
 70
     0
  9
$MENU
  1
acad
  9
$ELEVATION
 40
0.0
  9
$PELEVATION
 40
0.0
  9
$THICKNESS
 40
0.0
  9
$LIMCHECK
 70
     0
  9
$BLIPMODE
 70
     0
  9
$CHAMFERA
 40
0.0
  9
$CHAMFERB
 40
0.0
  9
$CHAMFERC
 40
0.0
  9
$CHAMFERD
 40
0.0
  9
$SKPOLY
 70
     0
  9
$TDCREATE
 40
2454054.664751771
  9
$TDUPDATE
 40
2454071.695682326
  9
$TDINDWG
 40
0.0245895602
  9
$TDUSRTIMER
 40
0.0245895602
  9
$USRTIMER
 70
     1
  9
$ANGBASE
 50
0.0
  9
$ANGDIR
 70
     0
  9
$PDMODE
 70
     3
  9
$PDSIZE
 40
0.03125
  9
$PLINEWID
 40
0.0
  9
$COORDS
 70
     0
  9
$SPLFRAME
 70
     0
  9
$SPLINETYPE
 70
     6
  9
$SPLINESEGS
 70
     8
  9
$ATTDIA
 70
     0
  9
$ATTREQ
 70
     1
  9
$HANDLING
 70
-16383
  9
$HANDSEED
  5
D78
  9
$SURFTAB1
 70
     6
  9
$SURFTAB2
 70
     6
  9
$SURFTYPE
 70
     6
  9
$SURFU
 70
     6
  9
$SURFV
 70
     6
  9
$UCSNAME
  2

  9
$UCSORG
 10
0.0
 20
0.0
 30
0.0
  9
$UCSXDIR
 10
1.0
 20
0.0
 30
0.0
  9
$UCSYDIR
 10
0.0
 20
1.0
 30
0.0
  9
$PUCSNAME
  2

  9
$PUCSORG
 10
0.0
 20
0.0
 30
0.0
  9
$PUCSXDIR
 10
1.0
 20
0.0
 30
0.0
  9
$PUCSYDIR
 10
0.0
 20
1.0
 30
0.0
  9
$USERI1
 70
     0
  9
$USERI2
 70
     0
  9
$USERI3
 70
     0
  9
$USERI4
 70
     0
  9
$USERI5
 70
     0
  9
$USERR1
 40
0.0
  9
$USERR2
 40
0.0
  9
$USERR3
 40
0.0
  9
$USERR4
 40
0.0
  9
$USERR5
 40
0.0
  9
$WORLDVIEW
 70
     1
  9
$SHADEDGE
 70
     3
  9
$SHADEDIF
 70
    70
  9
$TILEMODE
 70
     1
  9
$MAXACTVP
 70
    16
  9
$PINSBASE
 10
0.0
 20
0.0
 30
0.0
  9
$PLIMCHECK
 70
     0
  9
$PEXTMIN
 10
1.000000000000000E+20
 20
1.000000000000000E+20
 30
1.000000000000000E+20
  9
$PEXTMAX
 10
-1.000000000000000E+20
 20
-1.000000000000000E+20
 30
-1.000000000000000E+20
  9
$PLIMMIN
 10
0.0
 20
0.0
  9
$PLIMMAX
 10
12.0
 20
9.0
  9
$UNITMODE
 70
     0
  9
$VISRETAIN
 70
     0
  9
$PLINEGEN
 70
     1
  9
$PSLTSCALE
 70
     0
  9
$TREEDEPTH
 70
  3020
  9
$PICKSTYLE
 70
     1
  9
$CMLSTYLE
  2
STANDARD
  9
$CMLJUST
 70
     0
  9
$CMLSCALE
 40
1.0
  9
$PROXYGRAPHICS
 70
     0
  9
$MEASUREMENT
 70
     0
  0
ENDSEC
  0
SECTION
  2
CLASSES
  0
CLASS
  1
ACDBDICTIONARYWDFLT
  2
AcDbDictionaryWithDefault
  3
AutoCAD 2000
 90
        0
280
     0
281
     0
  0
CLASS
  1
ACDBPLACEHOLDER
  2
AcDbPlaceHolder
  3
AutoCAD 2000
 90
        0
280
     0
281
     0
  0
CLASS
  1
LAYOUT
  2
AcDbLayout
  3
AutoCAD 2000
 90
        0
280
     0
281
     0
  0
CLASS
  1
LWPOLYLINE
  2
AcDbPolyline
  3
AutoCAD 2000
 90
        0
280
     0
281
     1
  0
CLASS
  1
IMAGE
  2
AcDbRasterImage
  3
ISM
 90
      127
280
     0
281
     1
  0
CLASS
  1
OLE2FRAME
  2
AcDbOle2Frame
  3
AutoCAD 2000
 90
        0
280
     0
281
     1
  0
CLASS
  1
HATCH
  2
AcDbHatch
  3
AutoCAD 2000
 90
        0
280
     0
281
     1
  0
CLASS
  1
DICTIONARYVAR
  2
AcDbDictionaryVar
  3
AutoCAD 2000
 90
        0
280
     0
281
     0
  0
CLASS
  1
RASTERVARIABLES
  2
AcDbRasterVariables
  3
ISM
 90
        0
280
     0
281
     0
  0
CLASS
  1
IMAGEDEF
  2
AcDbRasterImageDef
  3
ISM
 90
        0
280
     0
281
     0
  0
CLASS
  1
IMAGEDEF_REACTOR
  2
AcDbRasterImageDefReactor
  3
ISM
 90
        1
280
     0
281
     0
  0
CLASS
  1
IDBUFFER
  2
AcDbIdBuffer
  3
AutoCAD 2000
 90
        0
280
     0
281
     0
  0
CLASS
  1
SPATIAL_FILTER
  2
AcDbSpatialFilter
  3
AutoCAD 2000
 90
        0
280
     0
281
     0
  0
CLASS
  1
XRECORD
  2
AcDbXrecord
  3
AutoCAD 2000
 90
        0
280
     0
281
     0
  0
CLASS
  1
SORTENTSTABLE
  2
AcDbSortentsTable
  3
AutoCAD 2000
 90
        0
280
     0
281
     0
  0
CLASS
  1
LAYER_INDEX
  2
AcDbLayerIndex
  3
AutoCAD 2000
 90
        0
280
     0
281
     0
  0
CLASS
  1
SPATIAL_INDEX
  2
AcDbSpatialIndex
  3
AutoCAD 2000
 90
        0
280
     0
281
     0
  0
CLASS
  1
OBJECT_PTR
  2
CAseDLPNTableRecord
  3
ASE-LPNTableRecord
 90
        1
280
     0
281
     0
  0
CLASS
  1
PLOTSETTINGS
  2
AcDbPlotSettings
  3
AutoCAD 2000
 90
        0
280
     0
281
     0
  0
CLASS
  1
VBA_PROJECT
  2
AcDbVbaProject
  3
acadvba
 90
        0
280
     0
281
     0
  0
CLASS
  1
WIPEOUT
  2
AcDbWipeout
  3
WipeOut|AutoCAD Express Tool|expresstools@autodesk.com
 90
      127
280
     0
281
     1
  0
CLASS
  1
WIPEOUTVARIABLES
  2
AcDbWipeoutVariables
  3
WipeOut|AutoCAD Express Tool|expresstools@autodesk.com
 90
        0
280
     0
281
     0
  0
CLASS
  1
RTEXT
  2
RText
  3
RText|AutoCAD Express Tool|expresstools@autodesk.com
 90
        0
280
     0
281
     1
  0
CLASS
  1
ARCALIGNEDTEXT
  2
AcDbArcAlignedText
  3
ATEXT|AutoCAD Express Tool|expresstools@autodesk.com
 90
        0
280
     0
281
     1
  0
CLASS
  1
LONG_TRANSACTION
  2
AcDbLongTransaction
  3
AutoCAD 2000
 90
        0
280
     0
281
     0
  0
CLASS
  1
LWPOLYLINE
  2
AcDbPolyline
  3
AutoCAD 2000
 90
        0
280
     0
281
     1
  0
CLASS
  1
HATCH
  2
AcDbHatch
  3
AutoCAD 2000
 90
        0
280
     0
281
     1
  0
CLASS
  1
XRECORD
  2
AcDbXrecord
  3
AutoCAD 2000
 90
        0
280
     0
281
     0
  0
ENDSEC
  0
SECTION
  2
TABLES
  0
TABLE
  2
VPORT
  5
8
330
0
100
AcDbSymbolTable
 70
     3
  0
VPORT
  5
D52
330
8
100
AcDbSymbolTableRecord
100
AcDbViewportTableRecord
  2
*ACTIVE
 70
     0
 10
0.0
 20
0.0
 11
1.0
 21
1.0
 12
0.1604762706657539
 22
18.43262200732209
 13
0.0
 23
0.0
 14
1.0
 24
1.0
 15
0.0
 25
0.0
 16
0.0
 26
0.0
 36
1.0
 17
0.0
 27
0.0
 37
0.0
 40
44.31193945255246
 41
1.745424292845257
 42
50.0
 43
0.0
 44
0.0
 50
0.0
 51
0.0
 71
     0
 72
   100
 73
     1
 74
     1
 75
     0
 76
     0
 77
     0
 78
     0
  0
ENDTAB
  0
TABLE
  2
LTYPE
  5
5
330
0
100
AcDbSymbolTable
 70
     3
  0
LTYPE
  5
14
330
5
100
AcDbSymbolTableRecord
100
AcDbLinetypeTableRecord
  2
BYBLOCK
 70
     0
  3

 72
    65
 73
     0
 40
0.0
  0
LTYPE
  5
15
330
5
100
AcDbSymbolTableRecord
100
AcDbLinetypeTableRecord
  2
BYLAYER
 70
     0
  3

 72
    65
 73
     0
 40
0.0
  0
LTYPE
  5
16
330
5
100
AcDbSymbolTableRecord
100
AcDbLinetypeTableRecord
  2
CONTINUOUS
 70
     0
  3
Solid line
 72
    65
 73
     0
 40
0.0
  0
LTYPE
  5
9BC
330
5
100
AcDbSymbolTableRecord
100
AcDbLinetypeTableRecord
  2
CENTERX2
 70
     0
  3
Center (2x) ________  __  ________  __  _____
 72
    65
 73
     4
 40
4.0
 49
2.5
 74
     0
 49
-0.5
 74
     0
 49
0.5
 74
     0
 49
-0.5
 74
     0
  0
ENDTAB
  0
TABLE
  2
LAYER
  5
2
330
0
100
AcDbSymbolTable
 70
     3
  0
LAYER
  5
10
330
2
100
AcDbSymbolTableRecord
100
AcDbLayerTableRecord
  2
0
 70
     0
 62
     7
  6
CONTINUOUS
  0
LAYER
  5
9A6
330
2
100
AcDbSymbolTableRecord
100
AcDbLayerTableRecord
  2
DEFPOINTS
 70
     0
 62
     7
  6
CONTINUOUS
  0
LAYER
  5
9BD
330
2
100
AcDbSymbolTableRecord
100
AcDbLayerTableRecord
  2
CENTER
 70
     0
 62
     1
  6
CENTERX2
  0
ENDTAB
  0
TABLE
  2
STYLE
  5
3
330
0
100
AcDbSymbolTable
 70
     2
  0
STYLE
  5
11
330
3
100
AcDbSymbolTableRecord
100
AcDbTextStyleTableRecord
  2
STANDARD
 70
     0
 40
0.0
 41
0.8
 50
0.0
 71
     0
 42
0.2
  3
txt
  4

  0
STYLE
  5
21E
330
3
100
AcDbSymbolTableRecord
100
AcDbTextStyleTableRecord
  2
TEXTSTYLE_1
 70
     0
 40
0.0
 41
0.8
 50
0.0
 71
     0
 42
0.2
  3
txt
  4

  0
ENDTAB
  0
TABLE
  2
VIEW
  5
6
330
0
100
AcDbSymbolTable
 70
     0
  0
ENDTAB
  0
TABLE
  2
UCS
  5
7
330
0
100
AcDbSymbolTable
 70
     0
  0
ENDTAB
  0
TABLE
  2
APPID
  5
9
330
0
100
AcDbSymbolTable
 70
     2
  0
APPID
  5
222
330
9
100
AcDbSymbolTableRecord
100
AcDbRegAppTableRecord
  2
ACAD
 70
     0
  0
APPID
  5
9A3
330
9
100
AcDbSymbolTableRecord
100
AcDbRegAppTableRecord
  2
DCO15
 70
     0
  0
ENDTAB
  0
TABLE
  2
DIMSTYLE
  5
A
330
0
100
AcDbSymbolTable
 70
     1
  0
DIMSTYLE
105
239
330
A
100
AcDbSymbolTableRecord
100
AcDbDimStyleTableRecord
  2
STANDARD
 70
     0
  3

  4

  5
_FILLED
  6
_FILLED
  7
_FILLED
 40
1.0
 41
0.1875
 42
0.0625
 43
0.38
 44
0.18
 45
0.0
 46
0.0
 47
0.00001
 48
0.00001
140
0.125
141
0.09
142
0.0
143
25.4
144
1.0
145
0.0
146
1.0
147
0.09
 71
     0
 72
     0
 73
     1
 74
     1
 75
     0
 76
     0
 77
     0
 78
     4
170
     0
171
     2
172
     0
173
     0
174
     0
175
     0
176
     0
177
     0
178
     0
270
     2
271
     5
272
     5
273
     2
274
     2
340
11
275
     0
280
     0
281
     0
282
     0
283
     1
284
     4
285
     0
286
     0
287
     3
288
     0
  0
ENDTAB
  0
TABLE
  2
BLOCK_RECORD
  5
1
330
0
100
AcDbSymbolTable
 70
     1
  0
BLOCK_RECORD
  5
1F
102
{ACAD_XDICTIONARY
360
D76
102
}
330
1
100
AcDbSymbolTableRecord
100
AcDbBlockTableRecord
  2
*MODEL_SPACE
  0
BLOCK_RECORD
  5
1B
102
{ACAD_XDICTIONARY
360
D74
102
}
330
1
100
AcDbSymbolTableRecord
100
AcDbBlockTableRecord
  2
*PAPER_SPACE
  0
BLOCK_RECORD
  5
223
330
1
100
AcDbSymbolTableRecord
100
AcDbBlockTableRecord
  2
_FILLED
  0
ENDTAB
  0
ENDSEC
  0
SECTION
  2
BLOCKS
  0
BLOCK
  5
20
330
1F
100
AcDbEntity
  8
0
100
AcDbBlockBegin
  2
*MODEL_SPACE
 70
     0
 10
0.0
 20
0.0
 30
0.0
  3
*MODEL_SPACE
  1

  0
ENDBLK
  5
21
330
1F
100
AcDbEntity
  8
0
100
AcDbBlockEnd
  0
BLOCK
  5
1C
330
1B
100
AcDbEntity
 67
     1
  8
0
100
AcDbBlockBegin
  2
*PAPER_SPACE
 70
     0
 10
0.0
 20
0.0
 30
0.0
  3
*PAPER_SPACE
  1

  0
ENDBLK
  5
1D
330
1B
100
AcDbEntity
 67
     1
  8
0
100
AcDbBlockEnd
  0
BLOCK
  5
3C6
330
223
100
AcDbEntity
  8
0
100
AcDbBlockBegin
  2
_FILLED
 70
     0
 10
0.0
 20
0.0
 30
0.0
  3
_FILLED
  1

  0
SOLID
  5
3C7
330
223
100
AcDbEntity
  8
0
  6
BYBLOCK
 62
     0
100
AcDbTrace
 10
0.0
 20
0.0
 30
0.0
 11
-1.0
 21
0.1666666667
 31
0.0
 12
-1.0
 22
-0.1666666667
 32
0.0
 13
-1.0
 23
-0.1666666667
 33
0.0
  0
ENDBLK
  5
3C8
330
223
100
AcDbEntity
  8
0
  6
BYBLOCK
 62
     0
100
AcDbBlockEnd
  0
ENDSEC
  0
SECTION
  2
ENTITIES
  0
MTEXT
  5
435
330
1F
100
AcDbEntity
  8
0
  6
CONTINUOUS
 62
     2
100
AcDbMText
 10
15.84375
 20
2.3125
 30
0.0
 40
0.09375
 41
0.075
 71
     2
 72
     1
  1
 \P \P 
  7
TEXTSTYLE_1
1001
ACAD
1000
MTEXTBEGIN
1070
    73
1070
     1
1070
    44
1040
1.0
1070
    74
1070
     0
1000
MTEXTEND
  0
LWPOLYLINE
  5
B43
330
1F
100
AcDbEntity
  8
0
100
AcDbPolyline
 90
        6
 70
     0
 43
0.0
 10
4.33118066880008
 20
7.384944768000025
 10
4.906616947200086
 20
7.050304068800045
 10
5.439566952000085
 20
6.657755736000041
 10
5.923651411200091
 20
6.212150878400024
 10
6.353077060800083
 20
5.719003264000036
 10
6.68107694560009
 20
5.251500648000018
  0
LWPOLYLINE
  5
B44
330
1F
100
AcDbEntity
  8
0
100
AcDbPolyline
 90
       16
 70
     0
 43
0.0
 10
5.594211236800085
 20
6.515404038400021
 10
6.031488043200092
 20
6.619207780800024
 10
6.582970488000094
 20
6.724270385600021
 10
7.197032937600092
 20
6.816392480000018
 10
7.871861470400085
 20
6.89399115040004
 10
8.605960664000088
 20
6.956123969600042
 10
9.290965089600087
 20
6.997677345600038
 10
9.894877894400091
 20
7.024217222400039
 10
10.42965938240008
 20
7.041857404800026
 10
10.94604695520008
 20
7.05525092000002
 10
11.46480312480009
 20
7.066563446400039
 10
11.98839816640008
 20
7.077637528000025
 10
12.53359884320009
 20
7.091376636800021
 10
13.12692901440008
 20
7.112875067200036
 10
13.80533948960008
 20
7.152344300800024
 10
14.51262098720008
 20
7.219033460800034
  0
LWPOLYLINE
  5
B45
330
1F
100
AcDbEntity
  8
0
100
AcDbPolyline
 90
        7
 70
     0
 43
0.0
 10
2.817583609600086
 20
6.739677446400037
 10
2.034092785600088
 20
6.975147988800017
 10
1.22915666560008
 20
7.133518777600045
 10
0.4112207696000865
 20
7.213130891200023
 10
-0.4110740015999057
 20
7.213138012800044
 10
-1.229043809599906
 20
7.133535326400021
 10
-2.03404807359991
 20
6.975159073600025
  0
LWPOLYLINE
  5
B46
330
1F
100
AcDbEntity
  8
0
100
AcDbPolyline
 90
        6
 70
     0
 43
0.0
 10
-4.331180667199908
 20
7.384944768000025
 10
-4.906616139199917
 20
7.050304596800032
 10
-5.439565471999919
 20
6.657756955200028
 10
-5.92364941599991
 20
6.212152928000023
 10
-6.353074734399917
 20
5.719006254400028
 10
-6.681076943999918
 20
5.251500648000018
  0
LWPOLYLINE
  5
B47
330
1F
100
AcDbEntity
  8
0
100
AcDbPolyline
 90
       16
 70
     0
 43
0.0
 10
-5.594211211199911
 20
6.51540403200002
 10
-6.031488041599906
 20
6.619207780800024
 10
-6.582970486399907
 20
6.724270385600021
 10
-7.197032935999906
 20
6.816392480000018
 10
-7.871861468799912
 20
6.89399115040004
 10
-8.605960662399914
 20
6.956123969600042
 10
-9.290965087999913
 20
6.997677345600038
 10
-9.894877892799916
 20
7.024217222400039
 10
-10.4296593823999
 20
7.041857404800026
 10
-10.94604695359991
 20
7.05525092000002
 10
-11.46480312479992
 20
7.066563446400039
 10
-11.9883981647999
 20
7.077637528000025
 10
-12.53359884319991
 20
7.091376636800021
 10
-13.12692901279991
 20
7.112875067200036
 10
-13.80533948799992
 20
7.152344300800024
 10
-14.51262098559991
 20
7.219033460800034
  0
LWPOLYLINE
  5
B48
330
1F
100
AcDbEntity
  8
0
100
AcDbPolyline
 90
       15
 70
     0
 43
0.0
 10
16.50580296320009
 20
5.472506950400031
 10
16.93403511040008
 20
5.566649166400026
 10
17.32674909920009
 20
5.675397636800028
 10
17.69130764160008
 20
5.79834488640003
 10
18.03337942400008
 20
5.935545992000044
 10
18.35714878240008
 20
6.087330243200028
 10
18.66780911040009
 20
6.255400320000035
 10
18.98410693920008
 20
6.450789680000042
 10
19.31287271040009
 20
6.68018177920004
 10
19.65617318880008
 20
6.948581601600039
 10
20.01554694400008
 20
7.261438635200022
 10
20.39208117120008
 20
7.624690766400021
 10
20.78645136960008
 20
8.044774252800038
 10
21.19859590400009
 20
8.528255675200028
 10
21.62435590720009
 20
9.07719446720003
  0
LWPOLYLINE
  5
B4D
330
1F
100
AcDbEntity
  8
0
100
AcDbPolyline
 90
       62
 70
     0
 43
0.0
 10
28.83539589920008
 20
9.06272033760004
 10
28.72441375200008
 20
8.906701238400017
 10
28.62038529120008
 20
8.76470249760004
 10
28.52303139200008
 20
8.635330691200039
 10
28.43203185280009
 20
8.517326240000045
 10
28.34701195680008
 20
8.409515899200044
 10
28.26756503360008
 20
8.310818316800038
 10
28.19328006400008
 20
8.220257476800043
 10
28.12379765600008
 20
8.137010454400041
 10
28.05908356640008
 20
8.060707344000036
 10
27.99959455040008
 20
7.991584369600019
 10
27.94536542080008
 20
7.929403473600018
 10
27.89522873280008
 20
7.872604515200038
 10
27.84742103680009
 20
7.819048835200021
 10
27.79979157440008
 20
7.766269284800017
 10
27.74936335520008
 20
7.711003329600032
 10
27.69326115200008
 20
7.650245649600037
 10
27.62950252960008
 20
7.582108323200031
 10
27.55716456640008
 20
7.505955227200018
 10
27.47667838400008
 20
7.422628123200041
 10
27.38846859520009
 20
7.332958425600025
 10
27.29215981120008
 20
7.236974473600042
 10
27.18708716800008
 20
7.134472528000031
 10
27.07248564800009
 20
7.025228881600042
 10
26.94750072160008
 20
6.909025908800032
 10
26.81118342400008
 20
6.785663008000028
 10
26.66253901600009
 20
6.65501603360002
 10
26.50050729760009
 20
6.517027496000025
 10
26.32361512800009
 20
6.37143913920002
 10
26.12978942880008
 20
6.217717876800037
 10
25.91673352000008
 20
6.055431683200026
 10
25.68205090240008
 20
5.884391916800041
 10
25.42324657600008
 20
5.704699905600023
 10
25.13757024480008
 20
5.516689059200018
 10
24.82075126560008
 20
5.320234467200037
 10
24.46656607200008
 20
5.11485220960003
 10
24.06713561760008
 20
4.900348456000045
 10
23.62307435040008
 20
4.682084654400028
 10
23.16014711680008
 20
4.476060996800043
 10
22.70184635200008
 20
4.292610132800035
 10
22.24876695840009
 20
4.130372470400033
 10
21.80263104320008
 20
3.98845769440004
 10
21.36515667040009
 20
3.865909014400045
 10
20.93793910400008
 20
3.761667556800034
 10
20.52208653120008
 20
3.67452812960002
 10
20.12127004160009
 20
3.603679401600032
 10
19.74934290080008
 20
3.549289784000023
 10
19.41650057440008
 20
3.50975280960003
 10
19.11699592640008
 20
3.481470964800024
 10
18.84494276640008
 20
3.46173303680004
 10
18.59609209920008
 20
3.448623019200027
 10
18.36802925760009
 20
3.440744680000022
 10
18.15849155200009
 20
3.436985264000043
 10
17.96509965440008
 20
3.436468742400023
 10
17.78569112640008
 20
3.438523459200041
 10
17.61933658400008
 20
3.442608371200037
 10
17.46620835680008
 20
3.448223980800037
 10
17.32592401120007
 20
3.454931777600023
 10
17.19736243360008
 20
3.462393992000045
 10
17.07928087680009
 20
3.470358208000021
 10
16.97053960640008
 20
3.478634809600038
 10
16.87006675200009
 20
3.487087251200023
  0
LWPOLYLINE
  5
B4E
330
1F
100
AcDbEntity
  8
0
100
AcDbPolyline
 90
       23
 70
     0
 43
0.0
 10
28.48271226880009
 20
9.304035483200038
 10
28.12328991360008
 20
8.816025622400019
 10
27.73925020960008
 20
8.343431056000042
 10
27.33223590400009
 20
7.888596200000023
 10
26.90403961760008
 20
7.453623150400034
 10
26.45617653440009
 20
7.040023044800022
 10
25.98944805280009
 20
6.648541300800019
 10
25.50371760160007
 20
6.279092057600024
 10
24.99976834400008
 20
5.932338019200045
 10
24.47939600800008
 20
5.609610272000026
 10
23.94548109600008
 20
5.312632955200029
 10
23.39947532480008
 20
5.042055865600019
 10
22.84145893920008
 20
4.797854200000045
 10
22.27155590080009
 20
4.580028193600043
 10
21.69142658720009
 20
4.38924459520004
 10
21.10426826240009
 20
4.22649033600004
 10
20.51217695360008
 20
4.092164942400017
 10
19.91627876320008
 20
3.986379204800044
 10
19.31681913440008
 20
3.909042547200044
 10
18.71406615200009
 20
3.860137548800025
 10
18.10868015200008
 20
3.839825248000039
 10
17.50227239200008
 20
3.848238569600027
 10
16.89663939520008
 20
3.885378569600021
  0
LWPOLYLINE
  5
B4F
330
1F
100
AcDbEntity
  8
0
100
AcDbPolyline
 90
       15
 70
     0
 43
0.0
 10
-16.50580296159992
 20
5.472506950400031
 10
-16.93403510879991
 20
5.566649166400026
 10
-17.32674909759992
 20
5.675397636800028
 10
-17.69130763999991
 20
5.79834488640003
 10
-18.03337942239991
 20
5.935545992000044
 10
-18.35714878079991
 20
6.087330243200028
 10
-18.66780910879992
 20
6.255400320000035
 10
-18.98410693759991
 20
6.450789680000042
 10
-19.31287271039992
 20
6.68018177920004
 10
-19.65617318719991
 20
6.948581601600039
 10
-20.01554694239991
 20
7.261438635200022
 10
-20.39208116959991
 20
7.624690766400021
 10
-20.78645136799992
 20
8.044774252800038
 10
-21.19859590239992
 20
8.528255675200028
 10
-21.6243559055999
 20
9.07719446720003
  0
LWPOLYLINE
  5
B50
330
1F
100
AcDbEntity
  8
0
100
AcDbPolyline
 90
       23
 70
     0
 43
0.0
 10
-28.48271226879991
 20
9.304035483200038
 10
-28.12328991199991
 20
8.816025622400019
 10
-27.73925020799991
 20
8.343431056000042
 10
-27.33223590239991
 20
7.888596200000023
 10
-26.90403961599991
 20
7.453623150400034
 10
-26.45617653279991
 20
7.040023044800022
 10
-25.98944805119991
 20
6.648541300800019
 10
-25.50371760159992
 20
6.279092057600024
 10
-24.99976834399991
 20
5.932338019200045
 10
-24.47939600799991
 20
5.609610272000026
 10
-23.94548109439991
 20
5.312632955200029
 10
-23.39947532319991
 20
5.042055865600019
 10
-22.84145893919991
 20
4.797854200000045
 10
-22.2715558991999
 20
4.580028193600043
 10
-21.6914265855999
 20
4.38924459520004
 10
-21.10426826079991
 20
4.22649033600004
 10
-20.51217695199991
 20
4.092164942400017
 10
-19.91627876159991
 20
3.986379204800044
 10
-19.31681913439991
 20
3.909042547200044
 10
-18.71406615039992
 20
3.860137548800025
 10
-18.10868015039991
 20
3.839825248000039
 10
-17.50227239039991
 20
3.848238569600027
 10
-16.89663939359991
 20
3.885378569600021
  0
LWPOLYLINE
  5
B51
330
1F
100
AcDbEntity
  8
0
100
AcDbPolyline
 90
       62
 70
     0
 43
0.0
 10
-16.87006675039992
 20
3.487087251200023
 10
-16.96986287519991
 20
3.478689150400043
 10
-17.07799295839991
 20
3.47045094400002
 10
-17.19526174879991
 20
3.462526380800028
 10
-17.32255333439992
 20
3.455111358400017
 10
-17.46085052159991
 20
3.448452699200032
 10
-17.61104282559991
 20
3.44286694720003
 10
-17.77340760639992
 20
3.43875335200002
 10
-17.94769789759991
 20
3.436561236800031
 10
-18.13447377439991
 20
3.436766979200029
 10
-18.33535887519992
 20
3.439939428800045
 10
-18.55221803679992
 20
3.446800449600033
 10
-18.78684382399992
 20
3.45824999680002
 10
-19.04098745119991
 20
3.475387118400021
 10
-19.31700356159991
 20
3.499593771200039
 10
-19.61797779679991
 20
3.53266091680004
 10
-19.94752404959991
 20
3.576920892800018
 10
-20.30494368479991
 20
3.634559240000044
 10
-20.68233726559991
 20
3.706450187200033
 10
-21.07664236479991
 20
3.793861811200031
 10
-21.49015758079991
 20
3.899275526400032
 10
-21.92465730399991
 20
4.025551913600025
 10
-22.3815176239999
 20
4.17598620960004
 10
-22.86165053439991
 20
4.354323660800019
 10
-23.3674288063999
 20
4.565670382400043
 10
-23.88440390879992
 20
4.808017097600043
 10
-24.35510418879991
 20
5.053208712000042
 10
-24.75526583519991
 20
5.281150688000025
 10
-25.10122127519991
 20
5.493517777600033
 10
-25.40660438399991
 20
5.693454758400037
 10
-25.67972590719991
 20
5.882736619200045
 10
-25.92459085759991
 20
6.061296105600035
 10
-26.14446793599991
 20
6.229152800000036
 10
-26.34253958079991
 20
6.386769078400021
 10
-26.52184808639991
 20
6.534944256000045
 10
-26.68503566239991
 20
6.674535358400021
 10
-26.83387252479991
 20
6.805956768000044
 10
-26.96961493919991
 20
6.929367561600031
 10
-27.09345882079991
 20
7.045026139200018
 10
-27.20653568159991
 20
7.153274028800041
 10
-27.30984774239991
 20
7.254455235200026
 10
-27.40428939519991
 20
7.348915924800024
 10
-27.49064500799991
 20
7.436983315200023
 10
-27.56933833279991
 20
7.518686580800022
 10
-27.63988524319991
 20
7.593138518400024
 10
-27.70201611519991
 20
7.659677409600021
 10
-27.75679841119991
 20
7.71911254720004
 10
-27.80633155039991
 20
7.773482675200028
 10
-27.85353415999991
 20
7.82586442560003
 10
-27.90122636159991
 20
7.879364688000038
 10
-27.95144246079991
 20
7.936332769600028
 10
-28.00589398239991
 20
7.998858481600024
 10
-28.06559818559991
 20
8.068335820800029
 10
-28.13039393439991
 20
8.144854078400044
 10
-28.19983424799991
 20
8.228182131200043
 10
-28.27395147679991
 20
8.318680956800022
 10
-28.35305552159991
 20
8.417103776000033
 10
-28.43749041919991
 20
8.524327446400036
 10
-28.52759656479991
 20
8.641323865600043
 10
-28.62372719999991
 20
8.769202784000043
 10
-28.72622402079991
 20
8.909207880000025
 10
-28.83539589759991
 20
9.06272033760004
  0
LINE
  5
B56
330
1F
100
AcDbEntity
  8
CENTER
100
AcDbLine
 10
0.0000000000000937
 20
2.684077906300757
 30
0.0
 11
0.0000000000000937
 21
15.45819319978738
 31
0.0
  0
LWPOLYLINE
  5
B5F
330
1F
100
AcDbEntity
  8
0
100
AcDbPolyline
 90
        6
 70
     0
 43
0.0
 10
-2.817583607999912
 20
6.739677446400037
 10
-3.253744004799918
 20
6.556202593600033
 10
-3.663723807999906
 20
6.325008086400032
 10
-4.041655884799914
 20
6.04931196640004
 10
-4.382118638399908
 20
5.732949041600022
 10
-4.612564364799914
 20
5.468258372800022
  0
LWPOLYLINE
  5
B60
330
1F
100
AcDbEntity
  8
0
100
AcDbPolyline
 90
       22
 70
     0
 43
0.0
 10
-2.988956524799908
 20
4.687081601600027
 10
-3.897840300799904
 20
4.656163102400029
 10
-4.726364545599913
 20
4.62085632160003
 10
-5.484558417599905
 20
4.582588112000024
 10
-6.182213323199909
 20
4.542339204800043
 10
-6.82912052479991
 20
4.500699913600044
 10
-7.435099324799913
 20
4.457921190400043
 10
-8.009814142399909
 20
4.413972363200031
 10
-8.542968601599914
 20
4.37025816320002
 10
-9.030305209599921
 20
4.327819001600033
 10
-9.47512464639991
 20
4.287010688000037
 10
-9.881266486399914
 20
4.248021806400032
 10
-10.25252012479991
 20
4.210936678400031
 10
-10.59267165279991
 20
4.175745086400041
 10
-10.90550261279991
 20
4.142354724800043
 10
-11.19478862719991
 20
4.110602296000024
 10
-11.46430039679992
 20
4.080262929600024
 10
-11.71780458559991
 20
4.051058180800026
 10
-11.95906846399991
 20
4.02266218560004
 10
-12.19184637919992
 20
3.994708508800044
 10
-12.41985818879991
 20
3.966797014400043
 10
-12.6472811295999
 20
3.938434300800025
  0
LWPOLYLINE
  5
B61
330
1F
100
AcDbEntity
  8
0
100
AcDbPolyline
 90
       14
 70
     0
 43
0.0
 10
-12.69496878239991
 20
4.327699753600029
 10
-11.42488862079991
 20
4.478809984000037
 10
-10.28508741759991
 20
4.601235145600043
 10
-9.258745622399919
 20
4.700746769600044
 10
-8.331871524799913
 20
4.781837227200043
 10
-7.492736095999908
 20
4.848031841600032
 10
-6.731268254399913
 20
4.902134464000027
 10
-6.038772867199916
 20
4.946387140800027
 10
-5.408163627199917
 20
4.982561942400025
 10
-4.832996748799906
 20
5.012106721600019
 10
-4.307155953599909
 20
5.036215627200022
 10
-3.825046150399904
 20
5.055856337600033
 10
-3.384596131199919
 20
5.071704670400038
 10
-2.985379017599916
 20
5.084294044800031
  0
LWPOLYLINE
  5
B85
330
1F
100
AcDbEntity
  8
0
100
AcDbPolyline
 90
       10
 70
     0
 43
0.0
 10
-6.362672083199917
 20
5.705327033600042
 10
-6.786537075199908
 20
5.693015940800023
 10
-7.449419545599915
 20
5.663843742400018
 10
-8.165438951999908
 20
5.623041600000021
 10
-8.941704268799915
 20
5.570717708800032
 10
-9.749051143999912
 20
5.510727934400023
 10
-10.53118296639991
 20
5.450610808000021
 10
-11.29165937119991
 20
5.393794001600042
 10
-12.03109956639992
 20
5.34387792800004
 10
-12.74683072799991
 20
5.30452956640002
  0
LWPOLYLINE
  5
B86
330
1F
100
AcDbEntity
  8
0
100
AcDbPolyline
 90
        7
 70
     0
 43
0.0
 10
-12.74683072799991
 20
5.30452956640002
 10
-13.46058810079991
 20
5.278601984000033
 10
-14.16137947359991
 20
5.271400684800028
 10
-14.85039384639991
 20
5.288095368000028
 10
-15.47520506559991
 20
5.329770312000022
 10
-16.02098172799991
 20
5.392205908800036
 10
-16.50580296319992
 20
5.472506948800031
  0
LWPOLYLINE
  5
B87
330
1F
100
AcDbEntity
  8
0
100
AcDbPolyline
 90
        4
 70
     0
 43
0.0
 10
-16.89663939359991
 20
3.885378569600021
 10
-15.51848390559991
 20
4.01181933920003
 10
-14.11968502719991
 20
4.158905913600023
 10
-12.69496878239991
 20
4.327699753600029
  0
LWPOLYLINE
  5
B88
330
1F
100
AcDbEntity
  8
0
100
AcDbPolyline
 90
       14
 70
     0
 43
0.0
 10
-12.6472811295999
 20
3.938434300800025
 10
-12.94528684959991
 20
3.901327014400038
 10
-13.28804178559992
 20
3.859638016000019
 10
-13.65969951999991
 20
3.81562958080002
 10
-14.04567655839991
 20
3.771241369600033
 10
-14.43126638559991
 20
3.728234745600019
 10
-14.80620684479992
 20
3.687695987200044
 10
-15.16666347199991
 20
3.649911936000023
 10
-15.50931852799991
 20
3.615073220800042
 10
-15.83084655519991
 20
3.583338368000028
 10
-16.12791527199991
 20
3.554839470400025
 10
-16.39961753279991
 20
3.529464625600041
 10
-16.64676346879991
 20
3.506955828800045
 10
-16.87006675039992
 20
3.487087251200023
  0
LINE
  5
B89
330
1F
100
AcDbEntity
  8
0
100
AcDbLine
 10
-6.086246383999927
 20
5.223854009600017
 30
0.0
 11
-5.358094913599919
 21
5.278705144000042
 31
0.0
  0
LWPOLYLINE
  5
B8A
330
1F
100
AcDbEntity
  8
0
100
AcDbPolyline
 90
        9
 70
     0
 43
0.0
 10
-6.086246383999912
 20
5.223854009600017
 10
-6.220291841599908
 20
5.215149494400037
 10
-6.347919990399907
 20
5.209914192000042
 10
-6.462524244799914
 20
5.208768475200031
 10
-6.556055988799918
 20
5.211934337600041
 10
-6.623740937599911
 20
5.218971220800028
 10
-6.666567974399916
 20
5.229653664000039
 10
-6.683018078399917
 20
5.243930750400039
 10
-6.68101914559991
 20
5.251504160000024
  0
LWPOLYLINE
  5
B8B
330
1F
100
AcDbEntity
  8
0
100
AcDbPolyline
 90
        3
 70
     0
 43
0.0
 10
-4.631749447999914
 20
5.456172627200032
 10
-4.721588102399912
 20
5.41507719040004
 10
-4.807294852799919
 20
5.37280469120003
  0
LWPOLYLINE
  5
B8C
330
1F
100
AcDbEntity
  8
0
100
AcDbPolyline
 90
        3
 70
     0
 43
0.0
 10
-4.612549564799912
 20
5.468259222400035
 10
-4.61381759679991
 20
5.466864296000039
 10
-4.631749447999914
 20
5.456172627200032
  0
LWPOLYLINE
  5
B8D
330
1F
100
AcDbEntity
  8
0
100
AcDbPolyline
 90
        8
 70
     0
 43
0.0
 10
-4.807294852799919
 20
5.37280469120003
 10
-4.842348724799911
 20
5.359138076800036
 10
-4.89874051359991
 20
5.343776496000032
 10
-4.973615286399911
 20
5.327912134400037
 10
-5.061741905599908
 20
5.31273382880002
 10
-5.16055879839991
 20
5.298769545600038
 10
-5.262441966399911
 20
5.287151476800033
 10
-5.358094913599905
 20
5.278705144000042
  0
LWPOLYLINE
  5
BC7
330
1F
100
AcDbEntity
  8
0
100
AcDbPolyline
 90
       10
 70
     0
 43
0.0
 10
6.362672308800093
 20
5.705327027200041
 10
6.786537076800081
 20
5.693015940800023
 10
7.449419547200087
 20
5.663843742400018
 10
8.165438953600082
 20
5.623041600000021
 10
8.941704270400089
 20
5.570717708800032
 10
9.749051144000086
 20
5.510727934400023
 10
10.53118296640008
 20
5.450610808000021
 10
11.29165937280009
 20
5.393794001600042
 10
12.03109956800008
 20
5.34387792800004
 10
12.74683072800008
 20
5.30452956640002
  0
LWPOLYLINE
  5
BC8
330
1F
100
AcDbEntity
  8
0
100
AcDbPolyline
 90
       22
 70
     0
 43
0.0
 10
12.64728112960008
 20
3.938434300800025
 10
12.41985818880008
 20
3.966797014400043
 10
12.19184638080009
 20
3.994708508800044
 10
11.95906846560009
 20
4.02266218560004
 10
11.71780458720008
 20
4.051058180800026
 10
11.46430039840009
 20
4.080262929600024
 10
11.19478862880009
 20
4.110602296000024
 10
10.90550261440008
 20
4.142354724800043
 10
10.59267165440008
 20
4.175745086400041
 10
10.25252012640009
 20
4.210936678400031
 10
9.881266489600088
 20
4.248021806400032
 10
9.475124648000084
 20
4.287010688000037
 10
9.030305211200081
 20
4.327819001600033
 10
8.542968603200089
 20
4.37025816320002
 10
8.009814145600083
 20
4.413972363200031
 10
7.435099328000085
 20
4.457921190400043
 10
6.829120528000083
 20
4.500699913600044
 10
6.182213326400082
 20
4.542339204800043
 10
5.484558420800092
 20
4.582588112000024
 10
4.726364548800085
 20
4.62085632160003
 10
3.897840307200092
 20
4.656163102400029
 10
2.988956526400082
 20
4.687081601600027
  0
LWPOLYLINE
  5
BC9
330
1F
100
AcDbEntity
  8
0
100
AcDbPolyline
 90
       14
 70
     0
 43
0.0
 10
12.69496878400009
 20
4.327699753600029
 10
11.42488862080008
 20
4.478809984000037
 10
10.28508741760009
 20
4.601235145600043
 10
9.258745624000093
 20
4.700746769600044
 10
8.331871526400087
 20
4.781837227200043
 10
7.49273609760008
 20
4.848031841600032
 10
6.731268256000086
 20
4.902134464000027
 10
6.038772868800088
 20
4.946387140800027
 10
5.40816362880009
 20
4.982561942400025
 10
4.832996750400092
 20
5.012106721600019
 10
4.307155955200081
 20
5.036215627200022
 10
3.825046152000092
 20
5.055856337600033
 10
3.384596132800092
 20
5.071704670400038
 10
2.98537901920009
 20
5.084294044800031
  0
LWPOLYLINE
  5
BCA
330
1F
100
AcDbEntity
  8
0
100
AcDbPolyline
 90
        4
 70
     0
 43
0.0
 10
2.988956526400082
 20
4.687081601600027
 10
1.992807923200084
 20
4.71158783520002
 10
0.9964424544000905
 20
4.726292953600022
 10
0.0000000000000937
 20
4.731194848000029
  0
LWPOLYLINE
  5
BCB
330
1F
100
AcDbEntity
  8
0
100
AcDbPolyline
 90
        4
 70
     0
 43
0.0
 10
2.98537901920009
 20
5.084294044800031
 10
1.99040209280009
 20
5.108643280000023
 10
0.9952655152000829
 20
5.12325342240004
 10
0.0000000000000937
 20
5.128124000000042
  0
LWPOLYLINE
  5
BCC
330
1F
100
AcDbEntity
  8
0
100
AcDbPolyline
 90
        4
 70
     0
 43
0.0
 10
0.0000000000000937
 20
4.731194848000029
 10
-0.9964424543999172
 20
4.726292953600022
 10
-1.99280792159991
 20
4.71158783520002
 10
-2.988956524799908
 20
4.687081601600027
  0
LWPOLYLINE
  5
BCD
330
1F
100
AcDbEntity
  8
0
100
AcDbPolyline
 90
        4
 70
     0
 43
0.0
 10
-2.985379017599916
 20
5.084294044800031
 10
-1.990402075199915
 20
5.108643281600024
 10
-0.9952654799999066
 20
5.12325342240004
 10
0.0000000000000937
 20
5.128124000000042
  0
LWPOLYLINE
  5
BCE
330
1F
100
AcDbEntity
  8
0
100
AcDbPolyline
 90
       12
 70
     0
 43
0.0
 10
-2.808830284799915
 20
5.545865099200028
 10
-2.882419177599905
 20
5.556811136000021
 10
-2.956914635199913
 20
5.56739758880002
 10
-3.032609524799914
 20
5.577663257600022
 10
-3.109927591999911
 20
5.58765613120002
 10
-3.188775364799914
 20
5.597351921600022
 10
-3.268638019199917
 20
5.606680988800036
 10
-3.349905110399908
 20
5.61568417440003
 10
-3.432746078399907
 20
5.624370904000045
 10
-3.516059652799916
 20
5.632624462400031
 10
-3.600468793599907
 20
5.640509748800042
 10
-3.687369286399905
 20
5.64814342880004
  0
LWPOLYLINE
  5
BCF
330
1F
100
AcDbEntity
  8
0
100
AcDbPolyline
 90
       13
 70
     0
 43
0.0
 10
-2.678139367999909
 20
5.570259076800027
 10
-2.790664780799906
 20
5.591419993600027
 10
-2.904383876799917
 20
5.618538408000034
 10
-3.013190396799905
 20
5.648593257600026
 10
-3.111602273599905
 20
5.678452510400035
 10
-3.199142777599908
 20
5.706696609600044
 10
-3.276232415999905
 20
5.732623913600036
 10
-3.346510398399905
 20
5.756962580800035
 10
-3.413667665599908
 20
5.780734953600045
 10
-3.48112240159991
 20
5.805025734400032
 10
-3.549539371199918
 20
5.830002806400045
 10
-3.618429593599918
 20
5.855421947200028
 10
-3.687698687999918
 20
5.881183155200034
  0
LWPOLYLINE
  5
BD0
330
1F
100
AcDbEntity
  8
0
100
AcDbPolyline
 90
        3
 70
     0
 43
0.0
 10
-3.687369286399905
 20
5.64814342880004
 10
-4.115651334399905
 20
5.679115833600036
 10
-4.416295067199917
 20
5.693693892800041
  0
LINE
  5
BD1
330
1F
100
AcDbEntity
  8
0
100
AcDbLine
 10
-3.687698687999918
 20
5.881183155200034
 30
0.0
 11
-4.068899041599926
 21
6.023997232000027
 31
0.0
  0
LINE
  5
BD2
330
1F
100
AcDbEntity
  8
0
100
AcDbLine
 10
-2.034048073599925
 20
6.975159073600025
 30
0.0
 11
-2.817583607999912
 21
6.739677446400037
 31
0.0
  0
LINE
  5
BD3
330
1F
100
AcDbEntity
  8
0
100
AcDbLine
 10
-2.703975515199906
 20
5.529393699200028
 30
0.0
 11
-2.678139369599924
 21
5.570259076800027
 31
0.0
  0
LWPOLYLINE
  5
BD4
330
1F
100
AcDbEntity
  8
0
100
AcDbPolyline
 90
        3
 70
     0
 43
0.0
 10
-2.808830284799915
 20
5.545865099200028
 10
-2.756148475199913
 20
5.537719984000034
 10
-2.703975515199906
 20
5.529393699200028
  0
LWPOLYLINE
  5
BD5
330
1F
100
AcDbEntity
  8
0
100
AcDbPolyline
 90
       17
 70
     0
 43
0.0
 10
1.172182248000092
 20
5.511643257600042
 10
1.150809955200082
 20
5.497568195200045
 10
1.120427305600082
 20
5.483898409600044
 10
1.081343043200087
 20
5.470758569600036
 10
1.033750811200087
 20
5.458204057600028
 10
0.9781170656000824
 20
5.446349574400045
 10
0.9148065296000936
 20
5.435259608000023
 10
0.8443602608000816
 20
5.42501650080004
 10
0.7673605312000916
 20
5.415688710400019
 10
0.6842838816000892
 20
5.407321065600029
 10
0.5958773936000852
 20
5.399976958400031
 10
0.5027379760000854
 20
5.393694297600035
 10
0.4060626384000812
 20
5.388535512000032
 10
0.3065390480000842
 20
5.384513553600044
 10
0.2052203680000928
 20
5.381647076800021
 10
0.1027320640000879
 20
5.379931134400038
 10
0.0000000000000937
 20
5.379362051200018
  0
LWPOLYLINE
  5
BD6
330
1F
100
AcDbEntity
  8
0
100
AcDbPolyline
 90
       18
 70
     0
 43
0.0
 10
1.181117889600082
 20
5.524186753600019
 10
1.165964667200094
 20
5.538582668800017
 10
1.142288291200082
 20
5.552685160000038
 10
1.110450251200086
 20
5.566423139200026
 10
1.070866227200093
 20
5.579702758400031
 10
1.023748040000094
 20
5.592492846400034
 10
0.9695003616000917
 20
5.604695481600032
 10
0.908252955200092
 20
5.616273732800038
 10
0.8403543904000883
 20
5.627136604800028
 10
0.7660268624000906
 20
5.63721492960002
 10
0.6854831744000847
 20
5.646433632000025
 10
0.5991610416000924
 20
5.654691169600027
 10
0.5074205312000913
 20
5.661899104000042
 10
0.4112864784000947
 20
5.667931768000045
 10
0.3114003216000838
 20
5.672715177600025
 10
0.2089512736000869
 20
5.676169558400033
 10
0.1047617632000821
 20
5.678256601600025
 10
0.0000000000000937
 20
5.678952289600033
  0
LWPOLYLINE
  5
BD7
330
1F
100
AcDbEntity
  8
0
100
AcDbPolyline
 90
       20
 70
     0
 43
0.0
 10
0.0000000000000937
 20
5.709898166400023
 10
0.1047618320000878
 20
5.709202494400045
 10
0.2089514672000887
 20
5.707115496000028
 10
0.311400667200084
 20
5.703661185600026
 10
0.4112869712000929
 20
5.698877868800025
 10
0.5074211376000846
 20
5.692845321600032
 10
0.5991616896000891
 20
5.685637524800029
 10
0.6854837568000903
 20
5.67738014880004
 10
0.7660272816000826
 20
5.668161627200021
 10
0.8403545968000912
 20
5.658083504000018
 10
0.9082529472000913
 20
5.647220840000045
 10
0.9695001680000899
 20
5.635642796800027
 10
1.023747707200081
 20
5.623440364800018
 10
1.070865819200088
 20
5.61065046400003
 10
1.110449835200094
 20
5.597371006400038
 10
1.142287929600081
 20
5.583633156800033
 10
1.165964403200086
 20
5.56953075680002
 10
1.181117745600084
 20
5.555134894400026
 10
1.18734882240009
 20
5.540583307200023
 10
1.187500000000093
 20
5.537948468800038
  0
LINE
  5
BD8
330
1F
100
AcDbEntity
  8
0
100
AcDbLine
 10
-1.165972798399926
 20
5.538576713600036
 30
0.0
 11
-1.181125100799923
 21
5.524177022400039
 31
0.0
  0
LINE
  5
BD9
330
1F
100
AcDbEntity
  8
0
100
AcDbLine
 10
-1.181125100799923
 20
5.524177022400039
 30
0.0
 11
-1.181693529599917
 21
5.52284812000002
 31
0.0
  0
LWPOLYLINE
  5
BDA
330
1F
100
AcDbEntity
  8
0
100
AcDbPolyline
 90
        3
 70
     0
 43
0.0
 10
-1.172165281599907
 20
5.511628888000018
 10
-1.184395041599918
 20
5.526029070400028
 10
-1.187499998399906
 20
5.53794849280004
  0
LWPOLYLINE
  5
BDB
330
1F
100
AcDbEntity
  8
0
100
AcDbPolyline
 90
       17
 70
     0
 43
0.0
 10
0.0000000000000937
 20
5.379362051200018
 10
-0.1027131391999121
 20
5.379930924800021
 10
-0.2051918207999166
 20
5.381646435200025
 10
-0.3064947567999128
 20
5.384512036800032
 10
-0.4060093311999169
 20
5.388533019200025
 10
-0.5026690703999095
 20
5.393690147200032
 10
-0.5958028959999156
 20
5.399971369600024
 10
-0.6842138719999072
 20
5.407314652800039
 10
-0.7672937871999097
 20
5.415681332800033
 10
-0.8443013167999055
 20
5.425008680000019
 10
-0.9147472783999063
 20
5.435250161600038
 10
-0.9780661583999176
 20
5.446339756800028
 10
-1.033703231999913
 20
5.458192809600035
 10
-1.081304135999906
 20
5.47074703680002
 10
-1.120394662399908
 20
5.483885817600025
 10
-1.150784529599909
 20
5.497554568000026
 10
-1.172165281599907
 20
5.511628888000018
  0
LWPOLYLINE
  5
BDC
330
1F
100
AcDbEntity
  8
0
100
AcDbPolyline
 90
       17
 70
     0
 43
0.0
 10
0.0000000000000937
 20
5.678952289600033
 10
-0.1047610879999099
 20
5.678256609600026
 10
-0.2089482655999065
 20
5.67616963840004
 10
-0.3114039343999111
 20
5.672715030400041
 10
-0.411289406399908
 20
5.667931606400031
 10
-0.5074309135999103
 20
5.661898371200038
 10
-0.5991724591999117
 20
5.65469017600003
 10
-0.6854875375999172
 20
5.646433174400044
 10
-0.7660299551999175
 20
5.637214542400045
 10
-0.8403513935999086
 20
5.627137046400036
 10
-0.908256494399913
 20
5.616273118400044
 10
-0.9695028223999088
 20
5.604694974400018
 10
-1.023754724799906
 20
5.59249119840004
 10
-1.070874191999911
 20
5.579700364800032
 10
-1.110458161599913
 20
5.566420148800034
 10
-1.142297286399915
 20
5.552680654400035
 10
-1.165972798399911
 20
5.538576713600036
  0
LWPOLYLINE
  5
BDD
330
1F
100
AcDbEntity
  8
0
100
AcDbPolyline
 90
       20
 70
     0
 43
0.0
 10
-1.187499998399906
 20
5.53794849280004
 10
-1.18735011679991
 20
5.540571964800022
 10
-1.181124958399911
 20
5.555125160000045
 10
-1.165972537599918
 20
5.569524800000039
 10
-1.142296927999913
 20
5.583628648000029
 10
-1.110457750399908
 20
5.597368012800018
 10
-1.070873788799906
 20
5.610648067200031
 10
-1.023754398399907
 20
5.623438715200023
 10
-0.9695026367999076
 20
5.635642288000042
 10
-0.9082564959999132
 20
5.647220222400022
 10
-0.8403516095999123
 20
5.658083944000026
 10
-0.7660303839999103
 20
5.668161241600017
 10
-0.6854881311999095
 20
5.67737968960003
 10
-0.5991731183999094
 20
5.685636531200032
 10
-0.5074315311999187
 20
5.692844588800028
 10
-0.4112899087999069
 20
5.69887770720004
 10
-0.3114042863999118
 20
5.703661038400042
 10
-0.2089484623999085
 20
5.707115576000035
 10
-0.1047611583999157
 20
5.709202502400017
 10
0.0000000000000937
 20
5.709898166400023
  0
LINE
  5
BDE
330
1F
100
AcDbEntity
  8
0
100
AcDbLine
 10
1.184402347200071
 20
5.526043035200018
 30
0.0
 11
1.172182248000078
 21
5.511643257600042
 31
0.0
  0
LINE
  5
BDF
330
1F
100
AcDbEntity
  8
0
100
AcDbLine
 10
1.187500000000093
 20
5.537948468800038
 30
0.0
 11
1.184402347200071
 21
5.526043035200018
 31
0.0
  0
LINE
  5
BE0
330
1F
100
AcDbEntity
  8
0
100
AcDbLine
 10
1.181691073600072
 20
5.522848156800023
 30
0.0
 11
1.181117889600082
 21
5.524186753600019
 31
0.0
  0
LWPOLYLINE
  5
BE1
330
1F
100
AcDbEntity
  8
0
100
AcDbPolyline
 90
        8
 70
     0
 43
0.0
 10
5.358094915200092
 20
5.278705144000042
 10
5.262441968000083
 20
5.287151476800033
 10
5.160558798400082
 20
5.298769545600038
 10
5.06174190560008
 20
5.31273382880002
 10
4.973615288000083
 20
5.327912134400037
 10
4.898740515200082
 20
5.343776496000032
 10
4.842348724800083
 20
5.359138076800036
 10
4.807294852800091
 20
5.37280469120003
  0
LINE
  5
BE2
330
1F
100
AcDbEntity
  8
0
100
AcDbLine
 10
3.60046879360008
 20
5.640509748800042
 30
0.0
 11
3.687369288000078
 21
5.64814342880004
 31
0.0
  0
LWPOLYLINE
  5
BE3
330
1F
100
AcDbEntity
  8
0
100
AcDbPolyline
 90
       13
 70
     0
 43
0.0
 10
2.678139369600083
 20
5.570259076800027
 10
2.790664782400094
 20
5.591419993600027
 10
2.904383876800091
 20
5.618538408000034
 10
3.013190398400092
 20
5.648593257600026
 10
3.111602275200092
 20
5.678452510400035
 10
3.199142777600081
 20
5.706696609600044
 10
3.276232416000092
 20
5.732623913600036
 10
3.346510400000093
 20
5.756962580800035
 10
3.413667667200081
 20
5.780734953600045
 10
3.481122403200083
 20
5.805025734400032
 10
3.549539371200091
 20
5.830002806400045
 10
3.618429595200092
 20
5.855421947200028
 10
3.687698689600091
 20
5.881183155200034
  0
LWPOLYLINE
  5
BE4
330
1F
100
AcDbEntity
  8
0
100
AcDbPolyline
 90
        6
 70
     0
 43
0.0
 10
4.612564369600087
 20
5.468258369600022
 10
4.382105308800086
 20
5.732963008000041
 10
4.041666313600082
 20
6.049303374400039
 10
3.663755508800087
 20
6.324987694400022
 10
3.253786401600089
 20
6.55618181760002
 10
2.817583609600086
 20
6.739677446400037
  0
LINE
  5
BE5
330
1F
100
AcDbEntity
  8
0
100
AcDbLine
 10
2.703975516800093
 20
5.529393699200028
 30
0.0
 11
2.678139369600083
 21
5.570259076800027
 31
0.0
  0
LWPOLYLINE
  5
BE6
330
1F
100
AcDbEntity
  8
0
100
AcDbPolyline
 90
        3
 70
     0
 43
0.0
 10
2.808830286400089
 20
5.545865099200028
 10
2.756148476800086
 20
5.537719984000034
 10
2.703975516800093
 20
5.529393699200028
  0
LWPOLYLINE
  5
BE7
330
1F
100
AcDbEntity
  8
0
100
AcDbPolyline
 90
       11
 70
     0
 43
0.0
 10
2.808830286400089
 20
5.545865099200028
 10
2.882419179200093
 20
5.556811136000021
 10
2.956914636800087
 20
5.56739758880002
 10
3.032609526400088
 20
5.577663257600022
 10
3.109927593600084
 20
5.58765613120002
 10
3.188775366400088
 20
5.597351921600022
 10
3.268638020800091
 20
5.606680988800036
 10
3.349905112000081
 20
5.61568417440003
 10
3.432746080000094
 20
5.624370904000045
 10
3.516059654400089
 20
5.632624462400031
 10
3.600468793600094
 20
5.640509748800042
  0
LWPOLYLINE
  5
BE8
330
1F
100
AcDbEntity
  8
0
100
AcDbPolyline
 90
        3
 70
     0
 43
0.0
 10
4.631749448000086
 20
5.456172627200032
 10
4.613819764800092
 20
5.466862136000031
 10
4.612549712000082
 20
5.468259211200034
  0
LWPOLYLINE
  5
BE9
330
1F
100
AcDbEntity
  8
0
100
AcDbPolyline
 90
        3
 70
     0
 43
0.0
 10
4.807294852800091
 20
5.37280469120003
 10
4.721595892800089
 20
5.415073492800019
 10
4.631749448000086
 20
5.456172627200032
  0
LINE
  5
BEA
330
1F
100
AcDbEntity
  8
0
100
AcDbLine
 10
3.687698689600077
 20
5.881183155200034
 30
0.0
 11
4.068899920000071
 21
6.023997550400025
 31
0.0
  0
LWPOLYLINE
  5
BEB
330
1F
100
AcDbEntity
  8
0
100
AcDbPolyline
 90
        3
 70
     0
 43
0.0
 10
3.687369288000093
 20
5.64814342880004
 10
4.115651336000092
 20
5.679115833600036
 10
4.416294108800081
 20
5.693693846400037
  0
LWPOLYLINE
  5
BEC
330
1F
100
AcDbEntity
  8
0
100
AcDbPolyline
 90
        9
 70
     0
 43
0.0
 10
6.086246384000085
 20
5.223854009600017
 10
6.220717945600093
 20
5.215126601600019
 10
6.348378929600081
 20
5.209901928000022
 10
6.462846094400085
 20
5.208771651200038
 10
6.556234433600089
 20
5.211945851200027
 10
6.62383411680009
 20
5.218986174400043
 10
6.666613339200091
 20
5.229672534400037
 10
6.683020753600083
 20
5.24394906400002
 10
6.681019086400092
 20
5.251504164800024
  0
LINE
  5
BED
330
1F
100
AcDbEntity
  8
0
100
AcDbLine
 10
6.086246384000085
 20
5.223854009600017
 30
0.0
 11
5.358094915200077
 21
5.278705144000042
 31
0.0
  0
LWPOLYLINE
  5
BEE
330
1F
100
AcDbEntity
  8
0
100
AcDbPolyline
 90
        4
 70
     0
 43
0.0
 10
16.89663939520008
 20
3.885378569600021
 10
15.51848390720008
 20
4.01181933920003
 10
14.11968502880008
 20
4.158905913600023
 10
12.69496878400009
 20
4.327699753600029
  0
LWPOLYLINE
  5
BEF
330
1F
100
AcDbEntity
  8
0
100
AcDbPolyline
 90
       13
 70
     0
 43
0.0
 10
16.87006675200009
 20
3.487087251200023
 10
16.62852382720009
 20
3.508598345600034
 10
16.35975397280008
 20
3.53314629760004
 10
16.06522594560008
 20
3.560787806400043
 10
15.74673875840009
 20
3.591550489600024
 10
15.40474513280008
 20
3.625594019200036
 10
15.03893308640008
 20
3.663167758400021
 10
14.64902797760009
 20
3.704536684800018
 10
14.23490501120009
 20
3.749968945600045
 10
13.80271319680009
 20
3.799026433600033
 10
13.37630071520008
 20
3.849074545600018
 10
12.98179438240009
 20
3.896836248000028
 10
12.64728112960008
 20
3.938434300800025
  0
LWPOLYLINE
  5
BF0
330
1F
100
AcDbEntity
  8
0
100
AcDbPolyline
 90
        7
 70
     0
 43
0.0
 10
12.74683072800008
 20
5.30452956640002
 10
13.46058810080009
 20
5.278601984000033
 10
14.16137947520008
 20
5.271400684800028
 10
14.85039384800009
 20
5.288095368000028
 10
15.47520506720008
 20
5.329770312000022
 10
16.02098172960008
 20
5.392205908800036
 10
16.50580296320009
 20
5.472506948800031
  0
LWPOLYLINE
  5
C06
330
1F
100
AcDbEntity
  8
0
100
AcDbPolyline
 90
        6
 70
     0
 43
0.0
 10
-4.612564367999914
 20
30.53174163200003
 10
-4.382105307199913
 20
30.26703699360004
 10
-4.04166631199991
 20
29.95069662720004
 10
-3.663755507199914
 20
29.67501230720003
 10
-3.253786401599916
 20
29.44381818240003
 10
-2.817583607999912
 20
29.26032255360004
  0
LWPOLYLINE
  5
C07
330
1F
100
AcDbEntity
  8
0
100
AcDbPolyline
 90
        6
 70
     0
 43
0.0
 10
-4.331180667199908
 20
28.61505523360003
 10
-4.906616945599913
 20
28.94969593280004
 10
-5.439566951999913
 20
29.34224426560004
 10
-5.923651409599918
 20
29.78784912160003
 10
-6.35307705919991
 20
30.28099673760005
 10
-6.681076943999918
 20
30.74849935200004
  0
LWPOLYLINE
  5
C08
330
1F
100
AcDbEntity
  8
0
100
AcDbPolyline
 90
       22
 70
     0
 43
0.0
 10
-12.6472811295999
 20
32.06156569920003
 10
-12.41985818879991
 20
32.03320298720004
 10
-12.19184637919992
 20
32.00529149120004
 10
-11.95906846399991
 20
31.97733781440004
 10
-11.71780458559991
 20
31.94894181920003
 10
-11.46430039679992
 20
31.91973707040003
 10
-11.19478862719991
 20
31.88939770400003
 10
-10.90550261279991
 20
31.85764527680004
 10
-10.59267165279991
 20
31.82425491360004
 10
-10.25252012479991
 20
31.78906332320002
 10
-9.881266487999914
 20
31.75197819360005
 10
-9.47512464639991
 20
31.71298931200004
 10
-9.030305211199921
 20
31.67218100000005
 10
-8.542968601599914
 20
31.62974183680003
 10
-8.009814143999909
 20
31.58602763680002
 10
-7.435099326399913
 20
31.54207881120004
 10
-6.82912052799991
 20
31.49930008800004
 10
-6.182213324799909
 20
31.45766079520004
 10
-5.484558420799905
 20
31.41741188960003
 10
-4.726364547199913
 20
31.37914368000002
 10
-3.897840305599905
 20
31.34383689920003
 10
-2.988956524799908
 20
31.31291839840002
  0
LWPOLYLINE
  5
C09
330
1F
100
AcDbEntity
  8
0
100
AcDbPolyline
 90
       14
 70
     0
 43
0.0
 10
-12.69496878239991
 20
31.67230024640002
 10
-11.42488862079991
 20
31.52119001760004
 10
-10.28508741759991
 20
31.39876485600004
 10
-9.258745622399919
 20
31.29925323040004
 10
-8.331871524799913
 20
31.21816277440004
 10
-7.492736095999908
 20
31.15196815840005
 10
-6.731268254399913
 20
31.09786553600002
 10
-6.038772867199916
 20
31.05361286080003
 10
-5.408163627199917
 20
31.01743805920003
 10
-4.832996748799906
 20
30.98789328000004
 10
-4.307155953599909
 20
30.96378437440003
 10
-3.825046150399904
 20
30.94414366240005
 10
-3.384596131199919
 20
30.92829532960005
 10
-2.985379017599916
 20
30.91570595520002
  0
LWPOLYLINE
  5
C0A
330
1F
100
AcDbEntity
  8
0
100
AcDbPolyline
 90
       29
 70
     0
 43
0.0
 10
-4.083118094399913
 20
28.50432524640004
 10
-4.196887953599918
 20
28.49772687840004
 10
-4.716841516799909
 20
28.46554667840004
 10
-5.276744772799907
 20
28.43029926240004
 10
-5.795210449599912
 20
28.39821004800004
 10
-6.298039406399914
 20
28.36796319360004
 10
-6.79341801919991
 20
28.33882617440002
 10
-7.274111619199906
 20
28.31106201920005
 10
-7.740727694399914
 20
28.28448507360005
 10
-8.190152662399915
 20
28.25910574880003
 10
-8.624033847999916
 20
28.23465315520005
 10
-9.045118633599917
 20
28.21078896000003
 10
-9.456083353599913
 20
28.18717798080004
 10
-9.856569051199917
 20
28.16365795680005
 10
-10.24332629919991
 20
28.14028737280003
 10
-10.61409785119992
 20
28.11715594240004
 10
-10.97073074079991
 20
28.09412468960005
 10
-11.31473168799991
 20
28.07107912960003
 10
-11.64715137759991
 20
28.04793870560004
 10
-11.96915517439992
 20
28.02461850720004
 10
-12.28143228799991
 20
28.00107081760003
 10
-12.58476751999991
 20
27.97724446080005
 10
-12.87968590079991
 20
27.95311116160005
 10
-13.16711533759991
 20
27.92861046880003
 10
-13.4478271535999
 20
27.90369087680002
 10
-13.72232867679991
 20
27.87832172000003
 10
-13.99113922559991
 20
27.85247016960002
 10
-14.25451679999991
 20
27.82612774080004
 10
-14.51262098559991
 20
27.79929720320004
  0
LWPOLYLINE
  5
C10
330
1F
100
AcDbEntity
  8
0
100
AcDbPolyline
 90
       19
 70
     0
 43
0.0
 10
-14.51262098559991
 20
8.253648787200035
 10
-13.9727789935999
 20
8.198555830400039
 10
-13.39586207679992
 20
8.143852272000032
 10
-12.77656021439991
 20
8.089509249600041
 10
-12.10030214239991
 20
8.03480805280003
 10
-11.36834208639991
 20
7.980366755200037
 10
-10.66814429279991
 20
7.932218032000037
 10
-10.03576207039991
 20
7.891466190400024
 10
-9.440136305599912
 20
7.855021368000024
 10
-8.84109475999991
 20
7.819789102400022
 10
-8.224535332799922
 20
7.78446568800004
 10
-7.58650725119991
 20
7.748435083200035
 10
-6.959662479999912
 20
7.713216499200029
 10
-6.365749337599914
 20
7.679824436800032
 10
-5.812933479999919
 20
7.648611936000037
 10
-5.293355438399905
 20
7.619018200000027
 10
-4.781551239999905
 20
7.589892966400043
 10
-4.264403897599911
 20
7.561277310400043
 10
-3.970107214399908
 20
7.546123798400032
  0
LWPOLYLINE
  5
C11
330
1F
100
AcDbEntity
  8
0
100
AcDbPolyline
 90
       10
 70
     0
 43
0.0
 10
-28.83539589759991
 20
9.06272033760004
 10
-29.26864427359991
 20
9.719405033600025
 10
-29.70006852319991
 20
10.46909183200003
 10
-30.11614962239991
 20
11.32493797120002
 10
-30.50185284799991
 20
12.30276042080004
 10
-30.83896931679991
 20
13.41560376960003
 10
-31.10677190079991
 20
14.66514340320003
 10
-31.27357262079991
 20
15.89866408640003
 10
-31.35298684959991
 20
17.01189753920002
 10
-31.37425536959991
 20
18.00000000000002
  0
LWPOLYLINE
  5
C12
330
1F
100
AcDbEntity
  8
0
100
AcDbPolyline
 90
       15
 70
     0
 43
0.0
 10
-30.94608431679991
 20
18.00000001280002
 10
-30.93229552959991
 20
17.20907678560001
 10
-30.88951370399991
 20
16.42409849280002
 10
-30.81719378719991
 20
15.66045605920004
 10
-30.71718345599991
 20
14.93300342240002
 10
-30.59345545919991
 20
14.25331546080002
 10
-30.44828959519991
 20
13.61639141440002
 10
-30.28182217919991
 20
13.01183134720003
 10
-30.09439581279991
 20
12.43456613600002
 10
-29.88647523679991
 20
11.88159223680003
 10
-29.65710521439991
 20
11.34750407360002
 10
-29.40395741759991
 20
10.82593930720003
 10
-29.12497382239991
 20
10.31303930560002
 10
-28.81848329919991
 20
9.806493593600038
 10
-28.48271226719991
 20
9.304035483200038
  0
LWPOLYLINE
  5
C13
330
1F
100
AcDbEntity
  8
0
100
AcDbPolyline
 90
       10
 70
     0
 43
0.0
 10
-31.37425536959991
 20
18.00000000000002
 10
-31.35297880319991
 20
18.98828575520002
 10
-31.27796978239991
 20
20.05685691200003
 10
-31.12215292639991
 20
21.24409120160004
 10
-30.86131374239991
 20
22.49694250880003
 10
-30.51875322239991
 20
23.64857653120003
 10
-30.12422815039991
 20
24.65672732960004
 10
-29.70403213119992
 20
25.52345830080003
 10
-29.27010847519991
 20
26.27823150080004
 10
-28.83539589759991
 20
26.93727966400004
  0
LWPOLYLINE
  5
C14
330
1F
100
AcDbEntity
  8
0
100
AcDbPolyline
 90
       16
 70
     0
 43
0.0
 10
-30.94608431679991
 20
18.00000001280002
 10
-30.93409505119991
 20
18.73830613600003
 10
-30.89692376319991
 20
19.47231189440003
 10
-30.83394319999991
 20
20.18948638080002
 10
-30.74634418719991
 20
20.87743538400005
 10
-30.63719291359991
 20
21.52506487360003
 10
-30.50891256479991
 20
22.13318287200004
 10
-30.36213215039991
 20
22.70970213760003
 10
-30.19693433599991
 20
23.26075649440003
 10
-30.01371839679991
 20
23.78924309920003
 10
-29.81247337919991
 20
24.29826902880003
 10
-29.59197375839991
 20
24.79269619520005
 10
-29.35025508639991
 20
25.27730336960004
 10
-29.08571107679991
 20
25.75486009760004
 10
-28.79700647999991
 20
26.22714126720004
 10
-28.48271226719991
 20
26.69596451680004
  0
LWPOLYLINE
  5
C15
330
1F
100
AcDbEntity
  8
0
100
AcDbPolyline
 90
       35
 70
     0
 43
0.0
 10
-22.10948914079991
 20
22.99281542080004
 10
-22.1827606767999
 20
22.85935421760004
 10
-22.25405242079991
 20
22.72470595680005
 10
-22.32334402399991
 20
22.58890303840004
 10
-22.39061548959991
 20
22.45197867040005
 10
-22.45584752319991
 20
22.31396830720004
 10
-22.51902265279991
 20
22.17490405600003
 10
-22.58012317599991
 20
22.03481833440002
 10
-22.63912703679991
 20
21.89375585920004
 10
-22.69601468799991
 20
21.75175906720002
 10
-22.75077691199991
 20
21.60884612800003
 10
-22.80340131839991
 20
21.46504473120003
 10
-22.85387324479992
 20
21.32039146720003
 10
-22.90217882399991
 20
21.17491975360004
 10
-22.94830311679991
 20
21.02866559200003
 10
-22.99223374239991
 20
20.88166368960003
 10
-23.03396069919991
 20
20.73394239520004
 10
-23.07346829599992
 20
20.58554878720002
 10
-23.11074273119991
 20
20.43652816000002
 10
-23.14577318719991
 20
20.28692164960003
 10
-23.17854946399992
 20
20.13676941280002
 10
-23.20906136479991
 20
19.98611327840004
 10
-23.23730020159991
 20
19.83499354400004
 10
-23.2632589055999
 20
19.68344608960004
 10
-23.28693036959992
 20
19.53150967360002
 10
-23.30830833439991
 20
19.37922592160004
 10
-23.32738527039992
 20
19.22665691040003
 10
-23.3441573919999
 20
19.07383963840004
 10
-23.3586219951999
 20
18.92079960320003
 10
-23.37077717279991
 20
18.76757451840004
 10
-23.38062126239992
 20
18.61420352800001
 10
-23.3881520607999
 20
18.46072548480003
 10
-23.39336771359992
 20
18.30717885280003
 10
-23.39626788959991
 20
18.15359427520002
 10
-23.39685290879992
 20
18.00000034880002
  0
LWPOLYLINE
  5
C16
330
1F
100
AcDbEntity
  8
0
100
AcDbPolyline
 90
       12
 70
     0
 43
0.0
 10
-24.55907471839991
 20
18.00000141120003
 10
-24.54788150399991
 20
18.52775204160002
 10
-24.51152260799991
 20
19.08727299840004
 10
-24.44841999039991
 20
19.65704665440003
 10
-24.35972588639991
 20
20.22075140960004
 10
-24.24587310399991
 20
20.77754165600004
 10
-24.10667557439991
 20
21.32888956800005
 10
-23.94578922079991
 20
21.86276432480002
 10
-23.77210851359991
 20
22.35904471360004
 10
-23.59122602879991
 20
22.81432372640003
 10
-23.40209124159991
 20
23.24057701280003
 10
-23.20257274079991
 20
23.64747454080003
  0
LWPOLYLINE
  5
C17
330
1F
100
AcDbEntity
  8
0
100
AcDbPolyline
 90
       39
 70
     0
 43
0.0
 10
-19.05851215199991
 20
9.87770216000004
 10
-18.92937200159992
 20
9.794884131200035
 10
-18.79907568799992
 20
9.714053374400037
 10
-18.66681796959991
 20
9.63472269920004
 10
-18.53230427199991
 20
9.556759225600018
 10
-18.39645532159992
 20
9.480721547200033
 10
-18.26155374079991
 20
9.407819912000036
 10
-18.12725052639991
 20
9.337750323200026
 10
-17.99167850719991
 20
9.269496174400018
 10
-17.85286072639991
 20
9.202126006400021
 10
-17.71213227039991
 20
9.136367334400034
 10
-17.57193469919992
 20
9.073343628800017
 10
-17.43249480479992
 20
9.013075382400018
 10
-17.29590119039991
 20
8.956330452800045
 10
-17.16240125279991
 20
8.903026124800021
 10
-17.03213130239991
 20
8.853035601600026
 10
-16.9046369279999
 20
8.80602129760004
 10
-16.77972405759991
 20
8.761770822400023
 10
-16.65850241759991
 20
8.720525291200033
 10
-16.54026314559991
 20
8.681889305600037
 10
-16.42401290239991
 20
8.64542297600002
 10
-16.30922731999991
 20
8.610881043200038
 10
-16.19561735359992
 20
8.578115556800042
 10
-16.08454964799991
 20
8.547442763200024
 10
-15.97657681759991
 20
8.518905480000029
 10
-15.86962123679992
 20
8.491876348800019
 10
-15.76366497279992
 20
8.466310761600027
 10
-15.6588367903999
 20
8.44219848800003
 10
-15.55515102399991
 20
8.419500561600045
 10
-15.45236189279991
 20
8.398123886400043
 10
-15.35020680479991
 20
8.377983686400028
 10
-15.24825601919991
 20
8.358975902400032
 10
-15.14639531999991
 20
8.341069080000039
 10
-15.04462675679992
 20
8.324254785600032
 10
-14.94266942239992
 20
8.308482680000025
 10
-14.84026217119991
 20
8.293716428800024
 10
-14.73800615839991
 20
8.280041552000028
 10
-14.63452552159991
 20
8.267284934400038
 10
-14.5277668959999
 20
8.255258446400034
  0
LWPOLYLINE
  5
C18
330
1F
100
AcDbEntity
  8
0
100
AcDbPolyline
 90
       12
 70
     0
 43
0.0
 10
-14.51262098559991
 20
7.219033460800034
 10
-15.11720342399991
 20
7.303468964800032
 10
-15.69544259519991
 20
7.411896745600017
 10
-16.28151081119991
 20
7.550302836800028
 10
-16.88753127679991
 20
7.722878881600024
 10
-17.50101380639991
 20
7.927744761600024
 10
-18.10737002719991
 20
8.160917235200031
 10
-18.69529244959991
 20
8.418016843200035
 10
-19.25630615199991
 20
8.694547692800028
 10
-19.78394636799991
 20
8.985859198400021
 10
-20.27400833759991
 20
9.287612995200021
 10
-20.72500842719991
 20
9.596445638400041
  0
LWPOLYLINE
  5
C19
330
1F
100
AcDbEntity
  8
0
100
AcDbPolyline
 90
       35
 70
     0
 43
0.0
 10
-23.3966410047999
 20
17.96207223360002
 10
-23.39435039199991
 20
17.80893704320001
 10
-23.38975943039991
 20
17.65588353600003
 10
-23.38286914079991
 20
17.50293199520004
 10
-23.3736808975999
 20
17.35010690400002
 10
-23.3621985999999
 20
17.19745584320003
 10
-23.3484275391999
 20
17.04503329120004
 10
-23.33237162239991
 20
16.89287758240001
 10
-23.31402875359992
 20
16.74097502880002
 10
-23.29339861439991
 20
16.58932998560004
 10
-23.2704931663999
 20
16.43803671840004
 10
-23.24532735839991
 20
16.28718782400002
 10
-23.21790410559992
 20
16.13678892320004
 10
-23.18822322239991
 20
15.98683497280004
 10
-23.15628629279991
 20
15.83733859200003
 10
-23.1221025167999
 20
15.68834764160001
 10
-23.08569109119991
 20
15.53994310560003
 10
-23.04706451199991
 20
15.39217011680003
 10
-23.0062308143999
 20
15.24505548320002
 10
-22.9632047615999
 20
15.09864503520003
 10
-22.9179998927999
 20
14.95297663680003
 10
-22.87062925599991
 20
14.80808707520003
 10
-22.82110800159991
 20
14.66401637120003
 10
-22.76944951519991
 20
14.52079328320002
 10
-22.71566731359991
 20
14.37844832320001
 10
-22.65977358559991
 20
14.23700991520002
 10
-22.60178119999991
 20
14.09650579840004
 10
-22.54170186239991
 20
13.95695913600002
 10
-22.47954830079991
 20
13.81839554560002
 10
-22.41534177919991
 20
13.68085787680001
 10
-22.3491014367999
 20
13.54438159680003
 10
-22.2808457007999
 20
13.40900030880004
 10
-22.2105955471999
 20
13.27475189760002
 10
-22.13837009759991
 20
13.14166689760003
 10
-22.0641872671999
 20
13.00977262080002
  0
LWPOLYLINE
  5
C1A
330
1F
100
AcDbEntity
  8
0
100
AcDbPolyline
 90
       12
 70
     0
 43
0.0
 10
-24.55907471839991
 20
18.00000141120003
 10
-24.54788150399991
 20
17.47224796000003
 10
-24.51152260799991
 20
16.91272700160001
 10
-24.44841999039991
 20
16.34295334560002
 10
-24.35972588639991
 20
15.77924859040004
 10
-24.24587310399991
 20
15.22245834400004
 10
-24.10667557439991
 20
14.67111043200003
 10
-23.94578922079991
 20
14.13723567520003
 10
-23.77210851359991
 20
13.64095528800004
 10
-23.59122602879991
 20
13.18567627520002
 10
-23.40209124159991
 20
12.75942298880002
 10
-23.20257274079991
 20
12.35252546080002
  0
LWPOLYLINE
  5
C1B
330
1F
100
AcDbEntity
  8
0
100
AcDbPolyline
 90
       15
 70
     0
 43
0.0
 10
-20.71308006559991
 20
11.23052673920003
 10
-20.60931387839992
 20
11.12608189600004
 10
-20.50338803199991
 20
11.02277083840002
 10
-20.39503441119992
 20
10.92036817440003
 10
-20.28402158559992
 20
10.81871361600002
 10
-20.17059583359991
 20
10.71808929920004
 10
-20.05518511679991
 20
10.61890053920004
 10
-19.93770343679991
 20
10.52108753120003
 10
-19.81811015039991
 20
10.42464042400004
 10
-19.69640862879992
 20
10.32958822080001
 10
-19.57244911039992
 20
10.23584517920002
 10
-19.44650515679992
 20
10.14364790720003
 10
-19.31872525919991
 20
10.05312241600003
 10
-19.18930337119991
 20
9.964413510400021
 10
-19.05851215199991
 20
9.87770216000004
  0
LWPOLYLINE
  5
C1C
330
1F
100
AcDbEntity
  8
0
100
AcDbPolyline
 90
       26
 70
     0
 43
0.0
 10
-23.4281477135999
 20
12.03430711040002
 10
-23.37852283359992
 20
11.93856248320003
 10
-23.35247287999991
 20
11.88838034880004
 10
-23.32420503359991
 20
11.83408551680003
 10
-23.29258075839991
 20
11.77359726240004
 10
-23.25694751039991
 20
11.70581228480003
 10
-23.2170928943999
 20
11.63050691840004
 10
-23.17297580319991
 20
11.54781123200004
 10
-23.12394583679991
 20
11.45675263200001
 10
-23.06902548479991
 20
11.35582901760002
 10
-23.00746728319992
 20
11.24406419040002
 10
-22.93862333279991
 20
11.12076323360003
 10
-22.86103322399991
 20
10.98391725920004
 10
-22.77252411519992
 20
10.83051410560003
 10
-22.6716125775999
 20
10.65905227040002
 10
-22.5579945807999
 20
10.47027368160001
 10
-22.43689275199991
 20
10.27391360960004
 10
-22.3202340255999
 20
10.08936973920003
 10
-22.21347835839992
 20
9.924362945600023
 10
-22.11923796159991
 20
9.781712182400042
 10
-22.03441938879991
 20
9.655696566400024
 10
-21.95414033599991
 20
9.53846648960004
 10
-21.8735201391999
 20
9.422709660800023
 10
-21.79131870719991
 20
9.30669204160003
 10
-21.70809059199991
 20
9.191268771200043
 10
-21.6243559055999
 20
9.07719446720003
  0
LWPOLYLINE
  5
C1D
330
1F
100
AcDbEntity
  8
0
100
AcDbPolyline
 90
       10
 70
     0
 43
0.0
 10
-23.20257274079991
 20
12.35252546080002
 10
-23.02724511999991
 20
12.03444959040004
 10
-22.8277309743999
 20
11.71687657760003
 10
-22.60218940319992
 20
11.39920603840002
 10
-22.34891602239991
 20
11.08150904480004
 10
-22.06468067679991
 20
10.76252521280002
 10
-21.75278087839991
 20
10.44810807360002
 10
-21.4429442287999
 20
10.16525835840002
 10
-21.11582337439991
 20
9.892753121600037
 10
-20.72500842719991
 20
9.596445638400041
  0
LWPOLYLINE
  5
C1E
330
1F
100
AcDbEntity
  8
0
100
AcDbPolyline
 90
       17
 70
     0
 43
0.0
 10
-22.04767748959991
 20
12.98104774400002
 10
-21.98114316639991
 20
12.86789739200003
 10
-21.9123496287999
 20
12.75502118080004
 10
-21.84129208479991
 20
12.64246174880003
 10
-21.76796678559991
 20
12.53026260640004
 10
-21.69237300319991
 20
12.41847092320003
 10
-21.61451230079992
 20
12.30713592000003
 10
-21.53438888319991
 20
12.19630905760001
 10
-21.45200784479991
 20
12.08604137280002
 10
-21.36737644319992
 20
11.97638503360002
 10
-21.28050441759992
 20
11.86739358720004
 10
-21.19140840479992
 20
11.75912708160004
 10
-21.10009945759991
 20
11.65163642720003
 10
-21.00659241119991
 20
11.54497515040003
 10
-20.91090680319991
 20
11.43920006720003
 10
-20.81305873279992
 20
11.33436210880003
 10
-20.71308006559991
 20
11.23052673920003
  0
LWPOLYLINE
  5
C1F
330
1F
100
AcDbEntity
  8
0
100
AcDbPolyline
 90
        4
 70
     0
 43
0.0
 10
-23.50403640799991
 20
12.17847533120002
 10
-23.47871358719991
 20
12.13116289280003
 10
-23.45322794879991
 20
12.08255051200004
 10
-23.4281477135999
 20
12.03430711040002
  0
LINE
  5
C20
330
1F
100
AcDbEntity
  8
0
100
AcDbLine
 10
-22.0641872863999
 20
13.00977260800002
 30
0.0
 11
-22.04767748959991
 21
12.98104774400002
 31
0.0
  0
LINE
  5
C21
330
1F
100
AcDbEntity
  8
0
100
AcDbLine
 10
-23.39685290719992
 20
18.00000034880002
 30
0.0
 11
-23.3966410047999
 21
17.96207223360002
 31
0.0
  0
LWPOLYLINE
  5
C22
330
1F
100
AcDbEntity
  8
0
100
AcDbPolyline
 90
       15
 70
     0
 43
0.0
 10
-16.50580296159992
 20
30.52749304960002
 10
-16.93403510879991
 20
30.43335083360003
 10
-17.32674909759992
 20
30.32460236480003
 10
-17.69130763999991
 20
30.20165511520002
 10
-18.03337942239991
 20
30.06445400800004
 10
-18.35714878079991
 20
29.91266975840003
 10
-18.66780910879992
 20
29.74459968160005
 10
-18.98410693759991
 20
29.54921032160004
 10
-19.31287271039992
 20
29.31981822080004
 10
-19.65617318719991
 20
29.05141839840004
 10
-20.01554694239991
 20
28.73856136480003
 10
-20.39208116959991
 20
28.37530923520003
 10
-20.78645136799992
 20
27.95522574880004
 10
-21.19859590239992
 20
27.47174432480003
 10
-21.6243559055999
 20
26.92280553440002
  0
LWPOLYLINE
  5
C23
330
1F
100
AcDbEntity
  8
0
100
AcDbPolyline
 90
       23
 70
     0
 43
0.0
 10
-28.48271226879991
 20
26.69596451840004
 10
-28.12328991199991
 20
27.18397437920003
 10
-27.73925020799991
 20
27.65656894400004
 10
-27.33223590239991
 20
28.11140380160003
 10
-26.90403961599991
 20
28.54637684960005
 10
-26.45617653279991
 20
28.95997695520003
 10
-25.98944805119991
 20
29.35145869920003
 10
-25.50371760159992
 20
29.72090794400003
 10
-24.99976834399991
 20
30.06766198240004
 10
-24.47939600799991
 20
30.39038972800003
 10
-23.94548109439991
 20
30.68736704640002
 10
-23.39947532319991
 20
30.95794413440003
 10
-22.84145893919991
 20
31.20214580000004
 10
-22.2715558991999
 20
31.41997180800004
 10
-21.6914265855999
 20
31.61075540480004
 10
-21.10426826079991
 20
31.77350966400004
 10
-20.51217695199991
 20
31.90783505760004
 10
-19.91627876159991
 20
32.01362079680004
 10
-19.31681913439991
 20
32.09095745440004
 10
-18.71406615039992
 20
32.13986245280003
 10
-18.10868015039991
 20
32.16017475200004
 10
-17.50227239039991
 20
32.15176143040002
 10
-16.89663939359991
 20
32.11462143200003
  0
LWPOLYLINE
  5
C24
330
1F
100
AcDbEntity
  8
0
100
AcDbPolyline
 90
       62
 70
     0
 43
0.0
 10
-28.83539589759991
 20
26.93727966400004
 10
-28.72441375039991
 20
27.09329876320003
 10
-28.62038528959991
 20
27.23529750240004
 10
-28.52303139039991
 20
27.36466930880004
 10
-28.43203185119991
 20
27.48267376160004
 10
-28.34701195519991
 20
27.59048410240004
 10
-28.26756503199991
 20
27.68918168320004
 10
-28.19328006239991
 20
27.77974252320004
 10
-28.12379765439991
 20
27.86298954720004
 10
-28.05908356639991
 20
27.93929265600004
 10
-27.99959454879991
 20
28.00841563040004
 10
-27.94536542079991
 20
28.07059652640004
 10
-27.89522873119991
 20
28.12739548640005
 10
-27.84742103519991
 20
28.18095116480003
 10
-27.79979157279991
 20
28.23373071680004
 10
-27.74936335359991
 20
28.28899667200005
 10
-27.69326115039991
 20
28.34975435200004
 10
-27.62950252799991
 20
28.41789167840002
 10
-27.55716456479991
 20
28.49404477280003
 10
-27.47667838239991
 20
28.57737187680004
 10
-27.38846859359991
 20
28.66704157600003
 10
-27.29215981119991
 20
28.76302552640004
 10
-27.18708716639991
 20
28.86552747360002
 10
-27.07248564639991
 20
28.97477111840004
 10
-26.94750071999991
 20
29.09097409280005
 10
-26.81118342399991
 20
29.21433699200003
 10
-26.66253901439991
 20
29.34498396800004
 10
-26.50050729599991
 20
29.48297250400003
 10
-26.32361512799991
 20
29.62856086080003
 10
-26.1297894271999
 20
29.78228212320004
 10
-25.91673351999991
 20
29.94456831680003
 10
-25.68205090079991
 20
30.11560808320004
 10
-25.42324657599991
 20
30.29530009440003
 10
-25.13757024319991
 20
30.48331094080003
 10
-24.82075126399991
 20
30.67976553280004
 10
-24.46656607199991
 20
30.88514779200002
 10
-24.06713561599991
 20
31.09965154560004
 10
-23.62307434879991
 20
31.31791534720003
 10
-23.16014711519991
 20
31.52393900320004
 10
-22.70184635039991
 20
31.70738986720005
 10
-22.24876695839991
 20
31.86962752960005
 10
-21.80263104159991
 20
32.01154230560004
 10
-21.36515666879991
 20
32.13409098560004
 10
-20.93793910239991
 20
32.23833244320005
 10
-20.52208652959991
 20
32.32547187200003
 10
-20.12127003999992
 20
32.39632060000005
 10
-19.74934289919992
 20
32.45071021760003
 10
-19.41650057279991
 20
32.49024719200003
 10
-19.11699592479991
 20
32.51852903680003
 10
-18.84494276479991
 20
32.53826696320004
 10
-18.59609209919991
 20
32.55137698080003
 10
-18.36802925599992
 20
32.55925532160003
 10
-18.15849155199992
 20
32.56301473760004
 10
-17.96509965439991
 20
32.56353125760003
 10
-17.78569112479991
 20
32.56147654240004
 10
-17.61933658399991
 20
32.55739162880004
 10
-17.46620835519991
 20
32.55177601920005
 10
-17.32592401119992
 20
32.54506822400003
 10
-17.19736243199991
 20
32.53760600960004
 10
-17.07928087679992
 20
32.52964179200003
 10
-16.97053960479991
 20
32.52136519200004
 10
-16.87006675039992
 20
32.51291275040003
  0
LWPOLYLINE
  5
C25
330
1F
100
AcDbEntity
  8
0
100
AcDbPolyline
 90
       12
 70
     0
 43
0.0
 10
-14.51262098559991
 20
28.78096654080005
 10
-15.11720342399991
 20
28.69653103520005
 10
-15.69544259519991
 20
28.58810325440003
 10
-16.28151081119991
 20
28.44969716480003
 10
-16.88753127679991
 20
28.27712111840003
 10
-17.50101380639991
 20
28.07225523840003
 10
-18.10737002719991
 20
27.83908276640002
 10
-18.69529244959991
 20
27.58198315680004
 10
-19.25630615199991
 20
27.30545230880002
 10
-19.78394636799991
 20
27.01414080320003
 10
-20.27400833759991
 20
26.71238700640003
 10
-20.72500842719991
 20
26.40355436160004
  0
LWPOLYLINE
  5
C26
330
1F
100
AcDbEntity
  8
0
100
AcDbPolyline
 90
       63
 70
     0
 43
0.0
 10
-14.53857400159991
 20
27.79652384160005
 10
-14.68785654239991
 20
27.77925083200003
 10
-14.83949200639991
 20
27.75941213280003
 10
-14.99260547039991
 20
27.73701369120004
 10
-15.14586083679991
 20
27.71219225120003
 10
-15.29795253279991
 20
27.68516297440004
 10
-15.44926071839991
 20
27.65588540160004
 10
-15.60041163839991
 20
27.62424303840004
 10
-15.75150022719991
 20
27.59020497440005
 10
-15.90245987999991
 20
27.55377775200003
 10
-16.05296689279992
 20
27.51504083840004
 10
-16.20252371839992
 20
27.47414271200003
 10
-16.35161165759991
 20
27.43097090400004
 10
-16.50087429119991
 20
27.38532605440002
 10
-16.64984235519991
 20
27.33732964480003
 10
-16.79800142079991
 20
27.28714570880004
 10
-16.94500295359991
 20
27.23491220000002
 10
-17.09123798879991
 20
27.18050841440003
 10
-17.2372551423999
 20
27.12372117120003
 10
-17.38283781919991
 20
27.06461321440002
 10
-17.52763422079991
 20
27.00331634880004
 10
-17.67141165119991
 20
26.93992946560004
 10
-17.81419373119991
 20
26.87444440000004
 10
-17.95598439999991
 20
26.80685722400002
 10
-18.09676396159991
 20
26.73717189440003
 10
-18.23647080479991
 20
26.66541192320002
 10
-18.37500960959992
 20
26.59161990080002
 10
-18.51224065599991
 20
26.51586685600003
 10
-18.64812177439991
 20
26.43817444320004
 10
-18.78262563199991
 20
26.35855525760004
 10
-18.91574509279991
 20
26.27700839840002
 10
-19.04747036639991
 20
26.19353533920002
 10
-19.17778436479991
 20
26.10814185760003
 10
-19.30649315359992
 20
26.02095324480004
 10
-19.43327261759991
 20
25.93220132640004
 10
-19.55808517439991
 20
25.84193440640004
 10
-19.68089301279992
 20
25.75020233600003
 10
-19.80164734399991
 20
25.65706518560003
 10
-19.92029299679992
 20
25.56259121920004
 10
-20.03678465599991
 20
25.46684452160005
 10
-20.15107793279991
 20
25.36989179040003
 10
-20.26314671519991
 20
25.27178713120003
 10
-20.37297656159992
 20
25.17257599520005
 10
-20.48054716799992
 20
25.07231034240004
 10
-20.58583275039992
 20
24.97104932480004
 10
-20.68884540799991
 20
24.86881686400005
 10
-20.78962421439991
 20
24.76560860480003
 10
-20.88821971359991
 20
24.66140735840002
 10
-20.98463098719991
 20
24.55624663680004
 10
-21.07884101759992
 20
24.45017818720003
 10
-21.17083012319991
 20
24.34325910560002
 10
-21.26058593919992
 20
24.23554046240005
 10
-21.34811148159992
 20
24.12705593600003
 10
-21.43340004319991
 20
24.01785156800002
 10
-21.51643958879991
 20
23.90798200320003
 10
-21.59722335359992
 20
23.79749723040004
 10
-21.67575025599992
 20
23.68644103040003
 10
-21.75201818559991
 20
23.57485981920004
 10
-21.82602501439991
 20
23.46280153280003
 10
-21.89776939199992
 20
23.35031465760005
 10
-21.9672560479999
 20
23.23743949600003
 10
-22.03449906719991
 20
23.12420098560002
 10
-22.0995125759999
 20
23.01062245760005
  0
LWPOLYLINE
  5
C27
330
1F
100
AcDbEntity
  8
0
100
AcDbPolyline
 90
       30
 70
     0
 43
0.0
 10
-23.50403640799991
 20
23.82152466880004
 10
-23.47871358719991
 20
23.86883710880005
 10
-23.45322794879991
 20
23.91744948960004
 10
-23.4281477135999
 20
23.96569288960003
 10
-23.40342289439991
 20
24.01339329600003
 10
-23.37852283359992
 20
24.06143751680002
 10
-23.35247287999991
 20
24.11161965280004
 10
-23.32420503359991
 20
24.16591448480002
 10
-23.29258075839991
 20
24.22640273920004
 10
-23.25694751039991
 20
24.29418771520005
 10
-23.2170928943999
 20
24.36949308160004
 10
-23.17297580319991
 20
24.45218876800004
 10
-23.12394583679991
 20
24.54324736800003
 10
-23.06902548479991
 20
24.64417098400002
 10
-23.00746728319992
 20
24.75593581120003
 10
-22.93862333279991
 20
24.87923676800003
 10
-22.86103322399991
 20
25.01608274080004
 10
-22.77252411519992
 20
25.16948589600002
 10
-22.6716125775999
 20
25.34094772960003
 10
-22.5579945807999
 20
25.52972632000003
 10
-22.43689275199991
 20
25.72608639040004
 10
-22.3202340255999
 20
25.91063026080004
 10
-22.21347835839992
 20
26.07563705600003
 10
-22.11923796159991
 20
26.21828781920004
 10
-22.03441938879991
 20
26.34430343520003
 10
-21.95414033599991
 20
26.46153351040004
 10
-21.8735201391999
 20
26.57729033920003
 10
-21.79131870719991
 20
26.69330796000002
 10
-21.70809059199991
 20
26.80873123040004
 10
-21.6243559055999
 20
26.92280553440002
  0
LWPOLYLINE
  5
C28
330
1F
100
AcDbEntity
  8
0
100
AcDbPolyline
 90
       10
 70
     0
 43
0.0
 10
-23.20257274079991
 20
23.64747454080003
 10
-23.02724511999991
 20
23.96555040960004
 10
-22.8277309743999
 20
24.28312342240005
 10
-22.60218940319992
 20
24.60079396320003
 10
-22.34891602239991
 20
24.91849095520004
 10
-22.06468067679991
 20
25.23747478720002
 10
-21.75278087839991
 20
25.55189192800003
 10
-21.4429442287999
 20
25.83474164160003
 10
-21.11582337439991
 20
26.10724687840004
 10
-20.72500842719991
 20
26.40355436160004
  0
LINE
  5
C29
330
1F
100
AcDbEntity
  8
0
100
AcDbLine
 10
-22.0995125887999
 20
23.01062246400005
 30
0.0
 11
-22.10948914079991
 21
22.99281542080004
 31
0.0
  0
LWPOLYLINE
  5
C2A
330
1F
100
AcDbEntity
  8
0
100
AcDbPolyline
 90
       16
 70
     0
 43
0.0
 10
-5.594211236799913
 20
29.48459596160003
 10
-6.031488041599906
 20
29.38079222080003
 10
-6.582970486399907
 20
29.27572961440003
 10
-7.197032935999906
 20
29.18360752160003
 10
-7.871861468799912
 20
29.10600885120004
 10
-8.605960662399914
 20
29.04387603040004
 10
-9.290965087999913
 20
29.00232265600005
 10
-9.894877892799916
 20
28.97578277760004
 10
-10.4296593823999
 20
28.95814259680003
 10
-10.94604695359991
 20
28.94474908000003
 10
-11.46480312479992
 20
28.93343655520004
 10
-11.9883981647999
 20
28.92236247200003
 10
-12.53359884319991
 20
28.90862336320003
 10
-13.12692901279991
 20
28.88712493280005
 10
-13.80533948799992
 20
28.84765569920003
 10
-14.51262098559991
 20
28.78096654080005
  0
LINE
  5
C2B
330
1F
100
AcDbEntity
  8
0
100
AcDbLine
 10
-14.51262098559992
 20
27.79929720320004
 30
0.0
 11
-14.53857400159991
 21
27.79652384160005
 31
0.0
  0
LWPOLYLINE
  5
C2C
330
1F
100
AcDbEntity
  8
0
100
AcDbPolyline
 90
       10
 70
     0
 43
0.0
 10
-6.362672307199907
 20
30.29467297280004
 10
-6.786537075199908
 20
30.30698406080003
 10
-7.449419545599915
 20
30.33615625760003
 10
-8.165438951999908
 20
30.37695840000003
 10
-8.941704268799915
 20
30.42928229120002
 10
-9.749051143999912
 20
30.48927206720003
 10
-10.53118296639991
 20
30.54938919360003
 10
-11.29165937119991
 20
30.60620599840004
 10
-12.03109956639992
 20
30.65612207360004
 10
-12.74683072799991
 20
30.69547043360003
  0
LWPOLYLINE
  5
C2D
330
1F
100
AcDbEntity
  8
0
100
AcDbPolyline
 90
        7
 70
     0
 43
0.0
 10
-12.74683072799991
 20
30.69547043360003
 10
-13.46058810079991
 20
30.72139801760005
 10
-14.16137947359991
 20
30.72859931680003
 10
-14.85039384639991
 20
30.71190463360002
 10
-15.47520506559991
 20
30.67022968800003
 10
-16.02098172799991
 20
30.60779409120005
 10
-16.50580296319992
 20
30.52749305280002
  0
LWPOLYLINE
  5
C2E
330
1F
100
AcDbEntity
  8
0
100
AcDbPolyline
 90
        4
 70
     0
 43
0.0
 10
-16.89663939359991
 20
32.11462143200003
 10
-15.51848390559991
 20
31.98818066080002
 10
-14.11968502719991
 20
31.84109408640003
 10
-12.69496878239991
 20
31.67230024640002
  0
LWPOLYLINE
  5
C2F
330
1F
100
AcDbEntity
  8
0
100
AcDbPolyline
 90
       13
 70
     0
 43
0.0
 10
-16.87006675039992
 20
32.51291275040003
 10
-16.62852382559992
 20
32.49140165600005
 10
-16.35975397119991
 20
32.46685370400004
 10
-16.06522594559991
 20
32.43921219360004
 10
-15.74673875679992
 20
32.40844951200003
 10
-15.40474513119992
 20
32.37440598240004
 10
-15.03893308479991
 20
32.33683224320003
 10
-14.64902797599991
 20
32.29546331520003
 10
-14.23490500959991
 20
32.25003105440004
 10
-13.80271319519992
 20
32.20097356800005
 10
-13.3763007135999
 20
32.15092545600004
 10
-12.98179438079991
 20
32.10316375360003
 10
-12.6472811295999
 20
32.06156569920003
  0
LWPOLYLINE
  5
C30
330
1F
100
AcDbEntity
  8
0
100
AcDbPolyline
 90
        9
 70
     0
 43
0.0
 10
-6.086246383999912
 20
30.77614599200003
 10
-6.220717945599907
 20
30.78487340000004
 10
-6.348378929599909
 20
30.79009807200003
 10
-6.462846092799913
 20
30.79122835040005
 10
-6.556234431999917
 20
30.78805415040003
 10
-6.623834115199918
 20
30.78101382720004
 10
-6.666613337599918
 20
30.77032746720004
 10
-6.683020751999911
 20
30.75605093600003
 10
-6.681019086399905
 20
30.74849583680003
  0
LWPOLYLINE
  5
C31
330
1F
100
AcDbEntity
  8
0
100
AcDbPolyline
 90
        3
 70
     0
 43
0.0
 10
-4.807294852799919
 20
30.62719531040002
 10
-4.721595891199917
 20
30.58492650720003
 10
-4.631749447999914
 20
30.54382737440005
  0
LWPOLYLINE
  5
C32
330
1F
100
AcDbEntity
  8
0
100
AcDbPolyline
 90
        3
 70
     0
 43
0.0
 10
-4.631749447999914
 20
30.54382737440005
 10
-4.613819763199905
 20
30.53313786560002
 10
-4.61254971039991
 20
30.53174079040005
  0
LINE
  5
C33
330
1F
100
AcDbEntity
  8
0
100
AcDbLine
 10
-6.086246383999927
 20
30.77614599200003
 30
0.0
 11
-5.358094913599919
 21
30.72129485760004
 31
0.0
  0
LWPOLYLINE
  5
C34
330
1F
100
AcDbEntity
  8
0
100
AcDbPolyline
 90
        8
 70
     0
 43
0.0
 10
-5.358094913599905
 20
30.72129485760004
 10
-5.262441966399911
 20
30.71284852480005
 10
-5.16055879839991
 20
30.70123045600004
 10
-5.061741905599908
 20
30.68726617280003
 10
-4.973615286399911
 20
30.67208786720005
 10
-4.89874051359991
 20
30.65622350400005
 10
-4.842348724799911
 20
30.64086192480004
 10
-4.807294852799919
 20
30.62719531040002
  0
LWPOLYLINE
  5
C35
330
1F
100
AcDbEntity
  8
0
100
AcDbPolyline
 90
       10
 70
     0
 43
0.0
 10
23.20257274240008
 20
23.64747454080003
 10
23.02724512160008
 20
23.96555040960004
 10
22.82773097600009
 20
24.28312342240005
 10
22.60218940480009
 20
24.60079396320003
 10
22.34891602400008
 20
24.91849095520004
 10
22.06468067680008
 20
25.23747478720002
 10
21.75278088000008
 20
25.55189192800003
 10
21.44294423040008
 20
25.83474164160003
 10
21.11582337600008
 20
26.10724687840004
 10
20.72500842880008
 20
26.40355436160004
  0
LWPOLYLINE
  5
C36
330
1F
100
AcDbEntity
  8
0
100
AcDbPolyline
 90
       26
 70
     0
 43
0.0
 10
23.42814771520008
 20
23.96569288960003
 10
23.37852283520008
 20
24.06143751680002
 10
23.35247288160008
 20
24.11161965280004
 10
23.32420503520008
 20
24.16591448480002
 10
23.29258075840008
 20
24.22640273920004
 10
23.25694751200008
 20
24.29418771520005
 10
23.21709289600009
 20
24.36949308160004
 10
23.17297580320008
 20
24.45218876800004
 10
23.12394583680008
 20
24.54324736800003
 10
23.06902548640008
 20
24.64417098400002
 10
23.00746728320009
 20
24.75593581120003
 10
22.93862333280008
 20
24.87923676800003
 10
22.86103322560009
 20
25.01608274080004
 10
22.77252411680009
 20
25.16948589600002
 10
22.67161257920009
 20
25.34094772960003
 10
22.55799458240009
 20
25.52972632000003
 10
22.43689275200008
 20
25.72608639040004
 10
22.32023402720007
 20
25.91063026080004
 10
22.21347835840008
 20
26.07563705600003
 10
22.11923796160008
 20
26.21828781920004
 10
22.03441938880008
 20
26.34430343520003
 10
21.95414033760008
 20
26.46153351040004
 10
21.87352014080008
 20
26.57729033920003
 10
21.79131870720008
 20
26.69330796000002
 10
21.70809059360008
 20
26.80873123040004
 10
21.62435590720009
 20
26.92280553440002
  0
LWPOLYLINE
  5
C37
330
1F
100
AcDbEntity
  8
0
100
AcDbPolyline
 90
       63
 70
     0
 43
0.0
 10
22.09951257600008
 20
23.01062245760005
 10
22.03451445760009
 20
23.12417459200003
 10
21.96728624480008
 20
23.23738955680002
 10
21.89781367520009
 20
23.35024399040003
 10
21.82608349600009
 20
23.46271143040004
 10
21.75209113120008
 20
23.57475125440004
 10
21.67583843360008
 20
23.68631420000002
 10
21.59732788640008
 20
23.79735185440003
 10
21.51656080480008
 20
23.90781894720004
 10
21.43353902080009
 20
24.01767067840003
 10
21.34827209760008
 20
24.12685359680003
 10
21.26077438560009
 20
24.23531062240005
 10
21.17104665600007
 20
24.34300336160004
 10
21.07907813120008
 20
24.44990693600004
 10
20.98490249280008
 20
24.55594575040004
 10
20.88852903520008
 20
24.66107523520003
 10
20.78995809760008
 20
24.76526123040002
 10
20.68917257280008
 20
24.86848701760004
 10
20.58614259680008
 20
24.97074659680004
 10
20.48086805920008
 20
25.07200649760003
 10
20.37333268480008
 20
25.17224919840003
 10
20.26353496960008
 20
25.27144185120005
 10
20.15149121600008
 20
25.36953562080003
 10
20.03721948960008
 20
25.46648140640005
 10
19.92075962560009
 20
25.56221368480004
 10
19.80214450880009
 20
25.65667552640005
 10
19.68142456000008
 20
25.74979883520004
 10
19.55864826240009
 20
25.84152049440004
 10
19.43385354880008
 20
25.93178792000003
 10
19.30708076320008
 20
26.02054854400003
 10
19.17840340160008
 20
26.10772936960003
 10
19.04814612640009
 20
26.19309982720003
 10
18.91653051840008
 20
26.27651896960003
 10
18.78355146080009
 20
26.35799765440003
 10
18.64919992960007
 20
26.43754708480003
 10
18.51346501440009
 20
26.51517885920003
 10
18.37631272640008
 20
26.59091312640004
 10
18.23780985120009
 20
26.66471134560004
 10
18.09813897440009
 20
26.73647838080003
 10
17.95739740160008
 20
26.80617067040003
 10
17.81563840320009
 20
26.87376871520004
 10
17.67290320800008
 20
26.93925854400004
 10
17.52917888160008
 20
27.00264879680003
 10
17.38446501760008
 20
27.06393835200003
 10
17.23890476480009
 20
27.12306540960003
 10
17.09298092800008
 20
27.17984516480004
 10
16.94676924640008
 20
27.23426968640004
 10
16.79989639520008
 20
27.28648790880004
 10
16.65149690560009
 20
27.33678276000003
 10
16.50212937280009
 20
27.38493190240004
 10
16.35259420960009
 20
27.43067838720003
 10
16.20334245600008
 20
27.47391219360002
 10
16.05384144160009
 20
27.51480866720004
 10
15.90310054080009
 20
27.55361798880002
 10
15.75187318400008
 20
27.59011796320004
 10
15.60055731840008
 20
27.62421138080003
 10
15.44933785760009
 20
27.65586986560004
 10
15.29796531840008
 20
27.68516060160004
 10
15.14584824480008
 20
27.71219439040004
 10
14.99253017760008
 20
27.73702529280004
 10
14.83943988640009
 20
27.75941935200004
 10
14.68786492640009
 20
27.77924979840003
 10
14.53857400320009
 20
27.79652384160005
  0
LWPOLYLINE
  5
C38
330
1F
100
AcDbEntity
  8
0
100
AcDbPolyline
 90
       17
 70
     0
 43
0.0
 10
20.71308006720009
 20
11.23052673920003
 10
20.81305873440008
 20
11.33436210880003
 10
20.91090680480008
 20
11.43920006720003
 10
21.00659241280008
 20
11.54497515040003
 10
21.10009945920008
 20
11.65163642720003
 10
21.19140840640009
 20
11.75912708160004
 10
21.28050441920009
 20
11.86739358720004
 10
21.36737644480008
 20
11.97638503360002
 10
21.45200784640008
 20
12.08604137280002
 10
21.53438888480008
 20
12.19630905760001
 10
21.61451230080009
 20
12.30713592000003
 10
21.69237300480008
 20
12.41847092320003
 10
21.76796678560009
 20
12.53026260640004
 10
21.84129208640008
 20
12.64246174880003
 10
21.91234963040009
 20
12.75502118080004
 10
21.98114316800008
 20
12.86789739200003
 10
22.04767749120008
 20
12.98104774400002
  0
LWPOLYLINE
  5
C39
330
1F
100
AcDbEntity
  8
0
100
AcDbPolyline
 90
       10
 70
     0
 43
0.0
 10
23.20257274240008
 20
12.35252546080002
 10
23.02724512160008
 20
12.03444959040004
 10
22.82773097600009
 20
11.71687657760003
 10
22.60218940480009
 20
11.39920603840002
 10
22.34891602400008
 20
11.08150904480004
 10
22.06468067680008
 20
10.76252521280002
 10
21.75278088000008
 20
10.44810807360002
 10
21.44294423040008
 20
10.16525835840002
 10
21.11582337600008
 20
9.892753121600037
 10
20.72500842880008
 20
9.596445638400041
  0
LWPOLYLINE
  5
C3A
330
1F
100
AcDbEntity
  8
0
100
AcDbPolyline
 90
       30
 70
     0
 43
0.0
 10
23.50403640960008
 20
12.17847533120002
 10
23.47871358880008
 20
12.13116289280003
 10
23.45322795040008
 20
12.08255051200004
 10
23.42814771520008
 20
12.03430711040002
 10
23.40342289440008
 20
11.98660670560002
 10
23.37852283520008
 20
11.93856248320003
 10
23.35247288160008
 20
11.88838034880004
 10
23.32420503520008
 20
11.83408551680003
 10
23.29258075840008
 20
11.77359726240004
 10
23.25694751200008
 20
11.70581228480003
 10
23.21709289600009
 20
11.63050691840004
 10
23.17297580320008
 20
11.54781123200004
 10
23.12394583680008
 20
11.45675263200001
 10
23.06902548640008
 20
11.35582901760002
 10
23.00746728320009
 20
11.24406419040002
 10
22.93862333280008
 20
11.12076323360003
 10
22.86103322560009
 20
10.98391725920004
 10
22.77252411680009
 20
10.83051410560003
 10
22.67161257920009
 20
10.65905227040002
 10
22.55799458240009
 20
10.47027368160001
 10
22.43689275200008
 20
10.27391360960004
 10
22.32023402720007
 20
10.08936973920003
 10
22.21347835840008
 20
9.924362945600023
 10
22.11923796160008
 20
9.781712182400042
 10
22.03441938880008
 20
9.655696566400024
 10
21.95414033760008
 20
9.53846648960004
 10
21.87352014080008
 20
9.422709660800023
 10
21.79131870720008
 20
9.30669204160003
 10
21.70809059360008
 20
9.191268771200043
 10
21.62435590720009
 20
9.07719446720003
  0
LWPOLYLINE
  5
C3B
330
1F
100
AcDbEntity
  8
0
100
AcDbPolyline
 90
       23
 70
     0
 43
0.0
 10
28.48271226880009
 20
26.69596451840004
 10
28.12328991360008
 20
27.18397437920003
 10
27.73925020960008
 20
27.65656894400004
 10
27.33223590400009
 20
28.11140380160003
 10
26.90403961760008
 20
28.54637684960005
 10
26.45617653440009
 20
28.95997695520003
 10
25.98944805280009
 20
29.35145869920003
 10
25.50371760160007
 20
29.72090794400003
 10
24.99976834400008
 20
30.06766198240004
 10
24.47939600800008
 20
30.39038972800003
 10
23.94548109600008
 20
30.68736704640002
 10
23.39947532480008
 20
30.95794413440003
 10
22.84145893920008
 20
31.20214580000004
 10
22.27155590080009
 20
31.41997180800004
 10
21.69142658720009
 20
31.61075540480004
 10
21.10426826240009
 20
31.77350966400004
 10
20.51217695360008
 20
31.90783505760004
 10
19.91627876320008
 20
32.01362079680004
 10
19.31681913440008
 20
32.09095745440004
 10
18.71406615200009
 20
32.13986245280003
 10
18.10868015200008
 20
32.16017475200004
 10
17.50227239200008
 20
32.15176143040002
 10
16.89663939520008
 20
32.11462143200003
  0
LWPOLYLINE
  5
C3C
330
1F
100
AcDbEntity
  8
0
100
AcDbPolyline
 90
       62
 70
     0
 43
0.0
 10
16.87006675200009
 20
32.51291275040003
 10
16.96986287680008
 20
32.52131084960004
 10
17.07799296000008
 20
32.52954905760003
 10
17.19526175040008
 20
32.53747362080003
 10
17.32255333600009
 20
32.54488864160004
 10
17.46085052320008
 20
32.55154730080005
 10
17.61104282720008
 20
32.55713305280002
 10
17.77340760640009
 20
32.56124664800003
 10
17.94769789920008
 20
32.56343876480002
 10
18.13447377440008
 20
32.56323302240002
 10
18.33535887680009
 20
32.56006057280004
 10
18.55221803840009
 20
32.55319955040005
 10
18.78684382560008
 20
32.54175000480003
 10
19.04098745280008
 20
32.52461288320003
 10
19.31700356160008
 20
32.50040623040004
 10
19.61797779840008
 20
32.46733908320004
 10
19.94752405120008
 20
32.42307910720004
 10
20.30494368480008
 20
32.36544076160004
 10
20.68233726560009
 20
32.29354981440005
 10
21.07664236640008
 20
32.20613819040002
 10
21.49015758240008
 20
32.10072447360005
 10
21.92465730560008
 20
31.97444808800003
 10
22.38151762560009
 20
31.82401379040004
 10
22.86165053600009
 20
31.64567634080003
 10
23.36742880800009
 20
31.43432961760004
 10
23.88440390880008
 20
31.19198290400004
 10
24.35510419040009
 20
30.94679128960004
 10
24.75526583680008
 20
30.71884931200003
 10
25.10122127520008
 20
30.50648222400005
 10
25.40660438560008
 20
30.30654524320004
 10
25.67972590880009
 20
30.11726338240004
 10
25.92459085760008
 20
29.93870389440004
 10
26.14446793600009
 20
29.77084720160005
 10
26.34253958240008
 20
29.61323092320003
 10
26.52184808800009
 20
29.46505574560004
 10
26.68503566400008
 20
29.32546464320003
 10
26.83387252480009
 20
29.19404323200004
 10
26.96961494080009
 20
29.07063243840002
 10
27.09345882240008
 20
28.95497386240004
 10
27.20653568320008
 20
28.84672597120004
 10
27.30984774400008
 20
28.74554476640003
 10
27.40428939520008
 20
28.65108407520003
 10
27.49064500960008
 20
28.56301668480003
 10
27.56933833280009
 20
28.48131342080003
 10
27.63988524480009
 20
28.40686148320003
 10
27.70201611520008
 20
28.34032259040003
 10
27.75679841280008
 20
28.28088745440004
 10
27.80633155200008
 20
28.22651732480002
 10
27.85353416160008
 20
28.17413557600002
 10
27.90122636320008
 20
28.12063531360005
 10
27.95144246240008
 20
28.06366723040003
 10
28.00589398400008
 20
28.00114151840003
 10
28.06559818720009
 20
27.93166417920002
 10
28.13039393600008
 20
27.85514592160004
 10
28.19983424960008
 20
27.77181786880004
 10
28.27395147680008
 20
27.68131904480003
 10
28.35305552320009
 20
27.58289622400005
 10
28.43749042080008
 20
27.47567255520005
 10
28.52759656640008
 20
27.35867613600004
 10
28.62372720160008
 20
27.23079721600004
 10
28.72622402240008
 20
27.09079212160003
 10
28.83539589920008
 20
26.93727966400004
  0
LWPOLYLINE
  5
C3D
330
1F
100
AcDbEntity
  8
0
100
AcDbPolyline
 90
       13
 70
     0
 43
0.0
 10
6.385052916800085
 20
7.680911246400029
 10
7.605158814400092
 20
7.749484393600027
 10
8.239559710400081
 20
7.785318865600032
 10
8.851842374400087
 20
7.820411857600021
 10
9.449315012800093
 20
7.855570897600017
 10
10.04411044160009
 20
7.891989379200026
 10
10.67612714400008
 20
7.932747932800026
 10
11.37639465600008
 20
7.980941507200043
 10
12.10690701280008
 20
8.035320601600034
 10
12.77906891680009
 20
8.08972094080002
 10
13.39625578400008
 20
8.143888299200028
 10
13.97070402240009
 20
8.198351512000044
 10
14.51262098720008
 20
8.253648780800034
  0
LINE
  5
C3E
330
1F
100
AcDbEntity
  8
CENTER
100
AcDbLine
 10
3.940786236479149
 20
11.50000000000002
 30
0.0
 11
-3.94078623647899
 21
11.50000000000002
 31
0.0
  0
LWPOLYLINE
  5
C3F
330
1F
100
AcDbEntity
  8
0
100
AcDbPolyline
 90
       10
 70
     0
 43
0.0
 10
4.33118066880008
 20
7.384944768000025
 10
3.424178814400087
 20
7.789811579200033
 10
2.475667795200089
 20
8.097867571200026
 10
1.497275328000094
 20
8.305308358400026
 10
0.500856004800093
 20
8.409631761600024
 10
-0.5015656495999168
 20
8.409594712000028
 10
-1.497881251199905
 20
8.305212683200039
 10
-2.476065865599912
 20
8.097761068800025
 10
-3.424313443199912
 20
7.789759849600045
 10
-4.331180667199908
 20
7.384944768000025
  0
LWPOLYLINE
  5
C40
330
1F
100
AcDbEntity
  8
0
100
AcDbPolyline
 90
       25
 70
     0
 43
0.0
 10
0.0000000000000937
 20
9.616764331200045
 10
0.0813936960000858
 20
9.618603076800042
 10
0.1678843056000913
 20
9.624656667200042
 10
0.2593043312000929
 20
9.635745526400029
 10
0.353294468800081
 20
9.652283814400021
 10
0.4481183552000885
 20
9.674393488000021
 10
0.5431144640000923
 20
9.702200000000033
 10
0.6378929600000816
 20
9.735836358400035
 10
0.732327606400085
 20
9.775527672000038
 10
0.8267329056000903
 20
9.821783371200041
 10
0.9211856480000847
 20
9.875178390400037
 10
1.01558820480009
 20
9.936356737600021
 10
1.11028559200009
 20
10.00650779520003
 10
1.205124732800081
 20
10.08686138720003
 10
1.299377788800094
 20
10.17852467840003
 10
1.392030840000083
 20
10.28266524000002
 10
1.480315172800084
 20
10.39846506880002
 10
1.55985188800009
 20
10.52147077440003
 10
1.629582208000081
 20
10.65018356320004
 10
1.689137926400087
 20
10.78389312000004
 10
1.738111113600092
 20
10.92164650240002
 10
1.776259398400094
 20
11.06271779360002
 10
1.803324504000082
 20
11.20607322080002
 10
1.819202508800083
 20
11.35109651200002
 10
1.823773001600082
 20
11.49798735360002
  0
CIRCLE
  5
C41
330
1F
100
AcDbEntity
  8
0
100
AcDbCircle
 10
0.0000000000000937
 20
11.50000000000002
 30
0.0
 40
1.2714466064
  0
LWPOLYLINE
  5
C42
330
1F
100
AcDbEntity
  8
0
100
AcDbPolyline
 90
       25
 70
     0
 43
0.0
 10
-1.823772999999908
 20
11.49798735360002
 10
-1.819204007999906
 20
11.35111783680002
 10
-1.803327767999908
 20
11.20609515680001
 10
-1.776263553599909
 20
11.06273592480002
 10
-1.738116014399912
 20
10.92166219520004
 10
-1.689143235199912
 20
10.78390640480003
 10
-1.629588291199914
 20
10.65019591520004
 10
-1.55985866559991
 20
10.52148220800003
 10
-1.480323918399909
 20
10.39847751040002
 10
-1.392040366399916
 20
10.28267678400004
 10
-1.299386911999909
 20
10.17853419840003
 10
-1.205134316799905
 20
10.08687007680004
 10
-1.110297411199914
 20
10.00651714880004
 10
-1.015603108799914
 20
9.936367059200023
 10
-0.9212019743999121
 20
9.875188272000031
 10
-0.8267531263999131
 20
9.821794019200041
 10
-0.7323507535999086
 20
9.775538187200027
 10
-0.6379149039999051
 20
9.735844851200027
 10
-0.5431368799999122
 20
9.702207249600036
 10
-0.4481429823999066
 20
9.674399955200044
 10
-0.3533199839999157
 20
9.652289022400026
 10
-0.2593252463999165
 20
9.635748622400029
 10
-0.1679094271999078
 20
9.62465904800004
 10
-0.081421279999907
 20
9.618604328000031
 10
0.0000000000000937
 20
9.616764331200045
  0
LWPOLYLINE
  5
C43
330
1F
100
AcDbEntity
  8
0
100
AcDbPolyline
 90
       25
 70
     0
 43
0.0
 10
0.0000000000000937
 20
13.34800288960002
 10
-0.1372737887999081
 20
13.34280493440002
 10
-0.2726709791999071
 20
13.32739647680003
 10
-0.4063521199999145
 20
13.30189372320004
 10
-0.5384285535999056
 20
13.26620689600003
 10
-0.668472566399919
 20
13.22023334080003
 10
-0.7956540015999054
 20
13.16399574080003
 10
-0.9188246959999077
 20
13.09776592960003
 10
-1.036519379199907
 20
13.02223798720004
 10
-1.148100041599909
 20
12.93782568160003
 10
-1.253050638399918
 20
12.84488844480003
 10
-1.350672927999915
 20
12.74399584320002
 10
-1.440351625599908
 20
12.63575422080003
 10
-1.521554247999907
 20
12.52078607520002
 10
-1.593995681599912
 20
12.39939964640004
 10
-1.655820585599917
 20
12.27525263040001
 10
-1.70524258399991
 20
12.15483794400003
 10
-1.743086236799916
 20
12.04160702720002
 10
-1.770956484799916
 20
11.93775272800002
 10
-1.790806811199905
 20
11.84397732960002
 10
-1.804493796799908
 20
11.75994845920001
 10
-1.813581361599906
 20
11.68465885760002
 10
-1.819263667199911
 20
11.61702129760001
 10
-1.822436310399913
 20
11.55588686560003
 10
-1.82375309919991
 20
11.50000000000002
  0
LWPOLYLINE
  5
C44
330
1F
100
AcDbEntity
  8
0
100
AcDbPolyline
 90
       25
 70
     0
 43
0.0
 10
1.823753099200084
 20
11.50000000000002
 10
1.822431612800082
 20
11.55601393920002
 10
1.819246900800089
 20
11.61727138560002
 10
1.813543244800081
 20
11.68503516320004
 10
1.804421731200088
 20
11.76046123040004
 10
1.790682998400094
 20
11.84464367360001
 10
1.770755836800085
 20
11.93859454880004
 10
1.74278018240009
 20
12.04262898240003
 10
1.704808035200082
 20
12.15601083680002
 10
1.655257027200087
 20
12.27649816480004
 10
1.593327656000093
 20
12.40062245280003
 10
1.520851139200084
 20
12.52186658080003
 10
1.439629339200089
 20
12.63669703200003
 10
1.349945710400086
 20
12.74480731680003
 10
1.252334051200088
 20
12.84557368800003
 10
1.147409672000088
 20
12.93839078080003
 10
1.035869684800084
 20
13.02269099520003
 10
0.9182238560000911
 20
13.09811940000003
 10
0.7951187536000873
 20
13.16425732640001
 10
0.6680170848000926
 20
13.22041409760004
 10
0.5380590784000901
 20
13.26632183360004
 10
0.4060743184000813
 20
13.30195760480003
 10
0.2724847248000883
 20
13.32742479200004
 10
0.137179320000095
 20
13.34281209760004
 10
0.0000000000000937
 20
13.34800288960002
  0
LWPOLYLINE
  5
C45
330
1F
100
AcDbEntity
  8
0
100
AcDbPolyline
 90
        6
 70
     0
 43
0.0
 10
3.970083366400083
 20
7.54613111200004
 10
4.256710273600085
 20
7.560863638400036
 10
4.783244564800093
 20
7.589988507200018
 10
5.305233656000091
 20
7.619697136000041
 10
5.831929001600081
 20
7.649688465600036
 10
6.385052916800085
 20
7.680911246400029
  0
LWPOLYLINE
  5
C46
330
1F
100
AcDbEntity
  8
0
100
AcDbPolyline
 90
       39
 70
     0
 43
0.0
 10
14.52776689760008
 20
8.255258446400034
 10
14.63427676640008
 20
8.267255577600025
 10
14.73764254400009
 20
8.279994819200027
 10
14.83965730560009
 20
8.293632409600036
 10
14.94176501120008
 20
8.308347558400043
 10
15.04354897920009
 20
8.324082454400041
 10
15.14512921600009
 20
8.340853294400034
 10
15.24669477120009
 20
8.358693278400039
 10
15.34852931360009
 20
8.377662112000024
 10
15.45066419840008
 20
8.397780208000028
 10
15.55332900000008
 20
8.419111896000032
 10
15.65677818240008
 20
8.441736729600023
 10
15.76133241920008
 20
8.465761488000026
 10
15.86702825600009
 20
8.491236297600039
 10
15.97362471040008
 20
8.518142900800029
 10
16.08145544960009
 20
8.546607374400025
 10
16.19230435360008
 20
8.577181368000026
 10
16.30484708960008
 20
8.609591737600027
 10
16.41861404800008
 20
8.643765593600022
 10
16.53456877920009
 20
8.680067828800019
 10
16.65322605920008
 20
8.71876776800002
 10
16.77446736480008
 20
8.759947900800028
 10
16.89816990240009
 20
8.803686612800021
 10
17.02534655360008
 20
8.850486323200044
 10
17.15628494400008
 20
8.900634281600019
 10
17.29056145920008
 20
8.954157152000021
 10
17.42769692000008
 20
9.011044294400022
 10
17.56727216000007
 20
9.071290740800037
 10
17.70862213920008
 20
9.134759105600039
 10
17.85044097280009
 20
9.200972688000035
 10
17.98916455360008
 20
9.268253707200045
 10
18.12597799040008
 20
9.337099336000022
 10
18.26239065440008
 20
9.408264524800017
 10
18.39935126560008
 20
9.482314089600038
 10
18.53474183200008
 20
9.558147748800024
 10
18.66769318880009
 20
9.635239032000043
 10
18.79873912000008
 20
9.713848374400043
 10
18.92867034560008
 20
9.794441720000037
 10
19.05845278240009
 20
9.877663324800039
  0
LWPOLYLINE
  5
C47
330
1F
100
AcDbEntity
  8
0
100
AcDbPolyline
 90
       12
 70
     0
 43
0.0
 10
14.51262098720008
 20
7.219033460800034
 10
15.11720342560009
 20
7.303468964800032
 10
15.69544259520008
 20
7.411896745600017
 10
16.28151081280008
 20
7.550302836800028
 10
16.88753127840008
 20
7.722878881600024
 10
17.50101380640009
 20
7.927744761600024
 10
18.10737002880008
 20
8.160917235200031
 10
18.69529244960008
 20
8.418016843200035
 10
19.25630615360008
 20
8.694547692800028
 10
19.78394636960008
 20
8.985859198400021
 10
20.27400833920008
 20
9.287612995200021
 10
20.72500842880008
 20
9.596445638400041
  0
LWPOLYLINE
  5
C48
330
1F
100
AcDbEntity
  8
0
100
AcDbPolyline
 90
       16
 70
     0
 43
0.0
 10
19.05845278240009
 20
9.877663324800039
 10
19.18065752640009
 20
9.958591368000043
 10
19.30160285440008
 20
10.04121655200003
 10
19.42104240960008
 20
10.12537038560003
 10
19.53894875200008
 20
10.21102673920003
 10
19.65514291040008
 20
10.29804354720002
 10
19.76943543680008
 20
10.38625696000002
 10
19.88189115360008
 20
10.47569354720002
 10
19.99252670400009
 20
10.56634579520002
 10
20.10141288160009
 20
10.65825348480004
 10
20.20864718400009
 20
10.75149083680003
 10
20.31397463680009
 20
10.84582584000003
 10
20.41699657440008
 20
10.94086476640004
 10
20.51762729600009
 20
11.03647071680003
 10
20.61621676800009
 20
11.13292848800003
 10
20.71308006720009
 20
11.23052673920003
  0
LWPOLYLINE
  5
C49
330
1F
100
AcDbEntity
  8
0
100
AcDbPolyline
 90
       10
 70
     0
 43
0.0
 10
6.362672084800089
 20
30.29467296640004
 10
6.786537076800081
 20
30.30698406080003
 10
7.449419547200087
 20
30.33615625760003
 10
8.165438953600082
 20
30.37695840000003
 10
8.941704270400089
 20
30.42928229120002
 10
9.749051144000086
 20
30.48927206720003
 10
10.53118296640008
 20
30.54938919360003
 10
11.29165937280009
 20
30.60620599840004
 10
12.03109956800008
 20
30.65612207360004
 10
12.74683072800008
 20
30.69547043360003
  0
LWPOLYLINE
  5
C4A
330
1F
100
AcDbEntity
  8
0
100
AcDbPolyline
 90
       16
 70
     0
 43
0.0
 10
5.594211212800083
 20
29.48459596800003
 10
6.031488043200092
 20
29.38079222080003
 10
6.582970488000094
 20
29.27572961440003
 10
7.197032937600092
 20
29.18360752160003
 10
7.871861470400085
 20
29.10600885120004
 10
8.605960664000088
 20
29.04387603040004
 10
9.290965089600087
 20
29.00232265600005
 10
9.894877894400091
 20
28.97578277760004
 10
10.42965938240008
 20
28.95814259680003
 10
10.94604695520008
 20
28.94474908000003
 10
11.46480312480009
 20
28.93343655520004
 10
11.98839816640008
 20
28.92236247200003
 10
12.53359884320009
 20
28.90862336320003
 10
13.12692901440008
 20
28.88712493280005
 10
13.80533948960008
 20
28.84765569920003
 10
14.51262098720008
 20
28.78096654080005
  0
LWPOLYLINE
  5
C4B
330
1F
100
AcDbEntity
  8
0
100
AcDbPolyline
 90
       22
 70
     0
 43
0.0
 10
2.988956526400082
 20
31.31291839840002
 10
3.897840302400092
 20
31.34383689920003
 10
4.726364545600085
 20
31.37914368000002
 10
5.484558419200092
 20
31.41741188960003
 10
6.182213324800081
 20
31.45766079520004
 10
6.829120526400083
 20
31.49930008800004
 10
7.435099326400085
 20
31.54207881120004
 10
8.009814144000083
 20
31.58602763680002
 10
8.542968601600088
 20
31.62974183680003
 10
9.030305211200081
 20
31.67218099840005
 10
9.475124648000084
 20
31.71298931200004
 10
9.881266488000088
 20
31.75197819360005
 10
10.25252012480009
 20
31.78906332320002
 10
10.59267165280008
 20
31.82425491360004
 10
10.90550261280008
 20
31.85764527520004
 10
11.19478862720009
 20
31.88939770400003
 10
11.46430039840009
 20
31.91973707040003
 10
11.71780458720008
 20
31.94894181920003
 10
11.95906846560009
 20
31.97733781440004
 10
12.19184638080009
 20
32.00529149120004
 10
12.41985818880008
 20
32.03320298720004
 10
12.64728112960008
 20
32.06156569920003
  0
LWPOLYLINE
  5
C4C
330
1F
100
AcDbEntity
  8
0
100
AcDbPolyline
 90
       14
 70
     0
 43
0.0
 10
12.69496878400009
 20
31.67230024640002
 10
11.42488862080008
 20
31.52119001760004
 10
10.28508741760009
 20
31.39876485600004
 10
9.258745624000093
 20
31.29925323040004
 10
8.331871526400087
 20
31.21816277440004
 10
7.49273609760008
 20
31.15196815840005
 10
6.731268256000086
 20
31.09786553600002
 10
6.038772868800088
 20
31.05361286080003
 10
5.40816362880009
 20
31.01743805920003
 10
4.832996750400092
 20
30.98789328000004
 10
4.307155955200081
 20
30.96378437440003
 10
3.825046152000092
 20
30.94414366240005
 10
3.384596132800092
 20
30.92829532960005
 10
2.98537901920009
 20
30.91570595520002
  0
LWPOLYLINE
  5
C4D
330
1F
100
AcDbEntity
  8
0
100
AcDbPolyline
 90
       29
 70
     0
 43
0.0
 10
14.51262098720008
 20
27.79929720320004
 10
14.25441769120008
 20
27.82613784800003
 10
13.99102912960008
 20
27.85248096800003
 10
13.72223203200008
 20
27.87833083200004
 10
13.44772579680009
 20
27.90370005760005
 10
13.16699822400009
 20
27.92862065600004
 10
12.87956189920009
 20
27.95312151840005
 10
12.58461983360008
 20
27.97725630240003
 10
12.28125945600009
 20
28.00108411840003
 10
11.96897972000008
 20
28.02463147200004
 10
11.64698644480008
 20
28.04795041440005
 10
11.31455160160008
 20
28.07109142560003
 10
10.97054400160008
 20
28.09413696960004
 10
10.61389319680008
 20
28.11716892800004
 10
10.24305609920008
 20
28.14030395520004
 10
9.856294014400086
 20
28.16367433120004
 10
9.455719265600089
 20
28.18719910080003
 10
9.044759644800089
 20
28.21080941600004
 10
8.623662595200082
 20
28.23467411040005
 10
8.189737241600093
 20
28.25912915680004
 10
7.740302118400088
 20
28.28450918560003
 10
7.274001179200092
 20
28.31106834880003
 10
6.793207302400085
 20
28.33883844960004
 10
6.297893296000091
 20
28.36797187200002
 10
5.794357104000092
 20
28.39826208960005
 10
5.277661588800094
 20
28.43024176800003
 10
4.718419360000091
 20
28.46544752640003
 10
4.198237344000085
 20
28.49764544800004
 10
4.083119379200092
 20
28.50432353120004
  0
LWPOLYLINE
  5
C4E
330
1F
100
AcDbEntity
  8
0
100
AcDbPolyline
 90
        6
 70
     0
 43
0.0
 10
4.33118066880008
 20
28.61505523360003
 10
4.90661614080009
 20
28.94969540320005
 10
5.439565473600091
 20
29.34224304480002
 10
5.923649417600082
 20
29.78784707360003
 10
6.353074736000089
 20
30.28099374720003
 10
6.68107694560009
 20
30.74849935200004
  0
LWPOLYLINE
  5
C4F
330
1F
100
AcDbEntity
  8
0
100
AcDbPolyline
 90
        6
 70
     0
 43
0.0
 10
2.817583609600086
 20
29.26032255360004
 10
3.253744006400091
 20
29.44379740640005
 10
3.663723809600094
 20
29.67499191520005
 10
4.041655886400087
 20
29.95068803360004
 10
4.38211864000008
 20
30.26705095840003
 10
4.612564366400087
 20
30.53174162880003
  0
LWPOLYLINE
  5
C50
330
1F
100
AcDbEntity
  8
0
100
AcDbPolyline
 90
        7
 70
     0
 43
0.0
 10
-2.817583607999912
 20
29.26032255360004
 10
-2.034092783999915
 20
29.02485201280004
 10
-1.229156663999907
 20
28.86648122400004
 10
-0.4112207679999132
 20
28.78686911040003
 10
0.4110740032000933
 20
28.78686198720004
 10
1.229043811200094
 20
28.86646467520003
 10
2.034048075200084
 20
29.02484092640003
  0
LWPOLYLINE
  5
C51
330
1F
100
AcDbEntity
  8
0
100
AcDbPolyline
 90
       10
 70
     0
 43
0.0
 10
-4.331180667199908
 20
28.61505523360003
 10
-3.424178814399914
 20
28.21018842080005
 10
-2.475667793599916
 20
27.90213242880003
 10
-1.497275327999906
 20
27.69469164160003
 10
-0.5008560047999056
 20
27.59036823840003
 10
0.5015656512000902
 20
27.59040528800003
 10
1.497881252800092
 20
27.69478731840004
 10
2.476065865600085
 20
27.90223893280003
 10
3.424313443200085
 20
28.21024015040004
 10
4.33118066880008
 20
28.61505523360003
  0
LINE
  5
C52
330
1F
100
AcDbEntity
  8
0
100
AcDbLine
 10
2.034048075200084
 20
29.02484092640003
 30
0.0
 11
2.817583609600072
 21
29.26032255360004
 31
0.0
  0
LWPOLYLINE
  5
C53
330
1F
100
AcDbEntity
  8
0
100
AcDbPolyline
 90
        4
 70
     0
 43
0.0
 10
0.0000000000000937
 20
31.26880515360002
 10
0.9964424544000905
 20
31.27370704640003
 10
1.992807923200084
 20
31.28841216480003
 10
2.988956526400082
 20
31.31291839840002
  0
LWPOLYLINE
  5
C54
330
1F
100
AcDbEntity
  8
0
100
AcDbPolyline
 90
        4
 70
     0
 43
0.0
 10
2.98537901920009
 20
30.91570595520002
 10
1.99040209280009
 20
30.89135672000003
 10
0.9952655152000829
 20
30.87674657760004
 10
0.0000000000000937
 20
30.87187600160004
  0
LWPOLYLINE
  5
C55
330
1F
100
AcDbEntity
  8
0
100
AcDbPolyline
 90
        4
 70
     0
 43
0.0
 10
-2.988956524799908
 20
31.31291839840002
 10
-1.99280792159991
 20
31.28841216480003
 10
-0.9964424543999172
 20
31.27370704640003
 10
0.0000000000000937
 20
31.26880515360002
  0
LWPOLYLINE
  5
C56
330
1F
100
AcDbEntity
  8
0
100
AcDbPolyline
 90
        4
 70
     0
 43
0.0
 10
-2.985379017599916
 20
30.91570595520002
 10
-1.990402075199915
 20
30.89135672000003
 10
-0.9952654799999066
 20
30.87674657760004
 10
0.0000000000000937
 20
30.87187600160004
  0
LWPOLYLINE
  5
C57
330
1F
100
AcDbEntity
  8
0
100
AcDbPolyline
 90
       11
 70
     0
 43
0.0
 10
-2.808830284799915
 20
30.45413490240003
 10
-2.882419177599905
 20
30.44318886560003
 10
-2.956914635199913
 20
30.43260241280004
 10
-3.032609524799914
 20
30.42233674240003
 10
-3.109927591999911
 20
30.41234387040003
 10
-3.188775364799914
 20
30.40264808000003
 10
-3.268638019199917
 20
30.39331901280005
 10
-3.349905110399908
 20
30.38431582720003
 10
-3.432746078399907
 20
30.37562909600004
 10
-3.516059652799916
 20
30.36737553760002
 10
-3.600468793599907
 20
30.35949025280004
  0
LWPOLYLINE
  5
C58
330
1F
100
AcDbEntity
  8
0
100
AcDbPolyline
 90
       13
 70
     0
 43
0.0
 10
-2.678139367999909
 20
30.42974092480003
 10
-2.790664780799906
 20
30.40858000800003
 10
-2.904383876799917
 20
30.38146159360005
 10
-3.013190396799905
 20
30.35140674240003
 10
-3.111602273599905
 20
30.32154748960005
 10
-3.199142777599908
 20
30.29330339040004
 10
-3.276232415999905
 20
30.26737608800004
 10
-3.346510398399905
 20
30.24303741920005
 10
-3.413667665599908
 20
30.21926504640004
 10
-3.48112240159991
 20
30.19497426560005
 10
-3.549539371199918
 20
30.16999719360004
 10
-3.618429593599918
 20
30.14457805280002
 10
-3.687698687999918
 20
30.11881684640005
  0
LWPOLYLINE
  5
C59
330
1F
100
AcDbEntity
  8
0
100
AcDbPolyline
 90
        3
 70
     0
 43
0.0
 10
-3.687369286399905
 20
30.35185657280004
 10
-4.115651334399905
 20
30.32088416800005
 10
-4.416294108799909
 20
30.30630615520005
  0
LINE
  5
C5A
330
1F
100
AcDbEntity
  8
0
100
AcDbLine
 10
-3.600468793599921
 20
30.35949025280004
 30
0.0
 11
-3.687369286399919
 21
30.35185657280004
 31
0.0
  0
LINE
  5
C5B
330
1F
100
AcDbEntity
  8
0
100
AcDbLine
 10
-3.687698687999918
 20
30.11881684640005
 30
0.0
 11
-4.068899918399913
 21
29.97600244960003
 31
0.0
  0
LWPOLYLINE
  5
C5C
330
1F
100
AcDbEntity
  8
0
100
AcDbPolyline
 90
        3
 70
     0
 43
0.0
 10
-2.808830284799915
 20
30.45413490240003
 10
-2.756148475199913
 20
30.46228001600005
 10
-2.703975515199906
 20
30.47060630080002
  0
LINE
  5
C5D
330
1F
100
AcDbEntity
  8
0
100
AcDbLine
 10
-2.703975515199906
 20
30.47060630080002
 30
0.0
 11
-2.678139369599924
 21
30.42974092480003
 31
0.0
  0
LWPOLYLINE
  5
C5E
330
1F
100
AcDbEntity
  8
0
100
AcDbPolyline
 90
        8
 70
     0
 43
0.0
 10
4.807294852800091
 20
30.62719531040002
 10
4.842348724800083
 20
30.64086192480004
 10
4.898740515200082
 20
30.65622350400005
 10
4.973615288000083
 20
30.67208786720005
 10
5.06174190560008
 20
30.68726617280003
 10
5.160558798400082
 20
30.70123045600004
 10
5.262441968000083
 20
30.71284852480005
 10
5.358094915200092
 20
30.72129485760004
  0
LWPOLYLINE
  5
C5F
330
1F
100
AcDbEntity
  8
0
100
AcDbPolyline
 90
       12
 70
     0
 43
0.0
 10
2.808830286400089
 20
30.45413490240003
 10
2.882419179200093
 20
30.44318886560003
 10
2.956914636800087
 20
30.43260241280004
 10
3.032609526400088
 20
30.42233674240003
 10
3.109927593600084
 20
30.41234387040003
 10
3.188775366400088
 20
30.40264808000003
 10
3.268638020800091
 20
30.39331901280005
 10
3.349905112000081
 20
30.38431582720003
 10
3.432746080000094
 20
30.37562909600004
 10
3.516059654400089
 20
30.36737553760002
 10
3.600468793600094
 20
30.35949025280004
 10
3.687369288000093
 20
30.35185657280004
  0
LWPOLYLINE
  5
C60
330
1F
100
AcDbEntity
  8
0
100
AcDbPolyline
 90
       13
 70
     0
 43
0.0
 10
2.678139369600083
 20
30.42974092480003
 10
2.790664782400094
 20
30.40858000800003
 10
2.904383876800091
 20
30.38146159360005
 10
3.013190398400092
 20
30.35140674240003
 10
3.111602275200092
 20
30.32154748960005
 10
3.199142777600081
 20
30.29330339040004
 10
3.276232416000092
 20
30.26737608800004
 10
3.346510400000093
 20
30.24303741920005
 10
3.413667667200081
 20
30.21926504640004
 10
3.481122403200083
 20
30.19497426560005
 10
3.549539371200091
 20
30.16999719360004
 10
3.618429595200092
 20
30.14457805280002
 10
3.687698689600091
 20
30.11881684640005
  0
LINE
  5
C61
330
1F
100
AcDbEntity
  8
0
100
AcDbLine
 10
2.703975516800093
 20
30.47060630080002
 30
0.0
 11
2.678139369600083
 21
30.42974092480003
 31
0.0
  0
LWPOLYLINE
  5
C62
330
1F
100
AcDbEntity
  8
0
100
AcDbPolyline
 90
        3
 70
     0
 43
0.0
 10
2.808830286400089
 20
30.45413490240003
 10
2.756148476800086
 20
30.46228001600005
 10
2.703975516800093
 20
30.47060630080002
  0
LWPOLYLINE
  5
C63
330
1F
100
AcDbEntity
  8
0
100
AcDbPolyline
 90
        3
 70
     0
 43
0.0
 10
4.612549566400084
 20
30.53174077760004
 10
4.613817596800083
 20
30.53313570560004
 10
4.631749448000086
 20
30.54382737440005
  0
LWPOLYLINE
  5
C64
330
1F
100
AcDbEntity
  8
0
100
AcDbPolyline
 90
        3
 70
     0
 43
0.0
 10
4.631749448000086
 20
30.54382737440005
 10
4.721588104000084
 20
30.58492280960004
 10
4.807294852800091
 20
30.62719531040002
  0
LINE
  5
C65
330
1F
100
AcDbEntity
  8
0
100
AcDbLine
 10
3.687698689600077
 20
30.11881684640005
 30
0.0
 11
4.068899041600084
 21
29.97600276960003
 31
0.0
  0
LWPOLYLINE
  5
C66
330
1F
100
AcDbEntity
  8
0
100
AcDbPolyline
 90
        3
 70
     0
 43
0.0
 10
3.687369288000093
 20
30.35185657280004
 10
4.115651336000092
 20
30.32088416800005
 10
4.416295067200089
 20
30.30630610880004
  0
LWPOLYLINE
  5
C67
330
1F
100
AcDbEntity
  8
0
100
AcDbPolyline
 90
        9
 70
     0
 43
0.0
 10
6.086246384000085
 20
30.77614599200003
 10
6.22029184320008
 20
30.78485050720004
 10
6.347919992000094
 20
30.79008580960004
 10
6.462524244800087
 20
30.79123152480002
 10
6.55605599040009
 20
30.78806566240004
 10
6.623740937600083
 20
30.78102877920002
 10
6.666567976000089
 20
30.77034633600004
 10
6.683018080000089
 20
30.75606925120004
 10
6.681019147200083
 20
30.74849584000003
  0
LINE
  5
C68
330
1F
100
AcDbEntity
  8
0
100
AcDbLine
 10
6.086246384000085
 20
30.77614599200003
 30
0.0
 11
5.358094915200077
 21
30.72129485760004
 31
0.0
  0
LWPOLYLINE
  5
C69
330
1F
100
AcDbEntity
  8
0
100
AcDbPolyline
 90
       15
 70
     0
 43
0.0
 10
16.50580296320009
 20
30.52749304960002
 10
16.93403511040008
 20
30.43335083360003
 10
17.32674909920009
 20
30.32460236480003
 10
17.69130764160008
 20
30.20165511520002
 10
18.03337942400008
 20
30.06445400800004
 10
18.35714878240008
 20
29.91266975840003
 10
18.66780911040009
 20
29.74459968160005
 10
18.98410693920008
 20
29.54921032160004
 10
19.31287271040009
 20
29.31981822080004
 10
19.65617318880008
 20
29.05141839840004
 10
20.01554694400008
 20
28.73856136480003
 10
20.39208117120008
 20
28.37530923520003
 10
20.78645136960008
 20
27.95522574880004
 10
21.19859590400009
 20
27.47174432480003
 10
21.62435590720009
 20
26.92280553440002
  0
LWPOLYLINE
  5
C6A
330
1F
100
AcDbEntity
  8
0
100
AcDbPolyline
 90
       12
 70
     0
 43
0.0
 10
14.51262098720008
 20
28.78096654080005
 10
15.11720342560009
 20
28.69653103520005
 10
15.69544259520008
 20
28.58810325440003
 10
16.28151081280008
 20
28.44969716480003
 10
16.88753127840008
 20
28.27712111840003
 10
17.50101380640009
 20
28.07225523840003
 10
18.10737002880008
 20
27.83908276640002
 10
18.69529244960008
 20
27.58198315680004
 10
19.25630615360008
 20
27.30545230880002
 10
19.78394636960008
 20
27.01414080320003
 10
20.27400833920008
 20
26.71238700640003
 10
20.72500842880008
 20
26.40355436160004
  0
LINE
  5
C6B
330
1F
100
AcDbEntity
  8
0
100
AcDbLine
 10
14.53857400320009
 20
27.79652384160005
 30
0.0
 11
14.51262098720008
 21
27.79929720320004
 31
0.0
  0
LWPOLYLINE
  5
C6C
330
1F
100
AcDbEntity
  8
0
100
AcDbPolyline
 90
       14
 70
     0
 43
0.0
 10
12.64728112960008
 20
32.06156569920003
 10
12.94528684960009
 20
32.09867298720004
 10
13.28804178720009
 20
32.14036198560004
 10
13.65969952160008
 20
32.18437042080003
 10
14.04567656000008
 20
32.22875863200005
 10
14.43126638720009
 20
32.27176525440003
 10
14.80620684640008
 20
32.31230401440004
 10
15.16666347360009
 20
32.35008806400003
 10
15.50931852960008
 20
32.38492677920004
 10
15.83084655520009
 20
32.41666163200003
 10
16.12791527200008
 20
32.44516052960003
 10
16.39961753280008
 20
32.47053537440004
 10
16.64676346880008
 20
32.49304417280004
 10
16.87006675200009
 20
32.51291275040003
  0
LWPOLYLINE
  5
C6D
330
1F
100
AcDbEntity
  8
0
100
AcDbPolyline
 90
        7
 70
     0
 43
0.0
 10
12.74683072800008
 20
30.69547043360003
 10
13.46058810080009
 20
30.72139801760005
 10
14.16137947520008
 20
30.72859931680003
 10
14.85039384800009
 20
30.71190463360002
 10
15.47520506720008
 20
30.67022968800003
 10
16.02098172960008
 20
30.60779409120005
 10
16.50580296320009
 20
30.52749305280002
  0
LWPOLYLINE
  5
C6E
330
1F
100
AcDbEntity
  8
0
100
AcDbPolyline
 90
        4
 70
     0
 43
0.0
 10
16.89663939520008
 20
32.11462143200003
 10
15.51848390720008
 20
31.98818066080002
 10
14.11968502880008
 20
31.84109408640003
 10
12.69496878400009
 20
31.67230024640002
  0
LWPOLYLINE
  5
C6F
330
1F
100
AcDbEntity
  8
0
100
AcDbPolyline
 90
       16
 70
     0
 43
0.0
 10
30.94608431680009
 20
18.00000001280002
 10
30.93409505120008
 20
18.73830613600003
 10
30.89692376480008
 20
19.47231189440003
 10
30.83394320160008
 20
20.18948638080002
 10
30.74634418880008
 20
20.87743538400005
 10
30.63719291520008
 20
21.52506487360003
 10
30.50891256640009
 20
22.13318287200004
 10
30.36213215200009
 20
22.70970213760003
 10
30.19693433760009
 20
23.26075649440003
 10
30.01371839840007
 20
23.78924309920003
 10
29.81247338080009
 20
24.29826902880003
 10
29.59197376000008
 20
24.79269619520005
 10
29.35025508800009
 20
25.27730336960004
 10
29.08571107680009
 20
25.75486009760004
 10
28.79700648160008
 20
26.22714126720004
 10
28.48271226880009
 20
26.69596451680004
  0
LWPOLYLINE
  5
C70
330
1F
100
AcDbEntity
  8
0
100
AcDbPolyline
 90
       10
 70
     0
 43
0.0
 10
28.83539589920008
 20
26.93727966400004
 10
29.26864427520008
 20
26.28059496800003
 10
29.70006852480008
 20
25.53090816960002
 10
30.11614962240008
 20
24.67506202880002
 10
30.50185284800009
 20
23.69723958080004
 10
30.83896931840008
 20
22.58439623040004
 10
31.10677190080009
 20
21.33485659680005
 10
31.27357262240009
 20
20.10133591520002
 10
31.35298685120009
 20
18.98810246080003
 10
31.37425537120008
 20
18.00000000000002
  0
LWPOLYLINE
  5
C71
330
1F
100
AcDbEntity
  8
0
100
AcDbPolyline
 90
       35
 70
     0
 43
0.0
 10
23.39685290880009
 20
18.00000034880002
 10
23.39626796800008
 20
18.15358750080003
 10
23.39336780480008
 20
18.30717542240003
 10
23.38815177760009
 20
18.46073235520003
 10
23.38062008640009
 20
18.61422431680003
 10
23.37077465280008
 20
18.76760966240001
 10
23.35861792960009
 20
18.92084638880004
 10
23.34415204480009
 20
19.07389201120003
 10
23.32737899520008
 20
19.22671037600002
 10
23.30830037920008
 20
19.37928587840002
 10
23.28692197280008
 20
19.53156638240002
 10
23.26325033600009
 20
19.68349849920002
 10
23.23729174400008
 20
19.83504078560002
 10
23.20905336480009
 20
19.98615437280003
 10
23.17854307040009
 20
20.13679980320003
 10
23.14577094720008
 20
20.28693155520002
 10
23.11074656640009
 20
20.43651232480002
 10
23.07347876800009
 20
20.58550822880002
 10
23.03397687680008
 20
20.73388342560002
 10
22.99225200000008
 20
20.88160087520003
 10
22.94832097280008
 20
21.02860744960003
 10
22.90219651680008
 20
21.17486509920004
 10
22.85388692320008
 20
21.32035129920004
 10
22.80340729440008
 20
21.46502801120004
 10
22.75077334720009
 20
21.60885565120003
 10
22.69600223840009
 20
21.75179084160004
 10
22.63911159360008
 20
21.89379357920003
 10
22.58010978080009
 20
22.03484969280003
 10
22.51900770880008
 20
22.17493762720005
 10
22.45582953920008
 20
22.31400711680004
 10
22.39059717280009
 20
22.45201667840004
 10
22.32332836160008
 20
22.58893432000005
 10
22.25404216000009
 20
22.72472569760003
 10
22.18275654400009
 20
22.85936188480005
 10
22.10948914080008
 20
22.99281542080004
  0
LWPOLYLINE
  5
C72
330
1F
100
AcDbEntity
  8
0
100
AcDbPolyline
 90
       12
 70
     0
 43
0.0
 10
24.55907472000009
 20
18.00000141120003
 10
24.54788150560008
 20
18.52775204160002
 10
24.51152260960008
 20
19.08727299840004
 10
24.44841999200009
 20
19.65704665440003
 10
24.35972588800009
 20
20.22075140960004
 10
24.24587310560009
 20
20.77754165600004
 10
24.10667557600009
 20
21.32888956800005
 10
23.94578922240008
 20
21.86276432480002
 10
23.77210851360008
 20
22.35904471360004
 10
23.59122602880008
 20
22.81432372640003
 10
23.40209124320008
 20
23.24057701280003
 10
23.20257274240008
 20
23.64747454080003
  0
LWPOLYLINE
  5
C73
330
1F
100
AcDbEntity
  8
0
100
AcDbPolyline
 90
       10
 70
     0
 43
0.0
 10
31.37425537120008
 20
18.00000000000002
 10
31.35297880320008
 20
17.01171424640003
 10
31.27796978400008
 20
15.94314308800002
 10
31.12215292800008
 20
14.75590880000004
 10
30.86131374400009
 20
13.50305749280002
 10
30.51875322400008
 20
12.35142347040002
 10
30.12422815200009
 20
11.34327267040003
 10
29.70403213280008
 20
10.47654170080002
 10
29.27010847680008
 20
9.721768499200038
 10
28.83539589920008
 20
9.06272033760004
  0
LWPOLYLINE
  5
C74
330
1F
100
AcDbEntity
  8
0
100
AcDbPolyline
 90
       15
 70
     0
 43
0.0
 10
30.94608431840009
 20
18.00000001280002
 10
30.93229553120009
 20
17.20907678560001
 10
30.88951370400009
 20
16.42409849280002
 10
30.81719378880009
 20
15.66045605920004
 10
30.71718345760009
 20
14.93300342240002
 10
30.59345546080009
 20
14.25331546080002
 10
30.44828959520009
 20
13.61639141440002
 10
30.28182217920008
 20
13.01183134720003
 10
30.09439581440008
 20
12.43456613600002
 10
29.88647523840008
 20
11.88159223680003
 10
29.65710521600008
 20
11.34750407360002
 10
29.40395741920008
 20
10.82593930720003
 10
29.12497382400008
 20
10.31303930560002
 10
28.81848330080009
 20
9.806493593600038
 10
28.48271226880009
 20
9.304035483200038
  0
LWPOLYLINE
  5
C75
330
1F
100
AcDbEntity
  8
0
100
AcDbPolyline
 90
       34
 70
     0
 43
0.0
 10
22.06418726880009
 20
13.00977262080002
 10
22.14058689120008
 20
13.14568114240003
 10
22.21490684320009
 20
13.28285024000004
 10
22.28712789280009
 20
13.42125048960002
 10
22.35723011680009
 20
13.56084995200004
 10
22.42519204960009
 20
13.70161012640002
 10
22.49099404160008
 20
13.84349569440002
 10
22.55461317920008
 20
13.98646363520003
 10
22.61602617600008
 20
14.13046629920003
 10
22.67522076320008
 20
14.27547933280001
 10
22.73218460480009
 20
14.42147854880002
 10
22.78690427040009
 20
14.56843450240003
 10
22.83936473600008
 20
14.71631210560002
 10
22.88955043840008
 20
14.86507648320002
 10
22.93744583680008
 20
15.01469154720004
 10
22.98303575680008
 20
15.16511498560004
 10
23.02630695360009
 20
15.31631024160003
 10
23.06724286720008
 20
15.46822913600002
 10
23.10583009440008
 20
15.62082709280002
 10
23.14206008480008
 20
15.77407541920004
 10
23.17591329440008
 20
15.92789667520003
 10
23.20737467840009
 20
16.08222089440002
 10
23.23643977600009
 20
16.23702016480004
 10
23.26310865760009
 20
16.39229561760004
 10
23.28737950400009
 20
16.54804797280002
 10
23.30924055520008
 20
16.70421121760003
 10
23.32867464640008
 20
16.86065890720001
 10
23.34568034880008
 20
17.01736972960003
 10
23.36026036320009
 20
17.17436080320004
 10
23.37241187840009
 20
17.33160338560003
 10
23.38212904640009
 20
17.48903817920003
 10
23.38940731840008
 20
17.64661160480002
 10
23.39424504480008
 20
17.80429687200003
 10
23.39664100480008
 20
17.96207223360002
  0
LWPOLYLINE
  5
C76
330
1F
100
AcDbEntity
  8
0
100
AcDbPolyline
 90
       12
 70
     0
 43
0.0
 10
24.55907471840009
 20
18.00000141120003
 10
24.54788150560008
 20
17.47224796000003
 10
24.51152260960008
 20
16.91272700160001
 10
24.44841999200009
 20
16.34295334560002
 10
24.35972588800009
 20
15.77924859040004
 10
24.24587310560009
 20
15.22245834400004
 10
24.10667557600009
 20
14.67111043200003
 10
23.94578922240008
 20
14.13723567520003
 10
23.77210851360008
 20
13.64095528800004
 10
23.59122602880008
 20
13.18567627520002
 10
23.40209124320008
 20
12.75942298880002
 10
23.20257274240008
 20
12.35252546080002
  0
LINE
  5
C77
330
1F
100
AcDbEntity
  8
0
100
AcDbLine
 10
22.04767749120008
 20
12.98104774400002
 30
0.0
 11
22.06418728800009
 21
13.00977260800002
 31
0.0
  0
LINE
  5
C78
330
1F
100
AcDbEntity
  8
0
100
AcDbLine
 10
23.39664100480008
 20
17.96207223360002
 30
0.0
 11
23.39685290880009
 21
18.00000034880002
 31
0.0
  0
LINE
  5
C79
330
1F
100
AcDbEntity
  8
0
100
AcDbLine
 10
22.10948914080008
 20
22.99281542080004
 30
0.0
 11
22.09951259040008
 21
23.01062246400005
 31
0.0
  0
LWPOLYLINE
  5
C7A
330
1F
100
AcDbEntity
  8
0
100
AcDbPolyline
 90
        4
 70
     0
 43
0.0
 10
23.50403640960008
 20
23.82152466880004
 10
23.47871358880008
 20
23.86883710880005
 10
23.45322795040008
 20
23.91744948960004
 10
23.42814771520008
 20
23.96569288960003
  0
ARC
  5
D0C
330
1F
100
AcDbEntity
  8
0
100
AcDbCircle
 10
19.47623945440009
 20
16.69682369440003
 30
0.0
 40
15.61695221439999
100
AcDbArc
 50
272.2609362813
 51
341.5835454095
  0
ARC
  5
D0D
330
1F
100
AcDbEntity
  8
0
100
AcDbCircle
 10
19.47623945440009
 20
16.69682369440003
 30
0.0
 40
15.9926108416
100
AcDbArc
 50
272.2609362813
 51
341.5835454095
  0
ARC
  5
D0E
330
1F
100
AcDbEntity
  8
0
100
AcDbCircle
 10
19.47623945440009
 20
16.69682369440003
 30
0.0
 40
16.3125
100
AcDbArc
 50
272.2609362813
 51
341.5835454095
  0
LWPOLYLINE
  5
D0F
330
1F
100
AcDbEntity
  8
0
100
AcDbPolyline
 90
       33
 70
     0
 43
0.0
 10
20.0719368608001
 20
1.608726635200028
 10
20.2701178064001
 20
1.617823537600031
 10
20.49263252000009
 20
1.631156400000037
 10
20.74065337280007
 20
1.649895566400033
 10
21.01524821120009
 20
1.675441915200025
 10
21.31742239360009
 20
1.709424617600035
 10
21.64839012480008
 20
1.753750609600032
 10
22.01335368480008
 20
1.811312633600024
 10
22.42106150240008
 20
1.886512305600035
 10
22.87769823520009
 20
1.984603441600029
 10
23.38455618720008
 20
2.110989160000031
 10
23.95818873120007
 20
2.276838057600031
 10
24.58926578240008
 20
2.488260600000032
 10
25.23271854560008
 20
2.736464408000031
 10
25.86665202080008
 20
3.014954660800029
 10
26.48724756960008
 20
3.322267308800036
 10
27.09300962400008
 20
3.657661699200033
 10
27.68287331840009
 20
4.020550649600025
 10
28.25539813760009
 20
4.41005073120003
 10
28.80959449280008
 20
4.825493118400032
 10
29.34402928320009
 20
5.265803795200028
 10
29.85785331520009
 20
5.730286728000038
 10
30.34974239040009
 20
6.217749385600029
 10
30.81889473920009
 20
6.727400308800028
 10
31.26414163680008
 20
7.257985096000027
 10
31.68458290880009
 20
7.808424348800031
 10
32.0793421232001
 20
8.377570696000034
 10
32.4476973536001
 20
8.964409376000034
 10
32.78846992800007
 20
9.567011980800032
 10
33.10195726720008
 20
10.18605156320002
 10
33.38421715200008
 20
10.81302922240003
 10
33.62400493760009
 20
11.41550628160003
 10
33.80421634240009
 20
11.92598932480002
  0
ARC
  5
D10
330
1F
100
AcDbEntity
  8
0
100
AcDbCircle
 10
15.56250000000009
 20
18.00000000000002
 30
0.0
 40
19.2264415168
100
AcDbArc
 50
341.583601241
 51
18.41640682579999
  0
ARC
  5
D11
330
1F
100
AcDbEntity
  8
0
100
AcDbCircle
 10
15.56250000000009
 20
18.00000000000002
 30
0.0
 40
19.7419522144
100
AcDbArc
 50
341.5835454095
 51
18.41645459049999
  0
ARC
  5
D12
330
1F
100
AcDbEntity
  8
0
100
AcDbCircle
 10
15.56250000000009
 20
18.00000000000002
 30
0.0
 40
20.1176108416
100
AcDbArc
 50
341.5835454095
 51
18.41645459049999
  0
ARC
  5
D13
330
1F
100
AcDbEntity
  8
0
100
AcDbCircle
 10
15.56250000000009
 20
18.00000000000002
 30
0.0
 40
20.4375
100
AcDbArc
 50
341.5835454095
 51
18.41645459049999
  0
ARC
  5
D14
330
1F
100
AcDbEntity
  8
0
100
AcDbCircle
 10
19.47623945440009
 20
19.30317630400003
 30
0.0
 40
15.9926108416
100
AcDbArc
 50
18.41645459049999
 51
87.73906371870001
  0
ARC
  5
D15
330
1F
100
AcDbEntity
  8
0
100
AcDbCircle
 10
19.47623945440009
 20
19.30317630400003
 30
0.0
 40
16.3125
100
AcDbArc
 50
18.41645459049999
 51
87.73906371870001
  0
ARC
  5
D16
330
1F
100
AcDbEntity
  8
0
100
AcDbCircle
 10
19.47623945440009
 20
19.30317630400003
 30
0.0
 40
15.61695221439999
100
AcDbArc
 50
18.41645459049999
 51
87.73906371870001
  0
LWPOLYLINE
  5
D17
330
1F
100
AcDbEntity
  8
0
100
AcDbPolyline
 90
       33
 70
     0
 43
0.0
 10
33.80421548800007
 20
24.07401324320002
 10
33.62400251360009
 20
24.58450021280004
 10
33.38421422400009
 20
25.18697769600002
 10
33.1019540336001
 20
25.81395520320004
 10
32.78846649920007
 20
26.43299441760004
 10
32.44769377280008
 20
27.03559662720002
 10
32.07933841600008
 20
27.62243491840001
 10
31.68457910560008
 20
28.19158087520003
 10
31.26413776320007
 20
28.74201974080003
 10
30.81889082240008
 20
29.27260414560004
 10
30.34973845600007
 20
29.78225469600002
 10
29.85784939040008
 20
30.26971698560004
 10
29.34402539360008
 20
30.73419956160003
 10
28.80959066080007
 20
31.17450989280001
 10
28.25539438560009
 20
31.58995194720003
 10
27.6828696704001
 20
31.97945171040004
 10
27.09300609920007
 20
32.34234035680003
 10
26.48724419040008
 20
32.67773446240002
 10
25.8666488032001
 20
32.98504684000002
 10
25.23271551200009
 20
33.26353684000002
 10
24.58926299680008
 20
33.51174040160003
 10
23.95818632480007
 20
33.72316268800003
 10
23.38455424000009
 20
33.88901136000004
 10
22.87769668640007
 20
34.01539691520003
 10
22.42106027680009
 20
34.11348793600004
 10
22.01335273760009
 20
34.18868752640003
 10
21.64838940320007
 20
34.24624949280001
 10
21.31742185920007
 20
34.29057544640002
 10
21.01524783360009
 20
34.32455812160003
 10
20.74065312960008
 20
34.35010445280002
 10
20.49263239040008
 20
34.36884360800002
 10
20.2701177712001
 20
34.38217646240002
 10
20.0719368768001
 20
34.39127336160004
  0
ARC
  5
D18
330
1F
100
AcDbEntity
  8
0
100
AcDbCircle
 10
0.0000000000000937
 20
-474.0
 30
0.0
 40
509.3044522143999
100
AcDbArc
 50
87.73906371870001
 51
92.2609362813
  0
ARC
  5
D19
330
1F
100
AcDbEntity
  8
0
100
AcDbCircle
 10
0.0000000000000937
 20
-474.0
 30
0.0
 40
509.6801108416
100
AcDbArc
 50
87.73906371870001
 51
92.2609362813
  0
ARC
  5
D1A
330
1F
100
AcDbEntity
  8
0
100
AcDbCircle
 10
0.0000000000000937
 20
-474.0
 30
0.0
 40
510.0
100
AcDbArc
 50
87.73906371870001
 51
92.2609362813
  0
LWPOLYLINE
  5
D1B
330
1F
100
AcDbEntity
  8
0
100
AcDbPolyline
 90
       27
 70
     0
 43
0.0
 10
11.7385273808001
 20
34.65293053760004
 10
11.60381456480008
 20
34.65604215680002
 10
11.45455821920007
 20
34.65944743680003
 10
11.29111750720009
 20
34.66312537120003
 10
11.11297690560008
 20
34.66707344480002
 10
10.9194248464001
 20
34.67129140160003
 10
10.70998826240009
 20
34.67577148160003
 10
10.48422490560009
 20
34.68050303360001
 10
10.24053838560008
 20
34.68549643840003
 10
9.976665995200088
 20
34.69077034400004
 10
9.690939276800103
 20
34.69632503360003
 10
9.382878451200079
 20
34.70213228640003
 10
9.05129986880008
 20
34.70817240160002
 10
8.693229993600093
 20
34.71445017120004
 10
8.305466865600076
 20
34.72096185120003
 10
7.884844161600093
 20
34.72768847040004
 10
7.428399368000079
 20
34.73459154720003
 10
6.933236564800076
 20
34.74161383040004
 10
6.396035840000089
 20
34.74868367520002
 10
5.812715212800079
 20
34.75571420320003
 10
5.178916956800102
 20
34.76259071360002
 10
4.489747196800075
 20
34.76916723680003
 10
3.739861606400077
 20
34.77525742720001
 10
2.923227923200082
 20
34.78062674080004
 10
2.032890305600099
 20
34.78498063680004
 10
1.061497990400093
 20
34.78794632800003
 10
0.0000000000000937
 20
34.78905801120004
  0
LWPOLYLINE
  5
D1C
330
1F
100
AcDbEntity
  8
0
100
AcDbPolyline
 90
       20
 70
     0
 43
0.0
 10
16.14400134720009
 20
34.53134660160003
 10
16.00810906400008
 20
34.53567179840004
 10
15.85500063680008
 20
34.54050109440004
 10
15.68671016320008
 20
34.54575562560004
 10
15.50523741600009
 20
34.55135882240003
 10
15.30977373920007
 20
34.55732097760003
 10
15.09883024000007
 20
34.56367034720003
 10
14.87060654080009
 20
34.57044053120003
 10
14.62291653600008
 20
34.57767137920004
 10
14.35615942560009
 20
34.58532289280003
 10
14.07649975840008
 20
34.59319311840002
 10
13.80599095040009
 20
34.60065841920004
 10
13.56111168480007
 20
34.60729143840004
 10
13.34410215680009
 20
34.61307031520002
 10
13.15199839040009
 20
34.61810815200002
 10
12.97942236480009
 20
34.62257156000004
 10
12.8228498528001
 20
34.62656999040004
 10
12.68065450240008
 20
34.63015922080003
 10
12.55214080320008
 20
34.63336878400002
 10
12.33352141760009
 20
34.63875384960002
  0
LINE
  5
D1D
330
1F
100
AcDbEntity
  8
0
100
AcDbLine
 10
12.33352141760009
 20
34.63875384960002
 30
0.0
 11
12.14801296160008
 21
34.64324947040003
 31
0.0
  0
LINE
  5
D1E
330
1F
100
AcDbEntity
  8
0
100
AcDbLine
 10
12.14801296160008
 20
34.64324947040003
 30
0.0
 11
11.96301452000009
 21
34.64766479360003
 31
0.0
  0
LINE
  5
D1F
330
1F
100
AcDbEntity
  8
0
100
AcDbLine
 10
11.96301452000009
 20
34.64766479360003
 30
0.0
 11
11.7385273808001
 21
34.65293053760004
 31
0.0
  0
LWPOLYLINE
  5
D20
330
1F
100
AcDbEntity
  8
0
100
AcDbPolyline
 90
       16
 70
     0
 43
0.0
 10
20.0719368768001
 20
34.39127336160004
 10
19.60999624480008
 20
34.40922773760002
 10
19.20085950400008
 20
34.42480441760003
 10
18.84206129120008
 20
34.43820866880002
 10
18.52243363200009
 20
34.44994900960003
 10
18.23325708960008
 20
34.46040811200004
 10
17.97426218080008
 20
34.46964425760004
 10
17.74394065280009
 20
34.47775344320004
 10
17.53811749760007
 20
34.48491672480002
 10
17.35255541120009
 20
34.49130726240003
 10
17.18303854720009
 20
34.49708907040002
 10
17.02521553920008
 20
34.50242366880002
 10
16.87437279040009
 20
34.50747842240002
 10
16.73349878720009
 20
34.51216119360003
 10
16.60752448160008
 20
34.51631791840003
 10
16.38020819360009
 20
34.52374157280002
  0
LINE
  5
D21
330
1F
100
AcDbEntity
  8
0
100
AcDbLine
 10
16.38020819360009
 20
34.52374157280002
 30
0.0
 11
16.14400134720009
 21
34.53134660160003
 31
0.0
  0
ARC
  5
D22
330
1F
100
AcDbEntity
  8
0
100
AcDbCircle
 10
-19.47623945439991
 20
19.30317630400003
 30
0.0
 40
15.61695221439999
100
AcDbArc
 50
92.2609362813
 51
161.5835454095
  0
ARC
  5
D23
330
1F
100
AcDbEntity
  8
0
100
AcDbCircle
 10
-19.47623945439991
 20
19.30317630400003
 30
0.0
 40
15.9926108416
100
AcDbArc
 50
92.2609362813
 51
161.5835454095
  0
ARC
  5
D24
330
1F
100
AcDbEntity
  8
0
100
AcDbCircle
 10
-19.47623945439991
 20
19.30317630400003
 30
0.0
 40
16.3125
100
AcDbArc
 50
92.2609362813
 51
161.5835454095
  0
LWPOLYLINE
  5
D25
330
1F
100
AcDbEntity
  8
0
100
AcDbPolyline
 90
       33
 70
     0
 43
0.0
 10
-20.07193686559991
 20
34.39127336320004
 10
-20.27011780639991
 20
34.38217646080002
 10
-20.4926325199999
 20
34.36884359840002
 10
-20.74065337279991
 20
34.35010443200002
 10
-21.01524821119991
 20
34.32455808320003
 10
-21.3174223935999
 20
34.29057538080002
 10
-21.64839012479992
 20
34.24624938880004
 10
-22.0133536847999
 20
34.18868736480002
 10
-22.4210615023999
 20
34.11348769280002
 10
-22.8776982351999
 20
34.01539655680002
 10
-23.3845561887999
 20
33.88901083840002
 10
-23.95818873119992
 20
33.72316194080002
 10
-24.5892657823999
 20
33.51173940000004
 10
-25.2327185455999
 20
33.26353559040004
 10
-25.86665202079992
 20
32.98504533760004
 10
-26.48724757119992
 20
32.67773268960002
 10
-27.09300962399991
 20
32.34233829920003
 10
-27.6828733183999
 20
31.97944934880004
 10
-28.2553981375999
 20
31.58994926880004
 10
-28.80959449279991
 20
31.17450688160002
 10
-29.34402928319991
 20
30.73419620320004
 10
-29.85785331519991
 20
30.26971327040001
 10
-30.3497423903999
 20
29.78225061440003
 10
-30.81889473919991
 20
29.27259968960004
 10
-31.26414163839991
 20
28.74201490400002
 10
-31.6845829087999
 20
28.19157565120002
 10
-32.07934212319991
 20
27.62242930400003
 10
-32.44769735359991
 20
27.03559062240003
 10
-32.78846992799992
 20
26.43298801760002
 10
-33.10195726879991
 20
25.81394843520001
 10
-33.38421715199991
 20
25.18697077760004
 10
-33.62400493759991
 20
24.58449371680002
 10
-33.8042164015999
 20
24.07401049760002
  0
LWPOLYLINE
  5
D26
330
1F
100
AcDbEntity
  8
0
100
AcDbPolyline
 90
       20
 70
     0
 43
0.0
 10
-12.33326084639991
 20
34.63878864782905
 10
-12.81134981919992
 20
34.62686175520002
 10
-12.96318582399989
 20
34.62298845600003
 10
-13.12829495199991
 20
34.61872469920004
 10
-13.30776636319992
 20
34.61402880960003
 10
-13.50266462079991
 20
34.60885703520003
 10
-13.71381512159989
 20
34.60316911360001
 10
-13.94125938239991
 20
34.59694349760002
 10
-14.18668189599991
 20
34.59011085120002
 10
-14.45635502239991
 20
34.58246547040002
 10
-14.74148525599991
 20
34.57422515520002
 10
-15.01707439519991
 20
34.56610747360002
 10
-15.26486008319991
 20
34.55868026080003
 10
-15.48033133279991
 20
34.55212273440003
 10
-15.6731482927999
 20
34.54617662400002
 10
-15.8474880031999
 20
34.54073685920002
 10
-16.0027898799999
 20
34.53584035360004
 10
-16.1394457567999
 20
34.53149219040003
 10
-16.26170651519992
 20
34.52757072480002
 10
-16.48716299039991
 20
34.52026138880003
  0
LWPOLYLINE
  5
D27
330
1F
100
AcDbEntity
  8
0
100
AcDbPolyline
 90
       15
 70
     0
 43
0.0
 10
-16.7266615807999
 20
34.51238755200003
 10
-16.86528917119991
 20
34.50778145920003
 10
-17.01390490239992
 20
34.50280418080004
 10
-17.1691306863999
 20
34.49756104960002
 10
-17.3344612895999
 20
34.49192696640003
 10
-17.5131111695999
 20
34.48578165440002
 10
-17.7081284431999
 20
34.47900547680004
 10
-17.92259681119991
 20
34.47147185760002
 10
-18.15959216159992
 20
34.46304775040002
 10
-18.4196679199999
 20
34.45368360960003
 10
-18.6992471759999
 20
34.44347775520003
 10
-19.00033683519992
 20
34.43232505600002
 10
-19.32707016639991
 20
34.42003272480002
 10
-19.68247643999992
 20
34.40643536480001
 10
-20.07193686559991
 20
34.39127336320004
  0
LINE
  5
D28
330
1F
100
AcDbEntity
  8
0
100
AcDbLine
 10
-16.48716299039991
 20
34.52026138880003
 30
0.0
 11
-16.7266615807999
 21
34.51238755200003
 31
0.0
  0
LWPOLYLINE
  5
D29
330
1F
100
AcDbEntity
  8
0
100
AcDbPolyline
 90
       29
 70
     0
 43
0.0
 10
0.0000000000000937
 20
34.78905801120004
 10
-1.059856415999908
 20
34.78794976480003
 10
-2.029878182399917
 20
34.78499271200002
 10
-2.919082836799921
 20
34.78065063680003
 10
-3.734787287999913
 20
34.77529485600004
 10
-4.483918606399917
 20
34.76921885600003
 10
-5.17248442559991
 20
34.76265643520003
 10
-5.805809430399924
 20
34.75579340640004
 10
-6.388767739199912
 20
34.74877541280003
 10
-6.925701518399924
 20
34.74171694240002
 10
-7.420677847999903
 20
34.73470477600002
 10
-7.877014084799916
 20
34.72781036640003
 10
-8.297593609599905
 20
34.72109098080002
 10
-8.685361220799924
 20
34.71458527360002
 10
-9.043463916799899
 20
34.70831250400002
 10
-9.375086371199918
 20
34.70227673120004
 10
-9.683207710399917
 20
34.69647308640003
 10
-9.969057851199911
 20
34.69092035200003
 10
-10.2331070751999
 20
34.68564685920003
 10
-10.4769741455999
 20
34.68065331360003
 10
-10.70290711839989
 20
34.67592143040002
 10
-10.91253555679991
 20
34.67144016000003
 10
-11.1063178527999
 20
34.66721980000002
 10
-11.28471723359989
 20
34.66326831360004
 10
-11.44843847839989
 20
34.65958611040003
 10
-11.59801999359989
 20
34.65617518880003
 10
-11.7331276751999
 20
34.65305595840002
 10
-11.8531088015999
 20
34.65025541280002
 10
-12.0535228159999
 20
34.64551320000003
  0
ARC
  5
D2A
330
1F
100
AcDbEntity
  8
0
100
AcDbCircle
 10
-15.5624999999999
 20
18.00000000000002
 30
0.0
 40
19.22644157919999
100
AcDbArc
 50
161.5836017946
 51
198.4164073837
  0
ARC
  5
D2B
330
1F
100
AcDbEntity
  8
0
100
AcDbCircle
 10
-15.5624999999999
 20
18.00000000000002
 30
0.0
 40
19.7419522144
100
AcDbArc
 50
161.5835454095
 51
198.4164545904999
  0
ARC
  5
D2C
330
1F
100
AcDbEntity
  8
0
100
AcDbCircle
 10
-15.5624999999999
 20
18.00000000000002
 30
0.0
 40
20.1176108416
100
AcDbArc
 50
161.5835454095
 51
198.4164545904999
  0
ARC
  5
D2D
330
1F
100
AcDbEntity
  8
0
100
AcDbCircle
 10
-15.5624999999999
 20
18.00000000000002
 30
0.0
 40
20.4375
100
AcDbArc
 50
161.5835454095
 51
198.4164545904999
  0
ARC
  5
D2E
330
1F
100
AcDbEntity
  8
0
100
AcDbCircle
 10
-19.47623945439991
 20
16.69682369440003
 30
0.0
 40
15.61695221439999
100
AcDbArc
 50
198.4164545904999
 51
267.7390637186999
  0
ARC
  5
D2F
330
1F
100
AcDbEntity
  8
0
100
AcDbCircle
 10
-19.47623945439991
 20
16.69682369440003
 30
0.0
 40
15.9926108416
100
AcDbArc
 50
198.4164545904999
 51
267.7390637186999
  0
ARC
  5
D30
330
1F
100
AcDbEntity
  8
0
100
AcDbCircle
 10
-19.47623945439991
 20
16.69682369440003
 30
0.0
 40
16.3125
100
AcDbArc
 50
198.4164545904999
 51
267.7390637186999
  0
LWPOLYLINE
  5
D31
330
1F
100
AcDbEntity
  8
0
100
AcDbPolyline
 90
       33
 70
     0
 43
0.0
 10
-33.80421542879991
 20
11.92598657920002
 10
-33.62400251359991
 20
11.41549978720003
 10
-33.38421422399991
 20
10.81302230240002
 10
-33.10195403519991
 20
10.18604479680003
 10
-32.78846649919992
 20
9.567005580800028
 10
-32.44769377439991
 20
8.964403371200035
 10
-32.07933841599992
 20
8.377565080000024
 10
-31.68457910559991
 20
7.808419123200025
 10
-31.26413776319992
 20
7.257980257600024
 10
-30.81889082239991
 20
6.727395852800029
 10
-30.34973845599992
 20
6.217745304000033
 10
-29.85784939039991
 20
5.730283012800029
 10
-29.34402539359991
 20
5.265800436800034
 10
-28.80959066079991
 20
4.825490105600025
 10
-28.25539438719991
 20
4.410048051200035
 10
-27.68286967199991
 20
4.020548289600029
 10
-27.09300609919992
 20
3.657659641600034
 10
-26.48724419039989
 20
3.322265537600031
 10
-25.86664880319991
 20
3.014953158400032
 10
-25.2327155135999
 20
2.736463158400027
 10
-24.58926299839992
 20
2.488259596800034
 10
-23.95818632479991
 20
2.276837310400026
 10
-23.3845542399999
 20
2.11098863840003
 10
-22.87769668639992
 20
1.984603083200028
 10
-22.42106027679991
 20
1.886512062400029
 10
-22.0133527375999
 20
1.811312472000025
 10
-21.64838940479992
 20
1.753750505600038
 10
-21.31742185919991
 20
1.709424552000029
 10
-21.01524783359991
 20
1.675441876800036
 10
-20.74065313119989
 20
1.649895545600031
 10
-20.49263239199992
 20
1.631156390400036
 10
-20.27011777279991
 20
1.617823536000031
 10
-20.07193687999991
 20
1.608726636800028
  0
ARC
  5
D32
330
1F
100
AcDbEntity
  8
0
100
AcDbCircle
 10
0.0000000000000937
 20
510.0
 30
0.0
 40
509.6801108416
100
AcDbArc
 50
267.7390637186999
 51
272.2609362813
  0
ARC
  5
D33
330
1F
100
AcDbEntity
  8
0
100
AcDbCircle
 10
0.0000000000000937
 20
510.0
 30
0.0
 40
509.3044522143999
100
AcDbArc
 50
267.7390637186999
 51
272.2609362813
  0
ARC
  5
D34
330
1F
100
AcDbEntity
  8
0
100
AcDbCircle
 10
0.0000000000000937
 20
510.0
 30
0.0
 40
510.0
100
AcDbArc
 50
267.7390637186999
 51
272.2609362813
  0
LWPOLYLINE
  5
D35
330
1F
100
AcDbEntity
  8
0
100
AcDbPolyline
 90
       16
 70
     0
 43
0.0
 10
-20.07193687999991
 20
1.608726636800028
 10
-19.61046170719992
 20
1.590790147200024
 10
-19.20068660959992
 20
1.575189067200028
 10
-18.8415160831999
 20
1.561771142400033
 10
-18.52164170239992
 20
1.550022136000038
 10
-18.2323441999999
 20
1.539559112000034
 10
-17.97331360959992
 20
1.530322142400038
 10
-17.74300363999992
 20
1.522213766400028
 10
-17.5372235279999
 20
1.515052332800024
 10
-17.35172279199991
 20
1.508664206400027
 10
-17.1822725103999
 20
1.502884921600028
 10
-17.02450637599991
 20
1.497552465600037
 10
-16.87370729119989
 20
1.492499369600025
 10
-16.73290553759991
 20
1.487819161600029
 10
-16.6069982687999
 20
1.483664779200026
 10
-16.3797330607999
 20
1.476243016000026
  0
LWPOLYLINE
  5
D36
330
1F
100
AcDbEntity
  8
0
100
AcDbPolyline
 90
       27
 70
     0
 43
0.0
 10
-11.7382398175999
 20
1.34706277920003
 10
-11.60350840639991
 20
1.343950811200031
 10
-11.45423749119992
 20
1.34054529280003
 10
-11.2907839183999
 20
1.336867174400026
 10
-11.11263167359989
 20
1.332918964800029
 10
-10.91907046239992
 20
1.328700942400033
 10
-10.70962602399992
 20
1.324220843200038
 10
-10.48385227199991
 20
1.319489240000038
 10
-10.2401527679999
 20
1.314495752000027
 10
-9.976269753599913
 20
1.309221838400034
 10
-9.690541852799915
 20
1.303667350400033
 10
-9.382484526399897
 20
1.297860406400033
 10
-9.0509069935999
 20
1.291820569600034
 10
-8.692836324799904
 20
1.285543065600037
 10
-8.305073153599911
 20
1.279031686400031
 10
-7.884453598399907
 20
1.272305444800025
 10
-7.42801588159991
 20
1.265402825600034
 10
-6.932863991999901
 20
1.258381067200033
 10
-6.395677825599924
 20
1.251311803200024
 10
-5.812376233599898
 20
1.244281905600033
 10
-5.178602417599925
 20
1.237406068800027
 10
-4.489463438399915
 20
1.230830248000032
 10
-3.739615807999902
 20
1.224740758400031
 10
-2.923028238399913
 20
1.219372105600029
 10
-2.032747137599918
 20
1.215018787200037
 10
-1.061421617599924
 20
1.212053510400025
 10
0.0000000000000937
 20
1.21094198720003
  0
LWPOLYLINE
  5
D37
330
1F
100
AcDbEntity
  8
0
100
AcDbPolyline
 90
       29
 70
     0
 43
0.0
 10
0.0000000000000937
 20
1.21094198720003
 10
1.059855128000103
 20
1.212050232000038
 10
2.029878988800086
 20
1.215007289600038
 10
2.919086764800093
 20
1.219349384000025
 10
3.734793528000076
 20
1.224705188800029
 10
4.483927281600082
 20
1.230781219200025
 10
5.172495465600101
 20
1.237343675200037
 10
5.805822668800098
 20
1.244206744000024
 10
6.388783003200082
 20
1.251224777600029
 10
6.925718838400094
 20
1.25828329280003
 10
7.420697385600086
 20
1.265295508800036
 10
7.8770356992001
 20
1.272189968000034
 10
8.297616438400078
 20
1.278909392000031
 10
8.685384257600086
 20
1.285415120000024
 10
9.043487728000096
 20
1.291687920000029
 10
9.375113372800095
 20
1.297723766400025
 10
9.683241315200101
 20
1.303527555200034
 10
9.969096534400089
 20
1.309080408000028
 10
10.2331435936001
 20
1.314353878400027
 10
10.47700600160008
 20
1.319347344000036
 10
10.70293632320008
 20
1.324079187200027
 10
10.91256597440009
 20
1.328560494400036
 10
11.1063501776001
 20
1.332780908800032
 10
11.28475026080008
 20
1.336732422400032
 10
11.44847188000009
 20
1.340414644800034
 10
11.59805413120009
 20
1.34382559360003
 10
11.73316195040008
 20
1.346944836800034
 10
11.85314177120009
 20
1.349745358400028
 10
12.05354863520009
 20
1.354487416000026
  0
LWPOLYLINE
  5
D38
330
1F
100
AcDbEntity
  8
0
100
AcDbPolyline
 90
       20
 70
     0
 43
0.0
 10
12.67206875520009
 20
1.369625337600027
 10
12.81136852160009
 20
1.373138718400028
 10
12.96320411680009
 20
1.377012012800037
 10
13.12831225920008
 20
1.381275750400035
 10
13.30778225920009
 20
1.385971608000033
 10
13.50267866080009
 20
1.391143339200027
 10
13.71382709280008
 20
1.396831209600037
 10
13.9412700768001
 20
1.403056795200029
 10
14.1866900880001
 20
1.409889377600038
 10
14.45635422880009
 20
1.41753450400003
 10
14.74148421280009
 20
1.425774812800028
 10
15.01707489440009
 20
1.43389254080003
 10
15.26486636320008
 20
1.441319926400026
 10
15.48033757920007
 20
1.447877456000028
 10
15.67315163840008
 20
1.453823478400025
 10
15.84749176960009
 20
1.459263257600028
 10
16.00279386080007
 20
1.46415977120003
 10
16.13945084160008
 20
1.468507971200025
 10
16.2617115344001
 20
1.472429435200027
 10
16.48716875680009
 20
1.479738796800035
  0
LINE
  5
D39
330
1F
100
AcDbEntity
  8
0
100
AcDbLine
 10
12.23394172800008
 20
1.358824512000026
 30
0.0
 11
12.43111685120008
 21
1.363638488000034
 31
0.0
  0
LINE
  5
D3A
330
1F
100
AcDbEntity
  8
0
100
AcDbLine
 10
12.05354863520009
 20
1.354487416000026
 30
0.0
 11
12.23394172800008
 21
1.358824512000026
 31
0.0
  0
LINE
  5
D3B
330
1F
100
AcDbEntity
  8
0
100
AcDbLine
 10
12.43111685120008
 20
1.363638488000034
 30
0.0
 11
12.67206875520009
 21
1.369625337600027
 31
0.0
  0
LWPOLYLINE
  5
D3C
330
1F
100
AcDbEntity
  8
0
100
AcDbPolyline
 90
       15
 70
     0
 43
0.0
 10
16.72666697600008
 20
1.487612625600036
 10
16.86529200640007
 20
1.492218633600032
 10
17.01391228480009
 20
1.497196065600036
 10
17.16913829120009
 20
1.502439206400026
 10
17.33446948320009
 20
1.508073312000036
 10
17.51312034400007
 20
1.514218662400026
 10
17.70813888640009
 20
1.520994886400032
 10
17.92260893920008
 20
1.528528569600027
 10
18.15960394240009
 20
1.536952670400026
 10
18.41968318720009
 20
1.546316942400025
 10
18.69926948320009
 20
1.556523062400032
 10
19.00036708640008
 20
1.567676072000026
 10
19.32710581760009
 20
1.579968624000031
 10
19.68252416640007
 20
1.593566489600036
 10
20.0719368608001
 20
1.608726635200028
  0
LINE
  5
D3D
330
1F
100
AcDbEntity
  8
0
100
AcDbLine
 10
16.48716875680009
 20
1.479738796800035
 30
0.0
 11
16.72666697600008
 21
1.487612625600036
 31
0.0
  0
LWPOLYLINE
  5
D3E
330
1F
100
AcDbEntity
  8
0
100
AcDbPolyline
 90
       20
 70
     0
 43
0.0
 10
-16.14347890399991
 20
1.468636697600032
 10
-16.00753184799992
 20
1.464309907200032
 10
-15.85437055519991
 20
1.459479126400026
 10
-15.68603924319992
 20
1.454223536000029
 10
-15.50452987999991
 20
1.448619457600031
 10
-15.30902659679991
 20
1.44265637760003
 10
-15.0980400447999
 20
1.436306033600033
 10
-14.86976832799989
 20
1.429534792000026
 10
-14.62202840639991
 20
1.422302910400034
 10
-14.35523347359991
 20
1.414650792000031
 10
-14.0755830367999
 20
1.406781336000037
 10
-13.80515801599991
 20
1.399318816000032
 10
-13.5603822511999
 20
1.39268897920003
 10
-13.34347192479992
 20
1.386913036800038
 10
-13.15144902719992
 20
1.381877545600033
 10
-12.97893676479991
 20
1.377415963200036
 10
-12.82241887039992
 20
1.373419068800032
 10
-12.68027279999991
 20
1.369831196800035
 10
-12.5518049903999
 20
1.366622870400036
 10
-12.33326084639991
 20
1.361239787200034
  0
LINE
  5
D3F
330
1F
100
AcDbEntity
  8
0
100
AcDbLine
 10
-16.3797330607999
 20
1.476243016000026
 30
0.0
 11
-16.14347890399991
 21
1.468636697600032
 31
0.0
  0
LINE
  5
D40
330
1F
100
AcDbEntity
  8
0
100
AcDbLine
 10
-11.96277271999991
 20
1.352329478400037
 30
0.0
 11
-11.7382398175999
 21
1.34706277920003
 31
0.0
  0
LINE
  5
D41
330
1F
100
AcDbEntity
  8
0
100
AcDbLine
 10
-12.1477849247999
 20
1.356745044800035
 30
0.0
 11
-11.96277271999991
 21
1.352329478400037
 31
0.0
  0
LINE
  5
D42
330
1F
100
AcDbEntity
  8
0
100
AcDbLine
 10
-12.33326084639991
 20
1.361239787200034
 30
0.0
 11
-12.1477849247999
 21
1.356745044800035
 31
0.0
  0
LINE
  5
D47
330
1F
100
AcDbEntity
  8
0
100
AcDbLine
 10
-12.33326084639991
 20
34.63878864782905
 30
0.0
 11
-12.1477849247999
 21
34.64328339022905
 31
0.0
  0
LINE
  5
D48
330
1F
100
AcDbEntity
  8
0
100
AcDbLine
 10
-12.1477849247999
 20
34.64328339022905
 30
0.0
 11
-11.96277271999991
 21
34.64769895662906
 31
0.0
  0
ENDSEC
  0
SECTION
  2
OBJECTS
  0
DICTIONARY
  5
C
330
0
100
AcDbDictionary
  3
ACAD_GROUP
350
D
  3
ACAD_LAYOUT
350
1A
  3
ACAD_MLINESTYLE
350
17
  3
ACAD_PLOTSETTINGS
350
19
  3
ACAD_PLOTSTYLENAME
350
E
  3
ACDBHEADERROUNDTRIPXREC
350
D53
  0
DICTIONARY
  5
D76
330
1F
100
AcDbDictionary
280
     1
  3
ACAD_LAYOUTSELFREF
360
D77
  0
DICTIONARY
  5
D74
330
1B
100
AcDbDictionary
280
     1
  3
ACAD_LAYOUTSELFREF
360
D75
  0
DICTIONARY
  5
D
102
{ACAD_REACTORS
330
C
102
}
330
C
100
AcDbDictionary
  0
DICTIONARY
  5
1A
102
{ACAD_REACTORS
330
C
102
}
330
C
100
AcDbDictionary
  0
DICTIONARY
  5
17
102
{ACAD_REACTORS
330
C
102
}
330
C
100
AcDbDictionary
  3
STANDARD
350
18
  0
DICTIONARY
  5
19
102
{ACAD_REACTORS
330
C
102
}
330
C
100
AcDbDictionary
  0
ACDBDICTIONARYWDFLT
  5
E
102
{ACAD_REACTORS
330
C
102
}
330
C
100
AcDbDictionary
281
     1
  3
Normal
350
F
100
AcDbDictionaryWithDefault
340
F
  0
DICTIONARY
  5
D53
102
{ACAD_REACTORS
330
C
102
}
330
C
100
AcDbDictionary
  3
CEPSNTYPE
350
D5D
  3
DIMSTYLEDATA
350
D61
  3
FINGERPRINTGUID
350
D5E
  3
HYPERLINKBASE
350
D56
  3
INSUNITS
350
D5C
  3
LAYOUTDICT
350
D58
  3
LWETCUNION
350
D5B
  3
PLOTSETDICT
350
D59
  3
PLOTSTYLNAMDICT
350
D5A
  3
PSVPSCALE
350
D60
  3
PUCSBASE
350
D64
  3
PUCSORGBACK
350
D6A
  3
PUCSORGBOTTOM
350
D66
  3
PUCSORGFRONT
350
D69
  3
PUCSORGLEFT
350
D67
  3
PUCSORGRIGHT
350
D68
  3
PUCSORGTOP
350
D65
  3
PUCSORTHOREF
350
D62
  3
PUCSORTHOVIEW
350
D63
  3
STYLESHEET
350
D57
  3
TSTACKALIGN
350
D54
  3
TSTACKSIZE
350
D55
  3
UCSBASE
350
D6D
  3
UCSORGBACK
350
D73
  3
UCSORGBOTTOM
350
D6F
  3
UCSORGFRONT
350
D72
  3
UCSORGLEFT
350
D70
  3
UCSORGRIGHT
350
D71
  3
UCSORGTOP
350
D6E
  3
UCSORTHOREF
350
D6B
  3
UCSORTHOVIEW
350
D6C
  3
VERSIONGUID
350
D5F
  0
XRECORD
  5
D77
102
{ACAD_REACTORS
330
D76
102
}
330
D76
100
AcDbXrecord
340
1F
  0
XRECORD
  5
D75
102
{ACAD_REACTORS
330
D74
102
}
330
D74
100
AcDbXrecord
340
1B
  0
MLINESTYLE
  5
18
102
{ACAD_REACTORS
330
17
102
}
330
17
100
AcDbMlineStyle
  2
STANDARD
 70
     0
  3

 62
   256
 51
90.0
 52
90.0
 71
     2
 49
0.5
 62
   256
  6
BYLAYER
 49
-0.5
 62
   256
  6
BYLAYER
  0
ACDBPLACEHOLDER
  5
F
102
{ACAD_REACTORS
330
E
102
}
330
0
100
AcDbPlaceHolder
280
     0
  0
XRECORD
  5
D5D
102
{ACAD_REACTORS
330
D53
102
}
330
D53
100
AcDbXrecord
 90
        0
  0
XRECORD
  5
D61
102
{ACAD_REACTORS
330
D53
102
}
330
D53
100
AcDbXrecord
1000
DSTYLE
1002
{
1070
   278
 70
     0
1070
   342
340
223
1070
   371
 70
     0
1070
   372
 70
     0
1002
}
  0
XRECORD
  5
D5E
102
{ACAD_REACTORS
330
D53
102
}
330
D53
100
AcDbXrecord
  1

  0
XRECORD
  5
D56
102
{ACAD_REACTORS
330
D53
102
}
330
D53
100
AcDbXrecord
  1

  0
XRECORD
  5
D5C
102
{ACAD_REACTORS
330
D53
102
}
330
D53
100
AcDbXrecord
 90
        1
  0
XRECORD
  5
D58
102
{ACAD_REACTORS
330
D53
102
}
330
D53
100
AcDbXrecord
340
1A
  0
XRECORD
  5
D5B
102
{ACAD_REACTORS
330
D53
102
}
330
D53
100
AcDbXrecord
 90
    10781
  0
XRECORD
  5
D59
102
{ACAD_REACTORS
330
D53
102
}
330
D53
100
AcDbXrecord
340
19
  0
XRECORD
  5
D5A
102
{ACAD_REACTORS
330
D53
102
}
330
D53
100
AcDbXrecord
340
E
  0
XRECORD
  5
D60
102
{ACAD_REACTORS
330
D53
102
}
330
D53
100
AcDbXrecord
 40
0.0
  0
XRECORD
  5
D64
102
{ACAD_REACTORS
330
D53
102
}
330
D53
100
AcDbXrecord
340
0
  0
XRECORD
  5
D6A
102
{ACAD_REACTORS
330
D53
102
}
330
D53
100
AcDbXrecord
 10
0.0
 20
0.0
 30
0.0
  0
XRECORD
  5
D66
102
{ACAD_REACTORS
330
D53
102
}
330
D53
100
AcDbXrecord
 10
0.0
 20
0.0
 30
0.0
  0
XRECORD
  5
D69
102
{ACAD_REACTORS
330
D53
102
}
330
D53
100
AcDbXrecord
 10
0.0
 20
0.0
 30
0.0
  0
XRECORD
  5
D67
102
{ACAD_REACTORS
330
D53
102
}
330
D53
100
AcDbXrecord
 10
0.0
 20
0.0
 30
0.0
  0
XRECORD
  5
D68
102
{ACAD_REACTORS
330
D53
102
}
330
D53
100
AcDbXrecord
 10
0.0
 20
0.0
 30
0.0
  0
XRECORD
  5
D65
102
{ACAD_REACTORS
330
D53
102
}
330
D53
100
AcDbXrecord
 10
0.0
 20
0.0
 30
0.0
  0
XRECORD
  5
D62
102
{ACAD_REACTORS
330
D53
102
}
330
D53
100
AcDbXrecord
340
0
  0
XRECORD
  5
D63
102
{ACAD_REACTORS
330
D53
102
}
330
D53
100
AcDbXrecord
 70
     0
  0
XRECORD
  5
D57
102
{ACAD_REACTORS
330
D53
102
}
330
D53
100
AcDbXrecord
  1

  0
XRECORD
  5
D54
102
{ACAD_REACTORS
330
D53
102
}
330
D53
100
AcDbXrecord
 90
        1
  0
XRECORD
  5
D55
102
{ACAD_REACTORS
330
D53
102
}
330
D53
100
AcDbXrecord
 90
       70
  0
XRECORD
  5
D6D
102
{ACAD_REACTORS
330
D53
102
}
330
D53
100
AcDbXrecord
340
0
  0
XRECORD
  5
D73
102
{ACAD_REACTORS
330
D53
102
}
330
D53
100
AcDbXrecord
 10
0.0
 20
0.0
 30
0.0
  0
XRECORD
  5
D6F
102
{ACAD_REACTORS
330
D53
102
}
330
D53
100
AcDbXrecord
 10
0.0
 20
0.0
 30
0.0
  0
XRECORD
  5
D72
102
{ACAD_REACTORS
330
D53
102
}
330
D53
100
AcDbXrecord
 10
0.0
 20
0.0
 30
0.0
  0
XRECORD
  5
D70
102
{ACAD_REACTORS
330
D53
102
}
330
D53
100
AcDbXrecord
 10
0.0
 20
0.0
 30
0.0
  0
XRECORD
  5
D71
102
{ACAD_REACTORS
330
D53
102
}
330
D53
100
AcDbXrecord
 10
0.0
 20
0.0
 30
0.0
  0
XRECORD
  5
D6E
102
{ACAD_REACTORS
330
D53
102
}
330
D53
100
AcDbXrecord
 10
0.0
 20
0.0
 30
0.0
  0
XRECORD
  5
D6B
102
{ACAD_REACTORS
330
D53
102
}
330
D53
100
AcDbXrecord
340
0
  0
XRECORD
  5
D6C
102
{ACAD_REACTORS
330
D53
102
}
330
D53
100
AcDbXrecord
 70
     0
  0
XRECORD
  5
D5F
102
{ACAD_REACTORS
330
D53
102
}
330
D53
100
AcDbXrecord
  1
{DC3E263B-96C9-4066-880D-F830BB3FA1B9}
  0
ENDSEC
  0
EOF
