  0
SECTION
  2
HEADER
  9
$ACADVER
  1
AC1014
  9
$ACADMAINTVER
 70
     9
  9
$DWGCODEPAGE
  3
ANSI_1252
  9
$INSBASE
 10
0.0
 20
0.0
 30
0.0
  9
$EXTMIN
 10
-35.75102593339768
 20
-1.949637763197687
 30
-0.0000000000000091
  9
$EXTMAX
 10
35.7510272999737
 20
20.663981553677
 30
0.000000000000007
  9
$LIMMIN
 10
0.0
 20
0.0
  9
$LIMMAX
 10
17.0
 20
11.0
  9
$ORTHOMODE
 70
     1
  9
$REGENMODE
 70
     1
  9
$FILLMODE
 70
     1
  9
$QTEXTMODE
 70
     0
  9
$MIRRTEXT
 70
     1
  9
$DRAGMODE
 70
     2
  9
$LTSCALE
 40
0.9350000000000001
  9
$OSMODE
 70
    37
  9
$ATTMODE
 70
     1
  9
$TEXTSIZE
 40
0.2
  9
$TRACEWID
 40
0.05
  9
$TEXTSTYLE
  7
STANDARD
  9
$CLAYER
  8
0
  9
$CELTYPE
  6
BYLAYER
  9
$CECOLOR
 62
   256
  9
$CELTSCALE
 40
1.0
  9
$DELOBJ
 70
     1
  9
$DISPSILH
 70
     0
  9
$DIMSCALE
 40
1.0
  9
$DIMASZ
 40
0.1875
  9
$DIMEXO
 40
0.10625
  9
$DIMDLI
 40
0.646
  9
$DIMRND
 40
0.0
  9
$DIMDLE
 40
0.0
  9
$DIMEXE
 40
0.306
  9
$DIMTP
 40
0.0
  9
$DIMTM
 40
0.0
  9
$DIMTXT
 40
0.125
  9
$DIMCEN
 40
0.153
  9
$DIMTSZ
 40
0.0
  9
$DIMTOL
 70
     0
  9
$DIMLIM
 70
     0
  9
$DIMTIH
 70
     1
  9
$DIMTOH
 70
     1
  9
$DIMSE1
 70
     0
  9
$DIMSE2
 70
     0
  9
$DIMTAD
 70
     0
  9
$DIMZIN
 70
     0
  9
$DIMBLK
  1
_FILLED
  9
$DIMASO
 70
     1
  9
$DIMSHO
 70
     1
  9
$DIMPOST
  1

  9
$DIMAPOST
  1

  9
$DIMALT
 70
     0
  9
$DIMALTD
 70
     2
  9
$DIMALTF
 40
25.4
  9
$DIMLFAC
 40
1.0
  9
$DIMTOFL
 70
     0
  9
$DIMTVP
 40
0.0
  9
$DIMTIX
 70
     0
  9
$DIMSOXD
 70
     0
  9
$DIMSAH
 70
     0
  9
$DIMBLK1
  1

  9
$DIMBLK2
  1

  9
$DIMSTYLE
  2
STANDARD
  9
$DIMCLRD
 70
     0
  9
$DIMCLRE
 70
     0
  9
$DIMCLRT
 70
     0
  9
$DIMTFAC
 40
1.0
  9
$DIMGAP
 40
0.09
  9
$DIMJUST
 70
     0
  9
$DIMSD1
 70
     0
  9
$DIMSD2
 70
     0
  9
$DIMTOLJ
 70
     1
  9
$DIMTZIN
 70
     0
  9
$DIMALTZ
 70
     0
  9
$DIMALTTZ
 70
     0
  9
$DIMFIT
 70
     3
  9
$DIMUPT
 70
     0
  9
$DIMUNIT
 70
     2
  9
$DIMDEC
 70
     4
  9
$DIMTDEC
 70
     4
  9
$DIMALTU
 70
     2
  9
$DIMALTTD
 70
     2
  9
$DIMTXSTY
  7
STANDARD
  9
$DIMAUNIT
 70
     0
  9
$LUNITS
 70
     2
  9
$LUPREC
 70
     4
  9
$SKETCHINC
 40
0.1
  9
$FILLETRAD
 40
0.0
  9
$AUNITS
 70
     0
  9
$AUPREC
 70
     0
  9
$MENU
  1
acad
  9
$ELEVATION
 40
0.0
  9
$PELEVATION
 40
0.0
  9
$THICKNESS
 40
0.0
  9
$LIMCHECK
 70
     0
  9
$BLIPMODE
 70
     0
  9
$CHAMFERA
 40
0.0
  9
$CHAMFERB
 40
0.0
  9
$CHAMFERC
 40
0.0
  9
$CHAMFERD
 40
0.0
  9
$SKPOLY
 70
     0
  9
$TDCREATE
 40
2454026.433579861
  9
$TDUPDATE
 40
2454085.358894745
  9
$TDINDWG
 40
0.0584415625
  9
$TDUSRTIMER
 40
0.0584415625
  9
$USRTIMER
 70
     1
  9
$ANGBASE
 50
0.0
  9
$ANGDIR
 70
     0
  9
$PDMODE
 70
     3
  9
$PDSIZE
 40
0.03125
  9
$PLINEWID
 40
0.0
  9
$COORDS
 70
     2
  9
$SPLFRAME
 70
     0
  9
$SPLINETYPE
 70
     6
  9
$SPLINESEGS
 70
     8
  9
$ATTDIA
 70
     0
  9
$ATTREQ
 70
     1
  9
$HANDLING
 70
-16383
  9
$HANDSEED
  5
BC3
  9
$SURFTAB1
 70
     6
  9
$SURFTAB2
 70
     6
  9
$SURFTYPE
 70
     6
  9
$SURFU
 70
     6
  9
$SURFV
 70
     6
  9
$UCSNAME
  2

  9
$UCSORG
 10
0.0
 20
0.0
 30
0.0
  9
$UCSXDIR
 10
1.0
 20
0.0
 30
0.0
  9
$UCSYDIR
 10
0.0
 20
1.0
 30
0.0
  9
$PUCSNAME
  2

  9
$PUCSORG
 10
0.0
 20
0.0
 30
0.0
  9
$PUCSXDIR
 10
1.0
 20
0.0
 30
0.0
  9
$PUCSYDIR
 10
0.0
 20
1.0
 30
0.0
  9
$USERI1
 70
     0
  9
$USERI2
 70
     0
  9
$USERI3
 70
     0
  9
$USERI4
 70
     0
  9
$USERI5
 70
     0
  9
$USERR1
 40
0.0
  9
$USERR2
 40
0.0
  9
$USERR3
 40
0.0
  9
$USERR4
 40
0.0
  9
$USERR5
 40
0.0
  9
$WORLDVIEW
 70
     1
  9
$SHADEDGE
 70
     3
  9
$SHADEDIF
 70
    70
  9
$TILEMODE
 70
     1
  9
$MAXACTVP
 70
    16
  9
$PINSBASE
 10
0.0
 20
0.0
 30
0.0
  9
$PLIMCHECK
 70
     0
  9
$PEXTMIN
 10
1.000000000000000E+20
 20
1.000000000000000E+20
 30
1.000000000000000E+20
  9
$PEXTMAX
 10
-1.000000000000000E+20
 20
-1.000000000000000E+20
 30
-1.000000000000000E+20
  9
$PLIMMIN
 10
0.0
 20
0.0
  9
$PLIMMAX
 10
12.0
 20
9.0
  9
$UNITMODE
 70
     0
  9
$VISRETAIN
 70
     0
  9
$PLINEGEN
 70
     1
  9
$PSLTSCALE
 70
     0
  9
$TREEDEPTH
 70
  3020
  9
$PICKSTYLE
 70
     1
  9
$CMLSTYLE
  2
STANDARD
  9
$CMLJUST
 70
     0
  9
$CMLSCALE
 40
1.0
  9
$PROXYGRAPHICS
 70
     0
  9
$MEASUREMENT
 70
     0
  0
ENDSEC
  0
SECTION
  2
CLASSES
  0
CLASS
  1
ACDBDICTIONARYWDFLT
  2
AcDbDictionaryWithDefault
  3
AutoCAD 2000
 90
        0
280
     0
281
     0
  0
CLASS
  1
ACDBPLACEHOLDER
  2
AcDbPlaceHolder
  3
AutoCAD 2000
 90
        0
280
     0
281
     0
  0
CLASS
  1
LAYOUT
  2
AcDbLayout
  3
AutoCAD 2000
 90
        0
280
     0
281
     0
  0
CLASS
  1
LWPOLYLINE
  2
AcDbPolyline
  3
AutoCAD 2000
 90
        0
280
     0
281
     1
  0
CLASS
  1
IMAGE
  2
AcDbRasterImage
  3
ISM
 90
      127
280
     0
281
     1
  0
CLASS
  1
OLE2FRAME
  2
AcDbOle2Frame
  3
AutoCAD 2000
 90
        0
280
     0
281
     1
  0
CLASS
  1
HATCH
  2
AcDbHatch
  3
AutoCAD 2000
 90
        0
280
     0
281
     1
  0
CLASS
  1
DICTIONARYVAR
  2
AcDbDictionaryVar
  3
AutoCAD 2000
 90
        0
280
     0
281
     0
  0
CLASS
  1
RASTERVARIABLES
  2
AcDbRasterVariables
  3
ISM
 90
        0
280
     0
281
     0
  0
CLASS
  1
IMAGEDEF
  2
AcDbRasterImageDef
  3
ISM
 90
        0
280
     0
281
     0
  0
CLASS
  1
IMAGEDEF_REACTOR
  2
AcDbRasterImageDefReactor
  3
ISM
 90
        1
280
     0
281
     0
  0
CLASS
  1
IDBUFFER
  2
AcDbIdBuffer
  3
AutoCAD 2000
 90
        0
280
     0
281
     0
  0
CLASS
  1
SPATIAL_FILTER
  2
AcDbSpatialFilter
  3
AutoCAD 2000
 90
        0
280
     0
281
     0
  0
CLASS
  1
XRECORD
  2
AcDbXrecord
  3
AutoCAD 2000
 90
        0
280
     0
281
     0
  0
CLASS
  1
SORTENTSTABLE
  2
AcDbSortentsTable
  3
AutoCAD 2000
 90
        0
280
     0
281
     0
  0
CLASS
  1
LAYER_INDEX
  2
AcDbLayerIndex
  3
AutoCAD 2000
 90
        0
280
     0
281
     0
  0
CLASS
  1
SPATIAL_INDEX
  2
AcDbSpatialIndex
  3
AutoCAD 2000
 90
        0
280
     0
281
     0
  0
CLASS
  1
OBJECT_PTR
  2
CAseDLPNTableRecord
  3
ASE-LPNTableRecord
 90
        1
280
     0
281
     0
  0
CLASS
  1
PLOTSETTINGS
  2
AcDbPlotSettings
  3
AutoCAD 2000
 90
        0
280
     0
281
     0
  0
CLASS
  1
VBA_PROJECT
  2
AcDbVbaProject
  3
acadvba
 90
        0
280
     0
281
     0
  0
CLASS
  1
WIPEOUT
  2
AcDbWipeout
  3
WipeOut|AutoCAD Express Tool|expresstools@autodesk.com
 90
      127
280
     0
281
     1
  0
CLASS
  1
WIPEOUTVARIABLES
  2
AcDbWipeoutVariables
  3
WipeOut|AutoCAD Express Tool|expresstools@autodesk.com
 90
        0
280
     0
281
     0
  0
CLASS
  1
RTEXT
  2
RText
  3
RText|AutoCAD Express Tool|expresstools@autodesk.com
 90
        0
280
     0
281
     1
  0
CLASS
  1
ARCALIGNEDTEXT
  2
AcDbArcAlignedText
  3
ATEXT|AutoCAD Express Tool|expresstools@autodesk.com
 90
        0
280
     0
281
     1
  0
CLASS
  1
LONG_TRANSACTION
  2
AcDbLongTransaction
  3
AutoCAD 2000
 90
        0
280
     0
281
     0
  0
CLASS
  1
LWPOLYLINE
  2
AcDbPolyline
  3
AutoCAD 2000
 90
        0
280
     0
281
     1
  0
CLASS
  1
HATCH
  2
AcDbHatch
  3
AutoCAD 2000
 90
        0
280
     0
281
     1
  0
CLASS
  1
XRECORD
  2
AcDbXrecord
  3
AutoCAD 2000
 90
        0
280
     0
281
     0
  0
CLASS
  1
LONG_TRANSACTION
  2
AcDbLongTransaction
  3
AutoCAD 2000
 90
        0
280
     0
281
     0
  0
CLASS
  1
LWPOLYLINE
  2
AcDbPolyline
  3
AutoCAD 2000
 90
        0
280
     0
281
     1
  0
CLASS
  1
HATCH
  2
AcDbHatch
  3
AutoCAD 2000
 90
        0
280
     0
281
     1
  0
CLASS
  1
XRECORD
  2
AcDbXrecord
  3
AutoCAD 2000
 90
        0
280
     0
281
     0
  0
ENDSEC
  0
SECTION
  2
TABLES
  0
TABLE
  2
VPORT
  5
8
330
0
100
AcDbSymbolTable
 70
     4
  0
VPORT
  5
B9F
330
8
100
AcDbSymbolTableRecord
100
AcDbViewportTableRecord
  2
*ACTIVE
 70
     0
 10
0.0
 20
0.0
 11
1.0
 21
1.0
 12
0.0000006832880058
 22
9.357171895239657
 13
0.0
 23
0.0
 14
1.0
 24
1.0
 15
0.0
 25
0.0
 16
0.0
 26
0.0
 36
1.0
 17
0.0
 27
0.0
 37
0.0
 40
41.19935011255981
 41
1.745424292845257
 42
50.0
 43
0.0
 44
0.0
 50
0.0
 51
0.0
 71
     0
 72
   100
 73
     1
 74
     1
 75
     0
 76
     0
 77
     0
 78
     0
  0
ENDTAB
  0
TABLE
  2
LTYPE
  5
5
330
0
100
AcDbSymbolTable
 70
     3
  0
LTYPE
  5
14
330
5
100
AcDbSymbolTableRecord
100
AcDbLinetypeTableRecord
  2
BYBLOCK
 70
     0
  3

 72
    65
 73
     0
 40
0.0
  0
LTYPE
  5
15
330
5
100
AcDbSymbolTableRecord
100
AcDbLinetypeTableRecord
  2
BYLAYER
 70
     0
  3

 72
    65
 73
     0
 40
0.0
  0
LTYPE
  5
16
330
5
100
AcDbSymbolTableRecord
100
AcDbLinetypeTableRecord
  2
CONTINUOUS
 70
     0
  3
Solid line
 72
    65
 73
     0
 40
0.0
  0
LTYPE
  5
1F6
330
5
100
AcDbSymbolTableRecord
100
AcDbLinetypeTableRecord
  2
HIDDEN
 70
     0
  3
Hidden __ __ __ __ __ __ __ __ __ __ __ __ __ _
 72
    65
 73
     2
 40
0.375
 49
0.25
 74
     0
 49
-0.125
 74
     0
  0
LTYPE
  5
B10
330
5
100
AcDbSymbolTableRecord
100
AcDbLinetypeTableRecord
  2
CENTERX2
 70
     0
  3
Center (2x) ________  __  ________  __  _____
 72
    65
 73
     4
 40
4.0
 49
2.5
 74
     0
 49
-0.5
 74
     0
 49
0.5
 74
     0
 49
-0.5
 74
     0
  0
ENDTAB
  0
TABLE
  2
LAYER
  5
2
330
0
100
AcDbSymbolTable
 70
     2
  0
LAYER
  5
10
330
2
100
AcDbSymbolTableRecord
100
AcDbLayerTableRecord
  2
0
 70
     0
 62
     7
  6
CONTINUOUS
  0
LAYER
  5
B09
330
2
100
AcDbSymbolTableRecord
100
AcDbLayerTableRecord
  2
CENTER
 70
     0
 62
     1
  6
CENTERX2
  0
ENDTAB
  0
TABLE
  2
STYLE
  5
3
330
0
100
AcDbSymbolTable
 70
     2
  0
STYLE
  5
11
330
3
100
AcDbSymbolTableRecord
100
AcDbTextStyleTableRecord
  2
STANDARD
 70
     0
 40
0.0
 41
0.8
 50
0.0
 71
     0
 42
0.2
  3
txt
  4

  0
STYLE
  5
21B
330
3
100
AcDbSymbolTableRecord
100
AcDbTextStyleTableRecord
  2
TEXTSTYLE_1
 70
     0
 40
0.0
 41
0.8
 50
0.0
 71
     0
 42
0.2
  3
txt
  4

  0
ENDTAB
  0
TABLE
  2
VIEW
  5
6
330
0
100
AcDbSymbolTable
 70
     0
  0
ENDTAB
  0
TABLE
  2
UCS
  5
7
330
0
100
AcDbSymbolTable
 70
     0
  0
ENDTAB
  0
TABLE
  2
APPID
  5
9
330
0
100
AcDbSymbolTable
 70
     2
  0
APPID
  5
21F
330
9
100
AcDbSymbolTableRecord
100
AcDbRegAppTableRecord
  2
ACAD
 70
     0
  0
APPID
  5
AFF
330
9
100
AcDbSymbolTableRecord
100
AcDbRegAppTableRecord
  2
DCO15
 70
     0
  0
ENDTAB
  0
TABLE
  2
DIMSTYLE
  5
A
330
0
100
AcDbSymbolTable
 70
     1
  0
DIMSTYLE
105
240
330
A
100
AcDbSymbolTableRecord
100
AcDbDimStyleTableRecord
  2
STANDARD
 70
     0
  3

  4

  5
_FILLED
  6
_FILLED
  7
_FILLED
 40
1.0
 41
0.1875
 42
0.0625
 43
0.38
 44
0.18
 45
0.0
 46
0.0
 47
0.00001
 48
0.00001
140
0.125
141
0.09
142
0.0
143
25.4
144
1.0
145
0.0
146
1.0
147
0.09
 71
     0
 72
     0
 73
     1
 74
     1
 75
     0
 76
     0
 77
     0
 78
     4
170
     0
171
     2
172
     0
173
     0
174
     0
175
     0
176
     0
177
     0
178
     0
270
     2
271
     5
272
     5
273
     2
274
     2
340
11
275
     0
280
     0
281
     0
282
     0
283
     1
284
     4
285
     0
286
     0
287
     3
288
     0
  0
ENDTAB
  0
TABLE
  2
BLOCK_RECORD
  5
1
330
0
100
AcDbSymbolTable
 70
     1
  0
BLOCK_RECORD
  5
1F
102
{ACAD_XDICTIONARY
360
B42
102
}
330
1
100
AcDbSymbolTableRecord
100
AcDbBlockTableRecord
  2
*MODEL_SPACE
  0
BLOCK_RECORD
  5
1B
102
{ACAD_XDICTIONARY
360
B40
102
}
330
1
100
AcDbSymbolTableRecord
100
AcDbBlockTableRecord
  2
*PAPER_SPACE
  0
BLOCK_RECORD
  5
220
330
1
100
AcDbSymbolTableRecord
100
AcDbBlockTableRecord
  2
_FILLED
  0
ENDTAB
  0
ENDSEC
  0
SECTION
  2
BLOCKS
  0
BLOCK
  5
20
330
1F
100
AcDbEntity
  8
0
100
AcDbBlockBegin
  2
*MODEL_SPACE
 70
     0
 10
0.0
 20
0.0
 30
0.0
  3
*MODEL_SPACE
  1

  0
ENDBLK
  5
21
330
1F
100
AcDbEntity
  8
0
100
AcDbBlockEnd
  0
BLOCK
  5
1C
330
1B
100
AcDbEntity
 67
     1
  8
0
100
AcDbBlockBegin
  2
*PAPER_SPACE
 70
     0
 10
0.0
 20
0.0
 30
0.0
  3
*PAPER_SPACE
  1

  0
ENDBLK
  5
1D
330
1B
100
AcDbEntity
 67
     1
  8
0
100
AcDbBlockEnd
  0
BLOCK
  5
442
330
220
100
AcDbEntity
  8
0
100
AcDbBlockBegin
  2
_FILLED
 70
     0
 10
0.0
 20
0.0
 30
0.0
  3
_FILLED
  1

  0
SOLID
  5
443
330
220
100
AcDbEntity
  8
0
  6
BYBLOCK
 62
     0
100
AcDbTrace
 10
0.0
 20
0.0
 30
0.0
 11
-1.0
 21
0.1666666667
 31
0.0
 12
-1.0
 22
-0.1666666667
 32
0.0
 13
-1.0
 23
-0.1666666667
 33
0.0
  0
ENDBLK
  5
444
330
220
100
AcDbEntity
  8
0
  6
BYBLOCK
 62
     0
100
AcDbBlockEnd
  0
ENDSEC
  0
SECTION
  2
ENTITIES
  0
MTEXT
  5
4BB
330
1F
100
AcDbEntity
  8
0
  6
CONTINUOUS
 62
     2
100
AcDbMText
 10
15.84375
 20
2.3125
 30
0.0
 40
0.09375
 41
0.075
 71
     2
 72
     1
  1
 \P \P 
  7
TEXTSTYLE_1
1001
ACAD
1000
MTEXTBEGIN
1070
    73
1070
     1
1070
    44
1040
1.0
1070
    74
1070
     0
1000
MTEXTEND
1000
MTEXTBEGIN
1070
    73
1070
     1
1070
    44
1040
1.0
1070
    74
1070
     0
1000
MTEXTEND
  0
LWPOLYLINE
  5
503
330
1F
100
AcDbEntity
  8
0
  6
HIDDEN
 62
     8
100
AcDbPolyline
 90
       27
 70
     0
 43
0.0
 10
-5.940654226737251
 20
16.2174061632
 10
-5.800761476337257
 20
16.1611555088
 10
-5.659668500337261
 20
16.108742232
 10
-5.517474636337254
 20
16.0599118736
 10
-5.374279220337257
 20
16.014409976
 10
-5.23018159153726
 20
15.9719820816
 10
-5.085281087537254
 20
15.9323737312
 10
-4.923834813937261
 20
15.8914532896
 10
-4.761659309937257
 20
15.8533383568
 10
-4.598889895537254
 20
15.8176822992
 10
-4.43566189393725
 20
15.7841384784
 10
-4.204474508337256
 20
15.7398145792
 10
-3.97268894673725
 20
15.69887456
 10
-3.740352289137263
 20
15.6611780288
 10
-3.507511620337254
 20
15.6265845952
 10
-3.274214023537254
 20
15.5949538688
 10
-3.04050657873725
 20
15.5661454608
 10
-2.737576898737259
 20
15.5328295104
 10
-2.434141868337249
 20
15.5036995728
 10
-2.130303482737261
 20
15.4784515184
 10
-1.826163735537249
 20
15.4567812208
 10
-1.521824625137256
 20
15.4383845472
 10
-1.217388146737249
 20
15.4229573728
 10
-0.9129562955372563
 20
15.4101955648
 10
-0.6086310667372601
 20
15.3997949968
 10
-0.3045144555372587
 20
15.3914515392
 10
-0.0007084603372505
 20
15.3848610624
  0
LWPOLYLINE
  5
504
330
1F
100
AcDbEntity
  8
0
  6
HIDDEN
 62
     8
100
AcDbPolyline
 90
       30
 70
     0
 43
0.0
 10
-5.094419442737262
 20
17.4592589312
 10
-5.000032041137259
 20
17.4060211776
 10
-4.903986647537251
 20
17.3562258096
 10
-4.806424749937249
 20
17.3096830144
 10
-4.70748784113725
 20
17.2662029792
 10
-4.601320079537259
 20
17.2232656896
 10
-4.493935889137262
 20
17.1833277216
 10
-4.385503551537254
 20
17.1461633184
 10
-4.276191353137249
 20
17.11154672
 10
-4.166167578737258
 20
17.079252168
 10
-4.016924913137259
 20
17.0390279872
 10
-3.866810221937257
 20
17.002339928
 10
-3.715939383537261
 20
16.968912272
 10
-3.564428281137253
 20
16.9384693056
 10
-3.412392793137257
 20
16.910735312
 10
-3.259948804337255
 20
16.885434576
 10
-3.062114953137253
 20
16.8558773536
 10
-2.863853733937261
 20
16.8295612896
 10
-2.665228362737252
 20
16.8061104
 10
-2.466302053937255
 20
16.7851486992
 10
-2.267138023537256
 20
16.766300208
 10
-2.067799487537257
 20
16.7491889392
 10
-1.795897743537253
 20
16.7281796128
 10
-1.523815706737252
 20
16.709920392
 10
-1.251579861937258
 20
16.6946322496
 10
-0.9792166907372603
 20
16.6825361584
 10
-0.7067526795372601
 20
16.673853088
 10
-0.4342143083372605
 20
16.6688040144
 10
-0.2174698619372606
 20
16.6675297888
 10
-0.0007084603372505
 20
16.6688040144
  0
LWPOLYLINE
  5
505
330
1F
100
AcDbEntity
  8
0
  6
HIDDEN
 62
     8
100
AcDbPolyline
 90
       30
 70
     0
 43
0.0
 10
-5.094875375537256
 20
17.4595272592
 10
-5.096213701937259
 20
17.46031111199999
 10
-5.105063716337255
 20
17.4653869568
 10
-5.113993609137253
 20
17.4703215776
 10
-5.12300163793725
 20
17.4751121952
 10
-5.132086065137258
 20
17.4797560304
 10
-5.141245149937262
 20
17.48425030719999
 10
-5.150477153137259
 20
17.488592248
 10
-5.159780333937263
 20
17.4927790752
 10
-5.169152953137256
 20
17.4968080096
 10
-5.178593271537252
 20
17.5006762752
 10
-5.188144164337259
 20
17.5043979008
 10
-5.197759444337251
 20
17.5079507728
 10
-5.207436922737258
 20
17.5113311248
 10
-5.217174409137257
 20
17.514535184
 10
-5.226969714737251
 20
17.51755918079999
 10
-5.236820647537257
 20
17.5203993472
 10
-5.246725017137251
 20
17.5230519104
 10
-5.25668063633725
 20
17.525513104
 10
-5.266685313137259
 20
17.5277791552
 10
-5.275707546737251
 20
17.5296442512
 10
-5.284763786737258
 20
17.5313456736
 10
-5.29385025073725
 20
17.5328800992
 10
-5.302963164337256
 20
17.5342441984
 10
-5.312098748337263
 20
17.5354346448
 10
-5.321253226737255
 20
17.5364481136
 10
-5.330422821937261
 20
17.5372812784
 10
-5.339603754737254
 20
17.53793081119999
 10
-5.348792250737261
 20
17.5383933856
 10
-5.357984530737255
 20
17.5386656768
  0
LWPOLYLINE
  5
517
330
1F
100
AcDbEntity
  8
0
  6
HIDDEN
 62
     8
100
AcDbPolyline
 90
       78
 70
     0
 43
0.0
 10
-5.940654226737251
 20
16.2174061632
 10
-5.943315113137259
 20
16.2183011632
 10
-5.976801893937249
 20
16.2301274
 10
-6.009946893937254
 20
16.2428829664
 10
-6.042722858737249
 20
16.2565603104
 10
-6.075102535537254
 20
16.2711518832
 10
-6.10705867313726
 20
16.2866501328
 10
-6.137955317937255
 20
16.3027206832
 10
-6.168388721137262
 20
16.3196514368
 10
-6.198329074737259
 20
16.3374380928
 10
-6.227746572337252
 20
16.3560763456
 10
-6.256611407537249
 20
16.3755618912
 10
-6.28472350353725
 20
16.3957651984
 10
-6.312222477937254
 20
16.41679692
 10
-6.339070668337257
 20
16.4386526272
 10
-6.365230409137254
 20
16.4613278864
 10
-6.390664041137256
 20
16.4848182656
 10
-6.411489421937261
 20
16.5052278912
 10
-6.431743178737249
 20
16.5262072112
 10
-6.451395287537252
 20
16.5477510464
 10
-6.470415729137258
 20
16.5698542128
 10
-6.488774487537256
 20
16.5925115328
 10
-6.506441540337263
 20
16.6157178224
 10
-6.52343181713725
 20
16.63953437119999
 10
-6.539654546737253
 20
16.66388388
 10
-6.555067991537256
 20
16.68875244
 10
-6.569630412337261
 20
16.7141261424
 10
-6.583300073137252
 20
16.7399910768
 10
-6.596035236337257
 20
16.766333336
 10
-6.606747149937262
 20
16.79063823039999
 10
-6.616615087537255
 20
16.8153004704
 10
-6.625599071537251
 20
16.8402957504
 10
-6.633659117937256
 20
16.8655997632
 10
-6.640755244337256
 20
16.8911882032
 10
-6.646847473137256
 20
16.9170367616
 10
-6.651290322737253
 20
16.939662056
 10
-6.654919402737263
 20
16.9624342144
 10
-6.657707377137256
 20
16.9853224464
 10
-6.659626901937258
 20
17.0082959616
 10
-6.660650641137252
 20
17.031323968
 10
-6.660751253937263
 20
17.0543756784
 10
-6.659821490737257
 20
17.0787986016
 10
-6.65780256753726
 20
17.1031574672
 10
-6.65467324753726
 20
17.1273961824
 10
-6.650412297137251
 20
17.1514586528
 10
-6.644998477937249
 20
17.1752887856
 10
-6.638773805937262
 20
17.1976539344
 10
-6.631495421937259
 20
17.2197015424
 10
-6.62316870833726
 20
17.2413742448
 10
-6.613799042737255
 20
17.2626146768
 10
-6.603391807537249
 20
17.2833654768
 10
-6.592045826737262
 20
17.3034231136
 10
-6.579717028337256
 20
17.32289496639999
 10
-6.566439525937255
 20
17.3417341648
 10
-6.552247436337253
 20
17.3598938336
 10
-6.53717487633726
 20
17.3773271056
 10
-6.52334245553726
 20
17.3919014288
 10
-6.508901133937257
 20
17.4058739056
 10
-6.493885490737255
 20
17.41923060319999
 10
-6.47833010353726
 20
17.4319575872
 10
-6.462269553137261
 20
17.44404092479999
 10
-6.445738418737249
 20
17.4554666816
 10
-6.428043101937262
 20
17.4666648128
 10
-6.40991139793725
 20
17.4771376688
 10
-6.39138064593726
 20
17.486889584
 10
-6.372488183537257
 20
17.4959248928
 10
-6.353271354737259
 20
17.5042479312
 10
-6.333767497137259
 20
17.5118630368
 10
-6.309289994737255
 20
17.5203150688
 10
-6.28447887153726
 20
17.52771724
 10
-6.25938275953726
 20
17.5340968496
 10
-6.234050292337258
 20
17.5394812016
 10
-6.208530103537256
 20
17.5438975952
 10
-6.182148943537256
 20
17.54745783199999
 10
-6.15565892753726
 20
17.5500568016
 10
-6.129098175537251
 20
17.5517272624
 10
-6.102504812337258
 20
17.5525019776
 10
-6.075916959537252
 20
17.5524137024
  0
LINE
  5
555
330
1F
100
AcDbEntity
  8
0
  6
HIDDEN
 62
     8
100
AcDbLine
 10
6.074500040462737
 20
17.5524137024
 30
0.0
 11
5.35656761166274
 21
17.5386656768
 31
0.0
  0
LINE
  5
559
330
1F
100
AcDbEntity
  8
0
  6
HIDDEN
 62
     8
100
AcDbLine
 10
-6.075916959537252
 20
17.5524137024
 30
0.0
 11
-5.357984530737255
 21
17.5386656768
 31
0.0
  0
LWPOLYLINE
  5
5A1
330
1F
100
AcDbEntity
  8
0
  6
HIDDEN
 62
     8
100
AcDbPolyline
 90
       30
 70
     0
 43
0.0
 10
5.093458456462741
 20
17.4595272592
 10
5.094796782862744
 20
17.46031111199999
 10
5.10364679726274
 20
17.4653869568
 10
5.112576690062738
 20
17.4703215776
 10
5.121584718862749
 20
17.4751121952
 10
5.130669146062743
 20
17.4797560304
 10
5.139828230862747
 20
17.48425030719999
 10
5.149060234062744
 20
17.488592248
 10
5.158363414862748
 20
17.4927790752
 10
5.167736034062741
 20
17.4968080096
 10
5.177176352462737
 20
17.5006762752
 10
5.186727245262744
 20
17.5043979008
 10
5.19634252526275
 20
17.5079507728
 10
5.206020003662743
 20
17.5113311248
 10
5.215757490062742
 20
17.514535184
 10
5.22555279566275
 20
17.51755918079999
 10
5.235403728462742
 20
17.5203993472
 10
5.24530809806275
 20
17.5230519104
 10
5.255263717262749
 20
17.525513104
 10
5.265268392462743
 20
17.5277791552
 10
5.274290627662736
 20
17.5296442512
 10
5.283346867662743
 20
17.5313456736
 10
5.292433331662749
 20
17.5328800992
 10
5.301546245262741
 20
17.5342441984
 10
5.310681829262748
 20
17.5354346448
 10
5.31983630766274
 20
17.5364481136
 10
5.329005902862746
 20
17.5372812784
 10
5.338186835662739
 20
17.53793081119999
 10
5.347375331662746
 20
17.5383933856
 10
5.35656761166274
 20
17.5386656768
  0
LWPOLYLINE
  5
5A2
330
1F
100
AcDbEntity
  8
0
  6
HIDDEN
 62
     8
100
AcDbPolyline
 90
       30
 70
     0
 43
0.0
 10
5.093002523662747
 20
17.4592589312
 10
4.998615122062744
 20
17.4060211776
 10
4.902569728462736
 20
17.3562258096
 10
4.805007830862749
 20
17.3096830144
 10
4.706070920462749
 20
17.2662029792
 10
4.599903160462744
 20
17.2232656896
 10
4.492518970062747
 20
17.1833277216
 10
4.384086632462739
 20
17.1461633184
 10
4.274774434062749
 20
17.11154672
 10
4.164750659662743
 20
17.079252168
 10
4.015507994062744
 20
17.0390279872
 10
3.865393302862742
 20
17.002339928
 10
3.714522464462746
 20
16.968912272
 10
3.563011362062738
 20
16.9384693056
 10
3.410975874062742
 20
16.910735312
 10
3.25853188526274
 20
16.885434576
 10
3.060698034062738
 20
16.8558773536
 10
2.862436814862746
 20
16.8295612896
 10
2.663811443662737
 20
16.8061104
 10
2.46488513486274
 20
16.7851486992
 10
2.265721104462741
 20
16.766300208
 10
2.066382568462742
 20
16.7491889392
 10
1.794480824462738
 20
16.7281796128
 10
1.522398787662737
 20
16.709920392
 10
1.250162942862743
 20
16.6946322496
 10
0.9777997716627453
 20
16.6825361584
 10
0.7053357604627451
 20
16.673853088
 10
0.4327973892627455
 20
16.6688040144
 10
0.2160529428627456
 20
16.6675297888
 10
-0.0007084603372505
 20
16.6688040144
  0
LWPOLYLINE
  5
5AC
330
1F
100
AcDbEntity
  8
0
  6
HIDDEN
 62
     8
100
AcDbPolyline
 90
       27
 70
     0
 43
0.0
 10
5.939237307662736
 20
16.2174061632
 10
5.799344557262742
 20
16.1611555088
 10
5.658251581262746
 20
16.108742232
 10
5.516057715662739
 20
16.0599118736
 10
5.372862301262742
 20
16.014409976
 10
5.228764672462745
 20
15.9719820816
 10
5.083864168462739
 20
15.9323737312
 10
4.922417894862746
 20
15.8914532896
 10
4.760242389262742
 20
15.8533383568
 10
4.597472976462739
 20
15.8176822992
 10
4.43424497486275
 20
15.7841384784
 10
4.203057589262741
 20
15.7398145792
 10
3.971272026062749
 20
15.69887456
 10
3.738935370062748
 20
15.6611780288
 10
3.506094701262739
 20
15.6265845952
 10
3.272797104462739
 20
15.5949538688
 10
3.039089659662749
 20
15.5661454608
 10
2.736159979662744
 20
15.5328295104
 10
2.432724949262748
 20
15.5036995728
 10
2.128886563662746
 20
15.4784515184
 10
1.824746816462749
 20
15.4567812208
 10
1.520407706062741
 20
15.4383845472
 10
1.215971227662748
 20
15.4229573728
 10
0.9115393764627413
 20
15.4101955648
 10
0.6072141476627451
 20
15.3997949968
 10
0.3030975364627437
 20
15.3914515392
 10
-0.0007084603372505
 20
15.3848610624
  0
LWPOLYLINE
  5
5C1
330
1F
100
AcDbEntity
  8
0
  6
HIDDEN
 62
     8
100
AcDbPolyline
 90
       78
 70
     0
 43
0.0
 10
5.939237307662736
 20
16.2174061632
 10
5.941898194062744
 20
16.2183011632
 10
5.975384974862748
 20
16.2301274
 10
6.008529974862739
 20
16.2428829664
 10
6.041305939662748
 20
16.2565603104
 10
6.073685616462739
 20
16.2711518832
 10
6.105641754062745
 20
16.2866501328
 10
6.136538398862739
 20
16.3027206832
 10
6.166971802062747
 20
16.3196514368
 10
6.196912155662744
 20
16.3374380928
 10
6.226329653262737
 20
16.3560763456
 10
6.255194488462748
 20
16.3755618912
 10
6.283306584462749
 20
16.3957651984
 10
6.310805558862739
 20
16.41679692
 10
6.337653747662741
 20
16.4386526272
 10
6.363813490062739
 20
16.4613278864
 10
6.389247122062741
 20
16.4848182656
 10
6.410072502862746
 20
16.5052278912
 10
6.430326259662749
 20
16.5262072112
 10
6.449978368462737
 20
16.5477510464
 10
6.468998810062743
 20
16.5698542128
 10
6.487357568462741
 20
16.5925115328
 10
6.505024621262748
 20
16.6157178224
 10
6.522014898062749
 20
16.63953437119999
 10
6.538237627662738
 20
16.66388388
 10
6.553651072462741
 20
16.68875244
 10
6.568213493262746
 20
16.7141261424
 10
6.581883154062737
 20
16.7399910768
 10
6.594618317262742
 20
16.766333336
 10
6.605330230862747
 20
16.79063823039999
 10
6.61519816846274
 20
16.8153004704
 10
6.624182152462736
 20
16.8402957504
 10
6.632242198862741
 20
16.8655997632
 10
6.639338325262741
 20
16.8911882032
 10
6.645430554062741
 20
16.9170367616
 10
6.649873403662738
 20
16.939662056
 10
6.653502483662748
 20
16.9624342144
 10
6.656290458062741
 20
16.9853224464
 10
6.658209982862743
 20
17.0082959616
 10
6.659233722062737
 20
17.031323968
 10
6.659334334862748
 20
17.0543756784
 10
6.658404571662742
 20
17.0787986016
 10
6.656385646862744
 20
17.1031574672
 10
6.653256328462745
 20
17.1273961824
 10
6.64899537806275
 20
17.1514586528
 10
6.643581558862749
 20
17.1752887856
 10
6.637356886862747
 20
17.1976539344
 10
6.630078502862744
 20
17.2197015424
 10
6.621751789262745
 20
17.2413742448
 10
6.61238212366274
 20
17.2626146768
 10
6.601974888462748
 20
17.2833654768
 10
6.590628907662747
 20
17.3034231136
 10
6.578300109262741
 20
17.32289496639999
 10
6.56502260686274
 20
17.3417341648
 10
6.550830517262738
 20
17.3598938336
 10
6.535757957262745
 20
17.3773271056
 10
6.521925536462745
 20
17.3919014288
 10
6.507484214862742
 20
17.4058739056
 10
6.49246857166274
 20
17.41923060319999
 10
6.476913184462745
 20
17.4319575872
 10
6.460852634062746
 20
17.44404092479999
 10
6.444321499662748
 20
17.4554666816
 10
6.426626182862747
 20
17.4666648128
 10
6.408494478862749
 20
17.4771376688
 10
6.389963725262745
 20
17.486889584
 10
6.371071264462742
 20
17.4959248928
 10
6.351854435662744
 20
17.5042479312
 10
6.332350578062744
 20
17.5118630368
 10
6.30787307566274
 20
17.5203150688
 10
6.283061952462745
 20
17.52771724
 10
6.257965840462745
 20
17.5340968496
 10
6.232633373262743
 20
17.5394812016
 10
6.207113184462741
 20
17.5438975952
 10
6.180732024462741
 20
17.54745783199999
 10
6.154242008462745
 20
17.5500568016
 10
6.127681256462736
 20
17.5517272624
 10
6.101087893262743
 20
17.5525019776
 10
6.074500040462737
 20
17.5524137024
  0
LINE
  5
6DA
330
1F
100
AcDbEntity
  8
0
100
AcDbLine
 10
-35.69433274193726
 20
19.2363145248
 30
0.0
 11
-35.74999998673725
 21
18.6000350096
 31
0.0
  0
LINE
  5
6DB
330
1F
100
AcDbEntity
  8
0
100
AcDbLine
 10
-24.95214441073725
 20
9.275410993600004
 30
0.0
 11
-30.25414108753725
 21
18.6000350096
 31
0.0
  0
LWPOLYLINE
  5
6DD
330
1F
100
AcDbEntity
  8
0
100
AcDbPolyline
 90
        8
 70
     0
 43
0.0
 10
-24.95214441073725
 20
9.275410993600006
 10
-24.87961450193725
 20
9.147337681600001
 10
-24.80869835793725
 20
9.018235334400005
 10
-24.74658830673726
 20
8.892530827200006
 10
-24.69831533393726
 20
8.769134675200001
 10
-24.66040138193725
 20
8.641372016000007
 10
-24.62576548593725
 20
8.503031464000004
 10
-24.58950732273725
 20
8.349023465600007
  0
LWPOLYLINE
  5
6DE
330
1F
100
AcDbEntity
  8
0
100
AcDbPolyline
 90
       48
 70
     0
 43
0.0
 10
-23.34170624913725
 20
3.092074217600002
 10
-23.32266078993725
 20
3.044996004800006
 10
-23.25650089553725
 20
2.902787412800003
 10
-23.18223769073726
 20
2.770421520000001
 10
-23.10177892753725
 20
2.648784460800003
 10
-23.01715157233725
 20
2.538461928000005
 10
-22.93003351313725
 20
2.439307900800004
 10
-22.84126855633725
 20
2.350309089600004
 10
-22.75135149553725
 20
2.270418184000002
 10
-22.66055638833725
 20
2.198686499200002
 10
-22.56952527633726
 20
2.134638718400006
 10
-22.47943275313725
 20
2.078154921600004
 10
-22.39139477873725
 20
2.028961328000002
 10
-22.30647119153725
 20
1.986667531200007
 10
-22.22585132273725
 20
1.950872966400007
 10
-22.15081088753725
 20
1.921134659200001
 10
-22.08223521233726
 20
1.896814907200004
 10
-22.02029584113725
 20
1.877082099200004
 10
-21.96377465393725
 20
1.860844051200006
 10
-21.91128472273725
 20
1.847210793600007
 10
-21.86170320273725
 20
1.835555284800003
 10
-21.81465553393725
 20
1.8255394304
 10
-21.77013719793726
 20
1.816945529600006
 10
-21.72794787313725
 20
1.809542443200003
 10
-21.68768035633725
 20
1.803098635200003
 10
-21.64883883313725
 20
1.797408940800005
 10
-21.61092824273726
 20
1.792305048000004
 10
-21.57336686033726
 20
1.787638817600006
 10
-21.53560014353725
 20
1.783293304000006
 10
-21.49713950193725
 20
1.779180281600007
 10
-21.45755574353725
 20
1.775233136000005
 10
-21.41644735153725
 20
1.771399294400007
 10
-21.37345696433726
 20
1.767638924800005
 10
-21.32826966833725
 20
1.763922124800005
 10
-21.28059702033725
 20
1.760225667200005
 10
-21.23015994033726
 20
1.756530619200001
 10
-21.17666556433725
 20
1.752820160000007
 10
-21.11983519313725
 20
1.749081004800006
 10
-21.05940215313725
 20
1.745302667200002
 10
-20.99510642033725
 20
1.741476891200003
 10
-20.92669634193725
 20
1.737597313600007
 10
-20.85392503473725
 20
1.733658956800001
 10
-20.77655464113726
 20
1.729658315200007
 10
-20.69434831313725
 20
1.725592787200001
 10
-20.60706005233725
 20
1.721460264000002
 10
-20.51446596593725
 20
1.717260443200006
 10
-20.41634361073725
 20
1.712993576000004
 10
-20.31708121553725
 20
1.708849164800001
  0
LINE
  5
6DF
330
1F
100
AcDbEntity
  8
0
100
AcDbLine
 10
-23.42750126513725
 20
3.368847004800002
 30
0.0
 11
-23.42746237873725
 21
3.368748416000002
 31
0.0
  0
LINE
  5
6E0
330
1F
100
AcDbEntity
  8
0
100
AcDbLine
 10
-23.34179093073725
 20
3.092291329600001
 30
0.0
 11
-23.34170624913725
 21
3.0920742176
 31
0.0
  0
LINE
  5
6E1
330
1F
100
AcDbEntity
  8
0
100
AcDbLine
 10
-23.36356163473725
 20
3.150750292800005
 30
0.0
 11
-23.34179093073725
 21
3.092291329600001
 31
0.0
  0
LINE
  5
6E2
330
1F
100
AcDbEntity
  8
0
100
AcDbLine
 10
-23.38540129713725
 20
3.215738217600005
 30
0.0
 11
-23.34179093073725
 21
3.092291329600001
 31
0.0
  0
LWPOLYLINE
  5
6E3
330
1F
100
AcDbEntity
  8
0
100
AcDbPolyline
 90
        3
 70
     0
 43
0.0
 10
-23.40212159793725
 20
3.271081443200005
 10
-23.36800752753725
 20
3.163404241600007
 10
-23.36356823793726
 20
3.150768889600003
  0
LINE
  5
6E4
330
1F
100
AcDbEntity
  8
0
100
AcDbLine
 10
-23.42760515953725
 20
3.369188364800002
 30
0.0
 11
-23.42750126513725
 21
3.368847004800002
 31
0.0
  0
LINE
  5
6E5
330
1F
100
AcDbEntity
  8
0
100
AcDbLine
 10
-23.42746268753725
 20
3.368749302400004
 30
0.0
 11
-23.38540129713725
 21
3.215738217600005
 31
0.0
  0
LINE
  5
6E6
330
1F
100
AcDbEntity
  8
0
100
AcDbLine
 10
-23.42760506033725
 20
3.369188227200005
 30
0.0
 11
-23.40212159793725
 21
3.271081443200003
 31
0.0
  0
LINE
  5
6E7
330
1F
100
AcDbEntity
  8
0
100
AcDbLine
 10
-23.42760516593725
 20
3.369188392000005
 30
0.0
 11
-24.58950732433725
 21
8.349023473599999
 31
0.0
  0
LWPOLYLINE
  5
6E8
330
1F
100
AcDbEntity
  8
0
100
AcDbPolyline
 90
        3
 70
     0
 43
0.0
 10
-15.91756914193725
 20
0.1057046464000013
 10
-15.95312790993725
 20
0.126163281600002
 10
-15.98587522033725
 20
0.1458881472000062
  0
LINE
  5
6E9
330
1F
100
AcDbEntity
  8
0
100
AcDbLine
 10
-15.98587522033725
 20
0.1458881472000044
 30
0.0
 11
-16.01527762673725
 21
0.1642867280000004
 31
0.0
  0
LINE
  5
6EA
330
1F
100
AcDbEntity
  8
0
100
AcDbLine
 10
-16.01527762673725
 20
0.1642867280000004
 30
0.0
 11
-16.04114589553725
 21
0.181042380800001
 31
0.0
  0
LWPOLYLINE
  5
6EB
330
1F
100
AcDbEntity
  8
0
100
AcDbPolyline
 90
        6
 70
     0
 43
0.0
 10
-16.04114589553725
 20
0.1810423808000028
 10
-16.06336891313725
 20
0.1959214288000073
 10
-16.08247844113725
 20
0.2091491616000045
 10
-16.09996106353725
 20
0.2216997872000039
 10
-16.11674050673725
 20
0.2343020048000017
 10
-16.13242102993725
 20
0.2468447712000046
  0
LINE
  5
6EC
330
1F
100
AcDbEntity
  8
0
100
AcDbLine
 10
-16.13242102993725
 20
0.2468447712000028
 30
0.0
 11
-16.14585212593725
 21
0.258706531200005
 31
0.0
  0
LWPOLYLINE
  5
6EE
330
1F
100
AcDbEntity
  8
0
100
AcDbPolyline
 90
        4
 70
     0
 43
0.0
 10
-16.87488529073725
 20
1.433644681600002
 10
-16.81303486353725
 20
1.376268708800006
 10
-16.76031658513725
 20
1.307095766400005
 10
-16.74247337393725
 20
1.276550016000003
  0
LINE
  5
6EF
330
1F
100
AcDbEntity
  8
0
100
AcDbLine
 10
-16.17552013553725
 20
0.2881882144000016
 30
0.0
 11
-16.14584902993726
 21
0.2587035888000031
 31
0.0
  0
LINE
  5
6F1
330
1F
100
AcDbEntity
  8
0
100
AcDbLine
 10
-16.22748542513725
 20
0.3468326768000054
 30
0.0
 11
-16.17552013553725
 21
0.2881882144000016
 31
0.0
  0
LINE
  5
6F3
330
1F
100
AcDbEntity
  8
0
100
AcDbLine
 10
-16.27523317233726
 20
0.410769552000005
 30
0.0
 11
-16.22748542513725
 21
0.3468326768000054
 31
0.0
  0
LINE
  5
6F4
330
1F
100
AcDbEntity
  8
0
100
AcDbLine
 10
-16.31801647953725
 20
0.4797137183999994
 30
0.0
 11
-16.27523317233726
 21
0.410769552000005
 31
0.0
  0
LWPOLYLINE
  5
6F7
330
1F
100
AcDbEntity
  8
0
100
AcDbPolyline
 90
        3
 70
     0
 43
0.0
 10
-16.74247703473725
 20
1.276532654400002
 10
-16.64866813393725
 20
1.101716403200002
 10
-16.45002406833725
 20
0.7289369776000019
  0
LINE
  5
6F9
330
1F
100
AcDbEntity
  8
0
100
AcDbLine
 10
-16.45002406833725
 20
0.7289369776000001
 30
0.0
 11
-16.31801647953725
 21
0.4797137183999994
 31
0.0
  0
LINE
  5
700
330
1F
100
AcDbEntity
  8
0
100
AcDbLine
 10
-15.81123047473725
 20
0.0538740256000026
 30
0.0
 11
-15.75297745233725
 21
0.0354747872000019
 31
0.0
  0
LINE
  5
701
330
1F
100
AcDbEntity
  8
0
100
AcDbLine
 10
-15.81127542513725
 20
0.0538898256000025
 30
0.0
 11
-15.84383071793725
 21
0.067484449600002
 31
0.0
  0
LINE
  5
702
330
1F
100
AcDbEntity
  8
0
100
AcDbLine
 10
-17.26202640820594
 20
1.62506748686669
 30
0.0
 11
-16.94131646353725
 21
1.477498276800005
 31
0.0
  0
LINE
  5
703
330
1F
100
AcDbEntity
  8
0
100
AcDbLine
 10
-15.84383071793725
 20
0.067484449600002
 30
0.0
 11
-15.88044950353725
 21
0.085607145600001
 31
0.0
  0
LINE
  5
704
330
1F
100
AcDbEntity
  8
0
100
AcDbLine
 10
-15.88044950353725
 20
0.085607145600001
 30
0.0
 11
-15.91756914193725
 21
0.1057046463999995
 31
0.0
  0
LINE
  5
706
330
1F
100
AcDbEntity
  8
0
100
AcDbLine
 10
-16.94131646353725
 20
1.477498276800005
 30
0.0
 11
-16.87488529073725
 21
1.4336446816
 31
0.0
  0
LINE
  5
708
330
1F
100
AcDbEntity
  8
0
100
AcDbLine
 10
15.69169278126274
 20
0.0204103216000036
 30
0.0
 11
15.75297748046274
 21
0.0354747872000019
 31
0.0
  0
LWPOLYLINE
  5
709
330
1F
100
AcDbEntity
  8
0
100
AcDbPolyline
 90
        3
 70
     0
 43
0.0
 10
15.57523435726274
 20
0.0033104912000059
 10
15.63213045806274
 20
0.0097976272000029
 10
15.69169278126274
 20
0.0204103216000053
  0
LWPOLYLINE
  5
70A
330
1F
100
AcDbEntity
  8
0
100
AcDbPolyline
 90
        3
 70
     0
 43
0.0
 10
-15.69169275473725
 20
0.0204103216000053
 10
-15.63213042993725
 20
0.0097976272000029
 10
-15.57523432913725
 20
0.0033104912000059
  0
LINE
  5
70B
330
1F
100
AcDbEntity
  8
0
100
AcDbLine
 10
-15.75297745233725
 20
0.0354747872000019
 30
0.0
 11
-15.69169275473725
 21
0.0204103216000036
 31
0.0
  0
LWPOLYLINE
  5
712
330
1F
100
AcDbEntity
  8
0
100
AcDbPolyline
 90
        3
 70
     0
 43
0.0
 10
-6.42476586993726
 20
0.0033104720000043
 10
-6.367869756337256
 20
0.0097975952000073
 10
-6.308307410737256
 20
0.020410281600002
  0
LWPOLYLINE
  5
716
330
1F
100
AcDbEntity
  8
0
100
AcDbPolyline
 90
       46
 70
     0
 43
0.0
 10
20.41722503726274
 20
1.713031123200005
 10
20.51648431726273
 20
1.7173501216
 10
20.61006811246274
 20
1.721599756800005
 10
20.69821169006274
 20
1.725779912000001
 10
20.78115247406274
 20
1.729891115200006
 10
20.85914921326274
 20
1.733935744000001
 10
20.93245076526274
 20
1.737916699200001
 10
21.00130643086274
 20
1.741837833600003
 10
21.06597570446274
 20
1.745704622400007
 10
21.12672184526275
 20
1.749523969600007
 10
21.18381701806274
 20
1.753304862400002
 10
21.23754044046273
 20
1.757058694400003
 10
21.28818429326274
 20
1.760799910400004
 10
21.33605119406274
 20
1.764546491200002
 10
21.38141803566274
 20
1.768317756800003
 10
21.42457661006274
 20
1.7721378384
 10
21.46584882286274
 20
1.776038065600006
 10
21.50561400526274
 20
1.780061630400007
 10
21.54433431566273
 20
1.784269721600006
 10
21.58252297806274
 20
1.788742923200006
 10
21.62076944526273
 20
1.793589993600003
 10
21.65975749966274
 20
1.798959100800006
 10
21.70016677646273
 20
1.805034934400007
 10
21.74248755246274
 20
1.812015656000001
 10
21.78719667086274
 20
1.820140702400005
 10
21.83464881006274
 20
1.829675126400006
 10
21.88490323886274
 20
1.840864932800004
 10
21.93774936206274
 20
1.853914249600004
 10
21.99321047886275
 20
1.869094721600001
 10
22.05154713646274
 20
1.886779432000006
 10
22.11375430766274
 20
1.907663032000003
 10
22.18270251886274
 20
1.933364438400007
 10
22.26078182766273
 20
1.965879116800005
 10
22.34638280526275
 20
2.005938304000006
 10
22.43676862606274
 20
2.0536074256
 10
22.53028037966274
 20
2.109232304000004
 10
22.62545968206274
 20
2.173112404800003
 10
22.72076131566274
 20
2.245310980800001
 10
22.81504701006274
 20
2.326021030400001
 10
22.90818103886274
 20
2.416363444800007
 10
22.99988238606273
 20
2.517754091200005
 10
23.08940908046274
 20
2.631653822400005
 10
23.17452756846275
 20
2.757907292800007
 10
23.25219562446274
 20
2.894442440000007
 10
23.31994827726274
 20
3.038555446400005
 10
23.34168465006274
 20
3.092018779200005
  0
LINE
  5
717
330
1F
100
AcDbEntity
  8
0
100
AcDbLine
 10
20.30700597966274
 20
1.708437785600004
 30
0.0
 11
20.41722503726274
 21
1.713031123200003
 31
0.0
  0
LWPOLYLINE
  5
71E
330
1F
100
AcDbEntity
  8
0
100
AcDbPolyline
 90
        3
 70
     0
 43
0.0
 10
15.49999974926274
 20
0.0001193840000031
 10
15.52055749166274
 20
0.0003682128000069
 10
15.57523435726274
 20
0.0033104912000059
  0
LWPOLYLINE
  5
71F
330
1F
100
AcDbEntity
  8
0
100
AcDbPolyline
 90
        3
 70
     0
 43
0.0
 10
-6.500000252337258
 20
0.0001193840000031
 10
-6.479442748337262
 20
0.0003682064000063
 10
-6.42476586993726
 20
0.0033104720000043
  0
LINE
  5
720
330
1F
100
AcDbEntity
  8
0
100
AcDbLine
 10
-15.49999986833725
 20
0.0
 30
0.0
 11
15.49999989486273
 21
0.0
 31
0.0
  0
LINE
  5
721
330
1F
100
AcDbEntity
  8
0
100
AcDbLine
 10
-1.271446594737255
 20
0.8187500000000014
 30
0.0
 11
1.27144662286274
 21
0.8187500000000014
 31
0.0
  0
LWPOLYLINE
  5
727
330
1F
100
AcDbEntity
  8
0
100
AcDbPolyline
 90
        8
 70
     0
 43
0.0
 10
-20.11680487633725
 20
1.701038590400004
 10
-19.89769021233726
 20
1.693216622400003
 10
-19.65428812913725
 20
1.685185433600006
 10
-19.38633578193725
 20
1.676961315200005
 10
-19.09373862193725
 20
1.668567830400002
 10
-18.77650786993725
 20
1.660032310400007
 10
-18.43474868753725
 20
1.651384456000004
 10
-18.07627651793725
 20
1.642833860800005
  0
LINE
  5
729
330
1F
100
AcDbEntity
  8
0
100
AcDbLine
 10
-20.31708043153725
 20
1.708849132800004
 30
0.0
 11
-20.11680487633725
 21
1.701038590400003
 31
0.0
  0
LWPOLYLINE
  5
72C
330
1F
100
AcDbEntity
  8
0
100
AcDbPolyline
 90
        3
 70
     0
 43
0.0
 10
-15.57523432913725
 20
0.0033104912000059
 10
-15.52055746513725
 20
0.0003682128000069
 10
-15.49999972113725
 20
0.0001193840000031
  0
LWPOLYLINE
  5
72D
330
1F
100
AcDbEntity
  8
0
100
AcDbPolyline
 90
        3
 70
     0
 43
0.0
 10
6.424765898062744
 20
0.0033104720000043
 10
6.479442776462747
 20
0.0003682064000063
 10
6.500000280462742
 20
0.0001193840000031
  0
LINE
  5
734
330
1F
100
AcDbEntity
  8
0
100
AcDbLine
 10
-1.942159873137256
 20
1.333073510400005
 30
0.0
 11
-1.969616010737254
 21
1.338860000000003
 31
0.0
  0
LWPOLYLINE
  5
738
330
1F
100
AcDbEntity
  8
0
100
AcDbPolyline
 90
        3
 70
     0
 43
0.0
 10
1.997562930062741
 20
1.341059459200005
 10
1.995447656462744
 20
1.340475424000006
 10
1.989109168462746
 20
1.340174043200002
  0
LINE
  5
73A
330
1F
100
AcDbEntity
  8
0
100
AcDbLine
 10
-6.308307410737256
 20
0.0204102816000003
 30
0.0
 11
-6.247022689137253
 21
0.035474739200005
 31
0.0
  0
LWPOLYLINE
  5
73D
330
1F
100
AcDbEntity
  8
0
100
AcDbPolyline
 90
       25
 70
     0
 43
0.0
 10
-1.97762918513726
 20
1.344434817600005
 10
-1.951340853937253
 20
1.346628430400004
 10
-1.914306805937258
 20
1.349164305600007
 10
-1.866775887537258
 20
1.352026286400006
 10
-1.808893764337256
 20
1.355201756800001
 10
-1.741607698737254
 20
1.358631784000005
 10
-1.666835183537259
 20
1.362213182400006
 10
-1.586383852337263
 20
1.365854257600007
 10
-1.502547178737259
 20
1.369446428800005
 10
-1.41690223793725
 20
1.372918510400007
 10
-1.330130228337253
 20
1.376237915200002
 10
-1.242476249137254
 20
1.379387451200004
 10
-1.154067084337256
 20
1.382352214400002
 10
-1.065001693937261
 20
1.385116974400007
 10
-0.9751450539372541
 20
1.387672491200001
 10
-0.8841213083372565
 20
1.390013304000001
 10
-0.7914049755372617
 20
1.392132769600005
 10
-0.6966030923372557
 20
1.394015870400005
 10
-0.5997561899372528
 20
1.395637099200003
 10
-0.5009991595372583
 20
1.396972740800004
 10
-0.4006593867372601
 20
1.398004179200002
 10
-0.2996298667372628
 20
1.398723014400006
 10
-0.1988856043372635
 20
1.399146704000004
 10
-0.0988591835372574
 20
1.399327073600007
 10
-0.0000000011372521
 20
1.399357382400006
  0
LWPOLYLINE
  5
743
330
1F
100
AcDbEntity
  8
0
100
AcDbPolyline
 90
        9
 70
     0
 43
0.0
 10
18.07627651406274
 20
1.642833859200004
 10
18.43409453006273
 20
1.651368390400003
 10
18.77588199566274
 20
1.660015982400006
 10
19.09314320046274
 20
1.668551292800005
 10
19.38577267086275
 20
1.676944612800001
 10
19.65375925646275
 20
1.685168612800007
 10
19.89719737326274
 20
1.693199721600004
 10
20.11634958446273
 20
1.701021633600001
 10
20.30704557486274
 20
1.708439398400004
  0
LWPOLYLINE
  5
746
330
1F
100
AcDbEntity
  8
0
100
AcDbPolyline
 90
        4
 70
     0
 43
0.0
 10
16.85192835086275
 20
1.616834441600007
 10
17.28023454446274
 20
1.625430017600004
 10
17.69128073006274
 20
1.634165784000005
 10
18.07627717646274
 20
1.642833875200006
  0
LWPOLYLINE
  5
759
330
1F
100
AcDbEntity
  8
0
100
AcDbPolyline
 90
       14
 70
     0
 43
0.0
 10
16.04977225166274
 20
1.601953636800006
 10
14.74543102926274
 20
1.577095865600002
 10
13.25372783406274
 20
1.548454984000004
 10
11.61262521166274
 20
1.5168395344
 10
9.986434842062749
 20
1.485559198400006
 10
8.514703238862736
 20
1.457431643200004
 10
7.241531077262749
 20
1.433356715200007
 10
6.153281646862737
 20
1.413068222400001
 10
5.209124541262738
 20
1.395771702400006
 10
4.382323958862741
 20
1.380942763200005
 10
3.658371162062749
 20
1.368284761600003
 10
3.026085038862746
 20
1.357561409600004
 10
2.47515748046274
 20
1.348553724800007
 10
1.99758387246274
 20
1.341083721600002
  0
LWPOLYLINE
  5
762
330
1F
100
AcDbEntity
  8
0
100
AcDbPolyline
 90
        5
 70
     0
 43
0.0
 10
16.04977225166274
 20
1.601953636800006
 10
16.22834080846274
 20
1.605138908800002
 10
16.40505656846274
 20
1.608360267200007
 10
16.58199312686274
 20
1.611657744000007
 10
16.85192835086275
 20
1.616834441600007
  0
LWPOLYLINE
  5
774
330
1F
100
AcDbEntity
  8
0
100
AcDbPolyline
 90
       25
 70
     0
 43
0.0
 10
0.0000000292627504
 20
1.399357382400006
 10
0.0988486324627474
 20
1.399327083200001
 10
0.1988686740627372
 20
1.399146752000001
 10
0.2996117220627497
 20
1.398723116800001
 10
0.4006445540627368
 20
1.398004308800006
 10
0.5009853588627493
 20
1.396972905600003
 10
0.5997398948627364
 20
1.395637347200002
 10
0.6965834212627442
 20
1.394016232000007
 10
0.7913819444627422
 20
1.392133262400003
 10
0.8840975284627461
 20
1.390013881600006
 10
0.9751199924627371
 20
1.387673171200001
 10
1.064973333262742
 20
1.385117819200006
 10
1.154038514062747
 20
1.382353139200001
 10
1.242451515662736
 20
1.379388310400004
 10
1.330108802062738
 20
1.376238710400004
 10
1.416882371662737
 20
1.3729192944
 10
1.502528341262745
 20
1.369447216000006
 10
1.586364410062742
 20
1.365855115200007
 10
1.666816902862748
 20
1.362214033600006
 10
1.74159795086274
 20
1.358632267200002
 10
1.80889104686274
 20
1.355201902400006
 10
1.866772930062737
 20
1.352026457600006
 10
1.914303882062739
 20
1.349164492800001
 10
1.951338525262741
 20
1.346628606400004
 10
1.977627304462743
 20
1.344435001600006
  0
LWPOLYLINE
  5
78A
330
1F
100
AcDbEntity
  8
0
100
AcDbPolyline
 90
        3
 70
     0
 43
0.0
 10
-16.40568057073725
 20
1.608371734400003
 10
-16.22883572273726
 20
1.605147851200003
 10
-16.04980048273725
 20
1.601954172800001
  0
LWPOLYLINE
  5
791
330
1F
100
AcDbEntity
  8
0
100
AcDbPolyline
 90
       14
 70
     0
 43
0.0
 10
-16.04980048273725
 20
1.601954172800001
 10
-14.74548947793725
 20
1.577096985600002
 10
-13.25378745553725
 20
1.548456132800007
 10
-11.61268225073725
 20
1.516840635200006
 10
-9.986482735537258
 20
1.485560118400004
 10
-8.514740641137258
 20
1.457432355200007
 10
-7.24155899153726
 20
1.433357240000001
 10
-6.153302249137254
 20
1.413068603200004
 10
-5.209139535537261
 20
1.395771974400007
 10
-4.382334463537262
 20
1.380942948800006
 10
-3.658378042737254
 20
1.368284880000006
 10
-3.026089029937253
 20
1.357561476800002
 10
-2.475159199537259
 20
1.348553752000002
 10
-1.997583845937256
 20
1.341083721600002
  0
LINE
  5
792
330
1F
100
AcDbEntity
  8
0
100
AcDbLine
 10
-16.65898854513725
 20
1.613116032
 30
0.0
 11
-16.40568057073725
 21
1.608371734400002
 31
0.0
  0
LWPOLYLINE
  5
7A7
330
1F
100
AcDbEntity
  8
0
100
AcDbPolyline
 90
        5
 70
     0
 43
0.0
 10
-18.07627712913725
 20
1.642833875200006
 10
-17.69525089073725
 20
1.634252665600003
 10
-17.28564341073725
 20
1.625541764800006
 10
-16.85642342353725
 20
1.616922145600002
 10
-16.65965261713725
 20
1.613129204800005
  0
LINE
  5
7AF
330
1F
100
AcDbEntity
  8
0
100
AcDbLine
 10
-1.969616010737254
 20
1.338860000000003
 30
0.0
 11
-1.997587079537254
 21
1.341083940800004
 31
0.0
  0
LWPOLYLINE
  5
7B2
330
1F
100
AcDbEntity
  8
0
100
AcDbPolyline
 90
        3
 70
     0
 43
0.0
 10
1.977627304462743
 20
1.344435001600006
 10
1.993083165262746
 20
1.342586486400003
 10
1.997589474062749
 20
1.341083313600003
  0
LWPOLYLINE
  5
7B3
330
1F
100
AcDbEntity
  8
0
100
AcDbPolyline
 90
        3
 70
     0
 43
0.0
 10
6.30830743886274
 20
0.020410281600002
 10
6.36786978446274
 20
0.0097975952000073
 10
6.424765898062744
 20
0.0033104720000043
  0
LINE
  5
7B4
330
1F
100
AcDbEntity
  8
0
100
AcDbLine
 10
6.247022717262737
 20
0.035474739200005
 30
0.0
 11
6.30830743886274
 21
0.0204102816000003
 31
0.0
  0
LINE
  5
7B6
330
1F
100
AcDbEntity
  8
0
100
AcDbLine
 10
4.760469997793649
 20
1.387724936240751
 30
0.0
 11
5.114154856462747
 21
1.2826864608
 31
0.0
  0
LINE
  5
7B7
330
1F
100
AcDbEntity
  8
0
100
AcDbLine
 10
6.188769525262742
 20
0.0538740256000026
 30
0.0
 11
6.247022717262737
 21
0.035474739200005
 31
0.0
  0
LINE
  5
7B8
330
1F
100
AcDbEntity
  8
0
100
AcDbLine
 10
-1.915670628337252
 20
1.3238198608
 30
0.0
 11
-1.942159873137256
 21
1.333073510400005
 31
0.0
  0
LINE
  5
7B9
330
1F
100
AcDbEntity
  8
0
100
AcDbLine
 10
6.188724574862746
 20
0.0538898256000025
 30
0.0
 11
6.156169290062749
 21
0.0674844464000017
 31
0.0
  0
LINE
  5
7BA
330
1F
100
AcDbEntity
  8
0
100
AcDbLine
 10
-1.890584154737254
 20
1.311251320000003
 30
0.0
 11
-1.915670628337252
 21
1.3238198608
 31
0.0
  0
LINE
  5
7BB
330
1F
100
AcDbEntity
  8
0
100
AcDbLine
 10
-1.867313253937254
 20
1.295574704000003
 30
0.0
 11
-1.890584154737254
 21
1.311251320000003
 31
0.0
  0
LINE
  5
7BC
330
1F
100
AcDbEntity
  8
0
100
AcDbLine
 10
-1.846240847537259
 20
1.277047971200005
 30
0.0
 11
-1.867313253937254
 21
1.295574704000003
 31
0.0
  0
LINE
  5
7BD
330
1F
100
AcDbEntity
  8
0
100
AcDbLine
 10
-1.470320377137255
 20
0.9011262176000016
 30
0.0
 11
-1.846218879537261
 21
1.27702472
 31
0.0
  0
LINE
  5
7BE
330
1F
100
AcDbEntity
  8
0
100
AcDbLine
 10
-1.846218879537261
 20
1.27702472
 30
0.0
 11
-1.846240879537262
 21
1.277047966400004
 31
0.0
  0
LINE
  5
7BF
330
1F
100
AcDbEntity
  8
0
100
AcDbLine
 10
-1.997562903537257
 20
1.341059459200003
 30
0.0
 11
-1.997583845937256
 21
1.3410837216
 31
0.0
  0
LWPOLYLINE
  5
7C7
330
1F
100
AcDbEntity
  8
0
100
AcDbPolyline
 90
       13
 70
     0
 43
0.0
 10
-3.793669209137263
 20
15.2740992288
 10
-4.25889057233725
 20
14.838188736
 10
-4.758371548337251
 20
14.4094250528
 10
-5.295364434737251
 20
13.9871960864
 10
-5.87412330833726
 20
13.5707293024
 10
-6.499369673137252
 20
13.159633448
 10
-7.176808577137251
 20
12.753624008
 10
-7.913233700337258
 20
12.3526277264
 10
-8.717195911537253
 20
11.9566352816
 10
-9.596186210737258
 20
11.5671951488
 10
-10.55070124913725
 20
11.1892461648
 10
-11.55612675473725
 20
10.8354862384
 10
-12.54537534513725
 20
10.5266091168
  0
LWPOLYLINE
  5
7D0
330
1F
100
AcDbEntity
  8
0
100
AcDbPolyline
 90
        6
 70
     0
 43
0.0
 10
5.114154856462747
 20
1.282686460800002
 10
5.17878033166275
 20
1.253059012800003
 10
5.240291141262744
 20
1.2131283616
 10
5.297820552462738
 20
1.161956907200002
 10
5.350122298062743
 20
1.097724291200004
 10
5.378370541262739
 20
1.051204969600002
  0
LINE
  5
7D1
330
1F
100
AcDbEntity
  8
0
100
AcDbLine
 10
6.156169290062749
 20
0.0674844464000017
 30
0.0
 11
6.119550504462736
 21
0.0856071424000007
 31
0.0
  0
LINE
  5
7D3
330
1F
100
AcDbEntity
  8
0
100
AcDbLine
 10
6.119550504462736
 20
0.0856071424000007
 30
0.0
 11
6.082430864462736
 21
0.1057046431999993
 31
0.0
  0
LWPOLYLINE
  5
7D4
330
1F
100
AcDbEntity
  8
0
100
AcDbPolyline
 90
        3
 70
     0
 43
0.0
 10
6.082430864462736
 20
0.1057046432000011
 10
6.046872094862749
 20
0.1261632784000017
 10
6.014124782862737
 20
0.1458881456000061
  0
LINE
  5
7D5
330
1F
100
AcDbEntity
  8
0
100
AcDbLine
 10
6.014124782862737
 20
0.1458881456000043
 30
0.0
 11
5.984722374862741
 21
0.1642867264000003
 31
0.0
  0
LINE
  5
7D6
330
1F
100
AcDbEntity
  8
0
100
AcDbLine
 10
5.984722374862741
 20
0.1642867264000003
 30
0.0
 11
5.958854104462744
 21
0.181042380800001
 31
0.0
  0
LWPOLYLINE
  5
7D7
330
1F
100
AcDbEntity
  8
0
100
AcDbPolyline
 90
        6
 70
     0
 43
0.0
 10
5.958854104462744
 20
0.1810423808000028
 10
5.936631088462746
 20
0.1959214272000072
 10
5.917521558862745
 20
0.2091491616000045
 10
5.900038930062748
 20
0.2216997904000042
 10
5.883259486862741
 20
0.234302008000002
 10
5.867578966862737
 20
0.2468447728000047
  0
LINE
  5
7E4
330
1F
100
AcDbEntity
  8
0
100
AcDbLine
 10
5.867578966862737
 20
0.2468447728000029
 30
0.0
 11
5.854147874062746
 21
0.258706531200005
 31
0.0
  0
LINE
  5
7E5
330
1F
100
AcDbEntity
  8
0
100
AcDbLine
 10
5.824479909262748
 20
0.2881881680000049
 30
0.0
 11
5.854150970062747
 21
0.2587035888000031
 31
0.0
  0
LINE
  5
7E8
330
1F
100
AcDbEntity
  8
0
100
AcDbLine
 10
5.772514606862742
 20
0.3468326384000022
 30
0.0
 11
5.824479909262748
 21
0.2881881680000049
 31
0.0
  0
LINE
  5
7F8
330
1F
100
AcDbEntity
  8
0
100
AcDbLine
 10
0.0000000132627491
 20
18.6000350096
 30
0.0
 11
0.0000000132627491
 21
18.0215941728
 31
0.0
  0
LINE
  5
7FA
330
1F
100
AcDbEntity
  8
CENTER
100
AcDbLine
 10
-0.0000000011372521
 20
-1.948540068297949
 30
0.0
 11
0.0000000024280836
 21
4.160221430850428
 31
0.0
  0
LWPOLYLINE
  5
80B
330
1F
100
AcDbEntity
  8
0
100
AcDbPolyline
 90
       19
 70
     0
 43
0.0
 10
-1.18749998513725
 20
16.8447007136
 10
-1.18439447633726
 20
16.9297302176
 10
-1.172164151537259
 20
17.0331357824
 10
-1.150782967537253
 20
17.1349460032
 10
-1.120392801137256
 20
17.23454424959999
 10
-1.081302121137255
 20
17.3309672192
 10
-1.03370122673725
 20
17.423743328
 10
-0.9780643195372533
 20
17.5119273264
 10
-0.9147457483372534
 20
17.59496084
 10
-0.8443002091372591
 20
17.672107776
 10
-0.7672931787372619
 20
17.7427633184
 10
-0.6842138571372516
 20
17.8064671664
 10
-0.5958036123372637
 20
17.8626363408
 10
-0.502670525937262
 20
17.9108753856
 10
-0.4060112827372535
 20
17.9506166688
 10
-0.3064967659372542
 20
17.9816881344
 10
-0.2051934907372583
 20
18.003877632
 10
-0.1027140907372512
 20
18.0171799744
 10
0.0000000132627491
 20
18.0215941728
  0
LWPOLYLINE
  5
81A
330
1F
100
AcDbEntity
  8
0
100
AcDbPolyline
 90
        3
 70
     0
 43
0.0
 10
-5.670385477937259
 20
0.500864062400007
 10
-5.574175511537262
 20
0.6832383744000073
 10
-5.402848308337254
 20
1.005408942400004
  0
LINE
  5
81B
330
1F
100
AcDbEntity
  8
0
100
AcDbLine
 10
-5.402848308337254
 20
1.005408942400002
 30
0.0
 11
-5.378375285937252
 21
1.051189300800004
 31
0.0
  0
LWPOLYLINE
  5
81F
330
1F
100
AcDbEntity
  8
0
100
AcDbPolyline
 90
       11
 70
     0
 43
0.0
 10
-22.41177277553725
 20
8.898095384000002
 10
-22.54722309233725
 20
8.885984134400006
 10
-22.65999276433725
 20
8.876618945600002
 10
-22.75511796593725
 20
8.869217979200003
 10
-22.84002382833726
 20
8.863010044800001
 10
-22.92108798033725
 20
8.857427835200001
 10
-23.00046854833726
 20
8.852271444800004
 10
-23.07752956913725
 20
8.847528153600004
 10
-23.15262738993725
 20
8.8430988752
 10
-23.22662496113725
 20
8.838836737600006
 10
-23.30033130993725
 20
8.834558699200004
  0
LWPOLYLINE
  5
820
330
1F
100
AcDbEntity
  8
0
100
AcDbPolyline
 90
        5
 70
     0
 43
0.0
 10
-21.72937584753725
 20
8.961025059200006
 10
-21.93936184913725
 20
8.942943323200006
 10
-22.12032153713725
 20
8.926132308800001
 10
-22.27639039473725
 20
8.911017214400006
 10
-22.41177277553725
 20
8.898095384000002
  0
LWPOLYLINE
  5
821
330
1F
100
AcDbEntity
  8
0
100
AcDbPolyline
 90
        3
 70
     0
 43
0.0
 10
-21.06519063793725
 20
9.016596128000005
 10
-21.32811327153725
 20
8.994389092800007
 10
-21.44829661553726
 20
8.984297068800005
  0
LWPOLYLINE
  5
822
330
1F
100
AcDbEntity
  8
0
100
AcDbPolyline
 90
        4
 70
     0
 43
0.0
 10
-21.44829661553726
 20
8.984297068800005
 10
-21.54676790993725
 20
8.976098830400006
 10
-21.64028957553726
 20
8.968379366400002
 10
-21.72937584753725
 20
8.961025059200006
  0
LINE
  5
823
330
1F
100
AcDbEntity
  8
0
100
AcDbLine
 10
-23.30033130993725
 20
8.834558699200002
 30
0.0
 11
-23.36066261073725
 21
8.830928806400002
 31
0.0
  0
LINE
  5
824
330
1F
100
AcDbEntity
  8
0
100
AcDbLine
 10
23.30033133806274
 20
8.834558699200002
 30
0.0
 11
23.36066263886274
 21
8.830928806400002
 31
0.0
  0
LWPOLYLINE
  5
825
330
1F
100
AcDbEntity
  8
0
100
AcDbPolyline
 90
        4
 70
     0
 43
0.0
 10
21.44829664366274
 20
8.984297068800005
 10
21.54676793806274
 20
8.976098830400006
 10
21.64028960366273
 20
8.968379366400002
 10
21.72937587566273
 20
8.961025059200006
  0
LWPOLYLINE
  5
826
330
1F
100
AcDbEntity
  8
0
100
AcDbPolyline
 90
        4
 70
     0
 43
0.0
 10
21.06519066606274
 20
9.016596128000005
 10
21.20025789486274
 20
9.005177857600004
 10
21.32811329966274
 20
8.994389092800007
 10
21.44829664366274
 20
8.984297068800005
  0
LWPOLYLINE
  5
827
330
1F
100
AcDbEntity
  8
0
100
AcDbPolyline
 90
        5
 70
     0
 43
0.0
 10
21.72937587566273
 20
8.961025059200006
 10
21.93936187726273
 20
8.942943323200006
 10
22.12032156526274
 20
8.926132308800001
 10
22.27639042286274
 20
8.911017214400006
 10
22.41177280366274
 20
8.898095384000002
  0
LWPOLYLINE
  5
828
330
1F
100
AcDbEntity
  8
0
100
AcDbPolyline
 90
       11
 70
     0
 43
0.0
 10
22.41177280366274
 20
8.898095384000002
 10
22.54722311886274
 20
8.885984134400006
 10
22.65999279246274
 20
8.876618945600002
 10
22.75511799406274
 20
8.869217979200003
 10
22.84002385646275
 20
8.863010044800001
 10
22.92108800846274
 20
8.857427835200001
 10
23.00046857486273
 20
8.852271444800004
 10
23.07752959726273
 20
8.847528153600004
 10
23.15262741646275
 20
8.8430988752
 10
23.22662498926274
 20
8.838836737600006
 10
23.30033133806274
 20
8.834558699200004
  0
LINE
  5
82A
330
1F
100
AcDbEntity
  8
0
100
AcDbLine
 10
5.724766848462749
 20
0.4107695216000025
 30
0.0
 11
5.772514606862742
 21
0.3468326384000022
 31
0.0
  0
LINE
  5
82B
330
1F
100
AcDbEntity
  8
0
100
AcDbLine
 10
5.681983531662737
 20
0.4797136992000049
 30
0.0
 11
5.724766848462749
 21
0.4107695216000025
 31
0.0
  0
LINE
  5
82C
330
1F
100
AcDbEntity
  8
0
100
AcDbLine
 10
5.670256941262749
 20
0.5012776224000035
 30
0.0
 11
5.681983531662737
 21
0.4797136992000049
 31
0.0
  0
LINE
  5
82E
330
1F
100
AcDbEntity
  8
0
100
AcDbLine
 10
5.378375195662741
 20
1.051189523200001
 30
0.0
 11
5.402848338062739
 21
1.005408936000002
 31
0.0
  0
LINE
  5
82F
330
1F
100
AcDbEntity
  8
0
100
AcDbLine
 10
5.402848338062739
 20
1.005408936000002
 30
0.0
 11
5.574175541262746
 21
0.6832383712000052
 31
0.0
  0
LINE
  5
830
330
1F
100
AcDbEntity
  8
0
100
AcDbLine
 10
5.574175541262746
 20
0.6832383712000052
 30
0.0
 11
5.670256941262749
 21
0.5012776224000035
 31
0.0
  0
LWPOLYLINE
  5
837
330
1F
100
AcDbEntity
  8
0
100
AcDbPolyline
 90
       20
 70
     0
 43
0.0
 10
1.187500013262749
 20
16.8447008816
 10
1.187348970062743
 20
16.82598268
 10
1.18111862126274
 20
16.7230025488
 10
1.165965851662747
 20
16.6218433488
 10
1.142289603662746
 20
16.5234231184
 10
1.11045122926275
 20
16.42817628
 10
1.070866346062743
 20
16.3366846896
 10
1.023746794062745
 20
16.2490909776
 10
0.9694973556627388
 20
16.1659911104
 10
0.908247971662746
 20
16.0875600048
 10
0.8403474692627384
 20
16.0143371776
 10
0.7660182804627454
 20
15.9467110368
 10
0.6854737828627436
 20
15.885109024
 10
0.5991522276627422
 20
15.830134648
 10
0.5074135860627394
 20
15.7823039632
 10
0.4112819060627402
 20
15.7423822944
 10
0.3113979252627388
 20
15.7107980592
 10
0.2089505748627403
 20
15.6880275632
 10
0.1047619476627375
 20
15.6742856512
 10
0.0000000132627491
 20
15.6697075088
  0
LINE
  5
838
330
1F
100
AcDbEntity
  8
0
100
AcDbLine
 10
-5.37837006193726
 20
1.051206020800002
 30
0.0
 11
-5.354790813937256
 21
1.090780259200002
 31
0.0
  0
LWPOLYLINE
  5
839
330
1F
100
AcDbEntity
  8
0
100
AcDbPolyline
 90
        3
 70
     0
 43
0.0
 10
-5.724766820337251
 20
0.4107695216000043
 10
-5.681983505137253
 20
0.4797136992000067
 10
-5.670385477937259
 20
0.500864062400007
  0
LINE
  5
83A
330
1F
100
AcDbEntity
  8
0
100
AcDbLine
 10
-5.772514578737258
 20
0.3468326384000022
 30
0.0
 11
-5.724766820337251
 21
0.4107695216000025
 31
0.0
  0
LINE
  5
83C
330
1F
100
AcDbEntity
  8
0
100
AcDbLine
 10
-5.354790813937256
 20
1.090780259200002
 30
0.0
 11
-5.296453564337255
 21
1.163371128000001
 31
0.0
  0
LINE
  5
83D
330
1F
100
AcDbEntity
  8
0
100
AcDbLine
 10
-5.82447988113725
 20
0.2881881680000049
 30
0.0
 11
-5.772514578737258
 21
0.3468326384000022
 31
0.0
  0
LWPOLYLINE
  5
840
330
1F
100
AcDbEntity
  8
0
100
AcDbPolyline
 90
       20
 70
     0
 43
0.0
 10
-14.35251571633725
 20
10.0493025616
 10
-14.94935952113725
 20
9.913603667200002
 10
-15.47226567633726
 20
9.802861788800003
 10
-15.93591632273725
 20
9.710738758400006
 10
-16.35172721073725
 20
9.632781257600003
 10
-16.72653530353725
 20
9.566157548800001
 10
-17.06753576913725
 20
9.508456166400003
 10
-17.38159259473725
 20
9.457703092800004
 10
-17.67379430513725
 20
9.412489467200005
 10
-17.95286594353725
 20
9.371074228800006
 10
-18.22724904273725
 20
9.332002737600001
 10
-18.50105233233725
 20
9.294610185600001
 10
-18.78016267633725
 20
9.258102124800005
 10
-19.07142883473725
 20
9.221702523200002
 10
-19.37501268593725
 20
9.185573102400001
 10
-19.68995028113725
 20
9.150004755200003
 10
-20.01637426993725
 20
9.115151908800003
 10
-20.35432296113725
 20
9.081181859200002
 10
-20.70395716273725
 20
9.048251876800003
 10
-21.06519221553726
 20
9.016544068800003
  0
LWPOLYLINE
  5
843
330
1F
100
AcDbEntity
  8
0
100
AcDbPolyline
 90
       20
 70
     0
 43
0.0
 10
14.35251574286275
 20
10.0493025616
 10
14.94935954766273
 20
9.913603667200002
 10
15.47226570446274
 20
9.802861788800003
 10
15.93591635086274
 20
9.710738758400006
 10
16.35172723886275
 20
9.632781257600003
 10
16.72653533166274
 20
9.566157548800001
 10
17.06753579566274
 20
9.508456166400003
 10
17.38159262126274
 20
9.457703092800004
 10
17.67379433326274
 20
9.412489467200005
 10
17.95286597166274
 20
9.371074228800006
 10
18.22724907086274
 20
9.332002737600001
 10
18.50105236046273
 20
9.294610185600001
 10
18.78016270446273
 20
9.258102124800005
 10
19.07142886286274
 20
9.221702523200002
 10
19.37501271406274
 20
9.185573102400001
 10
19.68995030766274
 20
9.150004755200003
 10
20.01637429646274
 20
9.115151908800003
 10
20.35432298926274
 20
9.081181859200002
 10
20.70395719086274
 20
9.048251876800003
 10
21.06519224206274
 20
9.016544068800003
  0
LINE
  5
855
330
1F
100
AcDbEntity
  8
0
100
AcDbLine
 10
-5.854150770737263
 20
0.2587037520000024
 30
0.0
 11
-5.82447988113725
 21
0.2881881680000049
 31
0.0
  0
LWPOLYLINE
  5
856
330
1F
100
AcDbEntity
  8
0
100
AcDbPolyline
 90
        4
 70
     0
 43
0.0
 10
-5.854157890737255
 20
0.2586969824000054
 10
-5.86957530513726
 20
0.2451900864000027
 10
-5.886929961137255
 20
0.2314869360000049
 10
-5.905524284337261
 20
0.217707686400006
  0
LINE
  5
857
330
1F
100
AcDbEntity
  8
0
100
AcDbLine
 10
-5.296453564337255
 20
1.163371128000001
 30
0.0
 11
-5.22841208113725
 21
1.221877067200004
 31
0.0
  0
LINE
  5
858
330
1F
100
AcDbEntity
  8
0
100
AcDbLine
 10
-5.905524284337261
 20
0.2177076864000043
 30
0.0
 11
-5.92443443473725
 21
0.2043116448000006
 31
0.0
  0
LWPOLYLINE
  5
859
330
1F
100
AcDbEntity
  8
0
100
AcDbPolyline
 90
        4
 70
     0
 43
0.0
 10
-12.54537534513725
 20
10.5266091168
 10
-13.20998610673725
 20
10.3387717472
 10
-13.81083230833725
 20
10.1814961648
 10
-14.35251571633725
 20
10.0493025616
  0
LWPOLYLINE
  5
85C
330
1F
100
AcDbEntity
  8
0
100
AcDbPolyline
 90
       20
 70
     0
 43
0.0
 10
0.0000000132627491
 20
15.6697075088
 10
-0.1047612331372534
 20
15.674285592
 10
-0.2089475067372604
 20
15.6880270272
 10
-0.3114014187372618
 20
15.7107990048
 10
-0.4112846683372596
 20
15.7423833136
 10
-0.5074237291372583
 20
15.7823087168
 10
-0.5991633947372606
 20
15.8301411184
 10
-0.6854779371372502
 20
15.8851119488
 10
-0.7660211963372632
 20
15.9467134944
 10
-0.8403443259372522
 20
16.0143340928
 10
-0.9082513627372605
 20
16.0875640192
 10
-0.9694996859372508
 20
16.165994408
 10
-1.023753346737251
 20
16.2491020576
 10
-1.070874193137257
 20
16.3367009488
 10
-1.11045903633726
 20
16.428196744
 10
-1.142298505137262
 20
16.5234542288
 10
-1.165973903537249
 20
16.6218847824
 10
-1.181125769137253
 20
16.723070824
 10
-1.187350231537251
 20
16.8260628464
 10
-1.18749998513725
 20
16.8447007136
  0
LWPOLYLINE
  5
85E
330
1F
100
AcDbEntity
  8
0
100
AcDbPolyline
 90
        4
 70
     0
 43
0.0
 10
12.54537537326274
 20
10.5266091168
 10
13.20998613486274
 20
10.3387717472
 10
13.81083233646273
 20
10.1814961648
 10
14.35251574286275
 20
10.0493025616
  0
LINE
  5
86E
330
1F
100
AcDbEntity
  8
0
100
AcDbLine
 10
1.99758387246274
 20
1.3410837216
 30
0.0
 11
1.997562930062741
 21
1.341059459200003
 31
0.0
  0
LINE
  5
86F
330
1F
100
AcDbEntity
  8
0
100
AcDbLine
 10
-5.92443443473725
 20
0.2043116448000006
 30
0.0
 11
-5.944632789937259
 21
0.1905071888000052
 31
0.0
  0
LINE
  5
870
330
1F
100
AcDbEntity
  8
0
100
AcDbLine
 10
-5.944632789937259
 20
0.1905071888000052
 30
0.0
 11
-5.967652156337251
 21
0.1752800624000059
 31
0.0
  0
LINE
  5
871
330
1F
100
AcDbEntity
  8
0
100
AcDbLine
 10
-5.967652156337251
 20
0.1752800624000059
 30
0.0
 11
-5.993942602737263
 21
0.1584459712000026
 31
0.0
  0
LWPOLYLINE
  5
872
330
1F
100
AcDbEntity
  8
0
100
AcDbPolyline
 90
        3
 70
     0
 43
0.0
 10
-5.993942602737263
 20
0.1584459712000044
 10
-6.023717650737253
 20
0.1400264288000077
 10
-6.056979378737253
 20
0.1202415120000015
  0
LWPOLYLINE
  5
874
330
1F
100
AcDbEntity
  8
0
100
AcDbPolyline
 90
        3
 70
     0
 43
0.0
 10
-5.22841208113725
 20
1.221877067200006
 10
-5.157228130737252
 20
1.264207392000004
 10
-4.845458218656148
 20
1.389249228300707
  0
LINE
  5
875
330
1F
100
AcDbEntity
  8
0
100
AcDbLine
 10
-6.056979378737253
 20
0.1202415119999998
 30
0.0
 11
-6.092821861937252
 21
0.099936825600004
 31
0.0
  0
LINE
  5
877
330
1F
100
AcDbEntity
  8
0
100
AcDbLine
 10
-6.092821861937252
 20
0.099936825600004
 30
0.0
 11
-6.128853479537255
 21
0.0808144048000017
 31
0.0
  0
LINE
  5
879
330
1F
100
AcDbEntity
  8
0
100
AcDbLine
 10
-6.128853479537255
 20
0.0808144048000017
 30
0.0
 11
-6.161815860337256
 21
0.0649014432000001
 31
0.0
  0
LINE
  5
87B
330
1F
100
AcDbEntity
  8
0
100
AcDbLine
 10
-6.161815860337256
 20
0.0649014432000001
 30
0.0
 11
-6.188801228337254
 21
0.0538628720000034
 31
0.0
  0
LINE
  5
89F
330
1F
100
AcDbEntity
  8
0
100
AcDbLine
 10
-35.74999998673725
 20
18.6000350096
 30
0.0
 11
35.75000001326275
 21
18.60003500959999
 31
0.0
  0
LWPOLYLINE
  5
8B1
330
1F
100
AcDbEntity
  8
0
100
AcDbPolyline
 90
       19
 70
     0
 43
0.0
 10
0.0000000132627491
 20
18.0215941728
 10
0.1027329700627462
 20
18.017178352
 10
0.2052219508627502
 20
18.0038726848
 10
0.3065409012627498
 20
17.9816764464
 10
0.4060643908627384
 20
17.9505975136
 10
0.5027391604627383
 20
17.9108435952
 10
0.5958778228627466
 20
17.8625936704
 10
0.684283592462748
 20
17.8064184368
 10
0.7673596644627452
 20
17.7427075312
 10
0.8443589172627383
 20
17.6720489536
 10
0.9148047684627442
 20
17.5948901936
 10
0.9781150276627386
 20
17.5118543696
 10
1.033748622862745
 20
17.423660296
 10
1.081340880462747
 20
17.3308826656
 10
1.120425325262743
 20
17.2344525792
 10
1.150808306062742
 20
17.134847512
 10
1.172181067662748
 20
17.0330326784
 10
1.184401776462749
 20
16.9296307616
 10
1.187500013262749
 20
16.8447008816
  0
LWPOLYLINE
  5
8CF
330
1F
100
AcDbEntity
  8
0
100
AcDbPolyline
 90
       13
 70
     0
 43
0.0
 10
3.793669235662747
 20
15.2740992288
 10
4.258890598862748
 20
14.838188736
 10
4.758371576462749
 20
14.4094250528
 10
5.29536446286275
 20
13.9871960864
 10
5.874123336462744
 20
13.5707293024
 10
6.499369701262736
 20
13.159633448
 10
7.176808605262749
 20
12.753624008
 10
7.913233726862742
 20
12.3526277264
 10
8.717195939662744
 20
11.9566352816
 10
9.596186238862742
 20
11.5671951488
 10
10.55070127726274
 20
11.1892461648
 10
11.55612678286274
 20
10.8354862384
 10
12.54537537326274
 20
10.5266091168
  0
LINE
  5
8D0
330
1F
100
AcDbEntity
  8
0
100
AcDbLine
 10
1.846240906062746
 20
1.277047966400004
 30
0.0
 11
1.846218907662745
 21
1.27702472
 31
0.0
  0
LINE
  5
8D1
330
1F
100
AcDbEntity
  8
0
100
AcDbLine
 10
1.470320405262739
 20
0.9011262176000016
 30
0.0
 11
1.846218907662745
 21
1.27702472
 31
0.0
  0
LWPOLYLINE
  5
8D2
330
1F
100
AcDbEntity
  8
0
100
AcDbPolyline
 90
       16
 70
     0
 43
0.0
 10
1.846219014862739
 20
1.277024828800003
 10
1.853472230862749
 20
1.283952009600001
 10
1.869644707662743
 20
1.297334436800001
 10
1.886361579662747
 20
1.308690745600005
 10
1.903184795662738
 20
1.318014600000006
 10
1.919647357262746
 20
1.325371656000003
 10
1.935090848462749
 20
1.330847497600005
 10
1.948705632462747
 20
1.334612926400007
 10
1.95994726126274
 20
1.337005220800003
 10
1.968839547662739
 20
1.338446958400007
 10
1.975790909262741
 20
1.339295273600003
 10
1.981082210062737
 20
1.339771560000004
 10
1.984905270862739
 20
1.340018043200005
 10
1.987422194062745
 20
1.340129643200002
 10
1.988805110862742
 20
1.340169430400004
 10
1.988903464462737
 20
1.340171456000001
  0
LWPOLYLINE
  5
8D7
330
1F
100
AcDbEntity
  8
0
100
AcDbPolyline
 90
        3
 70
     0
 43
0.0
 10
-1.997589445937251
 20
1.341083313600003
 10
-1.993083849137249
 20
1.342586368
 10
-1.97762918513726
 20
1.344434817600005
  0
LINE
  5
8D8
330
1F
100
AcDbEntity
  8
0
100
AcDbLine
 10
-6.247022689137253
 20
0.035474739200005
 30
0.0
 11
-6.188771837937252
 21
0.0538732032000056
 31
0.0
  0
LINE
  5
8DE
330
1F
100
AcDbEntity
  8
0
100
AcDbLine
 10
35.50754626286274
 20
19.407472824
 30
0.0
 11
35.49857166766274
 21
19.407472824
 31
0.0
  0
LINE
  5
8DF
330
1F
100
AcDbEntity
  8
0
100
AcDbLine
 10
35.49857166766274
 20
19.407472824
 30
0.0
 11
-35.50754623633725
 21
19.407472824
 31
0.0
  0
LINE
  5
8E2
330
1F
100
AcDbEntity
  8
0
100
AcDbLine
 10
-34.32655998673725
 20
20.6000350096
 30
0.0
 11
34.32656001326275
 21
20.6000350096
 31
0.0
  0
LINE
  5
8E5
330
1F
100
AcDbEntity
  8
0
100
AcDbLine
 10
16.95500262926273
 20
1.484763537600002
 30
0.0
 11
17.02127769646274
 21
1.5127850816
 31
0.0
  0
LINE
  5
8E6
330
1F
100
AcDbEntity
  8
0
100
AcDbLine
 10
15.75297748046274
 20
0.0354747872000019
 30
0.0
 11
15.81122816366274
 21
0.0538732032000056
 31
0.0
  0
LINE
  5
8EB
330
1F
100
AcDbEntity
  8
0
100
AcDbLine
 10
16.07556570926274
 20
0.2043117440000017
 30
0.0
 11
16.05536736686274
 21
0.1905072943999997
 31
0.0
  0
LINE
  5
8EC
330
1F
100
AcDbEntity
  8
0
100
AcDbLine
 10
16.05536736686274
 20
0.1905072943999997
 30
0.0
 11
16.03234799886274
 21
0.1752801615999999
 31
0.0
  0
LINE
  5
8ED
330
1F
100
AcDbEntity
  8
0
100
AcDbLine
 10
16.03234799886274
 20
0.1752801615999999
 30
0.0
 11
16.00605753806275
 21
0.1584460608000029
 31
0.0
  0
LINE
  5
8EE
330
1F
100
AcDbEntity
  8
0
100
AcDbLine
 10
16.88573476366274
 20
1.441886790400005
 30
0.0
 11
17.17896769997507
 21
1.62339771717783
 31
0.0
  0
LWPOLYLINE
  5
8EF
330
1F
100
AcDbEntity
  8
0
100
AcDbPolyline
 90
        3
 70
     0
 43
0.0
 10
16.00605753806275
 20
0.1584460608000047
 10
15.97628246766274
 20
0.1400265008000066
 10
15.94302071086274
 20
0.1202415648000059
  0
LINE
  5
8F1
330
1F
100
AcDbEntity
  8
0
100
AcDbLine
 10
15.94302071086274
 20
0.1202415648000041
 30
0.0
 11
15.90717819886273
 21
0.0999368591999996
 31
0.0
  0
LINE
  5
8F2
330
1F
100
AcDbEntity
  8
0
100
AcDbLine
 10
15.90717819886273
 20
0.0999368591999996
 30
0.0
 11
15.87114655566274
 21
0.0808144224000032
 31
0.0
  0
LINE
  5
8F3
330
1F
100
AcDbEntity
  8
0
100
AcDbLine
 10
15.87114655566274
 20
0.0808144224000032
 30
0.0
 11
15.83818416206274
 21
0.0649014528000009
 31
0.0
  0
LINE
  5
8F4
330
1F
100
AcDbEntity
  8
0
100
AcDbLine
 10
15.83818416206274
 20
0.0649014528000009
 30
0.0
 11
15.81119877166274
 21
0.0538628736000035
 31
0.0
  0
LWPOLYLINE
  5
8F7
330
1F
100
AcDbEntity
  8
0
100
AcDbPolyline
 90
        3
 70
     0
 43
0.0
 10
16.32961395886273
 20
0.5008629920000037
 10
16.45002409646274
 20
0.728936979200002
 10
16.64866816526274
 20
1.101716406400003
  0
LINE
  5
8F9
330
1F
100
AcDbEntity
  8
0
100
AcDbLine
 10
16.64866816526274
 20
1.101716406400001
 30
0.0
 11
16.74247706926274
 21
1.276532667200001
 31
0.0
  0
LINE
  5
8FB
330
1F
100
AcDbEntity
  8
0
100
AcDbLine
 10
16.74247338126274
 20
1.276549979200005
 30
0.0
 11
16.76418861486274
 21
1.313120094400005
 31
0.0
  0
LWPOLYLINE
  5
8FC
330
1F
100
AcDbEntity
  8
0
100
AcDbPolyline
 90
        3
 70
     0
 43
0.0
 10
16.27523320046275
 20
0.4107695520000068
 10
16.31801650606274
 20
0.4797137184000011
 10
16.32961395886273
 20
0.5008629920000037
  0
LINE
  5
8FD
330
1F
100
AcDbEntity
  8
0
100
AcDbLine
 10
16.22748545166274
 20
0.3468326768000054
 30
0.0
 11
16.27523320046275
 21
0.410769552000005
 31
0.0
  0
LWPOLYLINE
  5
8FF
330
1F
100
AcDbEntity
  8
0
100
AcDbPolyline
 90
        3
 70
     0
 43
0.0
 10
16.76418861486274
 20
1.313120094400007
 10
16.82031240206274
 20
1.384095416000002
 10
16.88573476366274
 20
1.441886790400007
  0
LINE
  5
900
330
1F
100
AcDbEntity
  8
0
100
AcDbLine
 10
16.17552016366273
 20
0.2881882144000016
 30
0.0
 11
16.22748545166274
 21
0.3468326768000054
 31
0.0
  0
LINE
  5
902
330
1F
100
AcDbEntity
  8
0
100
AcDbLine
 10
16.14584905806273
 20
0.2587035888000031
 30
0.0
 11
16.17552011886274
 21
0.2881881680000049
 31
0.0
  0
LWPOLYLINE
  5
904
330
1F
100
AcDbEntity
  8
0
100
AcDbPolyline
 90
        4
 70
     0
 43
0.0
 10
16.14584210926274
 20
0.2586969824000054
 10
16.13042475086274
 20
0.2451901328000066
 10
16.11307012686273
 20
0.2314870032000034
 10
16.09447583406274
 20
0.2177077712000059
  0
LINE
  5
905
330
1F
100
AcDbEntity
  8
0
100
AcDbLine
 10
16.09447583406274
 20
0.2177077712000042
 30
0.0
 11
16.07556570926274
 21
0.2043117440000017
 31
0.0
  0
LWPOLYLINE
  5
906
330
1F
100
AcDbEntity
  8
0
100
AcDbPolyline
 90
        8
 70
     0
 43
0.0
 10
24.95214443726274
 20
9.275410993600006
 10
24.87961453006274
 20
9.147337681600001
 10
24.80869838606274
 20
9.018235334400005
 10
24.74658833326275
 20
8.892530827200006
 10
24.69831536206274
 20
8.769134675200001
 10
24.66040141006274
 20
8.641372016000007
 10
24.62576551406275
 20
8.503031464000004
 10
24.58950735086274
 20
8.349023465600007
  0
LINE
  5
908
330
1F
100
AcDbEntity
  8
0
100
AcDbLine
 10
24.95214443886274
 20
9.275410993600004
 30
0.0
 11
30.2541411154036
 21
18.60003500959999
 31
0.0
  0
LINE
  5
909
330
1F
100
AcDbEntity
  8
0
100
AcDbLine
 10
23.42760519406275
 20
3.369188392000005
 30
0.0
 11
24.58950735246274
 21
8.349023473599999
 31
0.0
  0
LINE
  5
90A
330
1F
100
AcDbEntity
  8
0
100
AcDbLine
 10
23.42746271566274
 20
3.368749302400004
 30
0.0
 11
23.38540132366274
 21
3.215738216000005
 31
0.0
  0
LINE
  5
90B
330
1F
100
AcDbEntity
  8
0
100
AcDbLine
 10
23.42750129326275
 20
3.368847004800002
 30
0.0
 11
23.42760518766275
 21
3.369188366400003
 31
0.0
  0
LWPOLYLINE
  5
90C
330
1F
100
AcDbEntity
  8
0
100
AcDbPolyline
 90
        3
 70
     0
 43
0.0
 10
23.36356569166274
 20
3.1507616416
 10
23.40131254766274
 20
3.268265364800003
 10
23.42760508846274
 20
3.369188228800007
  0
LINE
  5
90D
330
1F
100
AcDbEntity
  8
0
100
AcDbLine
 10
23.38540132366274
 20
3.215738216000005
 30
0.0
 11
23.34178883566274
 21
3.092285886399999
 31
0.0
  0
LWPOLYLINE
  5
90E
330
1F
100
AcDbEntity
  8
0
100
AcDbPolyline
 90
        3
 70
     0
 43
0.0
 10
23.34178883566274
 20
3.0922858864
 10
23.36122050766275
 20
3.144192062400003
 10
23.36356012206273
 20
3.150745952000002
  0
LINE
  5
90F
330
1F
100
AcDbEntity
  8
0
100
AcDbLine
 10
23.34178883566274
 20
3.092285886399999
 30
0.0
 11
23.34168465006274
 21
3.092018779200003
 31
0.0
  0
LINE
  5
910
330
1F
100
AcDbEntity
  8
0
100
AcDbLine
 10
23.42746240526274
 20
3.368748416000002
 30
0.0
 11
23.42750129326275
 21
3.368847004800002
 31
0.0
  0
LINE
  5
917
330
1F
100
AcDbEntity
  8
0
100
AcDbLine
 10
35.69433277006274
 20
19.2363145248
 30
0.0
 11
35.75000001326275
 21
18.6000350096
 31
0.0
  0
ARC
  5
AC4
330
1F
100
AcDbEntity
  8
0
100
AcDbCircle
 10
35.50754626286274
 20
19.219972824
 30
0.0
 40
0.1875
100
AcDbArc
 50
5.0
 51
90.0
  0
ARC
  5
AC5
330
1F
100
AcDbEntity
  8
0
100
AcDbCircle
 10
35.49857166766274
 20
19.532472824
 30
0.0
 40
0.125
100
AcDbArc
 50
187.3948580938
 51
270.0
  0
ARC
  5
AC6
330
1F
100
AcDbEntity
  8
0
100
AcDbCircle
 10
34.53544825806274
 20
19.407472824
 30
0.0
 40
0.8462011632000001
100
AcDbArc
 50
7.3948580938
 51
73.7448652878
  0
ARC
  5
AC7
330
1F
100
AcDbEntity
  8
0
100
AcDbCircle
 10
34.80730208206274
 20
20.33985
 30
0.0
 40
0.125
100
AcDbArc
 50
192.5944851431999
 51
253.7448652878
  0
ARC
  5
AC8
330
1F
100
AcDbEntity
  8
0
100
AcDbCircle
 10
34.32656001326275
 20
20.23244
 30
0.0
 40
0.3675950096
100
AcDbArc
 50
12.5944851432
 51
90.0
  0
ARC
  5
AD6
330
1F
100
AcDbEntity
  8
0
100
AcDbCircle
 10
-34.80730205393725
 20
20.33985
 30
0.0
 40
0.125
100
AcDbArc
 50
286.2551347122
 51
347.4055148568
  0
ARC
  5
AD7
330
1F
100
AcDbEntity
  8
0
100
AcDbCircle
 10
-34.53544823153726
 20
19.407472824
 30
0.0
 40
0.8462011632000001
100
AcDbArc
 50
106.2551347122
 51
172.6051419061999
  0
ARC
  5
AD8
330
1F
100
AcDbEntity
  8
0
100
AcDbCircle
 10
-35.49857163953725
 20
19.532472824
 30
0.0
 40
0.125
100
AcDbArc
 50
270.0
 51
352.6051419062
  0
ARC
  5
AD9
330
1F
100
AcDbEntity
  8
0
100
AcDbCircle
 10
-35.50754623633725
 20
19.219972824
 30
0.0
 40
0.1875
100
AcDbArc
 50
90.0
 51
175.0
  0
ARC
  5
ADA
330
1F
100
AcDbEntity
  8
0
100
AcDbCircle
 10
-34.32655998673725
 20
20.23244
 30
0.0
 40
0.3675950096
100
AcDbArc
 50
90.0
 51
167.4055148568
  0
ARC
  5
ADB
330
1F
100
AcDbEntity
  8
0
100
AcDbCircle
 10
-1.271446594737255
 20
1.100000000000001
 30
0.0
 40
0.28125
100
AcDbArc
 50
225.0
 51
270.0
  0
ARC
  5
ADC
330
1F
100
AcDbEntity
  8
0
100
AcDbCircle
 10
1.27144662286274
 20
1.100000000000001
 30
0.0
 40
0.28125
100
AcDbArc
 50
270.0
 51
315.0
  0
LINE
  5
B52
330
1F
100
AcDbEntity
  8
CENTER
100
AcDbLine
 10
0.0000000082692141
 20
14.16827591420322
 30
0.0
 11
0.0000000113944487
 21
19.52297870922606
 31
0.0
  0
LINE
  5
B53
330
1F
100
AcDbEntity
  8
CENTER
100
AcDbLine
 10
2.677351407342712
 20
16.8447007113443
 30
0.0
 11
-2.677351387680131
 21
16.84470071446954
 31
0.0
  0
LINE
  5
B82
330
1F
100
AcDbEntity
  8
0
  6
HIDDEN
 62
     8
100
AcDbLine
 10
34.02489715886274
 20
20.47391230719995
 30
0.0
 11
31.60788877006275
 21
20.35995131359999
 31
0.0
  0
ARC
  5
B83
330
1F
100
AcDbEntity
  8
0
  6
HIDDEN
 62
     8
100
AcDbCircle
 10
34.32656001326275
 20
20.23243999999999
 30
0.0
 40
0.3675950096
100
AcDbArc
 50
90.0
 51
135.0391275032001
  0
ARC
  5
B84
330
1F
100
AcDbEntity
  8
0
  6
HIDDEN
 62
     8
100
AcDbCircle
 10
34.02222929966275
 20
20.53635534079995
 30
0.0
 40
0.0625
100
AcDbArc
 50
272.4464693244001
 51
315.0385283208001
  0
ARC
  5
B85
330
1F
100
AcDbEntity
  8
0
  6
HIDDEN
 62
     8
100
AcDbCircle
 10
31.61834791726274
 20
20.11517465599996
 30
0.0
 40
0.2449999984
100
AcDbArc
 50
92.44664809350021
 51
174.9317103238999
  0
ARC
  5
B86
330
1F
100
AcDbEntity
  8
0
  6
HIDDEN
 62
     8
100
AcDbCircle
 10
31.10907804206273
 20
19.78749999999996
 30
0.0
 40
0.1875
100
AcDbArc
 50
89.99979808069985
 51
150.3773680480999
  0
ARC
  5
B87
330
1F
100
AcDbEntity
  8
0
  6
HIDDEN
 62
     8
100
AcDbCircle
 10
31.19750001326274
 20
20.15249999999997
 30
0.0
 40
0.1775
100
AcDbArc
 50
270.0
 51
354.9317444691999
  0
LINE
  5
B88
330
1F
100
AcDbEntity
  8
0
  6
HIDDEN
 62
     8
100
AcDbLine
 10
30.94608434446276
 20
19.88017848799995
 30
0.0
 11
30.21819264054928
 21
18.60003500959999
 31
0.0
  0
LINE
  5
B89
330
1F
100
AcDbEntity
  8
0
  6
HIDDEN
 62
     8
100
AcDbLine
 10
31.1090787028421
 20
19.9749999999988
 30
0.0
 11
31.19750001326274
 21
19.97499999999997
 31
0.0
  0
LINE
  5
B8A
330
1F
100
AcDbEntity
  8
0
  6
HIDDEN
 62
     8
100
AcDbLine
 10
-34.02489713233724
 20
20.47391230719995
 30
0.0
 11
-31.60788874353726
 21
20.35995131359999
 31
0.0
  0
ARC
  5
B8B
330
1F
100
AcDbEntity
  8
0
  6
HIDDEN
 62
     8
100
AcDbCircle
 10
-31.19749998673724
 20
20.15249999999997
 30
0.0
 40
0.1775
100
AcDbArc
 50
185.0682555308
 51
270.0
  0
ARC
  5
B8C
330
1F
100
AcDbEntity
  8
0
  6
HIDDEN
 62
     8
100
AcDbCircle
 10
-31.10907801553723
 20
19.78749999999996
 30
0.0
 40
0.1875
100
AcDbArc
 50
29.62263195190003
 51
90.00020191930017
  0
LINE
  5
B8D
330
1F
100
AcDbEntity
  8
0
  6
HIDDEN
 62
     8
100
AcDbLine
 10
-30.94608431793726
 20
19.88017848799995
 30
0.0
 11
-30.21819261402378
 21
18.60003500959999
 31
0.0
  0
ARC
  5
B8E
330
1F
100
AcDbEntity
  8
0
  6
HIDDEN
 62
     8
100
AcDbCircle
 10
-31.61834789073724
 20
20.11517465599996
 30
0.0
 40
0.2449999984
100
AcDbArc
 50
5.068289676100024
 51
87.55335190649979
  0
LINE
  5
B8F
330
1F
100
AcDbEntity
  8
0
  6
HIDDEN
 62
     8
100
AcDbLine
 10
-31.10907867631659
 20
19.9749999999988
 30
0.0
 11
-31.19749998673724
 21
19.97499999999997
 31
0.0
  0
ARC
  5
B90
330
1F
100
AcDbEntity
  8
0
  6
HIDDEN
 62
     8
100
AcDbCircle
 10
-34.32655998673725
 20
20.23243999999999
 30
0.0
 40
0.3675950096
100
AcDbArc
 50
44.96087249679983
 51
90.0
  0
ARC
  5
B91
330
1F
100
AcDbEntity
  8
0
  6
HIDDEN
 62
     8
100
AcDbCircle
 10
-34.02222927313725
 20
20.53635534079995
 30
0.0
 40
0.0625
100
AcDbArc
 50
224.9614716791998
 51
267.5535306755998
  0
ENDSEC
  0
SECTION
  2
OBJECTS
  0
DICTIONARY
  5
C
330
0
100
AcDbDictionary
  3
ACAD_GROUP
350
D
  3
ACAD_LAYOUT
350
1A
  3
ACAD_MLINESTYLE
350
17
  3
ACAD_PLOTSETTINGS
350
19
  3
ACAD_PLOTSTYLENAME
350
E
  3
ACDBHEADERROUNDTRIPXREC
350
BA0
  0
DICTIONARY
  5
B42
330
1F
100
AcDbDictionary
280
     1
  3
ACAD_LAYOUTSELFREF
360
BC2
  0
DICTIONARY
  5
B40
330
1B
100
AcDbDictionary
280
     1
  3
ACAD_LAYOUTSELFREF
360
BC1
  0
DICTIONARY
  5
D
102
{ACAD_REACTORS
330
C
102
}
330
C
100
AcDbDictionary
  0
DICTIONARY
  5
1A
102
{ACAD_REACTORS
330
C
102
}
330
C
100
AcDbDictionary
  0
DICTIONARY
  5
17
102
{ACAD_REACTORS
330
C
102
}
330
C
100
AcDbDictionary
  3
STANDARD
350
18
  0
DICTIONARY
  5
19
102
{ACAD_REACTORS
330
C
102
}
330
C
100
AcDbDictionary
  0
ACDBDICTIONARYWDFLT
  5
E
102
{ACAD_REACTORS
330
C
102
}
330
C
100
AcDbDictionary
281
     1
  3
Normal
350
F
100
AcDbDictionaryWithDefault
340
F
  0
DICTIONARY
  5
BA0
102
{ACAD_REACTORS
330
C
102
}
330
C
100
AcDbDictionary
  3
CEPSNTYPE
350
BAA
  3
DIMSTYLEDATA
350
BAE
  3
FINGERPRINTGUID
350
BAB
  3
HYPERLINKBASE
350
BA3
  3
INSUNITS
350
BA9
  3
LAYOUTDICT
350
BA5
  3
LWETCUNION
350
BA8
  3
PLOTSETDICT
350
BA6
  3
PLOTSTYLNAMDICT
350
BA7
  3
PSVPSCALE
350
BAD
  3
PUCSBASE
350
BB1
  3
PUCSORGBACK
350
BB7
  3
PUCSORGBOTTOM
350
BB3
  3
PUCSORGFRONT
350
BB6
  3
PUCSORGLEFT
350
BB4
  3
PUCSORGRIGHT
350
BB5
  3
PUCSORGTOP
350
BB2
  3
PUCSORTHOREF
350
BAF
  3
PUCSORTHOVIEW
350
BB0
  3
STYLESHEET
350
BA4
  3
TSTACKALIGN
350
BA1
  3
TSTACKSIZE
350
BA2
  3
UCSBASE
350
BBA
  3
UCSORGBACK
350
BC0
  3
UCSORGBOTTOM
350
BBC
  3
UCSORGFRONT
350
BBF
  3
UCSORGLEFT
350
BBD
  3
UCSORGRIGHT
350
BBE
  3
UCSORGTOP
350
BBB
  3
UCSORTHOREF
350
BB8
  3
UCSORTHOVIEW
350
BB9
  3
VERSIONGUID
350
BAC
  0
XRECORD
  5
BC2
102
{ACAD_REACTORS
330
B42
102
}
330
B42
100
AcDbXrecord
340
1F
  0
XRECORD
  5
BC1
102
{ACAD_REACTORS
330
B40
102
}
330
B40
100
AcDbXrecord
340
1B
  0
MLINESTYLE
  5
18
102
{ACAD_REACTORS
330
17
102
}
330
17
100
AcDbMlineStyle
  2
STANDARD
 70
     0
  3

 62
   256
 51
90.0
 52
90.0
 71
     2
 49
0.5
 62
   256
  6
BYLAYER
 49
-0.5
 62
   256
  6
BYLAYER
  0
ACDBPLACEHOLDER
  5
F
102
{ACAD_REACTORS
330
E
102
}
330
0
100
AcDbPlaceHolder
280
     0
  0
XRECORD
  5
BAA
102
{ACAD_REACTORS
330
BA0
102
}
330
BA0
100
AcDbXrecord
 90
        0
  0
XRECORD
  5
BAE
102
{ACAD_REACTORS
330
BA0
102
}
330
BA0
100
AcDbXrecord
1000
DSTYLE
1002
{
1070
   278
 70
     0
1070
   342
340
220
1070
   371
 70
     0
1070
   372
 70
     0
1002
}
  0
XRECORD
  5
BAB
102
{ACAD_REACTORS
330
BA0
102
}
330
BA0
100
AcDbXrecord
  1

  0
XRECORD
  5
BA3
102
{ACAD_REACTORS
330
BA0
102
}
330
BA0
100
AcDbXrecord
  1

  0
XRECORD
  5
BA9
102
{ACAD_REACTORS
330
BA0
102
}
330
BA0
100
AcDbXrecord
 90
        1
  0
XRECORD
  5
BA5
102
{ACAD_REACTORS
330
BA0
102
}
330
BA0
100
AcDbXrecord
340
1A
  0
XRECORD
  5
BA8
102
{ACAD_REACTORS
330
BA0
102
}
330
BA0
100
AcDbXrecord
 90
    10781
  0
XRECORD
  5
BA6
102
{ACAD_REACTORS
330
BA0
102
}
330
BA0
100
AcDbXrecord
340
19
  0
XRECORD
  5
BA7
102
{ACAD_REACTORS
330
BA0
102
}
330
BA0
100
AcDbXrecord
340
E
  0
XRECORD
  5
BAD
102
{ACAD_REACTORS
330
BA0
102
}
330
BA0
100
AcDbXrecord
 40
0.0
  0
XRECORD
  5
BB1
102
{ACAD_REACTORS
330
BA0
102
}
330
BA0
100
AcDbXrecord
340
0
  0
XRECORD
  5
BB7
102
{ACAD_REACTORS
330
BA0
102
}
330
BA0
100
AcDbXrecord
 10
0.0
 20
0.0
 30
0.0
  0
XRECORD
  5
BB3
102
{ACAD_REACTORS
330
BA0
102
}
330
BA0
100
AcDbXrecord
 10
0.0
 20
0.0
 30
0.0
  0
XRECORD
  5
BB6
102
{ACAD_REACTORS
330
BA0
102
}
330
BA0
100
AcDbXrecord
 10
0.0
 20
0.0
 30
0.0
  0
XRECORD
  5
BB4
102
{ACAD_REACTORS
330
BA0
102
}
330
BA0
100
AcDbXrecord
 10
0.0
 20
0.0
 30
0.0
  0
XRECORD
  5
BB5
102
{ACAD_REACTORS
330
BA0
102
}
330
BA0
100
AcDbXrecord
 10
0.0
 20
0.0
 30
0.0
  0
XRECORD
  5
BB2
102
{ACAD_REACTORS
330
BA0
102
}
330
BA0
100
AcDbXrecord
 10
0.0
 20
0.0
 30
0.0
  0
XRECORD
  5
BAF
102
{ACAD_REACTORS
330
BA0
102
}
330
BA0
100
AcDbXrecord
340
0
  0
XRECORD
  5
BB0
102
{ACAD_REACTORS
330
BA0
102
}
330
BA0
100
AcDbXrecord
 70
     0
  0
XRECORD
  5
BA4
102
{ACAD_REACTORS
330
BA0
102
}
330
BA0
100
AcDbXrecord
  1

  0
XRECORD
  5
BA1
102
{ACAD_REACTORS
330
BA0
102
}
330
BA0
100
AcDbXrecord
 90
        1
  0
XRECORD
  5
BA2
102
{ACAD_REACTORS
330
BA0
102
}
330
BA0
100
AcDbXrecord
 90
       70
  0
XRECORD
  5
BBA
102
{ACAD_REACTORS
330
BA0
102
}
330
BA0
100
AcDbXrecord
340
0
  0
XRECORD
  5
BC0
102
{ACAD_REACTORS
330
BA0
102
}
330
BA0
100
AcDbXrecord
 10
0.0
 20
0.0
 30
0.0
  0
XRECORD
  5
BBC
102
{ACAD_REACTORS
330
BA0
102
}
330
BA0
100
AcDbXrecord
 10
0.0
 20
0.0
 30
0.0
  0
XRECORD
  5
BBF
102
{ACAD_REACTORS
330
BA0
102
}
330
BA0
100
AcDbXrecord
 10
0.0
 20
0.0
 30
0.0
  0
XRECORD
  5
BBD
102
{ACAD_REACTORS
330
BA0
102
}
330
BA0
100
AcDbXrecord
 10
0.0
 20
0.0
 30
0.0
  0
XRECORD
  5
BBE
102
{ACAD_REACTORS
330
BA0
102
}
330
BA0
100
AcDbXrecord
 10
0.0
 20
0.0
 30
0.0
  0
XRECORD
  5
BBB
102
{ACAD_REACTORS
330
BA0
102
}
330
BA0
100
AcDbXrecord
 10
0.0
 20
0.0
 30
0.0
  0
XRECORD
  5
BB8
102
{ACAD_REACTORS
330
BA0
102
}
330
BA0
100
AcDbXrecord
340
0
  0
XRECORD
  5
BB9
102
{ACAD_REACTORS
330
BA0
102
}
330
BA0
100
AcDbXrecord
 70
     0
  0
XRECORD
  5
BAC
102
{ACAD_REACTORS
330
BA0
102
}
330
BA0
100
AcDbXrecord
  1
{1349ADE3-1BE7-479B-A9C0-3AEC10BC6A23}
  0
ENDSEC
  0
EOF
