  0
SECTION
  2
HEADER
  9
$ACADVER
  1
AC1014
  9
$ACADMAINTVER
 70
     9
  9
$DWGCODEPAGE
  3
ANSI_1252
  9
$INSBASE
 10
0.0
 20
0.0
 30
0.0
  9
$EXTMIN
 10
-35.75412722200388
 20
0.247926183821912
 30
-0.0000000000112531
  9
$EXTMAX
 10
35.75389789643916
 20
41.75318112721701
 30
0.0000000000002922
  9
$LIMMIN
 10
0.0
 20
0.0
  9
$LIMMAX
 10
17.0
 20
11.0
  9
$ORTHOMODE
 70
     1
  9
$REGENMODE
 70
     1
  9
$FILLMODE
 70
     1
  9
$QTEXTMODE
 70
     0
  9
$MIRRTEXT
 70
     1
  9
$DRAGMODE
 70
     2
  9
$LTSCALE
 40
0.9350000000000001
  9
$OSMODE
 70
    37
  9
$ATTMODE
 70
     1
  9
$TEXTSIZE
 40
0.2
  9
$TRACEWID
 40
0.05
  9
$TEXTSTYLE
  7
STANDARD
  9
$CLAYER
  8
0
  9
$CELTYPE
  6
BYLAYER
  9
$CECOLOR
 62
   256
  9
$CELTSCALE
 40
1.0
  9
$DELOBJ
 70
     1
  9
$DISPSILH
 70
     0
  9
$DIMSCALE
 40
1.0
  9
$DIMASZ
 40
0.1875
  9
$DIMEXO
 40
0.10625
  9
$DIMDLI
 40
0.646
  9
$DIMRND
 40
0.0
  9
$DIMDLE
 40
0.0
  9
$DIMEXE
 40
0.306
  9
$DIMTP
 40
0.0
  9
$DIMTM
 40
0.0
  9
$DIMTXT
 40
0.125
  9
$DIMCEN
 40
0.153
  9
$DIMTSZ
 40
0.0
  9
$DIMTOL
 70
     0
  9
$DIMLIM
 70
     0
  9
$DIMTIH
 70
     1
  9
$DIMTOH
 70
     1
  9
$DIMSE1
 70
     0
  9
$DIMSE2
 70
     0
  9
$DIMTAD
 70
     0
  9
$DIMZIN
 70
     0
  9
$DIMBLK
  1
_FILLED
  9
$DIMASO
 70
     1
  9
$DIMSHO
 70
     1
  9
$DIMPOST
  1

  9
$DIMAPOST
  1

  9
$DIMALT
 70
     0
  9
$DIMALTD
 70
     2
  9
$DIMALTF
 40
25.4
  9
$DIMLFAC
 40
1.0
  9
$DIMTOFL
 70
     0
  9
$DIMTVP
 40
0.0
  9
$DIMTIX
 70
     0
  9
$DIMSOXD
 70
     0
  9
$DIMSAH
 70
     0
  9
$DIMBLK1
  1

  9
$DIMBLK2
  1

  9
$DIMSTYLE
  2
STANDARD
  9
$DIMCLRD
 70
     0
  9
$DIMCLRE
 70
     0
  9
$DIMCLRT
 70
     0
  9
$DIMTFAC
 40
1.0
  9
$DIMGAP
 40
0.09
  9
$DIMJUST
 70
     0
  9
$DIMSD1
 70
     0
  9
$DIMSD2
 70
     0
  9
$DIMTOLJ
 70
     1
  9
$DIMTZIN
 70
     0
  9
$DIMALTZ
 70
     0
  9
$DIMALTTZ
 70
     0
  9
$DIMFIT
 70
     3
  9
$DIMUPT
 70
     0
  9
$DIMUNIT
 70
     2
  9
$DIMDEC
 70
     4
  9
$DIMTDEC
 70
     4
  9
$DIMALTU
 70
     2
  9
$DIMALTTD
 70
     2
  9
$DIMTXSTY
  7
STANDARD
  9
$DIMAUNIT
 70
     0
  9
$LUNITS
 70
     2
  9
$LUPREC
 70
     4
  9
$SKETCHINC
 40
0.1
  9
$FILLETRAD
 40
0.0
  9
$AUNITS
 70
     0
  9
$AUPREC
 70
     0
  9
$MENU
  1
acad
  9
$ELEVATION
 40
0.0
  9
$PELEVATION
 40
0.0
  9
$THICKNESS
 40
0.0
  9
$LIMCHECK
 70
     0
  9
$BLIPMODE
 70
     0
  9
$CHAMFERA
 40
0.0
  9
$CHAMFERB
 40
0.0
  9
$CHAMFERC
 40
0.0
  9
$CHAMFERD
 40
0.0
  9
$SKPOLY
 70
     0
  9
$TDCREATE
 40
2454026.433579861
  9
$TDUPDATE
 40
2454085.356962326
  9
$TDINDWG
 40
0.0641162616
  9
$TDUSRTIMER
 40
0.0641162616
  9
$USRTIMER
 70
     1
  9
$ANGBASE
 50
0.0
  9
$ANGDIR
 70
     0
  9
$PDMODE
 70
     3
  9
$PDSIZE
 40
0.03125
  9
$PLINEWID
 40
0.0
  9
$COORDS
 70
     2
  9
$SPLFRAME
 70
     0
  9
$SPLINETYPE
 70
     6
  9
$SPLINESEGS
 70
     8
  9
$ATTDIA
 70
     0
  9
$ATTREQ
 70
     1
  9
$HANDLING
 70
-16383
  9
$HANDSEED
  5
B7E
  9
$SURFTAB1
 70
     6
  9
$SURFTAB2
 70
     6
  9
$SURFTYPE
 70
     6
  9
$SURFU
 70
     6
  9
$SURFV
 70
     6
  9
$UCSNAME
  2

  9
$UCSORG
 10
0.0
 20
0.0
 30
0.0
  9
$UCSXDIR
 10
1.0
 20
0.0
 30
0.0
  9
$UCSYDIR
 10
0.0
 20
1.0
 30
0.0
  9
$PUCSNAME
  2

  9
$PUCSORG
 10
0.0
 20
0.0
 30
0.0
  9
$PUCSXDIR
 10
1.0
 20
0.0
 30
0.0
  9
$PUCSYDIR
 10
0.0
 20
1.0
 30
0.0
  9
$USERI1
 70
     0
  9
$USERI2
 70
     0
  9
$USERI3
 70
     0
  9
$USERI4
 70
     0
  9
$USERI5
 70
     0
  9
$USERR1
 40
0.0
  9
$USERR2
 40
0.0
  9
$USERR3
 40
0.0
  9
$USERR4
 40
0.0
  9
$USERR5
 40
0.0
  9
$WORLDVIEW
 70
     1
  9
$SHADEDGE
 70
     3
  9
$SHADEDIF
 70
    70
  9
$TILEMODE
 70
     1
  9
$MAXACTVP
 70
    16
  9
$PINSBASE
 10
0.0
 20
0.0
 30
0.0
  9
$PLIMCHECK
 70
     0
  9
$PEXTMIN
 10
1.000000000000000E+20
 20
1.000000000000000E+20
 30
1.000000000000000E+20
  9
$PEXTMAX
 10
-1.000000000000000E+20
 20
-1.000000000000000E+20
 30
-1.000000000000000E+20
  9
$PLIMMIN
 10
0.0
 20
0.0
  9
$PLIMMAX
 10
12.0
 20
9.0
  9
$UNITMODE
 70
     0
  9
$VISRETAIN
 70
     0
  9
$PLINEGEN
 70
     1
  9
$PSLTSCALE
 70
     0
  9
$TREEDEPTH
 70
  3020
  9
$PICKSTYLE
 70
     1
  9
$CMLSTYLE
  2
STANDARD
  9
$CMLJUST
 70
     0
  9
$CMLSCALE
 40
1.0
  9
$PROXYGRAPHICS
 70
     0
  9
$MEASUREMENT
 70
     0
  0
ENDSEC
  0
SECTION
  2
CLASSES
  0
CLASS
  1
ACDBDICTIONARYWDFLT
  2
AcDbDictionaryWithDefault
  3
AutoCAD 2000
 90
        0
280
     0
281
     0
  0
CLASS
  1
ACDBPLACEHOLDER
  2
AcDbPlaceHolder
  3
AutoCAD 2000
 90
        0
280
     0
281
     0
  0
CLASS
  1
LAYOUT
  2
AcDbLayout
  3
AutoCAD 2000
 90
        0
280
     0
281
     0
  0
CLASS
  1
LWPOLYLINE
  2
AcDbPolyline
  3
AutoCAD 2000
 90
        0
280
     0
281
     1
  0
CLASS
  1
IMAGE
  2
AcDbRasterImage
  3
ISM
 90
      127
280
     0
281
     1
  0
CLASS
  1
OLE2FRAME
  2
AcDbOle2Frame
  3
AutoCAD 2000
 90
        0
280
     0
281
     1
  0
CLASS
  1
HATCH
  2
AcDbHatch
  3
AutoCAD 2000
 90
        0
280
     0
281
     1
  0
CLASS
  1
DICTIONARYVAR
  2
AcDbDictionaryVar
  3
AutoCAD 2000
 90
        0
280
     0
281
     0
  0
CLASS
  1
RASTERVARIABLES
  2
AcDbRasterVariables
  3
ISM
 90
        0
280
     0
281
     0
  0
CLASS
  1
IMAGEDEF
  2
AcDbRasterImageDef
  3
ISM
 90
        0
280
     0
281
     0
  0
CLASS
  1
IMAGEDEF_REACTOR
  2
AcDbRasterImageDefReactor
  3
ISM
 90
        1
280
     0
281
     0
  0
CLASS
  1
IDBUFFER
  2
AcDbIdBuffer
  3
AutoCAD 2000
 90
        0
280
     0
281
     0
  0
CLASS
  1
SPATIAL_FILTER
  2
AcDbSpatialFilter
  3
AutoCAD 2000
 90
        0
280
     0
281
     0
  0
CLASS
  1
XRECORD
  2
AcDbXrecord
  3
AutoCAD 2000
 90
        0
280
     0
281
     0
  0
CLASS
  1
SORTENTSTABLE
  2
AcDbSortentsTable
  3
AutoCAD 2000
 90
        0
280
     0
281
     0
  0
CLASS
  1
LAYER_INDEX
  2
AcDbLayerIndex
  3
AutoCAD 2000
 90
        0
280
     0
281
     0
  0
CLASS
  1
SPATIAL_INDEX
  2
AcDbSpatialIndex
  3
AutoCAD 2000
 90
        0
280
     0
281
     0
  0
CLASS
  1
OBJECT_PTR
  2
CAseDLPNTableRecord
  3
ASE-LPNTableRecord
 90
        1
280
     0
281
     0
  0
CLASS
  1
PLOTSETTINGS
  2
AcDbPlotSettings
  3
AutoCAD 2000
 90
        0
280
     0
281
     0
  0
CLASS
  1
VBA_PROJECT
  2
AcDbVbaProject
  3
acadvba
 90
        0
280
     0
281
     0
  0
CLASS
  1
WIPEOUT
  2
AcDbWipeout
  3
WipeOut|AutoCAD Express Tool|expresstools@autodesk.com
 90
      127
280
     0
281
     1
  0
CLASS
  1
WIPEOUTVARIABLES
  2
AcDbWipeoutVariables
  3
WipeOut|AutoCAD Express Tool|expresstools@autodesk.com
 90
        0
280
     0
281
     0
  0
CLASS
  1
RTEXT
  2
RText
  3
RText|AutoCAD Express Tool|expresstools@autodesk.com
 90
        0
280
     0
281
     1
  0
CLASS
  1
ARCALIGNEDTEXT
  2
AcDbArcAlignedText
  3
ATEXT|AutoCAD Express Tool|expresstools@autodesk.com
 90
        0
280
     0
281
     1
  0
CLASS
  1
LONG_TRANSACTION
  2
AcDbLongTransaction
  3
AutoCAD 2000
 90
        0
280
     0
281
     0
  0
CLASS
  1
LWPOLYLINE
  2
AcDbPolyline
  3
AutoCAD 2000
 90
        0
280
     0
281
     1
  0
CLASS
  1
HATCH
  2
AcDbHatch
  3
AutoCAD 2000
 90
        0
280
     0
281
     1
  0
CLASS
  1
XRECORD
  2
AcDbXrecord
  3
AutoCAD 2000
 90
        0
280
     0
281
     0
  0
CLASS
  1
LONG_TRANSACTION
  2
AcDbLongTransaction
  3
AutoCAD 2000
 90
        0
280
     0
281
     0
  0
CLASS
  1
LWPOLYLINE
  2
AcDbPolyline
  3
AutoCAD 2000
 90
        0
280
     0
281
     1
  0
CLASS
  1
HATCH
  2
AcDbHatch
  3
AutoCAD 2000
 90
        0
280
     0
281
     1
  0
CLASS
  1
XRECORD
  2
AcDbXrecord
  3
AutoCAD 2000
 90
        0
280
     0
281
     0
  0
ENDSEC
  0
SECTION
  2
TABLES
  0
TABLE
  2
VPORT
  5
8
330
0
100
AcDbSymbolTable
 70
     5
  0
VPORT
  5
B5A
330
8
100
AcDbSymbolTableRecord
100
AcDbViewportTableRecord
  2
*ACTIVE
 70
     0
 10
0.0
 20
0.0
 11
1.0
 21
1.0
 12
-0.0001146627823587
 22
20.8765905636085
 13
0.0
 23
0.0
 14
1.0
 24
1.0
 15
0.0
 25
0.0
 16
0.0
 26
0.0
 36
1.0
 17
0.0
 27
0.0
 37
0.0
 40
42.16932578961452
 41
1.745424292845257
 42
50.0
 43
0.0
 44
0.0
 50
0.0
 51
0.0
 71
     0
 72
   100
 73
     1
 74
     1
 75
     0
 76
     0
 77
     0
 78
     0
  0
ENDTAB
  0
TABLE
  2
LTYPE
  5
5
330
0
100
AcDbSymbolTable
 70
     2
  0
LTYPE
  5
14
330
5
100
AcDbSymbolTableRecord
100
AcDbLinetypeTableRecord
  2
BYBLOCK
 70
     0
  3

 72
    65
 73
     0
 40
0.0
  0
LTYPE
  5
15
330
5
100
AcDbSymbolTableRecord
100
AcDbLinetypeTableRecord
  2
BYLAYER
 70
     0
  3

 72
    65
 73
     0
 40
0.0
  0
LTYPE
  5
16
330
5
100
AcDbSymbolTableRecord
100
AcDbLinetypeTableRecord
  2
CONTINUOUS
 70
     0
  3
Solid line
 72
    65
 73
     0
 40
0.0
  0
LTYPE
  5
B0C
330
5
100
AcDbSymbolTableRecord
100
AcDbLinetypeTableRecord
  2
CENTERX2
 70
     0
  3
Center (2x) ________  __  ________  __  _____
 72
    65
 73
     4
 40
4.0
 49
2.5
 74
     0
 49
-0.5
 74
     0
 49
0.5
 74
     0
 49
-0.5
 74
     0
  0
ENDTAB
  0
TABLE
  2
LAYER
  5
2
330
0
100
AcDbSymbolTable
 70
     2
  0
LAYER
  5
10
330
2
100
AcDbSymbolTableRecord
100
AcDbLayerTableRecord
  2
0
 70
     0
 62
     7
  6
CONTINUOUS
  0
LAYER
  5
B09
330
2
100
AcDbSymbolTableRecord
100
AcDbLayerTableRecord
  2
CENTER
 70
     0
 62
     1
  6
CENTERX2
  0
ENDTAB
  0
TABLE
  2
STYLE
  5
3
330
0
100
AcDbSymbolTable
 70
     2
  0
STYLE
  5
11
330
3
100
AcDbSymbolTableRecord
100
AcDbTextStyleTableRecord
  2
STANDARD
 70
     0
 40
0.0
 41
0.8
 50
0.0
 71
     0
 42
0.2
  3
txt
  4

  0
STYLE
  5
21B
330
3
100
AcDbSymbolTableRecord
100
AcDbTextStyleTableRecord
  2
TEXTSTYLE_1
 70
     0
 40
0.0
 41
0.8
 50
0.0
 71
     0
 42
0.2
  3
txt
  4

  0
ENDTAB
  0
TABLE
  2
VIEW
  5
6
330
0
100
AcDbSymbolTable
 70
     0
  0
ENDTAB
  0
TABLE
  2
UCS
  5
7
330
0
100
AcDbSymbolTable
 70
     0
  0
ENDTAB
  0
TABLE
  2
APPID
  5
9
330
0
100
AcDbSymbolTable
 70
     2
  0
APPID
  5
21F
330
9
100
AcDbSymbolTableRecord
100
AcDbRegAppTableRecord
  2
ACAD
 70
     0
  0
APPID
  5
AFF
330
9
100
AcDbSymbolTableRecord
100
AcDbRegAppTableRecord
  2
DCO15
 70
     0
  0
ENDTAB
  0
TABLE
  2
DIMSTYLE
  5
A
330
0
100
AcDbSymbolTable
 70
     1
  0
DIMSTYLE
105
240
330
A
100
AcDbSymbolTableRecord
100
AcDbDimStyleTableRecord
  2
STANDARD
 70
     0
  3

  4

  5
_FILLED
  6
_FILLED
  7
_FILLED
 40
1.0
 41
0.1875
 42
0.0625
 43
0.38
 44
0.18
 45
0.0
 46
0.0
 47
0.00001
 48
0.00001
140
0.125
141
0.09
142
0.0
143
25.4
144
1.0
145
0.0
146
1.0
147
0.09
 71
     0
 72
     0
 73
     1
 74
     1
 75
     0
 76
     0
 77
     0
 78
     4
170
     0
171
     2
172
     0
173
     0
174
     0
175
     0
176
     0
177
     0
178
     0
270
     2
271
     5
272
     5
273
     2
274
     2
340
11
275
     0
280
     0
281
     0
282
     0
283
     1
284
     4
285
     0
286
     0
287
     3
288
     0
  0
ENDTAB
  0
TABLE
  2
BLOCK_RECORD
  5
1
330
0
100
AcDbSymbolTable
 70
     1
  0
BLOCK_RECORD
  5
1F
102
{ACAD_XDICTIONARY
360
B3B
102
}
330
1
100
AcDbSymbolTableRecord
100
AcDbBlockTableRecord
  2
*MODEL_SPACE
  0
BLOCK_RECORD
  5
1B
102
{ACAD_XDICTIONARY
360
B39
102
}
330
1
100
AcDbSymbolTableRecord
100
AcDbBlockTableRecord
  2
*PAPER_SPACE
  0
BLOCK_RECORD
  5
220
330
1
100
AcDbSymbolTableRecord
100
AcDbBlockTableRecord
  2
_FILLED
  0
ENDTAB
  0
ENDSEC
  0
SECTION
  2
BLOCKS
  0
BLOCK
  5
20
330
1F
100
AcDbEntity
  8
0
100
AcDbBlockBegin
  2
*MODEL_SPACE
 70
     0
 10
0.0
 20
0.0
 30
0.0
  3
*MODEL_SPACE
  1

  0
ENDBLK
  5
21
330
1F
100
AcDbEntity
  8
0
100
AcDbBlockEnd
  0
BLOCK
  5
1C
330
1B
100
AcDbEntity
 67
     1
  8
0
100
AcDbBlockBegin
  2
*PAPER_SPACE
 70
     0
 10
0.0
 20
0.0
 30
0.0
  3
*PAPER_SPACE
  1

  0
ENDBLK
  5
1D
330
1B
100
AcDbEntity
 67
     1
  8
0
100
AcDbBlockEnd
  0
BLOCK
  5
442
330
220
100
AcDbEntity
  8
0
100
AcDbBlockBegin
  2
_FILLED
 70
     0
 10
0.0
 20
0.0
 30
0.0
  3
_FILLED
  1

  0
SOLID
  5
443
330
220
100
AcDbEntity
  8
0
  6
BYBLOCK
 62
     0
100
AcDbTrace
 10
0.0
 20
0.0
 30
0.0
 11
-1.0
 21
0.1666666667
 31
0.0
 12
-1.0
 22
-0.1666666667
 32
0.0
 13
-1.0
 23
-0.1666666667
 33
0.0
  0
ENDBLK
  5
444
330
220
100
AcDbEntity
  8
0
  6
BYBLOCK
 62
     0
100
AcDbBlockEnd
  0
ENDSEC
  0
SECTION
  2
ENTITIES
  0
MTEXT
  5
4BB
330
1F
100
AcDbEntity
  8
0
  6
CONTINUOUS
 62
     2
100
AcDbMText
 10
15.84375
 20
2.3125
 30
0.0
 40
0.09375
 41
0.075
 71
     2
 72
     1
  1
 \P \P 
  7
TEXTSTYLE_1
1001
ACAD
1000
MTEXTBEGIN
1070
    73
1070
     1
1070
    44
1040
1.0
1070
    74
1070
     0
1000
MTEXTEND
1000
MTEXTBEGIN
1070
    73
1070
     1
1070
    44
1040
1.0
1070
    74
1070
     0
1000
MTEXTEND
  0
LINE
  5
919
330
1F
100
AcDbEntity
  8
0
100
AcDbLine
 10
-35.74999999999999
 20
41.74999999999999
 30
0.0
 11
-35.74999999999999
 21
0.25
 31
0.0
  0
LINE
  5
91B
330
1F
100
AcDbEntity
  8
0
100
AcDbLine
 10
-35.37461131359999
 20
0.6253886864000009
 30
0.0
 11
-35.37461131359999
 21
41.37461131360001
 31
0.0
  0
LINE
  5
91C
330
1F
100
AcDbEntity
  8
0
100
AcDbLine
 10
-34.68530984799999
 20
1.314690151999997
 30
0.0
 11
-34.68530984799999
 21
40.685309848
 31
0.0
  0
LWPOLYLINE
  5
924
330
1F
100
AcDbEntity
  8
0
100
AcDbPolyline
 90
       22
 70
     0
 43
0.0
 10
-30.94608432959999
 20
21.00000001599999
 10
-30.92797451519999
 20
20.1663228048
 10
-30.87386280959999
 20
19.33853816479999
 10
-30.78410142879999
 20
18.51789412159999
 10
-30.65919589279999
 20
17.70644701439999
 10
-30.50382822719999
 20
16.92453595039999
 10
-30.33035388959999
 20
16.20869132319999
 10
-30.15016832479999
 20
15.5729271248
 10
-29.97180091359999
 20
15.01788536639999
 10
-29.79913273759999
 20
14.53314915519999
 10
-29.63281164479999
 20
14.10501710719999
 10
-29.47333895359999
 20
13.72414797919999
 10
-29.32150872319999
 20
13.384642384
 10
-29.17753853439999
 20
13.08103616479999
 10
-29.04170278239999
 20
12.8092814304
 10
-28.91424508319999
 20
12.56615507199999
 10
-28.79512895679999
 20
12.34857671199999
 10
-28.68405841919999
 20
12.1535724128
 10
-28.58050536159999
 20
11.97826368959999
 10
-28.48373518719998
 20
11.81986071039998
 10
-28.39283059679999
 20
11.67565816959999
 10
-28.30666837119999
 20
11.5429651392
  0
LWPOLYLINE
  5
925
330
1F
100
AcDbEntity
  8
0
100
AcDbPolyline
 90
       23
 70
     0
 43
0.0
 10
-30.94608432959999
 20
21.00000001599999
 10
-30.92958175679999
 20
21.7958892224
 10
-30.88026238239999
 20
22.5864641472
 10
-30.79842609439999
 20
23.37067682079999
 10
-30.68430160799999
 20
24.14793150399999
 10
-30.54112692159999
 20
24.90292863039999
 10
-30.37876193119998
 20
25.60375455679999
 10
-30.20767041279999
 20
26.2336086912
 10
-30.03618625599999
 20
26.78889157599999
 10
-29.86902705279999
 20
27.2760665872
 10
-29.70757900799998
 20
27.70675290080001
 10
-29.55215567679999
 20
28.09094354079999
 10
-29.40334911999999
 20
28.434970496
 10
-29.26163266879999
 20
28.74367455679998
 10
-29.12717807999999
 20
29.02130679199999
 10
-29.00022808479999
 20
29.27104750879999
 10
-28.88092949119999
 20
29.49560981600001
 10
-28.76918208639999
 20
29.6976420672
 10
-28.66467607839999
 20
29.87970840479999
 10
-28.56691405759999
 20
30.04429521919999
 10
-28.47523115679999
 20
30.19381581280001
 10
-28.38881042239999
 20
30.33061846239999
 10
-28.30666837119999
 20
30.4570348608
  0
LWPOLYLINE
  5
926
330
1F
100
AcDbEntity
  8
0
100
AcDbPolyline
 90
       10
 70
     0
 43
0.0
 10
-31.37430597919999
 20
20.99999999999999
 10
-31.34737541439999
 20
22.02728798559999
 10
-31.25585595999999
 20
23.148265992
 10
-31.07945355679999
 20
24.37539667839999
 10
-30.81067697279999
 20
25.6407462912
 10
-30.46427280479999
 20
26.85570007199999
 10
-30.04811404159999
 20
28.00831441119998
 10
-29.59961477279998
 20
29.02780639039999
 10
-29.13614724639999
 20
29.9162429904
 10
-28.66460397119999
 20
30.68922982399999
  0
LINE
  5
927
330
1F
100
AcDbEntity
  8
0
100
AcDbLine
 10
-28.6646039712
 20
30.68922982399999
 30
0.0
 11
-28.65568837439999
 21
30.70273951679999
 31
0.0
  0
LWPOLYLINE
  5
928
330
1F
100
AcDbEntity
  8
0
100
AcDbPolyline
 90
       10
 70
     0
 43
0.0
 10
-28.65568837439999
 20
30.70273951679999
 10
-28.49904995039999
 20
30.9350010512
 10
-28.33728536959998
 20
31.16533079839999
 10
-28.17037896159999
 20
31.39363755039999
 10
-27.99831109599999
 20
31.61982985599999
 10
-27.82105635519999
 20
31.843819128
 10
-27.63858879359999
 20
32.0655115712
 10
-27.45088218879999
 20
32.2848067264
 10
-27.25790979839999
 20
32.50159863839999
 10
-27.05961601119999
 20
32.71580633120001
  0
LWPOLYLINE
  5
929
330
1F
100
AcDbEntity
  8
0
100
AcDbPolyline
 90
       24
 70
     0
 43
0.0
 10
-28.30666837119999
 20
30.4570348608
 10
-27.91499779199999
 20
31.0217982304
 10
-27.49491156799999
 20
31.56981626719999
 10
-27.04803877279999
 20
32.0985827328
 10
-26.57624623519998
 20
32.60572815520001
 10
-26.08163783839999
 20
33.08903278080001
 10
-25.56532157279999
 20
33.54749079039999
 10
-25.02705463999999
 20
33.9813023728
 10
-24.46718792799999
 20
34.3901438272
 10
-23.88746174239999
 20
34.77260546560001
 10
-23.29123593119999
 20
35.1265018928
 10
-22.68077944799999
 20
35.45069734399999
 10
-22.05726820639998
 20
35.7447375664
 10
-21.42109332959999
 20
36.0085937856
 10
-20.77374269599999
 20
36.24178226559999
 10
-20.11741583199999
 20
36.44360599359998
 10
-19.45449164959999
 20
36.61350288319999
 10
-18.78564144479999
 20
36.7514551504
 10
-18.11079913759999
 20
36.8574894832
 10
-17.43065567839999
 20
36.93144499359999
 10
-16.74621290559999
 20
36.9730905952
 10
-16.05868999519999
 20
36.98214554079999
 10
-15.36966077759998
 20
36.95844536160001
 10
-14.68081282879999
 20
36.90190899839999
  0
LWPOLYLINE
  5
92A
330
1F
100
AcDbEntity
  8
0
100
AcDbPolyline
 90
        4
 70
     0
 43
0.0
 10
-27.05961601119999
 20
32.71580633120001
 10
-26.94626318239999
 20
32.83456591679998
 10
-26.83167286399999
 20
32.95200574239999
 10
-26.71589710719999
 20
33.068076216
  0
LWPOLYLINE
  5
92B
330
1F
100
AcDbEntity
  8
0
100
AcDbPolyline
 90
        4
 70
     0
 43
0.0
 10
-26.71589710559999
 20
8.931923782400001
 10
-26.83167286399999
 20
9.047994257599992
 10
-26.94626318239999
 20
9.165434084799993
 10
-27.05961601119999
 20
9.284193670399996
  0
LWPOLYLINE
  5
92C
330
1F
100
AcDbEntity
  8
0
100
AcDbPolyline
 90
       10
 70
     0
 43
0.0
 10
-27.05961601119999
 20
9.284193670399996
 10
-27.25795217439999
 20
9.498448047999996
 10
-27.45095470879999
 20
9.7152763568
 10
-27.63867991839999
 20
9.934596999999993
 10
-27.82115524959999
 20
10.15630341279999
 10
-27.99840762559998
 20
10.38029455679999
 10
-28.17046369919999
 20
10.60647608
 10
-28.33734960639999
 20
10.834758848
 10
-28.49908569759999
 20
11.06505088959999
 10
-28.65568837279999
 20
11.2972604832
  0
LWPOLYLINE
  5
92D
330
1F
100
AcDbEntity
  8
0
100
AcDbPolyline
 90
       24
 70
     0
 43
0.0
 10
-28.30666837119999
 20
11.5429651392
 10
-27.91499779199999
 20
10.9782017712
 10
-27.49491156799999
 20
10.4301837328
 10
-27.04803877279999
 20
9.901417268799999
 10
-26.57624623519998
 20
9.394271844799998
 10
-26.08163783839999
 20
8.910967219199999
 10
-25.56532157279999
 20
8.452509211199991
 10
-25.02705463999999
 20
8.018697627199994
 10
-24.46718792799999
 20
7.60985617279999
 10
-23.88746174239999
 20
7.227394534400001
 10
-23.29123593119999
 20
6.873498108800003
 10
-22.68077944799999
 20
6.549302655999991
 10
-22.05726820639998
 20
6.255262435199991
 10
-21.42109332959999
 20
5.991406214399997
 10
-20.77374269599999
 20
5.758217736000002
 10
-20.11741583199999
 20
5.556394006399994
 10
-19.45449164959999
 20
5.386497116799997
 10
-18.78564144479999
 20
5.248544851199991
 10
-18.11079913759999
 20
5.142510516799998
 10
-17.43065567839999
 20
5.068555008
 10
-16.74621290559999
 20
5.02690940479999
 10
-16.05868999519999
 20
5.017854459199991
 10
-15.36966077759998
 20
5.041554638399997
 10
-14.68081282879999
 20
5.098091003199993
  0
LINE
  5
92E
330
1F
100
AcDbEntity
  8
0
100
AcDbLine
 10
-28.65568837279999
 20
11.2972604832
 30
0.0
 11
-28.6646039712
 21
11.310770176
 31
0.0
  0
LWPOLYLINE
  5
92F
330
1F
100
AcDbEntity
  8
0
100
AcDbPolyline
 90
       10
 70
     0
 43
0.0
 10
-28.66460397119999
 20
11.310770176
 10
-29.13257885759998
 20
12.07744840479999
 10
-29.59062716479999
 20
12.95354142879999
 10
-30.02998070719999
 20
13.94665047679999
 10
-30.43777459039999
 20
15.06285567999999
 10
-30.78786766239999
 20
16.2684721904
 10
-31.06852172319999
 20
17.5634158352
 10
-31.25387212159999
 20
18.83393196479999
 10
-31.34728916159998
 20
19.971071976
 10
-31.37430597919999
 20
20.99999999999999
  0
LWPOLYLINE
  5
930
330
1F
100
AcDbEntity
  8
0
100
AcDbPolyline
 90
       13
 70
     0
 43
0.0
 10
-26.71589710719999
 20
33.068076216
 10
-26.09563459679999
 20
33.64890539999999
 10
-25.37778330559999
 20
34.2443370368
 10
-24.53917789439999
 20
34.8510099856
 10
-23.55602137119999
 20
35.4577035408
 10
-22.41690155359999
 20
36.03806254080001
 10
-21.19740246559999
 20
36.53060415679999
 10
-19.93995361279998
 20
36.9133468272
 10
-18.67462472799999
 20
37.1801751696
 10
-17.50726315199999
 20
37.32663051680001
 10
-16.45930196799999
 20
37.379090208
 10
-15.51602207199999
 20
37.36306511839998
 10
-14.66690170079999
 20
37.29729764480001
  0
LWPOLYLINE
  5
931
330
1F
100
AcDbEntity
  8
0
100
AcDbPolyline
 90
       10
 70
     0
 43
0.0
 10
-24.55907471999999
 20
21.00000168799999
 10
-24.54197972959999
 20
20.25666552799999
 10
-24.49024341279999
 20
19.50687522719999
 10
-24.40353259999999
 20
18.7552059024
 10
-24.28219880799999
 20
18.00717989279999
 10
-24.12740930079999
 20
17.26880465919999
 10
-23.94060806559998
 20
16.54399466399999
 10
-23.72363064319999
 20
15.836293744
 10
-23.47889075519999
 20
15.14943265919999
 10
-23.20897326399999
 20
14.48612078239999
  0
LWPOLYLINE
  5
932
330
1F
100
AcDbEntity
  8
0
100
AcDbPolyline
 90
       36
 70
     0
 43
0.0
 10
-23.39702989279999
 20
20.96845802719999
 10
-23.39482117599999
 20
20.79677093279999
 10
-23.39019422399999
 20
20.6252042848
 10
-23.38315056159999
 20
20.453764448
 10
-23.37369132959999
 20
20.2824652064
 10
-23.36181969919999
 20
20.1113481584
 10
-23.34754007679999
 20
19.940457648
 10
-23.33085155519999
 20
19.76978977599999
 10
-23.31175524959999
 20
19.5993835552
 10
-23.29025628959999
 20
19.42930030559999
 10
-23.26636571039998
 20
19.25961911999999
 10
-23.24009108479999
 20
19.09038289759999
 10
-23.21143456159999
 20
18.92160242559999
 10
-23.18039799999998
 20
18.75329078879999
 10
-23.14698426239999
 20
18.58546804319999
 10
-23.11119826399998
 20
18.41816755199999
 10
-23.07304415519999
 20
18.251419448
 10
-23.03252448159999
 20
18.08524433759999
 10
-22.98964404959999
 20
17.9196731632
 10
-22.94441264319999
 20
17.75475755839999
 10
-22.89684170719998
 20
17.59055208799999
 10
-22.84694520799999
 20
17.42710943679999
 10
-22.79473567999998
 20
17.26447233279999
 10
-22.74022551679999
 20
17.10268296799999
 10
-22.68342070239999
 20
16.94176430239999
 10
-22.62431151679999
 20
16.78169486079999
 10
-22.56290061919999
 20
16.62249199999999
 10
-22.49919771839999
 20
16.46419267199999
 10
-22.43322161759999
 20
16.3068536944
 10
-22.36499365759998
 20
16.1505319088
 10
-22.29451941119999
 20
15.9952471728
 10
-22.22179959999999
 20
15.841012136
 10
-22.14688012959999
 20
15.6879315296
 10
-22.06980777279999
 20
15.5360976016
 10
-21.99062286399998
 20
15.38558268639999
 10
-21.90936385919999
 20
15.23645062239999
  0
LINE
  5
933
330
1F
100
AcDbEntity
  8
0
100
AcDbLine
 10
-23.39717255999999
 20
21.0000004128
 30
0.0
 11
-23.39702989279999
 21
20.9684580272
 31
0.0
  0
LWPOLYLINE
  5
934
330
1F
100
AcDbEntity
  8
0
100
AcDbPolyline
 90
       11
 70
     0
 43
0.0
 10
-24.55907471679999
 20
21.00000168799999
 10
-24.54523075999999
 20
21.6686806048
 10
-24.50337598239999
 20
22.34284966559999
 10
-24.43319625919999
 20
23.0194845232
 10
-24.33482538719999
 20
23.6944472944
 10
-24.20891018879999
 20
24.36343689759999
 10
-24.05643165439999
 20
25.02298340639998
 10
-23.87859901759998
 20
25.6702634144
 10
-23.67683638399999
 20
26.30282307039999
 10
-23.45298512799999
 20
26.91802016319999
 10
-23.20897326399999
 20
27.51387921919999
  0
LWPOLYLINE
  5
935
330
1F
100
AcDbEntity
  8
0
100
AcDbPolyline
 90
       37
 70
     0
 43
0.0
 10
-23.54735727679999
 20
27.70924532
 10
-23.52106748319999
 20
27.7706851888
 10
-23.49478493119999
 20
27.83336826559999
 10
-23.46881737759999
 20
27.89568547679999
 10
-23.44305883519999
 20
27.95752718560001
 10
-23.41727785759999
 20
28.01927088479999
 10
-23.39098551199999
 20
28.0819788576
 10
-23.36366326239998
 20
28.1467965536
 10
-23.33554927359999
 20
28.2130792352
 10
-23.30669266079998
 20
28.28064665119998
 10
-23.27629913919999
 20
28.351282064
 10
-23.24342065759999
 20
28.4270664864
 10
-23.20697994399999
 20
28.510293536
 10
-23.16582891519999
 20
28.60330658079999
 10
-23.11884103679999
 20
28.7082590736
 10
-23.06490782879998
 20
28.82709817439998
 10
-23.00517113919999
 20
28.95673164159998
 10
-22.94344173919999
 20
29.08853655039999
 10
-22.88382453439999
 20
29.21380419199999
 10
-22.82666014079999
 20
29.33208968639999
 10
-22.77130253119999
 20
29.44497517920001
 10
-22.71711180479999
 20
29.55392703519998
 10
-22.66291651839999
 20
29.66138508
 10
-22.60765145279999
 20
29.76945176800001
 10
-22.55233487359999
 20
29.8761198704
 10
-22.49795155519998
 20
29.97955621919999
 10
-22.44274563359998
 20
30.08313433279999
 10
-22.38422380319999
 20
30.19139765919998
 10
-22.31977726719998
 20
30.30882850239998
 10
-22.24757763999999
 20
30.43819935039999
 10
-22.17076849279999
 20
30.57334804160001
 10
-22.09392390879999
 20
30.70605367999999
 10
-22.01711311359999
 20
30.836250352
 10
-21.93909006399999
 20
30.96604373759998
 10
-21.85863349439999
 20
31.09734261439998
 10
-21.77420885119999
 20
31.2323947904
 10
-21.68398468319999
 20
31.3737033216
  0
LWPOLYLINE
  5
936
330
1F
100
AcDbEntity
  8
0
100
AcDbPolyline
 90
       19
 70
     0
 43
0.0
 10
-23.20897326399999
 20
27.51387921919999
 10
-23.06501603839998
 20
27.82160048959999
 10
-22.89746160959999
 20
28.13183678399999
 10
-22.70440575519999
 20
28.44527926239999
 10
-22.48943757119999
 20
28.75462908159999
 10
-22.27465593279999
 20
29.03256901759999
 10
-22.07444969119999
 20
29.269737152
 10
-21.89040274879999
 20
29.47248899359999
 10
-21.71982890719998
 20
29.64928516
 10
-21.56174069279999
 20
29.8047870496
 10
-21.41608460319999
 20
29.94170230559998
 10
-21.28363605759999
 20
30.061389528
 10
-21.16372264319998
 20
30.16610209119999
 10
-21.05228135359999
 20
30.26051710239999
 10
-20.94447916159999
 20
30.34934844799999
 10
-20.83576873599999
 20
30.43657355999999
 10
-20.72526404639999
 20
30.52294023679999
 10
-20.61364718879999
 20
30.60794141439998
 10
-20.50164575999998
 20
30.6910862496
  0
LWPOLYLINE
  5
937
330
1F
100
AcDbEntity
  8
0
100
AcDbPolyline
 90
       35
 70
     0
 43
0.0
 10
-21.95926993279999
 20
26.76972607359999
 10
-22.04161695519999
 20
26.61428225119999
 10
-22.12176071519999
 20
26.4573848416
 10
-22.19966658559999
 20
26.29908907679998
 10
-22.27529977599999
 20
26.13945298079999
 10
-22.34862862719999
 20
25.97853130719999
 10
-22.41962606399999
 20
25.8163775872
 10
-22.48822182239999
 20
25.65315459199998
 10
-22.55439034399999
 20
25.48893242560001
 10
-22.61811999199998
 20
25.323750184
 10
-22.67939850239999
 20
25.15765163360001
 10
-22.73821373759999
 20
24.99068206399999
 10
-22.79455678399999
 20
24.82287883999998
 10
-22.84841951359999
 20
24.65428174719999
 10
-22.89979592639999
 20
24.48492732959999
 10
-22.94868023199999
 20
24.31484906079999
 10
-22.99506618239998
 20
24.14407963359999
 10
-23.03894740159999
 20
23.9726592944
 10
-23.08031296479999
 20
23.80065098719999
 10
-23.11915835359999
 20
23.62809163679999
 10
-23.15547942879999
 20
23.4550143488
 10
-23.18927187839999
 20
23.28145828319999
 10
-23.22053083199999
 20
23.107467768
 10
-23.24925124959999
 20
22.93308988799999
 10
-23.27543101119999
 20
22.758359064
 10
-23.29906848959998
 20
22.5833114496
 10
-23.32016143359999
 20
22.4079856368
 10
-23.33870761439999
 20
22.2324173856
 10
-23.35470636479999
 20
22.0566422512
 10
-23.36815750719999
 20
21.88070304159999
 10
-23.37905974559999
 20
21.70465065759999
 10
-23.38741218879999
 20
21.52852184319999
 10
-23.39321452479999
 20
21.35235256479999
 10
-23.39646760799999
 20
21.17617087839999
 10
-23.39717256159999
 20
21.0000004128
  0
LINE
  5
938
330
1F
100
AcDbEntity
  8
0
100
AcDbLine
 10
-21.94994501119999
 20
26.78697891839999
 30
0.0
 11
-21.95926993279999
 21
26.76972607359999
 31
0.0
  0
LWPOLYLINE
  5
939
330
1F
100
AcDbEntity
  8
0
100
AcDbPolyline
 90
       27
 70
     0
 43
0.0
 10
-21.89755346559999
 20
15.2152008032
 10
-21.82985555679999
 20
15.09596569439999
 10
-21.75954753119999
 20
14.97645186559999
 10
-21.68658917119999
 20
14.85668050559999
 10
-21.61093861759999
 20
14.73667442079999
 10
-21.53256159199999
 20
14.61647202079999
 10
-21.45142906079998
 20
14.49612167199999
 10
-21.36750046239999
 20
14.375656632
 10
-21.28076397759998
 20
14.25515277119999
 10
-21.19121993119998
 20
14.13470014879999
 10
-21.09887897919999
 20
14.01439837919999
 10
-21.00376846399999
 20
13.89436299199999
 10
-20.90600570879999
 20
13.77481100959999
 10
-20.80563404479999
 20
13.6558536304
 10
-20.70269115999999
 20
13.53758856
 10
-20.59719733439999
 20
13.42008880799999
 10
-20.48914547679999
 20
13.30339540799999
 10
-20.37851950719999
 20
13.18754053599999
 10
-20.26528032159998
 20
13.07253099519999
 10
-20.14942756799999
 20
12.95841421439999
 10
-20.03100892799999
 20
12.8452828032
 10
-19.91005422079999
 20
12.73320792479999
 10
-19.78658466559998
 20
12.62225043199999
 10
-19.66063690399999
 20
12.51248291999999
 10
-19.53225997279999
 20
12.40398539519999
 10
-19.40152960959999
 20
12.29685561599999
 10
-19.26853175999999
 20
12.19119334239999
  0
LINE
  5
93A
330
1F
100
AcDbEntity
  8
0
100
AcDbLine
 10
-21.9093638944
 20
15.23645060159999
 30
0.0
 11
-21.89755346559999
 21
15.2152008032
 31
0.0
  0
LWPOLYLINE
  5
93B
330
1F
100
AcDbEntity
  8
0
100
AcDbPolyline
 90
       19
 70
     0
 43
0.0
 10
-23.20897326399999
 20
14.48612078239999
 10
-23.06501603839998
 20
14.17839951199999
 10
-22.89746160959999
 20
13.86816321599999
 10
-22.70440575519999
 20
13.55472073919999
 10
-22.48943757119999
 20
13.24537091999999
 10
-22.27465593279999
 20
12.9674309824
 10
-22.07444969119999
 20
12.73026284959999
 10
-21.89040274879999
 20
12.5275110064
 10
-21.71982890719998
 20
12.35071483999999
 10
-21.56174069279999
 20
12.1952129504
 10
-21.41608460319999
 20
12.05829769599999
 10
-21.28363605759999
 20
11.93861047359999
 10
-21.16372264319998
 20
11.83389791039999
 10
-21.05228135359999
 20
11.73948289759999
 10
-20.94447916159999
 20
11.65065155199999
 10
-20.83576873599999
 20
11.56342643999999
 10
-20.72526404639999
 20
11.47705976479999
 10
-20.61364718879999
 20
11.39205858559999
 10
-20.50164575999998
 20
11.30891375039999
  0
LWPOLYLINE
  5
93C
330
1F
100
AcDbEntity
  8
0
100
AcDbPolyline
 90
        3
 70
     0
 43
0.0
 10
-23.54735727679999
 20
14.2907546816
 10
-23.52106748319999
 20
14.22931481119999
 10
-23.49478493119999
 20
14.16663173439999
  0
LWPOLYLINE
  5
93D
330
1F
100
AcDbEntity
  8
0
100
AcDbPolyline
 90
       34
 70
     0
 43
0.0
 10
-23.49478493119999
 20
14.16663173439999
 10
-23.44305883519999
 20
14.04247281439999
 10
-23.41727785759999
 20
13.9807291152
 10
-23.39098551199999
 20
13.91802114399999
 10
-23.36366326239998
 20
13.85320344799999
 10
-23.33554927359999
 20
13.78692076639999
 10
-23.30669266079998
 20
13.71935335039999
 10
-23.27629913919999
 20
13.64871793759999
 10
-23.24342065759999
 20
13.5729335152
 10
-23.20697994399999
 20
13.48970646559999
 10
-23.16582891519999
 20
13.3966934208
 10
-23.11884103679999
 20
13.29174092639999
 10
-23.06490782879998
 20
13.17290182559998
 10
-23.00517113919999
 20
13.04326835999999
 10
-22.94344173919999
 20
12.9114634512
 10
-22.88382453439999
 20
12.7861958096
 10
-22.82666014079999
 20
12.6679103136
 10
-22.77130253119999
 20
12.55502482079999
 10
-22.71711180479999
 20
12.44607296479999
 10
-22.66291651839999
 20
12.33861491999999
 10
-22.60765145279999
 20
12.2305482336
 10
-22.55233487359999
 20
12.12388012959999
 10
-22.49795155519998
 20
12.02044378079999
 10
-22.44274563359998
 20
11.91686566879999
 10
-22.38422380319999
 20
11.80860234239998
 10
-22.31977726719998
 20
11.69117149759999
 10
-22.24757763999999
 20
11.56180065119999
 10
-22.17076849279999
 20
11.42665195999999
 10
-22.09392390879999
 20
11.29394632
 10
-22.01711311359999
 20
11.163749648
 10
-21.93909006399999
 20
11.03395626239999
 10
-21.85863349439999
 20
10.90265738719999
 10
-21.77420885119999
 20
10.7676052096
 10
-21.68398468319999
 20
10.62629667839999
  0
LINE
  5
93E
330
1F
100
AcDbEntity
  8
0
100
AcDbLine
 10
-35.74999999999999
 20
0.25
 30
0.0
 11
35.75
 21
0.25
 31
0.0
  0
LINE
  5
93F
330
1F
100
AcDbEntity
  8
0
100
AcDbLine
 10
35.37461131520001
 20
0.6253886864000009
 30
0.0
 11
-35.37461131359999
 21
0.6253886864000009
 31
0.0
  0
LINE
  5
940
330
1F
100
AcDbEntity
  8
0
100
AcDbLine
 10
34.685309848
 20
1.314690151999997
 30
0.0
 11
-34.68530984799999
 21
1.314690151999997
 31
0.0
  0
LWPOLYLINE
  5
949
330
1F
100
AcDbEntity
  8
0
100
AcDbPolyline
 90
       18
 70
     0
 43
0.0
 10
-19.26853175999999
 20
12.19119334239999
 10
-19.14013330559998
 20
12.09223635359999
 10
-19.00976947679998
 20
11.99471246559999
 10
-18.87749568959999
 20
11.89868363999999
 10
-18.74343032319999
 20
11.80425291679999
 10
-18.60761845599999
 20
11.71146644159999
 10
-18.47004017439999
 20
11.6203260176
 10
-18.33076895359999
 20
11.53089262559999
 10
-18.18999046719999
 20
11.44329111679999
 10
-18.04817732159999
 20
11.3578055616
 10
-17.90448713439999
 20
11.27393315839999
 10
-17.75878373599999
 20
11.19163051039999
 10
-17.61187845759999
 20
11.11137449439999
 10
-17.46438089119999
 20
11.03347842399999
 10
-17.31643745759998
 20
10.9579852864
 10
-17.16781359999998
 20
10.88475099839999
 10
-17.01797231999999
 20
10.81350817119999
 10
-16.86649089119999
 20
10.7440795792
  0
LWPOLYLINE
  5
94A
330
1F
100
AcDbEntity
  8
0
100
AcDbPolyline
 90
       16
 70
     0
 43
0.0
 10
-5.400264019199994
 20
34.31329539359998
 10
-5.700764441599986
 20
34.2062080416
 10
-6.21845034719999
 20
34.0487549872
 10
-6.783097847999997
 20
33.904709488
 10
-7.396956271999997
 20
33.77483458719999
 10
-8.06078090079999
 20
33.6604119232
 10
-8.764268254399993
 20
33.56386248320001
 10
-9.40862410879999
 20
33.4941165168
 10
-9.983115878399992
 20
33.44453486559999
 10
-10.51229261599998
 20
33.40763858400001
 10
-11.04711733759999
 20
33.37724239679999
 10
-11.59566531679999
 20
33.35111712319999
 10
-12.17020804319999
 20
33.3261010528
 10
-12.79983847839999
 20
33.2963449456
 10
-13.52329275039998
 20
33.2502638224
 10
-14.25892179839999
 20
33.17868354559999
  0
LWPOLYLINE
  5
94B
330
1F
100
AcDbEntity
  8
0
100
AcDbPolyline
 90
       25
 70
     0
 43
0.0
 10
14.30002958560001
 20
9.933059348799996
 10
14.40735860480001
 20
9.954012187200003
 10
14.51009611360001
 20
9.975065187199998
 10
14.60968753120001
 20
9.996413035200003
 10
14.7087604848
 20
10.01857496799999
 10
14.80831814240001
 20
10.0417820672
 10
14.907253624
 20
10.06578247679999
 10
15.006227784
 20
10.09073551359999
 10
15.10705051360001
 20
10.11713255039999
 10
15.20683379360001
 20
10.14423695999999
 10
15.30638797920001
 20
10.172256864
 10
15.4065720544
 20
10.201447216
 10
15.507951872
 20
10.23200767519999
 10
15.61069334720001
 20
10.26403374879999
 10
15.71462155200001
 20
10.29751700959999
 10
15.81969213600001
 20
10.3324867056
 10
15.9263443712
 20
10.36913997599999
 10
16.0350471264
 20
10.40770547359999
 10
16.1460214896
 20
10.4483434992
 10
16.2594224464
 20
10.49120228959999
 10
16.37524476160001
 20
10.53637812319999
 10
16.4935167264
 20
10.58398640479999
 10
16.6144575152
 20
10.63422962559999
 10
16.73848092000001
 20
10.68740980479999
 10
16.8661481504
 20
10.74392469919999
  0
LINE
  5
94C
330
1F
100
AcDbEntity
  8
0
100
AcDbLine
 10
14.25892180000001
 20
9.925325603199993
 30
0.0
 11
14.30002958560001
 21
9.9330593488
 31
0.0
  0
LWPOLYLINE
  5
94D
330
1F
100
AcDbEntity
  8
0
100
AcDbPolyline
 90
       22
 70
     0
 43
0.0
 10
2.677905889600012
 20
6.571773057599994
 10
2.710576694400003
 20
6.577791830399998
 10
2.743446539200007
 20
6.584683902399998
 10
2.776509003200004
 20
6.592383502399993
 10
2.809730848000015
 20
6.600824398399989
 10
2.843285905600012
 20
6.610001979200003
 10
2.878168155200015
 20
6.620175119999995
 10
2.915330979200007
 20
6.631658527999999
 10
2.955800536000012
 20
6.644848679999991
 10
3.000785435200015
 20
6.660263667199995
 10
3.051491131200009
 20
6.678484566399998
 10
3.109371849600009
 20
6.700244391999998
 10
3.175857656000005
 20
6.726328299200002
 10
3.248771827200002
 20
6.7560649728
 10
3.32380830240001
 20
6.787691260799999
 10
3.397533582400015
 20
6.819592633599992
 10
3.46963447840001
 20
6.851433182399997
 10
3.539951086400009
 20
6.882975796799993
 10
3.608768568000002
 20
6.914213446399994
 10
3.677003227200003
 20
6.945460755199999
 10
3.745637492800014
 20
6.977091227200002
 10
3.987312881600004
 20
7.088953971199995
  0
LWPOLYLINE
  5
94E
330
1F
100
AcDbEntity
  8
0
100
AcDbPolyline
 90
       12
 70
     0
 43
0.0
 10
14.25892180000001
 20
8.821316448000001
 10
14.85707044160001
 20
8.906795639999995
 10
15.41324356640001
 20
9.013625103999995
 10
15.9651110192
 20
9.147583039999997
 10
16.53956691200001
 20
9.316282609599991
 10
17.1392783312
 20
9.522775556799995
 10
17.74821459840001
 20
9.763790483199993
 10
18.3520859408
 20
10.0349033952
 10
18.93836884960001
 20
10.3307710912
 10
19.4969324128
 20
10.64564716959999
 10
20.0195917424
 20
10.97342470559999
 10
20.5016457616
 20
11.30891375039999
  0
LINE
  5
94F
330
1F
100
AcDbEntity
  8
0
100
AcDbLine
 10
-12.64726860479999
 20
4.938500334400004
 30
0.0
 11
-12.67420943199999
 21
4.935112888000006
 31
0.0
  0
LWPOLYLINE
  5
950
330
1F
100
AcDbEntity
  8
0
100
AcDbPolyline
 90
        4
 70
     0
 43
0.0
 10
-12.67420943199999
 20
4.935112888000002
 10
-13.33039243039999
 20
4.854628923199992
 10
-13.98706912159999
 20
4.777967580799991
 10
-14.64427662879999
 20
4.705125716799994
  0
LWPOLYLINE
  5
951
330
1F
100
AcDbEntity
  8
0
100
AcDbPolyline
 90
       14
 70
     0
 43
0.0
 10
-12.69311663839999
 20
5.327904017600001
 10
-11.44384905759999
 20
5.476523276799991
 10
-10.31842896799999
 20
5.597629310399991
 10
-9.30132730879999
 20
5.696603412799998
 10
-8.379550671999993
 20
5.777665315199993
 10
-7.542171131199992
 20
5.8441490336
 10
-6.779757511999989
 20
5.898724695999998
 10
-6.084151235199996
 20
5.943540647999991
 10
-5.44863425279999
 20
5.980308929599996
 10
-4.867152623999984
 20
6.010431900799996
 10
-4.333947180799995
 20
6.035072316799993
 10
-3.843686654399988
 20
6.0551796144
 10
-3.394279719999985
 20
6.071425872000002
 10
-2.985384379199985
 20
6.0843375072
  0
LWPOLYLINE
  5
952
330
1F
100
AcDbEntity
  8
0
100
AcDbPolyline
 90
        4
 70
     0
 43
0.0
 10
-14.68081282879999
 20
5.098091003199993
 10
-14.01011164159999
 20
5.171399836800002
 10
-13.34756203039999
 20
5.248101267199995
 10
-12.69311663839999
 20
5.327904017600001
  0
LINE
  5
953
330
1F
100
AcDbEntity
  8
0
100
AcDbLine
 10
-14.64427662879999
 20
4.705125716799997
 30
0.0
 11
-14.66690170079999
 21
4.702702356800003
 31
0.0
  0
LWPOLYLINE
  5
954
330
1F
100
AcDbEntity
  8
0
100
AcDbPolyline
 90
       13
 70
     0
 43
0.0
 10
-14.66690170079999
 20
4.702702356799999
 10
-15.51602779519998
 20
4.6369346032
 10
-16.45656540319998
 20
4.620869758400001
 10
-17.49537337759998
 20
4.672357787199995
 10
-18.64182577439999
 20
4.814423115199996
 10
-19.87603142079999
 20
5.070393374399994
 10
-21.11072521919999
 20
5.439070576000002
 10
-22.33015054399999
 20
5.922682595199997
 10
-23.49976344799999
 20
6.510678876799996
 10
-24.51133003039998
 20
7.130325768000002
 10
-25.36793586239999
 20
7.748010883199992
 10
-26.09459627839999
 20
8.350176755199992
 10
-26.71589710559999
 20
8.931923782400001
  0
LINE
  5
955
330
1F
100
AcDbEntity
  8
0
100
AcDbLine
 10
-6.086246383999991
 20
6.223854008000003
 30
0.0
 11
-5.358094913599984
 21
6.278705143999999
 31
0.0
  0
LWPOLYLINE
  5
956
330
1F
100
AcDbEntity
  8
0
100
AcDbPolyline
 90
       13
 70
     0
 43
0.0
 10
3.815599000000005
 20
6.647774391999998
 10
3.715172584000015
 20
6.640724870400003
 10
3.617006876800004
 20
6.633249043199992
 10
3.520049736000004
 20
6.625276113599991
 10
3.423408268800002
 20
6.616724491199999
 10
3.328361569600005
 20
6.607702588799991
 10
3.234612288000008
 20
6.598186902399998
 10
3.141979129600002
 20
6.588159227199991
 10
3.051406624000009
 20
6.5777300128
 10
2.962723235200002
 20
6.566896387199999
 10
2.875215756800002
 20
6.555579331199989
 10
2.788675987200008
 20
6.543750382400002
 10
2.703347230400012
 20
6.531441734400001
  0
LWPOLYLINE
  5
957
330
1F
100
AcDbEntity
  8
0
100
AcDbPolyline
 90
        9
 70
     0
 43
0.0
 10
-6.086246383999991
 20
6.223854007999999
 10
-6.220291841599987
 20
6.215149494399991
 10
-6.347919990399987
 20
6.209914190399995
 10
-6.462524244799993
 20
6.208768475199999
 10
-6.556055988799997
 20
6.211934337599995
 10
-6.62374093759999
 20
6.218971220799996
 10
-6.666567974399995
 20
6.229653663999993
 10
-6.683018078399996
 20
6.243930750399993
 10
-6.681019145599989
 20
6.251504159999992
  0
LWPOLYLINE
  5
958
330
1F
100
AcDbEntity
  8
0
100
AcDbPolyline
 90
       19
 70
     0
 43
0.0
 10
14.47629348960001
 20
6.278919172799998
 10
15.12013025440001
 20
6.320120881600001
 10
15.6855891392
 20
6.383217775999991
 10
16.18908196480001
 20
6.46510156959999
 10
16.64284438560001
 20
6.563520761599999
 10
17.05544712160001
 20
6.676765542400001
 10
17.43522939040001
 20
6.804197311999995
 10
17.78878527360001
 20
6.945749222399992
 10
18.12128957280001
 20
7.10180528319999
 10
18.44345260480001
 20
7.276769945599991
 10
18.76369758880001
 20
7.475630395199996
 10
19.08479101440001
 20
7.701649364800001
 10
19.41768597280001
 20
7.965288630399992
 10
19.76465633280001
 20
8.272422788799996
 10
20.12432640000001
 20
8.626581110399992
 10
20.49636418240001
 20
9.032775052800001
 10
20.88050114720001
 20
9.496793875199994
 10
21.2765358176
 20
10.0254609488
 10
21.6839846848
 20
10.62629667839999
  0
LWPOLYLINE
  5
959
330
1F
100
AcDbEntity
  8
0
100
AcDbPolyline
 90
        3
 70
     0
 43
0.0
 10
3.815599000000005
 20
6.647774391999998
 10
4.275051380800007
 20
6.672888476799993
 10
4.430190393600014
 20
6.677732612799996
  0
LWPOLYLINE
  5
95A
330
1F
100
AcDbEntity
  8
0
100
AcDbPolyline
 90
        5
 70
     0
 43
0.0
 10
-2.988957603199992
 20
5.68711811839999
 10
-5.078196214399994
 20
5.603848723199998
 10
-7.372885118399992
 20
5.462530676799996
 10
-9.886380612799989
 20
5.247577215999992
 10
-12.64726860479999
 20
4.9385003344
  0
LWPOLYLINE
  5
95B
330
1F
100
AcDbEntity
  8
0
100
AcDbPolyline
 90
        4
 70
     0
 43
0.0
 10
-12.64630848159999
 20
6.284941662399997
 10
-13.26763100959998
 20
6.2672019104
 10
-13.87899015679999
 20
6.26411917279999
 10
-14.47629348799998
 20
6.278919174399998
  0
LWPOLYLINE
  5
95C
330
1F
100
AcDbEntity
  8
0
100
AcDbPolyline
 90
       10
 70
     0
 43
0.0
 10
-6.384875956799987
 20
6.673679579199994
 10
-6.469156977599993
 20
6.671392582399999
 10
-7.128057499199996
 20
6.643368524799992
 10
-7.842253038399988
 20
6.603595819199991
 10
-8.620415756799992
 20
6.552132048
 10
-9.46581163199999
 20
6.490488222399999
 10
-10.30243472959999
 20
6.427799983999999
 10
-11.11042079839999
 20
6.369951891199999
 10
-11.89261655359999
 20
6.320970819199995
 10
-12.64630848159999
 20
6.284941662399997
  0
LWPOLYLINE
  5
95D
330
1F
100
AcDbEntity
  8
0
100
AcDbPolyline
 90
        4
 70
     0
 43
0.0
 10
-2.985384379199985
 20
6.0843375072
 10
-1.99040665759999
 20
6.108662587199997
 10
-0.9952683839999849
 20
6.123258244799995
 10
0.0000000000000142
 20
6.128123999999996
  0
LWPOLYLINE
  5
95E
330
1F
100
AcDbEntity
  8
0
100
AcDbPolyline
 90
       17
 70
     0
 43
0.0
 10
0.0000000000000142
 20
6.678952289600001
 10
-0.1047612463999883
 20
6.67825879359999
 10
-0.2089475199999953
 20
6.676178313600001
 10
-0.3114014319999967
 20
6.672734223999992
 10
-0.4112846815999945
 20
6.667964849599993
 10
-0.5074237423999933
 20
6.661948470400002
 10
-0.5991634079999955
 20
6.654759094400002
 10
-0.6854779503999851
 20
6.646521836800001
 10
-0.7660212095999981
 20
6.637322995199991
 10
-0.8403443391999871
 20
6.627264531199994
 10
-0.9082513759999955
 20
6.616418254399999
 10
-0.9694996991999857
 20
6.604855795199991
 10
-1.023753359999986
 20
6.592665254399999
 10
-1.070874206399992
 20
6.579884863999989
 10
-1.110459049599995
 20
6.56661202079999
 10
-1.142298518399996
 20
6.552876687999994
 10
-1.165973916799984
 20
6.538773619199997
  0
LWPOLYLINE
  5
95F
330
1F
100
AcDbEntity
  8
0
100
AcDbPolyline
 90
        5
 70
     0
 43
0.0
 10
0.0000000000000142
 20
5.73124044479999
 10
-0.766812411199993
 20
5.728334796799995
 10
-1.476968275199993
 20
5.720463993600002
 10
-2.203445857599987
 20
5.707259977599999
 10
-2.988957603199992
 20
5.68711811839999
  0
LWPOLYLINE
  5
960
330
1F
100
AcDbEntity
  8
0
100
AcDbPolyline
 90
       17
 70
     0
 43
0.0
 10
0.0000000000000142
 20
6.379362051200001
 10
-0.1027137743999873
 20
6.3799317488
 10
-0.2051929679999915
 20
6.381649745599997
 10
-0.3064961631999949
 20
6.384519503999992
 10
-0.4060107327999845
 20
6.3885463328
 10
-0.5026701519999932
 20
6.39371097279999
 10
-0.5958034863999871
 20
6.4000013552
 10
-0.6842139695999947
 20
6.407355348799992
 10
-0.7672934815999924
 20
6.415734190399998
 10
-0.8443006623999878
 20
6.4250749664
 10
-0.9147463247999922
 20
6.435330939199996
 10
-0.9780649791999849
 20
6.446435803199999
 10
-1.033701927999985
 20
6.458304540799996
 10
-1.08130281759999
 20
6.470874483200002
 10
-1.120393446399987
 20
6.484028511999991
 10
-1.150783515199989
 20
6.497711588799997
 10
-1.172164555199998
 20
6.511798758400001
  0
LWPOLYLINE
  5
961
330
1F
100
AcDbEntity
  8
0
100
AcDbPolyline
 90
       20
 70
     0
 43
0.0
 10
0.0000000000000142
 20
6.709898166399991
 10
0.1047621264000043
 20
6.709204673599995
 10
0.2089510688000047
 20
6.707124158400002
 10
0.3113987936000058
 20
6.703680347200002
 10
0.4112831360000087
 20
6.698911054399996
 10
0.507415100800003
 20
6.692895324800002
 10
0.5991538672000019
 20
6.68570631359999
 10
0.6854753024000076
 20
6.677468665599999
 10
0.7660194576000095
 20
6.668269931199997
 10
0.8403481776000063
 20
6.658210857599993
 10
0.9082481936000021
 20
6.64736586879999
 10
0.9694971312000149
 20
6.635803548799994
 10
1.023746219200006
 20
6.623614395199989
 10
1.070865555200015
 20
6.610834987199989
 10
1.110450372800002
 20
6.5975629456
 10
1.142288824000004
 20
6.5838292928
 10
1.165965262400007
 20
6.56972778559999
 10
1.181118289600007
 20
6.555329531199998
 10
1.187348910400004
 20
6.540772411199991
 10
1.187500000000014
 20
6.538137017599989
  0
LWPOLYLINE
  5
962
330
1F
100
AcDbEntity
  8
0
100
AcDbPolyline
 90
        4
 70
     0
 43
0.0
 10
2.985384380800013
 20
6.0843375072
 10
1.990406675200006
 20
6.108662585599997
 10
0.995268419200002
 20
6.123258244799995
 10
0.0000000000000142
 20
6.128123999999996
  0
LWPOLYLINE
  5
963
330
1F
100
AcDbEntity
  8
0
100
AcDbPolyline
 90
        5
 70
     0
 43
0.0
 10
2.988957604800006
 20
5.68711811839999
 10
2.195289857600002
 20
5.707437142399992
 10
1.468516696000008
 20
5.7205869408
 10
0.7621844480000135
 20
5.728369758400003
 10
0.0000000000000142
 20
5.73124044479999
  0
LWPOLYLINE
  5
964
330
1F
100
AcDbEntity
  8
0
100
AcDbPolyline
 90
       10
 70
     0
 43
0.0
 10
6.384876166400005
 20
6.673679572799994
 10
6.469156979200008
 20
6.671392582399999
 10
7.128057500800011
 20
6.643368524799992
 10
7.842253040000002
 20
6.603595819199991
 10
8.620415758400014
 20
6.552132048
 10
9.465811633600011
 20
6.490488222399999
 10
10.3024347312
 20
6.427799983999999
 10
11.11042079840001
 20
6.369951891199999
 10
11.8926165552
 20
6.320970819199995
 10
12.6463084832
 20
6.284941662399997
  0
LWPOLYLINE
  5
965
330
1F
100
AcDbEntity
  8
0
100
AcDbPolyline
 90
        4
 70
     0
 43
0.0
 10
12.6463084832
 20
6.284941662399997
 10
13.2676310112
 20
6.2672019104
 10
13.87899015840001
 20
6.26411917279999
 10
14.47629348800001
 20
6.278919174399998
  0
LWPOLYLINE
  5
966
330
1F
100
AcDbEntity
  8
0
100
AcDbPolyline
 90
        3
 70
     0
 43
0.0
 10
-3.815598998399991
 20
6.647774391999998
 10
-4.275051379199993
 20
6.672888476799993
 10
-4.430191295999989
 20
6.677732639999998
  0
LWPOLYLINE
  5
967
330
1F
100
AcDbEntity
  8
0
100
AcDbPolyline
 90
       19
 70
     0
 43
0.0
 10
-14.47629348799998
 20
6.278919172799998
 10
-15.12013025279999
 20
6.320120881600001
 10
-15.68558913759999
 20
6.383217775999991
 10
-16.18908196319998
 20
6.46510156959999
 10
-16.64284438399999
 20
6.563520761599999
 10
-17.05544711999999
 20
6.676765542400001
 10
-17.43522938879999
 20
6.804197311999995
 10
-17.78878527199999
 20
6.945749222399992
 10
-18.12128957119999
 20
7.10180528319999
 10
-18.44345260319999
 20
7.276769945599991
 10
-18.76369758719999
 20
7.475630395199996
 10
-19.08479101279999
 20
7.701649364800001
 10
-19.41768597279999
 20
7.965288630399992
 10
-19.76465633279999
 20
8.272422788799996
 10
-20.12432639839999
 20
8.626581110399992
 10
-20.49636418239999
 20
9.032775052800001
 10
-20.88050114559999
 20
9.496793875199994
 10
-21.27653581599999
 20
10.0254609488
 10
-21.68398468319999
 20
10.62629667839999
  0
LWPOLYLINE
  5
968
330
1F
100
AcDbEntity
  8
0
100
AcDbPolyline
 90
        9
 70
     0
 43
0.0
 10
6.086246384000006
 20
6.223854007999999
 10
6.220717945600014
 20
6.215126601600001
 10
6.348378929600002
 20
6.20990192799999
 10
6.462846094400006
 20
6.208771651199992
 10
6.55623443360001
 20
6.211945851199995
 10
6.623834116800011
 20
6.218986174399997
 10
6.666613339200011
 20
6.229672534399991
 10
6.683020753600004
 20
6.243949064000002
 10
6.681019086400013
 20
6.251504163199992
  0
LWPOLYLINE
  5
969
330
1F
100
AcDbEntity
  8
0
100
AcDbPolyline
 90
       13
 70
     0
 43
0.0
 10
-3.815598998399991
 20
6.647774391999998
 10
-3.715172582399986
 20
6.640724870400003
 10
-3.61700687519999
 20
6.633249043199992
 10
-3.520049734399989
 20
6.625276113599991
 10
-3.423408267199988
 20
6.616724491199999
 10
-3.328361567999991
 20
6.607702588799991
 10
-3.234612286399993
 20
6.598186902399998
 10
-3.141979129599988
 20
6.588159227199991
 10
-3.051406622399994
 20
6.5777300128
 10
-2.962723233599987
 20
6.566896387199999
 10
-2.875215756799988
 20
6.555579331199989
 10
-2.788675985599994
 20
6.543750382400002
 10
-2.703347228799998
 20
6.531441734400001
  0
LINE
  5
96A
330
1F
100
AcDbEntity
  8
0
100
AcDbLine
 10
6.086246384000006
 20
6.223854008000003
 30
0.0
 11
5.358094915200013
 21
6.278705143999999
 31
0.0
  0
LWPOLYLINE
  5
96B
330
1F
100
AcDbEntity
  8
0
100
AcDbPolyline
 90
        8
 70
     0
 43
0.0
 10
5.358094915200013
 20
6.278705143999996
 10
5.262441968000004
 20
6.287151476800001
 10
5.160558798400003
 20
6.298769545599991
 10
5.061741905600001
 20
6.312733828800002
 10
4.973615288000004
 20
6.327912134399991
 10
4.898740515200003
 20
6.343776496
 10
4.842348724800004
 20
6.35913807679999
 10
4.807294852800012
 20
6.372804691199998
  0
LINE
  5
96C
330
1F
100
AcDbEntity
  8
0
100
AcDbLine
 10
14.66690170080001
 20
4.702702356800003
 30
0.0
 11
14.64427663040001
 21
4.705125716799997
 31
0.0
  0
LWPOLYLINE
  5
96D
330
1F
100
AcDbEntity
  8
0
100
AcDbPolyline
 90
        4
 70
     0
 43
0.0
 10
14.68081283040001
 20
5.098091003199993
 10
14.0101116432
 20
5.171399836800002
 10
13.34756203200001
 20
5.248101267199995
 10
12.69311664000001
 20
5.327904017600001
  0
LWPOLYLINE
  5
96E
330
1F
100
AcDbEntity
  8
0
100
AcDbPolyline
 90
        4
 70
     0
 43
0.0
 10
14.64427663040001
 20
4.705125716799994
 10
13.98706912320001
 20
4.777967580799991
 10
13.33039243200001
 20
4.854628923199992
 10
12.67420943520001
 20
4.935112888000002
  0
LWPOLYLINE
  5
96F
330
1F
100
AcDbEntity
  8
0
100
AcDbPolyline
 90
        5
 70
     0
 43
0.0
 10
12.6472686048
 20
4.9385003344
 10
9.851208627200009
 20
5.251020694399993
 10
7.334364148800005
 20
5.46533480479999
 10
5.057362646400008
 20
5.604892403199993
 10
2.988957604800006
 20
5.68711811839999
  0
LWPOLYLINE
  5
970
330
1F
100
AcDbEntity
  8
0
100
AcDbPolyline
 90
       14
 70
     0
 43
0.0
 10
12.69311664000001
 20
5.327904017600001
 10
11.4438490576
 20
5.476523276799991
 10
10.3184289696
 20
5.597629310399991
 10
9.301327310400012
 20
5.696603412799998
 10
8.379550673600007
 20
5.777665315199993
 10
7.542171131200007
 20
5.8441490336
 10
6.779757513600003
 20
5.898724695999998
 10
6.084151236800011
 20
5.943540647999991
 10
5.448634254400005
 20
5.980308929599996
 10
4.867152625600013
 20
6.010431900799996
 10
4.333947182400009
 20
6.035072316799993
 10
3.843686656000002
 20
6.0551796144
 10
3.394279721600014
 20
6.071425872000002
 10
2.985384380800013
 20
6.0843375072
  0
LINE
  5
971
330
1F
100
AcDbEntity
  8
0
100
AcDbLine
 10
12.67420943520001
 20
4.935112888000006
 30
0.0
 11
12.6472686048
 21
4.938500334400004
 31
0.0
  0
LWPOLYLINE
  5
972
330
1F
100
AcDbEntity
  8
0
100
AcDbPolyline
 90
       12
 70
     0
 43
0.0
 10
-14.25892179839999
 20
8.821316448000001
 10
-14.85707043999999
 20
8.906795639999995
 10
-15.41324356479999
 20
9.013625103999995
 10
-15.96511101759999
 20
9.147583039999997
 10
-16.53956691199999
 20
9.316282609599991
 10
-17.13927832959998
 20
9.522775556799995
 10
-17.74821459679999
 20
9.763790483199993
 10
-18.35208593919999
 20
10.0349033952
 10
-18.93836884799998
 20
10.3307710912
 10
-19.49693241119999
 20
10.64564716959999
 10
-20.01959174079999
 20
10.97342470559999
 10
-20.50164575999998
 20
11.30891375039999
  0
LWPOLYLINE
  5
973
330
1F
100
AcDbEntity
  8
0
100
AcDbPolyline
 90
       21
 70
     0
 43
0.0
 10
-2.677905887999997
 20
6.571773057599994
 10
-2.710576692799989
 20
6.577791830399998
 10
-2.743446537599993
 20
6.584683902399998
 10
-2.77650900319999
 20
6.592383502399993
 10
-2.809730846399986
 20
6.600824398399989
 10
-2.843285903999998
 20
6.610001979200003
 10
-2.878168155199986
 20
6.620175119999995
 10
-2.915330977599992
 20
6.631658527999999
 10
-2.955800534399998
 20
6.644848679999991
 10
-3.000785433599986
 20
6.660263667199995
 10
-3.051491129599995
 20
6.678484566399998
 10
-3.109371849599995
 20
6.700244391999998
 10
-3.17585765439999
 20
6.726328299200002
 10
-3.248771825599988
 20
6.7560649728
 10
-3.323808300799996
 20
6.787691260799999
 10
-3.397533580799986
 20
6.819592633599992
 10
-3.469634476799996
 20
6.851433182399997
 10
-3.539951086399995
 20
6.882975796799993
 10
-3.608768566399987
 20
6.914213446399994
 10
-3.677003227199989
 20
6.945460755199999
 10
-3.745637491199985
 20
6.977091227200002
  0
LINE
  5
974
330
1F
100
AcDbEntity
  8
0
100
AcDbLine
 10
-14.30002958399999
 20
9.9330593488
 30
0.0
 11
-14.25892179839999
 21
9.925325603199993
 31
0.0
  0
LWPOLYLINE
  5
975
330
1F
100
AcDbEntity
  8
0
100
AcDbPolyline
 90
       16
 70
     0
 43
0.0
 10
-5.400264124799988
 20
7.686704644799998
 10
-5.700764441599986
 20
7.793791958400003
 10
-6.21845034719999
 20
7.951245012799997
 10
-6.783097847999997
 20
8.095290512000001
 10
-7.396956271999997
 20
8.225165412799992
 10
-8.06078090079999
 20
8.339588078399994
 10
-8.764268254399993
 20
8.436137518399998
 10
-9.40862410879999
 20
8.50588348319999
 10
-9.983115878399992
 20
8.555465135999991
 10
-10.51229261599998
 20
8.592361417599999
 10
-11.04711733759999
 20
8.622757604799996
 10
-11.59566531679999
 20
8.648882878399998
 10
-12.17020804319999
 20
8.673898947199997
 10
-12.79983847839999
 20
8.703655054399998
 10
-13.52329275039998
 20
8.749736177599995
 10
-14.25892179839999
 20
8.821316454400001
  0
LWPOLYLINE
  5
976
330
1F
100
AcDbEntity
  8
0
100
AcDbPolyline
 90
       25
 70
     0
 43
0.0
 10
-16.86649089119999
 20
10.7440795792
 10
-16.74056780639999
 20
10.6883189856
 10
-16.61571060479999
 20
10.63475808639999
 10
-16.49430580159999
 20
10.58430888959999
 10
-16.37594448159999
 20
10.53665536799999
 10
-16.26023660479999
 20
10.4915148128
 10
-16.14698523839999
 20
10.44870214399999
 10
-16.03600226719999
 20
10.4080500496
 10
-15.92708023679999
 20
10.36939705759999
 10
-15.82003076799998
 20
10.33260112
 10
-15.71460674559999
 20
10.29751195519999
 10
-15.61053115039999
 20
10.2639822384
 10
-15.50772960639999
 20
10.23193964159998
 10
-15.40624222399999
 20
10.20134968
 10
-15.30581395519999
 20
10.17209255039999
 10
-15.20570313599999
 20
10.14392417599999
 10
-15.10518419999999
 20
10.11663483199999
 10
-15.00508445119999
 20
10.0904419504
 10
-14.90610355519999
 20
10.06549810879999
 10
-14.80698284319998
 20
10.04146455519999
 10
-14.70746191199999
 20
10.01827844799999
 10
-14.60794908479999
 20
9.9960323936
 10
-14.50768688959998
 20
9.974560303999989
 10
-14.40522099999999
 20
9.953584531199989
 10
-14.30002958399999
 20
9.933059348799996
  0
LINE
  5
977
330
1F
100
AcDbEntity
  8
0
100
AcDbLine
 10
-3.745637491199985
 20
6.977091227200006
 30
0.0
 11
-3.987313259199993
 21
7.088954145599998
 31
0.0
  0
LWPOLYLINE
  5
978
330
1F
100
AcDbEntity
  8
0
100
AcDbPolyline
 90
        3
 70
     0
 43
0.0
 10
4.631749448000007
 20
35.54382737439999
 10
4.721588104000005
 20
35.58492280959999
 10
4.807294852800012
 20
35.62719531039999
  0
LWPOLYLINE
  5
979
330
1F
100
AcDbEntity
  8
0
100
AcDbPolyline
 90
        6
 70
     0
 43
0.0
 10
2.817583609600006
 20
34.26032255359999
 10
3.253744006400012
 20
34.44379740639999
 10
3.663723809600014
 20
34.67499191519999
 10
4.041655886400008
 20
34.95068803359998
 10
4.382118640000001
 20
35.2670509584
 10
4.612564366400007
 20
35.5317416288
  0
LWPOLYLINE
  5
97B
330
1F
100
AcDbEntity
  8
0
100
AcDbPolyline
 90
        8
 70
     0
 43
0.0
 10
4.807294852800012
 20
35.62719531039999
 10
4.842348724800004
 20
35.64086192479999
 10
4.898740515200003
 20
35.65622350399999
 10
4.973615288000004
 20
35.67208786719999
 10
5.061741905600001
 20
35.68726617280001
 10
5.160558798400003
 20
35.70123045599999
 10
5.262441968000004
 20
35.71284852479999
 10
5.358094915200013
 20
35.72129485759998
  0
LINE
  5
97C
330
1F
100
AcDbEntity
  8
0
100
AcDbLine
 10
2.034048075200004
 20
34.0248409264
 30
0.0
 11
2.817583609600006
 21
34.26032255359999
 31
0.0
  0
LWPOLYLINE
  5
97D
330
1F
100
AcDbEntity
  8
0
100
AcDbPolyline
 90
       21
 70
     0
 43
0.0
 10
3.853316761600012
 20
8.598253302399992
 10
3.872834580800002
 20
8.599861971199995
 10
4.208326720000002
 20
8.629624921599994
 10
4.618345998400002
 20
8.66841188319999
 10
5.135201169600009
 20
8.719767783999994
 10
5.739491702400002
 20
8.78209305919999
 10
6.348042828800004
 20
8.84666336479999
 10
6.95622663520001
 20
8.912906206399991
 10
7.556892801600014
 20
8.9799220272
 10
8.134311174400011
 20
9.045844462399994
 10
8.689252664000008
 20
9.1107162688
 10
9.229311724800012
 20
9.175511967999991
 10
9.764138254400009
 20
9.241625887999997
 10
10.3159457344
 20
9.312256595199993
 10
10.8911576784
 20
9.388913503999997
 10
11.47803321440001
 20
9.470807508800003
 10
12.0671911376
 20
9.557297070399993
 10
12.64554858240001
 20
9.646890387199999
 10
13.20599257280001
 20
9.738603727999997
 10
13.74476122560001
 20
9.831692071999992
 10
14.25892180000001
 20
9.92532556
  0
LWPOLYLINE
  5
97E
330
1F
100
AcDbEntity
  8
0
100
AcDbPolyline
 90
       21
 70
     0
 43
0.0
 10
-14.25892179839999
 20
9.92532556
 10
-13.74657218399999
 20
9.832013483199997
 10
-13.21021246239999
 20
9.739313633600001
 10
-12.65253465119999
 20
9.648003049600003
 10
-12.07686957279999
 20
9.5587567056
 10
-11.49037955839999
 20
9.47257412
 10
-10.90323691039998
 20
9.390559792000001
 10
-10.32715098079999
 20
9.313718908799994
 10
-9.776775033599989
 20
9.243214516799991
 10
-9.243900246399988
 20
9.177287967999998
 10
-8.706631225599991
 20
9.112774233600003
 10
-8.154056305599993
 20
9.04812597759999
 10
-7.579512902399997
 20
8.982476340800001
 10
-6.979862324799995
 20
8.915513708800002
 10
-6.375865059199995
 20
8.849657105599998
 10
-5.769704531199991
 20
8.785257507199997
 10
-5.162743942399984
 20
8.722562889599995
 10
-4.625941425599989
 20
8.669149615999995
 10
-4.201298219199998
 20
8.628980940800001
 10
-3.863928361599988
 20
8.599101279999995
 10
-3.853371823999992
 20
8.5982331312
  0
LWPOLYLINE
  5
97F
330
1F
100
AcDbEntity
  8
0
100
AcDbPolyline
 90
        7
 70
     0
 43
0.0
 10
2.817583609600006
 20
7.739677446399991
 10
2.034092785600009
 20
7.975147988799999
 10
1.229156665600001
 20
8.133518777599999
 10
0.411220769600007
 20
8.213130891199991
 10
-0.4110740015999852
 20
8.213138012799998
 10
-1.229043809599986
 20
8.133535326399989
 10
-2.03404807359999
 20
7.975159073599993
  0
LWPOLYLINE
  5
982
330
1F
100
AcDbEntity
  8
0
100
AcDbPolyline
 90
        3
 70
     0
 43
0.0
 10
4.807294852800012
 20
6.372804691199998
 10
4.72159589280001
 20
6.415073492800001
 10
4.631749448000007
 20
6.4561726256
  0
LWPOLYLINE
  5
983
330
1F
100
AcDbEntity
  8
0
100
AcDbPolyline
 90
        6
 70
     0
 43
0.0
 10
4.331180668800001
 20
33.6150552336
 10
4.906616140800011
 20
33.94969540319999
 10
5.439565473600012
 20
34.3422430448
 10
5.923649417600003
 20
34.7878470736
 10
6.35307473600001
 20
35.2809937472
 10
6.681076945600011
 20
35.74849935200001
  0
LWPOLYLINE
  5
984
330
1F
100
AcDbEntity
  8
0
100
AcDbPolyline
 90
       26
 70
     0
 43
0.0
 10
0.0000000000000142
 20
10.61676433119999
 10
0.0947206912000098
 20
10.61918389119999
 10
0.1903489632000088
 20
10.62665647199999
 10
0.2865176096000113
 20
10.63942956319999
 10
0.3827943760000068
 20
10.65766302239999
 10
0.4781693568000094
 20
10.68128626399998
 10
0.5718053584000132
 20
10.71008527039999
 10
0.6634712784000101
 20
10.74392355999999
 10
0.7530581392000073
 20
10.78270371999999
 10
0.8406018592000066
 20
10.82642106399999
 10
0.9266318816000023
 20
10.875430288
 10
1.011641057600002
 20
10.930286448
 10
1.095926923200011
 20
10.9916604464
 10
1.179504398400013
 20
11.06025123999999
 10
1.262194496000006
 20
11.136823176
 10
1.343883267200013
 20
11.2224949376
 10
1.424048054400003
 20
11.3183587232
 10
1.50159467680001
 20
11.42517464319999
 10
1.574090240000003
 20
11.54172769599999
 10
1.639734404800009
 20
11.66701987199999
 10
1.696429953600002
 20
11.7984127792
 10
1.743000073600015
 20
11.9335891056
 10
1.779250852800004
 20
12.07195403519999
 10
1.804923168000001
 20
12.21247040959999
 10
1.819925875200013
 20
12.3546032752
 10
1.824143820800003
 20
12.49787973759999
  0
LINE
  5
986
330
1F
100
AcDbEntity
  8
CENTER
100
AcDbLine
 10
3.940786236479084
 20
12.5
 30
0.0
 11
-3.940786236479056
 21
12.5
 31
0.0
  0
LWPOLYLINE
  5
988
330
1F
100
AcDbEntity
  8
0
100
AcDbPolyline
 90
        7
 70
     0
 43
0.0
 10
-1.824143801599987
 20
12.49787973759999
 10
-1.848226526399997
 20
12.49826252799999
 10
-1.874821819199993
 20
12.49863614239999
 10
-1.90349205439999
 20
12.49899466719999
 10
-1.933765460799989
 20
12.499332432
 10
-1.965143889599985
 20
12.49964409919999
 10
-1.99711100639999
 20
12.49992475999999
  0
LWPOLYLINE
  5
989
330
1F
100
AcDbEntity
  8
0
100
AcDbPolyline
 90
       10
 70
     0
 43
0.0
 10
4.331180668800001
 20
8.384944767999993
 10
3.424178814400008
 20
8.789811579200002
 10
2.47566779520001
 20
9.097867571199994
 10
1.497275328000014
 20
9.305308358399994
 10
0.5008560048000135
 20
9.409631761599992
 10
-0.5015656495999963
 20
9.409594711999996
 10
-1.497881251199984
 20
9.305212683199993
 10
-2.476065865599991
 20
9.097761068799993
 10
-3.424313443199991
 20
8.789759849599999
 10
-4.331180667199987
 20
8.384944767999993
  0
LWPOLYLINE
  5
98A
330
1F
100
AcDbEntity
  8
0
100
AcDbPolyline
 90
        6
 70
     0
 43
0.0
 10
4.331180668800001
 20
8.384944767999993
 10
4.906616947200006
 20
8.050304068799999
 10
5.439566952000006
 20
7.657755735999995
 10
5.923651411200012
 20
7.212150878399992
 10
6.353077060800004
 20
6.71900326399999
 10
6.681076945600011
 20
6.251500648
  0
LWPOLYLINE
  5
98B
330
1F
100
AcDbEntity
  8
0
100
AcDbPolyline
 90
        3
 70
     0
 43
0.0
 10
4.631749448000007
 20
6.4561726256
 10
4.613819764800012
 20
6.466862135999999
 10
4.612549712000003
 20
6.468259211200003
  0
LWPOLYLINE
  5
98C
330
1F
100
AcDbEntity
  8
0
100
AcDbPolyline
 90
       18
 70
     0
 43
0.0
 10
1.181118608000005
 20
6.524381222399991
 10
1.165965838400012
 20
6.538779536000003
 10
1.142289590400011
 20
6.552881159999994
 10
1.110451216000015
 20
6.566614980799993
 10
1.070866332800008
 20
6.5798872304
 10
1.02374678080001
 20
6.592666875199991
 10
0.9694973424000039
 20
6.604856280000003
 10
0.9082479584000111
 20
6.616418847999991
 10
0.8403474560000034
 20
6.627264071999999
 10
0.7660182672000105
 20
6.637323361599992
 10
0.6854737696000086
 20
6.646522275199995
 10
0.5991522144000072
 20
6.654760065599997
 10
0.5074135728000045
 20
6.66194918559999
 10
0.4112818928000053
 20
6.667965003199991
 10
0.3113979120000039
 20
6.672734366399989
 10
0.2089505616000054
 20
6.676178231999994
 10
0.1047619344000026
 20
6.678258783999989
 10
0.0000000000000142
 20
6.678952289600001
  0
LWPOLYLINE
  5
98D
330
1F
100
AcDbEntity
  8
0
100
AcDbPolyline
 90
        3
 70
     0
 43
0.0
 10
-1.172164555199998
 20
6.511798758400001
 10
-1.184394684799997
 20
6.526209820800001
 10
-1.187499998399985
 20
6.538137041599991
  0
LINE
  5
98E
330
1F
100
AcDbEntity
  8
0
100
AcDbLine
 10
2.703347230400012
 20
35.46855826559999
 30
0.0
 11
2.677905889600012
 21
35.42822694399998
 31
0.0
  0
LWPOLYLINE
  5
990
330
1F
100
AcDbEntity
  8
0
100
AcDbPolyline
 90
        3
 70
     0
 43
0.0
 10
4.612549566400005
 20
35.53174077759999
 10
4.613817596800004
 20
35.53313570559998
 10
4.631749448000007
 20
35.54382737439999
  0
LWPOLYLINE
  5
991
330
1F
100
AcDbEntity
  8
0
100
AcDbPolyline
 90
       23
 70
     0
 43
0.0
 10
0.0000000000000142
 20
14.34009367039999
 10
-0.1353081647999943
 20
14.33506786079999
 10
-0.2683058895999864
 20
14.3202376896
 10
-0.3990796655999844
 20
14.29584087039999
 10
-0.5277368687999911
 20
14.26193230239999
 10
-0.6542276335999873
 20
14.21843434079999
 10
-0.778330847999996
 20
14.16518512
 10
-0.8994820127999929
 20
14.1020800496
 10
-1.01661606719999
 20
14.02931238239998
 10
-1.128583895999994
 20
13.94730775999999
 10
-1.234085017599994
 20
13.85687712
 10
-1.332384838399988
 20
13.7586345408
 10
-1.423065716799996
 20
13.65297055999999
 10
-1.505559823999988
 20
13.5404843296
 10
-1.579328281599984
 20
13.4218659424
 10
-1.643951470399997
 20
13.29775867519999
 10
-1.699383755199988
 20
13.16799366079999
 10
-1.744124479999996
 20
13.03654771039999
 10
-1.777563486399998
 20
12.90846920319999
 10
-1.800373409599984
 20
12.78854273599999
 10
-1.814166131199996
 20
12.68131741119999
 10
-1.821433127999995
 20
12.58588373119999
 10
-1.824121806399986
 20
12.49999999999999
  0
LWPOLYLINE
  5
993
330
1F
100
AcDbEntity
  8
0
100
AcDbPolyline
 90
        6
 70
     0
 43
0.0
 10
4.612564369600008
 20
6.46825836959999
 10
4.382105308800007
 20
6.732963007999995
 10
4.041666313600003
 20
7.049303372799993
 10
3.663755508800008
 20
7.32498769439999
 10
3.253786401600009
 20
7.556181817600002
 10
2.817583609600006
 20
7.739677446399991
  0
LINE
  5
994
330
1F
100
AcDbEntity
  8
0
100
AcDbLine
 10
2.703347230400012
 20
6.531441736000004
 30
0.0
 11
2.677905889600012
 21
6.571773055999997
 31
0.0
  0
LINE
  5
995
330
1F
100
AcDbEntity
  8
0
100
AcDbLine
 10
1.181695811200015
 20
6.523032595200007
 30
0.0
 11
1.181118608000005
 21
6.524381222399995
 31
0.0
  0
LWPOLYLINE
  5
996
330
1F
100
AcDbEntity
  8
0
100
AcDbPolyline
 90
       26
 70
     0
 43
0.0
 10
-1.824143820799989
 20
12.49787973759999
 10
-1.819926641599991
 20
12.35461466559999
 10
-1.80492491839999
 20
12.21248257759999
 10
-1.779253028799985
 20
12.07196383679999
 10
-1.743002814399986
 20
11.93359816159999
 10
-1.696432663999985
 20
11.7984197824
 10
-1.639737451199991
 20
11.66702625919999
 10
-1.574101539199986
 20
11.54174743039999
 10
-1.501612870399995
 20
11.42520165279999
 10
-1.424065129599995
 20
11.31838058719999
 10
-1.343900740799995
 20
11.22251447039999
 10
-1.262213255999995
 20
11.13684163999999
 10
-1.179524977599996
 20
11.0602691664
 10
-1.095951593599991
 20
10.9916795088
 10
-1.011667924799994
 20
10.930304864
 10
-0.9266557535999879
 20
10.87544476799999
 10
-0.8406236831999933
 20
10.82643271679999
 10
-0.7530799007999889
 20
10.78271385599999
 10
-0.6634901471999939
 20
10.74393112159999
 10
-0.5718210495999898
 20
10.71009057599999
 10
-0.478182187199991
 20
10.68128982399999
 10
-0.3828075887999915
 20
10.65766590719999
 10
-0.2865341375999861
 20
10.6394322208
 10
-0.1903647871999965
 20
10.62665813439999
 10
-0.0947307343999882
 20
10.61918440799999
 10
0.0000000000000142
 20
10.61676433119999
  0
LINE
  5
9A7
330
1F
100
AcDbEntity
  8
CENTER
100
AcDbLine
 10
0.0000000000000142
 20
3.68407790630072
 30
0.0
 11
0.0000000000000142
 21
16.45819319978736
 31
0.0
  0
LINE
  5
9A9
330
1F
100
AcDbEntity
  8
0
100
AcDbLine
 10
-1.997090886399988
 20
12.50243180639999
 30
0.0
 11
-1.997111623999984
 21
12.5
 31
0.0
  0
LINE
  5
9AA
330
1F
100
AcDbEntity
  8
0
100
AcDbLine
 10
-1.824121806399986
 20
12.5
 30
0.0
 11
-1.824143820799989
 21
12.4978797376
 31
0.0
  0
LWPOLYLINE
  5
9AB
330
1F
100
AcDbEntity
  8
0
100
AcDbPolyline
 90
       20
 70
     0
 43
0.0
 10
-1.187499998399985
 20
6.538137041599991
 10
-1.187350198399997
 20
6.540761115199995
 10
-1.18112546719999
 20
6.555319841599992
 10
-1.165973347199994
 20
6.569721863999998
 10
-1.142297759999991
 20
6.5838248176
 10
-1.110458215999997
 20
6.597559982399996
 10
-1.070873439999985
 20
6.610832617599992
 10
-1.023752812799997
 20
6.623612769599997
 10
-0.9694995023999979
 20
6.635803060799997
 10
-0.9082516255999877
 20
6.647365271999998
 10
-0.8403450799999916
 20
6.658211312000002
 10
-0.7660224191999845
 20
6.668269563199995
 10
-0.6854795087999861
 20
6.677468225599991
 10
-0.5991650847999921
 20
6.685705340799994
 10
-0.5074252943999938
 20
6.692894606399999
 10
-0.4112859423999851
 20
6.698910899199997
 10
-0.3114023263999854
 20
6.70368020319999
 10
-0.2089480351999953
 20
6.707124239999995
 10
-0.1047614415999902
 20
6.709204683199995
 10
0.0000000000000142
 20
6.709898166399991
  0
LWPOLYLINE
  5
9AD
330
1F
100
AcDbEntity
  8
0
100
AcDbPolyline
 90
       23
 70
     0
 43
0.0
 10
1.824121806400015
 20
12.49999999999999
 10
1.821407691200008
 20
12.58637017439999
 10
1.814061460800004
 20
12.68235632479999
 10
1.800106512000013
 20
12.79023556959999
 10
1.777044443200011
 20
12.91078183519999
 10
1.743334328000003
 20
13.03918132319999
 10
1.698383617600015
 20
13.1706011568
 10
1.642841516800004
 20
13.30009996479999
 10
1.578136747200005
 20
13.42395250399999
 10
1.504309257600013
 20
13.5423313504
 10
1.421787329600007
 20
13.65457895199999
 10
1.331105857600007
 20
13.76001296159999
 10
1.232831192000006
 20
13.85803680159999
 10
1.127376300800008
 20
13.94826438239999
 10
1.015486720000012
 20
14.03007431679999
 10
0.8984571184000031
 20
14.10266353279999
 10
0.777429428800005
 20
14.16561199519999
 10
0.653462678400004
 20
14.21872915519999
 10
0.5271129824000127
 20
14.2621213152
 10
0.3986035360000102
 20
14.29594780159999
 10
0.2679833280000139
 20
14.32028569599999
 10
0.1351444112000024
 20
14.33508003999999
 10
0.0000000000000142
 20
14.34009367039999
  0
LINE
  5
9B1
330
1F
100
AcDbEntity
  8
0
100
AcDbLine
 10
3.815599003200006
 20
34.9905281952
 30
0.0
 11
3.815586614400004
 21
34.99101731039999
 31
0.0
  0
LINE
  5
9B2
330
1F
100
AcDbEntity
  8
0
100
AcDbLine
 10
3.815599003200006
 20
7.0094718048
 30
0.0
 11
3.815586614400004
 21
7.008982691200003
 31
0.0
  0
LINE
  5
9B3
330
1F
100
AcDbEntity
  8
0
100
AcDbLine
 10
1.187500000000014
 20
6.538137017599993
 30
0.0
 11
1.184401961600002
 21
6.526223737600005
 31
0.0
  0
LINE
  5
9B4
330
1F
100
AcDbEntity
  8
0
100
AcDbLine
 10
-1.181125782399988
 20
6.524371537600003
 30
0.0
 11
-1.181698254399989
 21
6.523032552000003
 31
0.0
  0
LINE
  5
9B5
330
1F
100
AcDbEntity
  8
0
100
AcDbLine
 10
-2.703347228799998
 20
6.531441736000004
 30
0.0
 11
-2.677905887999997
 21
6.571773055999997
 31
0.0
  0
LINE
  5
9B6
330
1F
100
AcDbEntity
  8
0
100
AcDbLine
 10
-2.703347228799998
 20
35.46855826559999
 30
0.0
 11
-2.677905887999997
 21
35.42822694399998
 31
0.0
  0
LWPOLYLINE
  5
9B8
330
1F
100
AcDbEntity
  8
0
100
AcDbPolyline
 90
        3
 70
     0
 43
0.0
 10
-4.612549564799991
 20
6.468259222399989
 10
-4.613817596799989
 20
6.466864295999993
 10
-4.631749447999993
 20
6.4561726256
  0
LWPOLYLINE
  5
9BA
330
1F
100
AcDbEntity
  8
0
100
AcDbPolyline
 90
        6
 70
     0
 43
0.0
 10
-4.612564367999993
 20
35.531741632
 10
-4.382105307199992
 20
35.26703699359998
 10
-4.041666311999989
 20
34.95069662719998
 10
-3.663755507199994
 20
34.6750123072
 10
-3.253786401599995
 20
34.44381818240001
 10
-2.817583607999992
 20
34.26032255359999
  0
LINE
  5
9BB
330
1F
100
AcDbEntity
  8
0
100
AcDbLine
 10
1.184401961600002
 20
6.526223737600005
 30
0.0
 11
1.172181449600003
 21
6.511813081599996
 31
0.0
  0
LINE
  5
9BC
330
1F
100
AcDbEntity
  8
0
100
AcDbLine
 10
-1.165973916799984
 20
6.5387736192
 30
0.0
 11
-1.181125782399988
 21
6.524371537600003
 31
0.0
  0
LWPOLYLINE
  5
9BD
330
1F
100
AcDbEntity
  8
0
100
AcDbPolyline
 90
        6
 70
     0
 43
0.0
 10
-4.331180667199987
 20
8.384944767999993
 10
-4.906616139199996
 20
8.0503045968
 10
-5.439565471999998
 20
7.657756955199996
 10
-5.923649415999989
 20
7.212152927999991
 10
-6.353074734399996
 20
6.719006254399996
 10
-6.681076943999997
 20
6.251500648
  0
LWPOLYLINE
  5
9BE
330
1F
100
AcDbEntity
  8
0
100
AcDbPolyline
 90
        3
 70
     0
 43
0.0
 10
-4.631749447999993
 20
6.4561726256
 10
-4.721588102399991
 20
6.415077190399994
 10
-4.807294852799998
 20
6.372804691199998
  0
LWPOLYLINE
  5
9BF
330
1F
100
AcDbEntity
  8
0
100
AcDbPolyline
 90
        6
 70
     0
 43
0.0
 10
-2.817583607999992
 20
7.739677446399991
 10
-3.253744004799997
 20
7.556202593600001
 10
-3.663723807999986
 20
7.3250080864
 10
-4.041655884799993
 20
7.049311966399994
 10
-4.382118638399987
 20
6.73294904159999
 10
-4.612564364799993
 20
6.46825837279999
  0
LWPOLYLINE
  5
9C2
330
1F
100
AcDbEntity
  8
0
100
AcDbPolyline
 90
       10
 70
     0
 43
0.0
 10
-4.331180667199987
 20
33.6150552336
 10
-3.424178814399994
 20
33.21018842079999
 10
-2.475667793599996
 20
32.9021324288
 10
-1.497275327999986
 20
32.6946916416
 10
-0.5008560047999851
 20
32.5903682384
 10
0.5015656512000107
 20
32.59040528799999
 10
1.497881252800013
 20
32.69478731839999
 10
2.476065865600006
 20
32.9022389328
 10
3.424313443200006
 20
33.21024015040001
 10
4.331180668800001
 20
33.6150552336
  0
LWPOLYLINE
  5
9C3
330
1F
100
AcDbEntity
  8
0
100
AcDbPolyline
 90
        3
 70
     0
 43
0.0
 10
-4.807294852799998
 20
35.62719531039999
 10
-4.721595891199996
 20
35.58492650720001
 10
-4.631749447999993
 20
35.54382737439999
  0
LWPOLYLINE
  5
9C4
330
1F
100
AcDbEntity
  8
0
100
AcDbPolyline
 90
        6
 70
     0
 43
0.0
 10
-4.331180667199987
 20
33.6150552336
 10
-4.906616945599992
 20
33.94969593280001
 10
-5.439566951999992
 20
34.34224426559998
 10
-5.923651409599997
 20
34.7878491216
 10
-6.353077059199989
 20
35.28099673759999
 10
-6.681076943999997
 20
35.74849935200001
  0
LWPOLYLINE
  5
9C5
330
1F
100
AcDbEntity
  8
0
100
AcDbPolyline
 90
        3
 70
     0
 43
0.0
 10
-4.631749447999993
 20
35.54382737439999
 10
-4.613819763199984
 20
35.53313786559999
 10
-4.612549710399989
 20
35.53174079039999
  0
LWPOLYLINE
  5
9C6
330
1F
100
AcDbEntity
  8
0
100
AcDbPolyline
 90
       17
 70
     0
 43
0.0
 10
1.172181449600003
 20
6.511813081599992
 10
1.15080883520001
 20
6.497725171199999
 10
1.120425955200005
 20
6.484041065599992
 10
1.081341564800013
 20
6.470885980800002
 10
1.033749315200012
 20
6.458315756800001
 10
0.9781156784000017
 20
6.4464455952
 10
0.914805339200015
 20
6.435340361599994
 10
0.8443593680000134
 20
6.425082766399992
 10
0.767359966400008
 20
6.415741547199996
 10
0.6842837072000095
 20
6.407361745599995
 10
0.5958776992000026
 20
6.400006931199992
 10
0.5027387888000022
 20
6.393715111999991
 10
0.4060638384000015
 20
6.388548819199993
 10
0.3065402912000081
 20
6.38452101759999
 10
0.2052214144000146
 20
6.381650383999993
 10
0.1027326352000131
 20
6.379931958399989
 10
0.0000000000000142
 20
6.379362051200001
  0
LWPOLYLINE
  5
9C7
330
1F
100
AcDbEntity
  8
0
100
AcDbPolyline
 90
        8
 70
     0
 43
0.0
 10
-4.807294852799998
 20
6.372804691199998
 10
-4.84234872479999
 20
6.35913807679999
 10
-4.898740513599989
 20
6.343776496
 10
-4.97361528639999
 20
6.327912134399991
 10
-5.061741905599987
 20
6.312733828800002
 10
-5.160558798399989
 20
6.298769545599991
 10
-5.26244196639999
 20
6.287151476800001
 10
-5.358094913599984
 20
6.278705143999996
  0
LINE
  5
9C8
330
1F
100
AcDbEntity
  8
0
100
AcDbLine
 10
-2.03404807359999
 20
7.975159073599996
 30
0.0
 11
-2.817583607999992
 21
7.739677446399994
 31
0.0
  0
LWPOLYLINE
  5
9C9
330
1F
100
AcDbEntity
  8
0
100
AcDbPolyline
 90
       60
 70
     0
 43
0.0
 10
-14.31317545919998
 20
32.1215619072
 10
-14.48287447679999
 20
32.08837947999998
 10
-14.65035015039999
 20
32.05301911039998
 10
-14.81638662559999
 20
32.01536093760001
 10
-14.98162396319999
 20
31.97527474719998
 10
-15.14606579359999
 20
31.9327614208
 10
-15.30983093119999
 20
31.88779055360001
 10
-15.47318784959999
 20
31.84028224479999
 10
-15.63607685919998
 20
31.79024736319999
 10
-15.79865568479998
 20
31.7376318912
 10
-15.96107638559999
 20
31.682373288
 10
-16.12324639679999
 20
31.62448871999998
 10
-16.28503743679998
 20
31.56401313119999
 10
-16.44635867039998
 20
31.50097040159999
 10
-16.60706498079999
 20
31.43540820640001
 10
-16.76697470719999
 20
31.36739804640001
 10
-16.92604240319999
 20
31.29696012639999
 10
-17.08437117599999
 20
31.22404361759998
 10
-17.24190424319999
 20
31.1486634272
 10
-17.39842087839998
 20
31.07091651679999
 10
-17.55380925759999
 20
30.99085419199999
 10
-17.70803594239998
 20
30.908488992
 10
-17.86097506879999
 20
30.82388338719999
 10
-18.01248345439999
 20
30.73711495680001
 10
-18.16234836799998
 20
30.64831011999999
 10
-18.31038913599999
 20
30.55758845439998
 10
-18.45646481119999
 20
30.46505515039998
 10
-18.60053299679999
 20
30.37075838239999
 10
-18.74258773279999
 20
30.27472223999998
 10
-18.88262230399999
 20
30.17697204
 10
-19.02059920319999
 20
30.07755538239999
 10
-19.15645291839999
 20
29.97654163359999
 10
-19.29008573439999
 20
29.87402874080001
 10
-19.42142372639999
 20
29.77010252479999
 10
-19.55043284159999
 20
29.66482114559999
 10
-19.67707399039999
 20
29.5582488464
 10
-19.80129237119999
 20
29.45046622879999
 10
-19.92303663519999
 20
29.34155534399999
 10
-20.04228060959999
 20
29.23157948959999
 10
-20.15900790399999
 20
29.12059489759999
 10
-20.27318237279999
 20
29.00867895199999
 10
-20.38478044319999
 20
28.89590037600001
 10
-20.49381140639999
 20
28.78229619039998
 10
-20.60030845439999
 20
28.66787682719998
 10
-20.70427365599999
 20
28.5526874736
 10
-20.80570762239999
 20
28.4367773904
 10
-20.90461416479999
 20
28.32019246399999
 10
-21.00099168959999
 20
28.2029853104
 10
-21.09478584639999
 20
28.08527674239999
 10
-21.18586912479999
 20
27.96729371200001
 10
-21.27421613439999
 20
27.84914783679999
 10
-21.35984214719999
 20
27.73090136639998
 10
-21.44276105279999
 20
27.61261957600001
 10
-21.52298821119999
 20
27.4943670016
 10
-21.60056046399998
 20
27.37617637119998
 10
-21.67551387679999
 20
27.25807889119999
 10
-21.74788328639999
 20
27.14010484959999
 10
-21.81771203039998
 20
27.02226698079999
 10
-21.88505028319999
 20
26.90456049599998
 10
-21.94994497759999
 20
26.78697889919999
  0
LWPOLYLINE
  5
9CA
330
1F
100
AcDbEntity
  8
0
100
AcDbPolyline
 90
        4
 70
     0
 43
0.0
 10
-14.25892179839999
 20
32.13160754719999
 10
-14.27702254879999
 20
32.12828576320001
 10
-14.29510713599999
 20
32.1249372128
 10
-14.31317545919998
 20
32.1215619072
  0
LWPOLYLINE
  5
9CB
330
1F
100
AcDbEntity
  8
0
100
AcDbPolyline
 90
       12
 70
     0
 43
0.0
 10
-14.25892179839999
 20
33.17868355199999
 10
-14.85707043999999
 20
33.09320436159998
 10
-15.41324356479999
 20
32.986374896
 10
-15.96511101759999
 20
32.85241696159999
 10
-16.53956691199999
 20
32.6837173904
 10
-17.13927832959998
 20
32.47722444319999
 10
-17.74821459679999
 20
32.23620951679999
 10
-18.35208593919999
 20
31.9650966064
 10
-18.93836884799998
 20
31.66922890879999
 10
-19.49693241119999
 20
31.35435283199998
 10
-20.01959174079999
 20
31.0265752944
 10
-20.50164575999998
 20
30.6910862496
  0
LWPOLYLINE
  5
9CC
330
1F
100
AcDbEntity
  8
0
100
AcDbPolyline
 90
       14
 70
     0
 43
0.0
 10
12.69311664000001
 20
36.67209598240001
 10
11.4438490576
 20
36.52347672479999
 10
10.3184289696
 20
36.40237069119999
 10
9.301327310400012
 20
36.30339658880001
 10
8.379550673600007
 20
36.22233468639999
 10
7.542171131200007
 20
36.15585096800001
 10
6.779757513600003
 20
36.10127530400001
 10
6.084151236800011
 20
36.05645935359999
 10
5.448634254400005
 20
36.019691072
 10
4.867152625600013
 20
35.9895680992
 10
4.333947182400009
 20
35.96492768319999
 10
3.843686656000002
 20
35.94482038719999
 10
3.394279721600014
 20
35.9285741296
 10
2.985384380800013
 20
35.91566249440001
  0
LWPOLYLINE
  5
9CD
330
1F
100
AcDbEntity
  8
0
100
AcDbPolyline
 90
        4
 70
     0
 43
0.0
 10
14.68081283040001
 20
36.90190899839999
 10
14.0101116432
 20
36.82860016480001
 10
13.34756203200001
 20
36.75189873279999
 10
12.69311664000001
 20
36.67209598240001
  0
LWPOLYLINE
  5
9CE
330
1F
100
AcDbEntity
  8
0
100
AcDbPolyline
 90
       27
 70
     0
 43
0.0
 10
-3.958221033599997
 20
33.44857379039999
 10
-4.338311590399996
 20
33.41073922239999
 10
-4.819781681599991
 20
33.35992519999999
 10
-5.311730385599986
 20
33.30639397920001
 10
-5.777938087999984
 20
33.2549262544
 10
-6.231206369599988
 20
33.20449276159999
 10
-6.670772827199996
 20
33.1552075168
 10
-7.095133308799987
 20
33.10729040480001
 10
-7.505296094399994
 20
33.06067032000001
 10
-7.903590953599994
 20
33.0150888576
 10
-8.292775567999989
 20
32.97020452160001
 10
-8.676028827199992
 20
32.92558907520001
 10
-9.055985014399993
 20
32.88084186879999
 10
-9.433195404799988
 20
32.8357762336
 10
-9.808683230399992
 20
32.790123136
 10
-10.18158132479999
 20
32.743848184
 10
-10.55174865759999
 20
32.6968450512
 10
-10.92074563039999
 20
32.64877891360001
 10
-11.28918301439998
 20
32.59941735519999
 10
-11.65788147999999
 20
32.54848560319999
 10
-12.02787570719999
 20
32.49566168640001
 10
-12.39897139999999
 20
32.4407867488
 10
-12.77064909759999
 20
32.38375754239999
 10
-13.14325655679999
 20
32.32434692960001
 10
-13.51627743839999
 20
32.2624739936
 10
-13.88838628319999
 20
32.19822348479999
 10
-14.25892179839999
 20
32.13160761919999
  0
LWPOLYLINE
  5
9CF
330
1F
100
AcDbEntity
  8
0
100
AcDbPolyline
 90
       10
 70
     0
 43
0.0
 10
6.384875958400002
 20
35.32632042239999
 10
6.469156979200008
 20
35.32860741920001
 10
7.128057500800011
 20
35.3566314768
 10
7.842253040000002
 20
35.3964041808
 10
8.620415758400014
 20
35.44786795199999
 10
9.465811633600011
 20
35.50951177920001
 10
10.3024347312
 20
35.57220001760001
 10
11.11042079840001
 20
35.63004810879999
 10
11.8926165552
 20
35.6790291808
 10
12.6463084832
 20
35.71505833759999
  0
LWPOLYLINE
  5
9D0
330
1F
100
AcDbEntity
  8
0
100
AcDbPolyline
 90
       10
 70
     0
 43
0.0
 10
-6.38487616479999
 20
35.32632042719999
 10
-6.469156977599993
 20
35.32860741920001
 10
-7.128057499199996
 20
35.3566314768
 10
-7.842253038399988
 20
35.3964041808
 10
-8.620415756799992
 20
35.44786795199999
 10
-9.46581163199999
 20
35.50951177920001
 10
-10.30243472959999
 20
35.57220001760001
 10
-11.11042079839999
 20
35.63004810879999
 10
-11.89261655359999
 20
35.6790291808
 10
-12.64630848159999
 20
35.71505833759999
  0
LWPOLYLINE
  5
9D1
330
1F
100
AcDbEntity
  8
0
100
AcDbPolyline
 90
        8
 70
     0
 43
0.0
 10
-5.358094913599984
 20
35.72129485759998
 10
-5.26244196639999
 20
35.71284852479999
 10
-5.160558798399989
 20
35.70123045599999
 10
-5.061741905599987
 20
35.68726617280001
 10
-4.97361528639999
 20
35.67208786719999
 10
-4.898740513599989
 20
35.65622350399999
 10
-4.84234872479999
 20
35.64086192479999
 10
-4.807294852799998
 20
35.62719531039999
  0
LWPOLYLINE
  5
9D2
330
1F
100
AcDbEntity
  8
0
100
AcDbPolyline
 90
        4
 70
     0
 43
0.0
 10
-14.68081282879999
 20
36.90190899839999
 10
-14.01011164159999
 20
36.82860016480001
 10
-13.34756203039999
 20
36.75189873279999
 10
-12.69311663839999
 20
36.67209598240001
  0
LWPOLYLINE
  5
9D3
330
1F
100
AcDbEntity
  8
0
100
AcDbPolyline
 90
       14
 70
     0
 43
0.0
 10
-12.69311663839999
 20
36.67209598240001
 10
-11.44384905759999
 20
36.52347672479999
 10
-10.31842896799999
 20
36.40237069119999
 10
-9.30132730879999
 20
36.30339658880001
 10
-8.379550671999993
 20
36.22233468639999
 10
-7.542171131199992
 20
36.15585096800001
 10
-6.779757511999989
 20
36.10127530400001
 10
-6.084151235199996
 20
36.05645935359999
 10
-5.44863425279999
 20
36.019691072
 10
-4.867152623999984
 20
35.9895680992
 10
-4.333947180799995
 20
35.96492768319999
 10
-3.843686654399988
 20
35.94482038719999
 10
-3.394279719999985
 20
35.9285741296
 10
-2.985384379199985
 20
35.91566249440001
  0
LWPOLYLINE
  5
9D4
330
1F
100
AcDbEntity
  8
0
100
AcDbPolyline
 90
       12
 70
     0
 43
0.0
 10
14.25892180000001
 20
33.17868355199999
 10
14.85707044160001
 20
33.09320436159998
 10
15.41324356640001
 20
32.986374896
 10
15.9651110192
 20
32.85241696159999
 10
16.53956691200001
 20
32.6837173904
 10
17.1392783312
 20
32.47722444319999
 10
17.74821459840001
 20
32.23620951679999
 10
18.3520859408
 20
31.9650966064
 10
18.93836884960001
 20
31.66922890879999
 10
19.4969324128
 20
31.35435283199998
 10
20.0195917424
 20
31.0265752944
 10
20.5016457616
 20
30.6910862496
  0
LWPOLYLINE
  5
9D5
330
1F
100
AcDbEntity
  8
0
100
AcDbPolyline
 90
       27
 70
     0
 43
0.0
 10
14.25892180000001
 20
32.13160761919999
 10
13.8875036128
 20
32.19837898399998
 10
13.51438750880001
 20
32.26279375999999
 10
13.14039140640001
 20
32.32481270720001
 10
12.7668562112
 20
32.38435051199999
 10
12.3942247008
 20
32.44150133279998
 10
12.02222800960001
 20
32.49648174879999
 10
11.6514360576
 20
32.54939011199999
 10
11.28186813920001
 20
32.60041173760001
 10
10.91254026560001
 20
32.64986205599999
 10
10.54264628640001
 20
32.69801480160001
 10
10.17157627040001
 20
32.74510317759999
 10
9.797664216000015
 20
32.79147565279998
 10
9.421194841600012
 20
32.8372213552
 10
9.042877974400013
 20
32.88239542880001
 10
8.661911451200012
 20
32.92724102400001
 10
8.277284390400012
 20
32.9719985696
 10
7.886325036800002
 20
33.01707172799999
 10
7.486601044800011
 20
33.062802008
 10
7.074958174400009
 20
33.10957573280001
 10
6.64904339520001
 20
33.15765243999999
 10
6.207821436800003
 20
33.2071041984
 10
5.752514657600002
 20
33.25774376640001
 10
5.283742608000011
 20
33.30946743519999
 10
4.788096676800009
 20
33.3633280928
 10
4.31564834560001
 20
33.41306879839999
 10
3.95815025920001
 20
33.44853875519999
  0
LWPOLYLINE
  5
9D6
330
1F
100
AcDbEntity
  8
0
100
AcDbPolyline
 90
        4
 70
     0
 43
0.0
 10
14.31317546080001
 20
32.1215619072
 10
14.2951071728
 20
32.1249372064
 10
14.27702258880001
 20
32.12828575520001
 10
14.25892180000001
 20
32.13160754719999
  0
LWPOLYLINE
  5
9D7
330
1F
100
AcDbEntity
  8
0
100
AcDbPolyline
 90
        7
 70
     0
 43
0.0
 10
-2.817583607999992
 20
34.26032255359999
 10
-2.034092783999994
 20
34.02485201280001
 10
-1.229156663999987
 20
33.86648122400001
 10
-0.4112207679999927
 20
33.7868691104
 10
0.4110740032000138
 20
33.78686198720001
 10
1.229043811200014
 20
33.8664646752
 10
2.034048075200004
 20
34.0248409264
  0
LWPOLYLINE
  5
9D8
330
1F
100
AcDbEntity
  8
0
100
AcDbPolyline
 90
       18
 70
     0
 43
0.0
 10
16.8661481504
 20
10.74392469919999
 10
17.01723861760001
 20
10.81316478559999
 10
17.1670927632
 20
10.8844023184
 10
17.31651005920001
 20
10.95802355359999
 10
17.46567992640001
 20
11.03415375679999
 10
17.61417513600001
 20
11.11260738239999
 10
17.76136108960001
 20
11.19306143679999
 10
17.9063653152
 20
11.27501156479999
 10
18.04896779360001
 20
11.35827491199999
 10
18.19024835520001
 20
11.44344970399999
 10
18.33109540960001
 20
11.5310992592
 10
18.4704603504
 20
11.62060006239999
 10
18.6080123472
 20
11.71173133119999
 10
18.74372895840001
 20
11.8044599728
 10
18.8777001808
 20
11.8988298336
 10
19.0099037776
 20
11.99481146239999
 10
19.1402001424
 20
12.09228713919999
 10
19.2685317616
 20
12.19119334239999
  0
LWPOLYLINE
  5
9D9
330
1F
100
AcDbEntity
  8
0
100
AcDbPolyline
 90
       16
 70
     0
 43
0.0
 10
5.400264019200008
 20
7.686704606399995
 10
5.700764443200014
 20
7.793791958400003
 10
6.218450348800004
 20
7.951245012799997
 10
6.783097849600011
 20
8.095290512000001
 10
7.396956273600011
 20
8.225165412799992
 10
8.060780902400011
 20
8.339588078399994
 10
8.764268256000008
 20
8.436137518399998
 10
9.408624108800012
 20
8.50588348319999
 10
9.983115878400013
 20
8.555465135999991
 10
10.51229261760001
 20
8.592361417599999
 10
11.04711733920001
 20
8.622757604799996
 10
11.59566531840001
 20
8.648882878399998
 10
12.1702080448
 20
8.673898947199997
 10
12.79983848
 20
8.703655054399998
 10
13.5232927504
 20
8.749736177599995
 10
14.25892180000001
 20
8.821316454400001
  0
LWPOLYLINE
  5
9DA
330
1F
100
AcDbEntity
  8
0
100
AcDbPolyline
 90
       22
 70
     0
 43
0.0
 10
-2.677905887999997
 20
35.42822694399998
 10
-2.710576692799989
 20
35.4222081696
 10
-2.743446537599993
 20
35.41531609759999
 10
-2.77650900319999
 20
35.4076164976
 10
-2.809730846399986
 20
35.39917560320001
 10
-2.843285903999998
 20
35.38999802079999
 10
-2.878168155199986
 20
35.3798248816
 10
-2.915330977599992
 20
35.368341472
 10
-2.955800534399998
 20
35.3551513216
 10
-3.000785433599986
 20
35.33973633279998
 10
-3.051491129599995
 20
35.32151543520001
 10
-3.109371849599995
 20
35.299755608
 10
-3.17585765439999
 20
35.27367170080001
 10
-3.248771825599988
 20
35.24393502879999
 10
-3.323808300799996
 20
35.21230874080001
 10
-3.397533580799986
 20
35.180407368
 10
-3.469634476799996
 20
35.14856681759999
 10
-3.539951086399995
 20
35.1170242032
 10
-3.608768566399987
 20
35.0857865536
 10
-3.677003227199989
 20
35.05453924639999
 10
-3.745637491199985
 20
35.02290877440001
 10
-3.98731287999999
 20
34.9110460304
  0
LINE
  5
9DB
330
1F
100
AcDbEntity
  8
0
100
AcDbLine
 10
12.6472686048
 20
37.06149966719999
 30
0.0
 11
12.67420943360001
 21
37.0648871136
 31
0.0
  0
LWPOLYLINE
  5
9DC
330
1F
100
AcDbEntity
  8
0
100
AcDbPolyline
 90
        4
 70
     0
 43
0.0
 10
12.67420943360001
 20
37.0648871136
 10
13.33039243200001
 20
37.14537107679999
 10
13.98706912320001
 20
37.22203242079999
 10
14.64427663040001
 20
37.29487428479998
  0
LINE
  5
9DD
330
1F
100
AcDbEntity
  8
0
100
AcDbLine
 10
14.64427663040001
 20
37.29487428479998
 30
0.0
 11
14.66690170080001
 21
37.29729764480001
 31
0.0
  0
LWPOLYLINE
  5
9DE
330
1F
100
AcDbEntity
  8
0
100
AcDbPolyline
 90
       13
 70
     0
 43
0.0
 10
14.66690170080001
 20
37.29729764480001
 10
15.5160277968
 20
37.36306539680001
 10
16.4565654048
 20
37.37913024319999
 10
17.4953733792
 20
37.32764221439998
 10
18.641825776
 20
37.18557688480001
 10
19.8760314224
 20
36.9296066272
 10
21.1107252208
 20
36.56092942399999
 10
22.3301505456
 20
36.0773174048
 10
23.49976344800001
 20
35.4893211232
 10
24.511330032
 20
34.86967423199999
 10
25.367935864
 20
34.25198911679999
 10
26.0945962784
 20
33.64982324639999
 10
26.71589710720001
 20
33.0680762192
  0
LINE
  5
9DF
330
1F
100
AcDbEntity
  8
0
100
AcDbLine
 10
6.086246384000006
 20
35.77614599200001
 30
0.0
 11
5.358094915200013
 21
35.72129485759998
 31
0.0
  0
LWPOLYLINE
  5
9E0
330
1F
100
AcDbEntity
  8
0
100
AcDbPolyline
 90
       13
 70
     0
 43
0.0
 10
-3.815598998399991
 20
35.35222560959999
 10
-3.715172582399986
 20
35.3592751296
 10
-3.61700687519999
 20
35.36675095839999
 10
-3.520049734399989
 20
35.374723888
 10
-3.423408267199988
 20
35.38327551040001
 10
-3.328361567999991
 20
35.39229741119999
 10
-3.234612286399993
 20
35.40181309760001
 10
-3.141979129599988
 20
35.41184077439999
 10
-3.051406622399994
 20
35.42226998879999
 10
-2.962723233599987
 20
35.43310361280001
 10
-2.875215756799988
 20
35.4444206704
 10
-2.788675985599994
 20
35.45624961920001
 10
-2.703347228799998
 20
35.46855826559999
  0
LWPOLYLINE
  5
9E1
330
1F
100
AcDbEntity
  8
0
100
AcDbPolyline
 90
        9
 70
     0
 43
0.0
 10
6.086246384000006
 20
35.77614599200001
 10
6.220291843200001
 20
35.78485050719999
 10
6.347919992000015
 20
35.79008580959998
 10
6.462524244800007
 20
35.79123152479999
 10
6.556055990400011
 20
35.78806566239999
 10
6.623740937600004
 20
35.7810287792
 10
6.66656797600001
 20
35.77034633599998
 10
6.68301808000001
 20
35.75606925119998
 10
6.681019147200004
 20
35.74849584
  0
LWPOLYLINE
  5
9E2
330
1F
100
AcDbEntity
  8
0
100
AcDbPolyline
 90
       19
 70
     0
 43
0.0
 10
-14.47629348799998
 20
35.72108082880001
 10
-15.12013025279999
 20
35.67987912000001
 10
-15.68558913759999
 20
35.61678222559999
 10
-16.18908196319998
 20
35.5348984304
 10
-16.64284438399999
 20
35.43647923840001
 10
-17.05544711999999
 20
35.32323445919999
 10
-17.43522938879999
 20
35.19580268959998
 10
-17.78878527199999
 20
35.0542507776
 10
-18.12128957119999
 20
34.89819471839999
 10
-18.44345260319999
 20
34.723230056
 10
-18.76369758719999
 20
34.5243696048
 10
-19.08479101279999
 20
34.29835063519999
 10
-19.41768597279999
 20
34.03471137119999
 10
-19.76465633279999
 20
33.72757721280001
 10
-20.12432639839999
 20
33.3734188896
 10
-20.49636418239999
 20
32.9672249472
 10
-20.88050114559999
 20
32.50320612639999
 10
-21.27653581599999
 20
31.97453905119999
 10
-21.68398468319999
 20
31.3737033216
  0
LWPOLYLINE
  5
9E3
330
1F
100
AcDbEntity
  8
0
100
AcDbPolyline
 90
        3
 70
     0
 43
0.0
 10
-3.815598998399991
 20
35.35222560959999
 10
-4.275051379199993
 20
35.32711152319999
 10
-4.430190391999985
 20
35.32226738879998
  0
LWPOLYLINE
  5
9E4
330
1F
100
AcDbEntity
  8
0
100
AcDbPolyline
 90
        5
 70
     0
 43
0.0
 10
2.988957604800006
 20
36.31288188159999
 10
5.078196216000009
 20
36.39615127839999
 10
7.372885118400006
 20
36.53746932320001
 10
9.88638061280001
 20
36.752422784
 10
12.6472686048
 20
37.06149966719999
  0
LWPOLYLINE
  5
9E5
330
1F
100
AcDbEntity
  8
0
100
AcDbPolyline
 90
        4
 70
     0
 43
0.0
 10
12.6463084832
 20
35.71505833759999
 10
13.2676310112
 20
35.73279808960001
 10
13.87899015840001
 20
35.73588082879999
 10
14.47629348800001
 20
35.72108082560001
  0
LWPOLYLINE
  5
9E6
330
1F
100
AcDbEntity
  8
0
100
AcDbPolyline
 90
        4
 70
     0
 43
0.0
 10
2.985384380800013
 20
35.91566249440001
 10
1.990406675200006
 20
35.89133741439999
 10
0.995268419200002
 20
35.87674175679998
 10
0.0000000000000142
 20
35.87187600159998
  0
LWPOLYLINE
  5
9E7
330
1F
100
AcDbEntity
  8
0
100
AcDbPolyline
 90
        5
 70
     0
 43
0.0
 10
0.0000000000000142
 20
36.2687595552
 10
0.7668124128000074
 20
36.2716652032
 10
1.476968276800008
 20
36.27953600640001
 10
2.203445857600002
 20
36.29274002240001
 10
2.988957604800006
 20
36.31288188159999
  0
LWPOLYLINE
  5
9E8
330
1F
100
AcDbEntity
  8
0
100
AcDbPolyline
 90
        4
 70
     0
 43
0.0
 10
-2.985384379199985
 20
35.91566249440001
 10
-1.99040665759999
 20
35.89133741439999
 10
-0.9952683839999849
 20
35.87674175519998
 10
0.0000000000000142
 20
35.87187600159998
  0
LWPOLYLINE
  5
9E9
330
1F
100
AcDbEntity
  8
0
100
AcDbPolyline
 90
        5
 70
     0
 43
0.0
 10
-2.988957603199992
 20
36.31288188159999
 10
-2.195289855999988
 20
36.29256285919999
 10
-1.468516694399994
 20
36.27941305920001
 10
-0.762184446399985
 20
36.27163024320001
 10
0.0000000000000142
 20
36.2687595552
  0
LWPOLYLINE
  5
9EA
330
1F
100
AcDbEntity
  8
0
100
AcDbPolyline
 90
        4
 70
     0
 43
0.0
 10
-12.64630848159999
 20
35.71505833759999
 10
-13.26763100959998
 20
35.73279808960001
 10
-13.87899015679999
 20
35.73588082879999
 10
-14.47629348799998
 20
35.72108082560001
  0
LWPOLYLINE
  5
9EB
330
1F
100
AcDbEntity
  8
0
100
AcDbPolyline
 90
        3
 70
     0
 43
0.0
 10
3.815599000000005
 20
35.35222560959999
 10
4.275051380800007
 20
35.32711152319999
 10
4.430191297600003
 20
35.32226736000001
  0
LWPOLYLINE
  5
9EC
330
1F
100
AcDbEntity
  8
0
100
AcDbPolyline
 90
       19
 70
     0
 43
0.0
 10
14.47629348960001
 20
35.72108082880001
 10
15.12013025440001
 20
35.67987912000001
 10
15.6855891392
 20
35.61678222559999
 10
16.18908196480001
 20
35.5348984304
 10
16.64284438560001
 20
35.43647923840001
 10
17.05544712160001
 20
35.32323445919999
 10
17.43522939040001
 20
35.19580268959998
 10
17.78878527360001
 20
35.0542507776
 10
18.12128957280001
 20
34.89819471839999
 10
18.44345260480001
 20
34.723230056
 10
18.76369758880001
 20
34.5243696048
 10
19.08479101440001
 20
34.29835063519999
 10
19.41768597280001
 20
34.03471137119999
 10
19.76465633280001
 20
33.72757721280001
 10
20.12432640000001
 20
33.3734188896
 10
20.49636418240001
 20
32.9672249472
 10
20.88050114720001
 20
32.50320612639999
 10
21.2765358176
 20
31.97453905119999
 10
21.6839846848
 20
31.3737033216
  0
LWPOLYLINE
  5
9ED
330
1F
100
AcDbEntity
  8
0
100
AcDbPolyline
 90
        9
 70
     0
 43
0.0
 10
-6.086246383999991
 20
35.77614599200001
 10
-6.220717945599986
 20
35.78487340000001
 10
-6.348378929599988
 20
35.790098072
 10
-6.462846092799992
 20
35.79122835039999
 10
-6.556234431999996
 20
35.7880541504
 10
-6.623834115199997
 20
35.78101382720001
 10
-6.666613337599997
 20
35.77032746719999
 10
-6.68302075199999
 20
35.75605093600001
 10
-6.681019086399984
 20
35.7484958368
  0
LWPOLYLINE
  5
9EE
330
1F
100
AcDbEntity
  8
0
100
AcDbPolyline
 90
       13
 70
     0
 43
0.0
 10
3.815599000000005
 20
35.35222560959999
 10
3.715172584000015
 20
35.3592751296
 10
3.617006876800004
 20
35.36675095839999
 10
3.520049736000004
 20
35.374723888
 10
3.423408268800002
 20
35.38327551040001
 10
3.328361569600005
 20
35.39229741119999
 10
3.234612288000008
 20
35.40181309760001
 10
3.141979129600002
 20
35.41184077439999
 10
3.051406624000009
 20
35.42226998879999
 10
2.962723235200002
 20
35.43310361280001
 10
2.875215756800002
 20
35.4444206704
 10
2.788675987200008
 20
35.45624961920001
 10
2.703347230400012
 20
35.46855826559999
  0
LINE
  5
9EF
330
1F
100
AcDbEntity
  8
0
100
AcDbLine
 10
-6.086246383999991
 20
35.77614599200001
 30
0.0
 11
-5.358094913599984
 21
35.72129485759998
 31
0.0
  0
LINE
  5
9F0
330
1F
100
AcDbEntity
  8
0
100
AcDbLine
 10
-14.66690170079999
 20
37.29729764480001
 30
0.0
 11
-14.64427662879999
 21
37.29487428479998
 31
0.0
  0
LWPOLYLINE
  5
9F1
330
1F
100
AcDbEntity
  8
0
100
AcDbPolyline
 90
        4
 70
     0
 43
0.0
 10
-14.64427662879999
 20
37.29487428479998
 10
-13.98706912159999
 20
37.22203242079999
 10
-13.33039243039999
 20
37.14537107679999
 10
-12.67420943359999
 20
37.0648871136
  0
LWPOLYLINE
  5
9F2
330
1F
100
AcDbEntity
  8
0
100
AcDbPolyline
 90
        5
 70
     0
 43
0.0
 10
-12.64726860479999
 20
37.06149966719999
 10
-9.851208627199994
 20
36.74897930719998
 10
-7.334364147199991
 20
36.5346651968
 10
-5.057362646399994
 20
36.39510759839998
 10
-2.988957603199992
 20
36.31288188159999
  0
LINE
  5
9F3
330
1F
100
AcDbEntity
  8
0
100
AcDbLine
 10
-12.67420943359999
 20
37.0648871136
 30
0.0
 11
-12.64726860479999
 21
37.06149966719999
 31
0.0
  0
LWPOLYLINE
  5
9F4
330
1F
100
AcDbEntity
  8
0
100
AcDbPolyline
 90
       22
 70
     0
 43
0.0
 10
2.677905889600012
 20
35.42822694399998
 10
2.710576694400003
 20
35.4222081696
 10
2.743446539200007
 20
35.41531609759999
 10
2.776509003200004
 20
35.4076164976
 10
2.809730848000015
 20
35.39917560320001
 10
2.843285905600012
 20
35.38999802079999
 10
2.878168155200015
 20
35.3798248816
 10
2.915330979200007
 20
35.368341472
 10
2.955800536000012
 20
35.3551513216
 10
3.000785435200015
 20
35.33973633279998
 10
3.051491131200009
 20
35.32151543520001
 10
3.109371849600009
 20
35.299755608
 10
3.175857656000005
 20
35.27367170080001
 10
3.248771827200002
 20
35.24393502879999
 10
3.32380830240001
 20
35.21230874080001
 10
3.397533582400015
 20
35.180407368
 10
3.46963447840001
 20
35.14856681759999
 10
3.539951086400009
 20
35.1170242032
 10
3.608768568000002
 20
35.0857865536
 10
3.677003227200003
 20
35.05453924639999
 10
3.745637492800014
 20
35.02290877440001
 10
3.987313260800007
 20
34.91104585439998
  0
LWPOLYLINE
  5
9F5
330
1F
100
AcDbEntity
  8
0
100
AcDbPolyline
 90
       16
 70
     0
 43
0.0
 10
5.400264124800003
 20
34.31329535680001
 10
5.700764443200014
 20
34.2062080416
 10
6.218450348800004
 20
34.0487549872
 10
6.783097849600011
 20
33.904709488
 10
7.396956273600011
 20
33.77483458719999
 10
8.060780902400011
 20
33.6604119232
 10
8.764268256000008
 20
33.56386248320001
 10
9.408624108800012
 20
33.4941165168
 10
9.983115878400013
 20
33.44453486559999
 10
10.51229261760001
 20
33.40763858400001
 10
11.04711733920001
 20
33.37724239679999
 10
11.59566531840001
 20
33.35111712319999
 10
12.1702080448
 20
33.3261010528
 10
12.79983848
 20
33.2963449456
 10
13.5232927504
 20
33.2502638224
 10
14.25892180000001
 20
33.17868354559999
  0
LWPOLYLINE
  5
9F6
330
1F
100
AcDbEntity
  8
0
100
AcDbPolyline
 90
       27
 70
     0
 43
0.0
 10
19.2685317616
 20
12.19119334239999
 10
19.4015296096
 20
12.29685561599999
 10
19.5322599728
 20
12.40398539519999
 10
19.66063690400001
 20
12.51248291999999
 10
19.7865846672
 20
12.62225043199999
 10
19.9100542208
 20
12.73320792479999
 10
20.031008928
 20
12.8452828032
 10
20.1494275696
 20
12.95841421439999
 10
20.2652803232
 20
13.07253099519999
 10
20.37851950880001
 20
13.18754053599999
 10
20.4891454784
 20
13.30339540799999
 10
20.59719733440001
 20
13.42008880799999
 10
20.70269116160001
 20
13.53758856
 10
20.8056340464
 20
13.6558536304
 10
20.9060057104
 20
13.77481100959999
 10
21.0037684656
 20
13.89436299199999
 10
21.09887897920001
 20
14.01439837919999
 10
21.19121993280001
 20
14.13470014879999
 10
21.2807639792
 20
14.25515277119999
 10
21.367500464
 20
14.375656632
 10
21.45142906240001
 20
14.49612167199999
 10
21.53256159360001
 20
14.61647202079999
 10
21.61093861920001
 20
14.73667442079999
 10
21.68658917280001
 20
14.85668050559999
 10
21.75954753280001
 20
14.97645186559999
 10
21.82985555840001
 20
15.09596569439999
 10
21.89755346720001
 20
15.2152008032
  0
LWPOLYLINE
  5
A01
330
1F
100
AcDbEntity
  8
0
100
AcDbPolyline
 90
       36
 70
     0
 43
0.0
 10
21.90936385920001
 20
15.23645062239999
 10
21.99062885280001
 20
15.38559386719999
 10
22.069820104
 20
15.5361214592
 10
22.1468977872
 20
15.68796695359999
 10
22.2218206752
 20
15.84105600159999
 10
22.294541176
 20
15.9952942192
 10
22.365015736
 20
16.15058150879999
 10
22.43324584480001
 20
16.30691031679999
 10
22.49922214720001
 20
16.46425213439999
 10
22.562923296
 20
16.62254954559999
 10
22.624331112
 20
16.7817467696
 10
22.6834371152
 20
16.94180975039999
 10
22.7402400304
 20
17.10272503679999
 10
22.7947494816
 20
17.26451428799999
 10
22.8469594272
 20
17.42715483999999
 10
22.8968567312
 20
17.59060259039999
 10
22.9444280928
 20
17.75481234399999
 10
22.98965896800001
 20
17.91972911679999
 10
23.03253774240001
 20
18.0852970816
 10
23.0730559792
 20
18.25146947839999
 10
23.1112086768
 20
18.41821459039999
 10
23.14699318080001
 20
18.58551122719999
 10
23.1804057152
 20
18.7533310144
 10
23.21144188000001
 20
18.92164374879999
 10
23.24009844800001
 20
19.0904281888
 10
23.26637195360001
 20
19.2596612896
 10
23.2902611984
 20
19.4293370352
 10
23.3117592512
 20
19.59941711199999
 10
23.33085441760001
 20
19.76981705279999
 10
23.34754174080001
 20
19.94047599519999
 10
23.36182059040001
 20
20.1113598
 10
23.37369188480001
 20
20.2824741008
 10
23.3831509408
 20
20.45377228959999
 10
23.3901944592
 20
20.6252111648
 10
23.3948212736
 20
20.7967757904
 10
23.3970298944
 20
20.96845802719999
  0
LINE
  5
A02
330
1F
100
AcDbEntity
  8
0
100
AcDbLine
 10
21.89755346720001
 20
15.2152008032
 30
0.0
 11
21.909363896
 21
15.23645060159999
 31
0.0
  0
LINE
  5
A03
330
1F
100
AcDbEntity
  8
0
100
AcDbLine
 10
-34.68530984799999
 20
40.685309848
 30
0.0
 11
34.685309848
 21
40.685309848
 31
0.0
  0
LINE
  5
A04
330
1F
100
AcDbEntity
  8
0
100
AcDbLine
 10
-35.37461131359999
 20
41.37461131360001
 30
0.0
 11
35.37461131520001
 21
41.37461131360001
 31
0.0
  0
LINE
  5
A05
330
1F
100
AcDbEntity
  8
0
100
AcDbLine
 10
-35.74999999999999
 20
41.74999999999999
 30
0.0
 11
35.75
 21
41.74999999999999
 31
0.0
  0
LWPOLYLINE
  5
A06
330
1F
100
AcDbEntity
  8
0
100
AcDbPolyline
 90
       60
 70
     0
 43
0.0
 10
21.94994497920001
 20
26.78697889919999
 10
21.885058568
 20
26.90454575679998
 10
21.817722184
 20
27.0222495472
 10
21.7478898976
 20
27.14009388479999
 10
21.67551452160001
 20
27.25807785919999
 10
21.60055445600001
 20
27.37618568479998
 10
21.5229754304
 20
27.4943861568
 10
21.44274026880001
 20
27.6126497136
 10
21.3598096048
 20
27.73094704319998
 10
21.2741789904
 20
27.84919831519999
 10
21.18583567040001
 20
27.96733774559998
 10
21.0947703136
 20
28.08529655039998
 10
21.00101104000001
 20
28.20296140479999
 10
20.90462470080001
 20
28.3201798528
 10
20.8057143392
 20
28.43676959519998
 10
20.70429681120001
 20
28.5526614208
 10
20.6003577216
 20
28.6678230752
 10
20.49389175360001
 20
28.7822111808
 10
20.3848775024
 20
28.89580077759998
 10
20.2732747136
 20
29.0085870464
 10
20.15909251200001
 20
29.120513216
 10
20.042372408
 20
29.23149352639998
 10
19.92313752960001
 20
29.341463696
 10
19.8013902864
 20
29.45037995999999
 10
19.67716032320001
 20
29.558175072
 10
19.5505091472
 20
29.66475790879999
 10
19.42147647680001
 20
29.770060136
 10
19.29010811840001
 20
29.87401130079998
 10
19.1564607584
 20
29.97653571199998
 10
19.0206024064
 20
30.07755303679999
 10
18.8826264
 20
30.17696913439999
 10
18.7426088576
 20
30.2747077264
 10
18.60055363200001
 20
30.37074465599999
 10
18.4564668432
 20
30.46505384319999
 10
18.31037436160001
 20
30.55759765920001
 10
18.1623224032
 20
30.648325768
 10
18.01250132960001
 20
30.737104544
 10
17.8610973504
 20
30.82381455359998
 10
17.7082518864
 20
30.9083716064
 10
17.55410269760001
 20
30.99070024639999
 10
17.3987211312
 20
31.07076459999998
 10
17.24218473760001
 20
31.14852665759999
 10
17.084605424
 20
31.2239336384
 10
16.92622114720001
 20
31.29687939519999
 10
16.7671273952
 20
31.36733177280001
 10
16.6072265696
 20
31.4353408864
 10
16.4466019072
 20
31.5008732608
 10
16.2853415408
 20
31.56389687839998
 10
16.1235415744
 20
31.62438087359998
 10
15.96132269120001
 20
31.6822874336
 10
15.7988534912
 20
31.7375662368
 10
15.636281944
 20
31.79018267999998
 10
15.47326637760001
 20
31.84025876800001
 10
15.3097295456
 20
31.88781921759999
 10
15.1459351664
 20
31.93279623679998
 10
14.98152150400001
 20
31.9753004176
 10
14.81621947840001
 20
32.01540016480001
 10
14.6501176368
 20
32.05307002079999
 10
14.48266895840001
 20
32.0884212704
 10
14.31317546080001
 20
32.1215619072
  0
LINE
  5
A07
330
1F
100
AcDbEntity
  8
0
100
AcDbLine
 10
21.95926993440001
 20
26.76972607359999
 30
0.0
 11
21.94994501120001
 21
26.78697891839999
 31
0.0
  0
LWPOLYLINE
  5
A08
330
1F
100
AcDbEntity
  8
0
100
AcDbPolyline
 90
       11
 70
     0
 43
0.0
 10
24.55907471680001
 20
21.00000168799999
 10
24.54523076
 20
21.6686806048
 10
24.503375984
 20
22.34284966559999
 10
24.4331962592
 20
23.0194845232
 10
24.33482538880001
 20
23.6944472944
 10
24.2089101904
 20
24.36343689759999
 10
24.05643165600001
 20
25.02298340639998
 10
23.87859901920001
 20
25.6702634144
 10
23.67683638560001
 20
26.30282307039999
 10
23.4529851296
 20
26.91802016319999
 10
23.208973264
 20
27.51387921919999
  0
LWPOLYLINE
  5
A09
330
1F
100
AcDbEntity
  8
0
100
AcDbPolyline
 90
       35
 70
     0
 43
0.0
 10
23.3971725616
 20
21.0000004128
 10
23.39646766880001
 20
21.17616563679999
 10
23.3932145344
 20
21.3523522896
 10
23.3874117232
 20
21.5285334752
 10
23.379058264
 20
21.70467779519999
 10
23.368154544
 20
21.88074589919998
 10
23.3547020224
 20
22.0566941328
 10
23.33870268320001
 20
22.23246755199999
 10
23.3201557696
 20
22.4080357888
 10
23.29906136480001
 20
22.583367272
 10
23.27542204640001
 20
22.75842201439999
 10
23.2492406
 20
22.9331576144
 10
23.2205194752
 20
23.10753374079999
 10
23.1892618816
 20
23.28151170079999
 10
23.1554720208
 20
23.45505097439999
 10
23.1191539792
 20
23.62811175039999
 10
23.08031207040001
 20
23.8006548384
 10
23.0389471232
 20
23.97266042399999
 10
22.99506996960001
 20
24.1440652784
 10
22.9486892432
 20
24.3148168256
 10
22.8998102656
 20
24.48487878559998
 10
22.8484378464
 20
24.65422287679999
 10
22.7945768928
 20
24.82281745919999
 10
22.738235232
 20
24.99061958239999
 10
22.6794223856
 20
25.15758539999998
 10
22.6181441792
 20
25.32368608639998
 10
22.55441231360001
 20
25.4888767168
 10
22.48824046240001
 20
25.65310930239999
 10
22.4196417648
 20
25.81634099199999
 10
22.3486364432
 20
25.97851381439999
 10
22.27530112800001
 20
26.13945007359998
 10
22.1996676816
 20
26.29908680959999
 10
22.121763696
 20
26.45737889759999
 10
22.04162076800001
 20
26.61427492639998
 10
21.95926993440001
 20
26.76972607359999
  0
LINE
  5
A0A
330
1F
100
AcDbEntity
  8
0
100
AcDbLine
 10
23.3970298944
 20
20.9684580272
 30
0.0
 11
23.3971725616
 21
21.0000004128
 31
0.0
  0
LWPOLYLINE
  5
A0B
330
1F
100
AcDbEntity
  8
0
100
AcDbPolyline
 90
       10
 70
     0
 43
0.0
 10
24.55907472000001
 20
21.00000168799999
 10
24.54197972960001
 20
20.25666552799999
 10
24.49024341440001
 20
19.50687522719999
 10
24.4035326
 20
18.7552059024
 10
24.282198808
 20
18.00717989279999
 10
24.12740930240001
 20
17.26880465919999
 10
23.9406080672
 20
16.54399466399999
 10
23.72363064480001
 20
15.836293744
 10
23.47889075680001
 20
15.14943265919999
 10
23.208973264
 20
14.48612078239999
  0
LWPOLYLINE
  5
A0C
330
1F
100
AcDbEntity
  8
0
100
AcDbPolyline
 90
       37
 70
     0
 43
0.0
 10
23.54735727840001
 20
14.2907546816
 10
23.52106748480001
 20
14.22931481119999
 10
23.4947849328
 20
14.16663173439999
 10
23.4688173792
 20
14.1043145248
 10
23.4430588368
 20
14.04247281439999
 10
23.41727785920001
 20
13.9807291152
 10
23.39098551360001
 20
13.91802114399999
 10
23.36366326400001
 20
13.85320344799999
 10
23.33554927360001
 20
13.78692076639999
 10
23.30669266240001
 20
13.71935335039999
 10
23.2762991408
 20
13.64871793759999
 10
23.24342065920001
 20
13.5729335152
 10
23.20697994560001
 20
13.48970646559999
 10
23.1658289168
 20
13.3966934208
 10
23.1188410384
 20
13.29174092639999
 10
23.0649078304
 20
13.17290182559998
 10
23.0051711408
 20
13.04326835999999
 10
22.94344174080001
 20
12.9114634512
 10
22.883824536
 20
12.7861958096
 10
22.82666014080001
 20
12.6679103136
 10
22.7713025328
 20
12.55502482079999
 10
22.71711180640001
 20
12.44607296479999
 10
22.6629165184
 20
12.33861491999999
 10
22.60765145440001
 20
12.2305482336
 10
22.5523348736
 20
12.12388012959999
 10
22.4979515552
 20
12.02044378079999
 10
22.44274563520001
 20
11.91686566879999
 10
22.38422380480001
 20
11.80860234239998
 10
22.31977726880001
 20
11.69117149759999
 10
22.2475776416
 20
11.56180065119999
 10
22.17076849440001
 20
11.42665195999999
 10
22.09392391040001
 20
11.29394632
 10
22.0171131152
 20
11.163749648
 10
21.93909006560001
 20
11.03395626239999
 10
21.85863349440001
 20
10.90265738719999
 10
21.77420885120001
 20
10.7676052096
 10
21.6839846848
 20
10.62629667839999
  0
LWPOLYLINE
  5
A0D
330
1F
100
AcDbEntity
  8
0
100
AcDbPolyline
 90
       19
 70
     0
 43
0.0
 10
23.208973264
 20
14.48612078239999
 10
23.06501604
 20
14.17839951199999
 10
22.89746161120001
 20
13.86816321599999
 10
22.70440575680001
 20
13.55472073919999
 10
22.48943757280001
 20
13.24537091999999
 10
22.2746559328
 20
12.9674309824
 10
22.0744496928
 20
12.73026284959999
 10
21.89040275040001
 20
12.5275110064
 10
21.71982890720001
 20
12.35071483999999
 10
21.56174069440001
 20
12.1952129504
 10
21.4160846048
 20
12.05829769599999
 10
21.2836360592
 20
11.93861047359999
 10
21.1637226448
 20
11.83389791039999
 10
21.0522813552
 20
11.73948289759999
 10
20.94447916320001
 20
11.65065155199999
 10
20.835768736
 20
11.56342643999999
 10
20.72526404800001
 20
11.47705976479999
 10
20.6136471904
 20
11.39205858559999
 10
20.5016457616
 20
11.30891375039999
  0
LWPOLYLINE
  5
A0E
330
1F
100
AcDbEntity
  8
0
100
AcDbPolyline
 90
       19
 70
     0
 43
0.0
 10
23.208973264
 20
27.51387921919999
 10
23.06501604
 20
27.82160048959999
 10
22.89746161120001
 20
28.13183678399999
 10
22.70440575680001
 20
28.44527926239999
 10
22.48943757280001
 20
28.75462908159999
 10
22.2746559328
 20
29.03256901759999
 10
22.0744496928
 20
29.269737152
 10
21.89040275040001
 20
29.47248899359999
 10
21.71982890720001
 20
29.64928516
 10
21.56174069440001
 20
29.8047870496
 10
21.4160846048
 20
29.94170230559998
 10
21.2836360592
 20
30.061389528
 10
21.1637226448
 20
30.16610209119999
 10
21.0522813552
 20
30.26051710239999
 10
20.94447916320001
 20
30.34934844799999
 10
20.835768736
 20
30.43657355999999
 10
20.72526404800001
 20
30.52294023679999
 10
20.6136471904
 20
30.60794141439998
 10
20.5016457616
 20
30.6910862496
  0
LWPOLYLINE
  5
A0F
330
1F
100
AcDbEntity
  8
0
100
AcDbPolyline
 90
        3
 70
     0
 43
0.0
 10
23.54735727840001
 20
27.70924532
 10
23.52106748480001
 20
27.7706851888
 10
23.4947849328
 20
27.83336826559999
  0
LWPOLYLINE
  5
A10
330
1F
100
AcDbEntity
  8
0
100
AcDbPolyline
 90
       34
 70
     0
 43
0.0
 10
23.4947849328
 20
27.83336826559999
 10
23.4430588368
 20
27.95752718560001
 10
23.41727785920001
 20
28.01927088479999
 10
23.39098551360001
 20
28.0819788576
 10
23.36366326400001
 20
28.1467965536
 10
23.33554927360001
 20
28.2130792352
 10
23.30669266240001
 20
28.28064665119998
 10
23.2762991408
 20
28.351282064
 10
23.24342065920001
 20
28.4270664864
 10
23.20697994560001
 20
28.510293536
 10
23.1658289168
 20
28.60330658079999
 10
23.1188410384
 20
28.7082590736
 10
23.0649078304
 20
28.82709817439998
 10
23.0051711408
 20
28.95673164159998
 10
22.94344174080001
 20
29.08853655039999
 10
22.883824536
 20
29.21380419199999
 10
22.82666014080001
 20
29.33208968639999
 10
22.7713025328
 20
29.44497517920001
 10
22.71711180640001
 20
29.55392703519998
 10
22.6629165184
 20
29.66138508
 10
22.60765145440001
 20
29.76945176800001
 10
22.5523348736
 20
29.8761198704
 10
22.4979515552
 20
29.97955621919999
 10
22.44274563520001
 20
30.08313433279999
 10
22.38422380480001
 20
30.19139765919998
 10
22.31977726880001
 20
30.30882850239998
 10
22.2475776416
 20
30.43819935039999
 10
22.17076849440001
 20
30.57334804160001
 10
22.09392391040001
 20
30.70605367999999
 10
22.0171131152
 20
30.836250352
 10
21.93909006560001
 20
30.96604373759998
 10
21.85863349440001
 20
31.09734261439998
 10
21.77420885120001
 20
31.2323947904
 10
21.6839846848
 20
31.3737033216
  0
LWPOLYLINE
  5
A11
330
1F
100
AcDbEntity
  8
0
100
AcDbPolyline
 90
        4
 70
     0
 43
0.0
 10
27.0596160128
 20
9.284193670399996
 10
26.946263184
 20
9.165434084799993
 10
26.83167286560001
 20
9.047994257599992
 10
26.71589710880001
 20
8.931923784000002
  0
LWPOLYLINE
  5
A12
330
1F
100
AcDbEntity
  8
0
100
AcDbPolyline
 90
       13
 70
     0
 43
0.0
 10
26.71589710880001
 20
8.931923784000002
 10
26.09563459840001
 20
8.351094599999992
 10
25.3777833072
 20
7.755662964799991
 10
24.53917789600001
 20
7.148990014399995
 10
23.5560213712
 20
6.542296459199999
 10
22.41690155520001
 20
5.961937459199997
 10
21.1974024672
 20
5.4693958432
 10
19.93995361440001
 20
5.086653172799994
 10
18.67462472960001
 20
4.819824830399991
 10
17.507263152
 20
4.673369484800002
 10
16.4593019696
 20
4.620909792000002
 10
15.51602207360001
 20
4.636934883199995
 10
14.66690170080001
 20
4.702702356799999
  0
LWPOLYLINE
  5
A13
330
1F
100
AcDbEntity
  8
0
100
AcDbPolyline
 90
        4
 70
     0
 43
0.0
 10
26.71589710720001
 20
33.0680762192
 10
26.83167286560001
 20
32.95200574239999
 10
26.946263184
 20
32.83456591679998
 10
27.0596160128
 20
32.71580633120001
  0
LWPOLYLINE
  5
A14
330
1F
100
AcDbEntity
  8
0
100
AcDbPolyline
 90
       10
 70
     0
 43
0.0
 10
27.0596160128
 20
32.71580633120001
 10
27.257952176
 20
32.5015519536
 10
27.45095471040001
 20
32.28472364320001
 10
27.63867992000001
 20
32.0654030016
 10
27.82115525120001
 20
31.84369658720001
 10
27.99840762560001
 20
31.61970544479999
 10
28.17046370080001
 20
31.3935239216
 10
28.33734960800001
 20
31.16524115199998
 10
28.49908569920001
 20
30.93494911039999
 10
28.65568837440001
 20
30.70273951679999
  0
LINE
  5
A15
330
1F
100
AcDbEntity
  8
0
100
AcDbLine
 10
28.66460397279999
 20
11.310770176
 30
0.0
 11
28.6556883744
 21
11.2972604832
 31
0.0
  0
LWPOLYLINE
  5
A16
330
1F
100
AcDbEntity
  8
0
100
AcDbPolyline
 90
       10
 70
     0
 43
0.0
 10
28.65568837440001
 20
11.2972604832
 10
28.49904995200001
 20
11.06499895039999
 10
28.33728536960001
 20
10.83466920159999
 10
28.1703789632
 20
10.60636245119999
 10
27.99831109760001
 20
10.380170144
 10
27.82105635680001
 20
10.15618087359998
 10
27.6385887952
 20
9.934488428799991
 10
27.45088219040001
 20
9.715193273599989
 10
27.25790980000001
 20
9.498401363199999
 10
27.0596160128
 20
9.284193670399996
  0
LWPOLYLINE
  5
A17
330
1F
100
AcDbEntity
  8
0
100
AcDbPolyline
 90
       24
 70
     0
 43
0.0
 10
28.3066683728
 20
11.5429651392
 10
27.9149977936
 20
10.9782017712
 10
27.494911568
 20
10.4301837328
 10
27.04803877280001
 20
9.901417268799999
 10
26.5762462352
 20
9.394271844799998
 10
26.08163784000001
 20
8.910967219199999
 10
25.5653215744
 20
8.452509211199991
 10
25.0270546416
 20
8.018697627199994
 10
24.4671879296
 20
7.60985617279999
 10
23.8874617424
 20
7.227394534400001
 10
23.2912359328
 20
6.873498108800003
 10
22.68077944960001
 20
6.549302655999991
 10
22.05726820800001
 20
6.255262435199991
 10
21.42109333120001
 20
5.991406214399997
 10
20.77374269760001
 20
5.758217736000002
 10
20.1174158336
 20
5.556394006399994
 10
19.4544916512
 20
5.386497116799997
 10
18.7856414464
 20
5.248544851199991
 10
18.11079913920001
 20
5.142510516799998
 10
17.43065568000001
 20
5.068555008
 10
16.7462129072
 20
5.02690940479999
 10
16.05868999680001
 20
5.017854459199991
 10
15.3696607792
 20
5.041554638399997
 10
14.68081283040001
 20
5.098091003199993
  0
LWPOLYLINE
  5
A18
330
1F
100
AcDbEntity
  8
0
100
AcDbPolyline
 90
       24
 70
     0
 43
0.0
 10
28.3066683728
 20
30.4570348608
 10
27.9149977936
 20
31.0217982304
 10
27.494911568
 20
31.56981626719999
 10
27.04803877280001
 20
32.0985827328
 10
26.5762462352
 20
32.60572815520001
 10
26.08163784000001
 20
33.08903278080001
 10
25.5653215744
 20
33.54749079039999
 10
25.0270546416
 20
33.9813023728
 10
24.4671879296
 20
34.3901438272
 10
23.8874617424
 20
34.77260546560001
 10
23.2912359328
 20
35.1265018928
 10
22.68077944960001
 20
35.45069734399999
 10
22.05726820800001
 20
35.7447375664
 10
21.42109333120001
 20
36.0085937856
 10
20.77374269760001
 20
36.24178226559999
 10
20.1174158336
 20
36.44360599359998
 10
19.4544916512
 20
36.61350288319999
 10
18.7856414464
 20
36.7514551504
 10
18.11079913920001
 20
36.8574894832
 10
17.43065568000001
 20
36.93144499359999
 10
16.7462129072
 20
36.9730905952
 10
16.05868999680001
 20
36.98214554079999
 10
15.3696607792
 20
36.95844536160001
 10
14.68081283040001
 20
36.90190899839999
  0
LINE
  5
A19
330
1F
100
AcDbEntity
  8
0
100
AcDbLine
 10
28.6556883744
 20
30.70273951679999
 30
0.0
 11
28.66460397279999
 21
30.68922982399999
 31
0.0
  0
LWPOLYLINE
  5
A1A
330
1F
100
AcDbEntity
  8
0
100
AcDbPolyline
 90
       10
 70
     0
 43
0.0
 10
28.6646039728
 20
30.68922982399999
 10
29.13257885760001
 20
29.92255159519999
 10
29.59062716480001
 20
29.04645857119998
 10
30.02998070880001
 20
28.0533495232
 10
30.43777459200001
 20
26.93714432159998
 10
30.787867664
 20
25.7315278096
 10
31.0685217248
 20
24.43658416639999
 10
31.25387212320001
 20
23.16606803679999
 10
31.3472891632
 20
22.02892802399999
 10
31.3743059808
 20
20.99999999999999
  0
LWPOLYLINE
  5
A1B
330
1F
100
AcDbEntity
  8
0
100
AcDbPolyline
 90
       23
 70
     0
 43
0.0
 10
30.94608433120001
 20
21.00000001599999
 10
30.9295817584
 20
21.7958892224
 10
30.880262384
 20
22.5864641472
 10
30.79842609600001
 20
23.37067682079999
 10
30.68430160960001
 20
24.14793150399999
 10
30.54112692320001
 20
24.90292863039999
 10
30.3787619312
 20
25.60375455679999
 10
30.20767041440001
 20
26.2336086912
 10
30.03618625760001
 20
26.78889157599999
 10
29.8690270528
 20
27.2760665872
 10
29.70757900800001
 20
27.70675290080001
 10
29.55215567840001
 20
28.09094354079999
 10
29.4033491216
 20
28.434970496
 10
29.2616326704
 20
28.74367455679998
 10
29.1271780816
 20
29.02130679199999
 10
29.00022808640001
 20
29.27104750879999
 10
28.8809294928
 20
29.49560981600001
 10
28.76918208800001
 20
29.6976420672
 10
28.66467608
 20
29.87970840479999
 10
28.5669140592
 20
30.04429521919999
 10
28.4752311584
 20
30.19381581280001
 10
28.38881042400001
 20
30.33061846239999
 10
28.3066683712
 20
30.4570348608
  0
LWPOLYLINE
  5
A1C
330
1F
100
AcDbEntity
  8
0
100
AcDbPolyline
 90
       22
 70
     0
 43
0.0
 10
30.94608433120001
 20
21.00000001599999
 10
30.9279745152
 20
20.1663228048
 10
30.87386281120001
 20
19.33853816479999
 10
30.78410143040001
 20
18.51789412159999
 10
30.65919589440001
 20
17.70644701439999
 10
30.5038282288
 20
16.92453595039999
 10
30.3303538912
 20
16.20869132319999
 10
30.1501683264
 20
15.5729271248
 10
29.9718009152
 20
15.01788536639999
 10
29.7991327376
 20
14.53314915519999
 10
29.63281164640001
 20
14.10501710719999
 10
29.4733389552
 20
13.72414797919999
 10
29.32150872480001
 20
13.384642384
 10
29.17753853600001
 20
13.08103616479999
 10
29.041702784
 20
12.8092814304
 10
28.91424508480001
 20
12.56615507199999
 10
28.79512895840001
 20
12.34857671199999
 10
28.68405842080001
 20
12.1535724128
 10
28.5805053632
 20
11.97826368959999
 10
28.48373518880001
 20
11.81986071039998
 10
28.39283059680001
 20
11.67565816959999
 10
28.3066683712
 20
11.5429651392
  0
LWPOLYLINE
  5
A1D
330
1F
100
AcDbEntity
  8
0
100
AcDbPolyline
 90
       10
 70
     0
 43
0.0
 10
31.3743059808
 20
20.99999999999999
 10
31.3473754144
 20
19.9727120144
 10
31.2558559616
 20
18.85173400799999
 10
31.0794535568
 20
17.6246033232
 10
30.81067697280001
 20
16.35925371039999
 10
30.4642728048
 20
15.14429992799999
 10
30.0481140432
 20
13.99168559039999
 10
29.59961477440001
 20
12.97219361119999
 10
29.13614724640001
 20
12.0837570112
 10
28.6646039728
 20
11.310770176
  0
LINE
  5
A22
330
1F
100
AcDbEntity
  8
0
100
AcDbLine
 10
34.685309848
 20
1.314690151999997
 30
0.0
 11
34.685309848
 21
40.685309848
 31
0.0
  0
LINE
  5
A23
330
1F
100
AcDbEntity
  8
0
100
AcDbLine
 10
35.37461131520001
 20
0.6253886864000009
 30
0.0
 11
35.37461131520001
 21
41.37461131360001
 31
0.0
  0
LINE
  5
A24
330
1F
100
AcDbEntity
  8
0
100
AcDbLine
 10
35.75
 20
41.74999999999999
 30
0.0
 11
35.75
 21
0.25
 31
0.0
  0
CIRCLE
  5
ADD
330
1F
100
AcDbEntity
  8
0
100
AcDbCircle
 10
0.0000000000000142
 20
12.5
 30
0.0
 40
1.2714466064
  0
LINE
  5
B45
330
1F
100
AcDbEntity
  8
0
100
AcDbLine
 10
-33.67046146079999
 20
40.0239879456
 30
0.0
 11
-33.67046146079999
 21
1.976012054399998
 31
0.0
  0
LINE
  5
B46
330
1F
100
AcDbEntity
  8
0
100
AcDbLine
 10
34.0266439648
 20
40.02663047679999
 30
0.0
 11
34.0266439648
 21
1.973369523200005
 31
0.0
  0
LINE
  5
B47
330
1F
100
AcDbEntity
  8
0
100
AcDbLine
 10
-33.67046146079999
 20
40.0239879456
 30
0.0
 11
34.0266439648
 21
40.02663047679999
 31
0.0
  0
LINE
  5
B48
330
1F
100
AcDbEntity
  8
0
100
AcDbLine
 10
34.0266439648
 20
1.973369523200005
 30
0.0
 11
-33.67046146079999
 21
1.976012054399998
 31
0.0
  0
ENDSEC
  0
SECTION
  2
OBJECTS
  0
DICTIONARY
  5
C
330
0
100
AcDbDictionary
  3
ACAD_GROUP
350
D
  3
ACAD_LAYOUT
350
1A
  3
ACAD_MLINESTYLE
350
17
  3
ACAD_PLOTSETTINGS
350
19
  3
ACAD_PLOTSTYLENAME
350
E
  3
ACDBHEADERROUNDTRIPXREC
350
B5B
  0
DICTIONARY
  5
B3B
330
1F
100
AcDbDictionary
280
     1
  3
ACAD_LAYOUTSELFREF
360
B7D
  0
DICTIONARY
  5
B39
330
1B
100
AcDbDictionary
280
     1
  3
ACAD_LAYOUTSELFREF
360
B7C
  0
DICTIONARY
  5
D
102
{ACAD_REACTORS
330
C
102
}
330
C
100
AcDbDictionary
  0
DICTIONARY
  5
1A
102
{ACAD_REACTORS
330
C
102
}
330
C
100
AcDbDictionary
  0
DICTIONARY
  5
17
102
{ACAD_REACTORS
330
C
102
}
330
C
100
AcDbDictionary
  3
STANDARD
350
18
  0
DICTIONARY
  5
19
102
{ACAD_REACTORS
330
C
102
}
330
C
100
AcDbDictionary
  0
ACDBDICTIONARYWDFLT
  5
E
102
{ACAD_REACTORS
330
C
102
}
330
C
100
AcDbDictionary
281
     1
  3
Normal
350
F
100
AcDbDictionaryWithDefault
340
F
  0
DICTIONARY
  5
B5B
102
{ACAD_REACTORS
330
C
102
}
330
C
100
AcDbDictionary
  3
CEPSNTYPE
350
B65
  3
DIMSTYLEDATA
350
B69
  3
FINGERPRINTGUID
350
B66
  3
HYPERLINKBASE
350
B5E
  3
INSUNITS
350
B64
  3
LAYOUTDICT
350
B60
  3
LWETCUNION
350
B63
  3
PLOTSETDICT
350
B61
  3
PLOTSTYLNAMDICT
350
B62
  3
PSVPSCALE
350
B68
  3
PUCSBASE
350
B6C
  3
PUCSORGBACK
350
B72
  3
PUCSORGBOTTOM
350
B6E
  3
PUCSORGFRONT
350
B71
  3
PUCSORGLEFT
350
B6F
  3
PUCSORGRIGHT
350
B70
  3
PUCSORGTOP
350
B6D
  3
PUCSORTHOREF
350
B6A
  3
PUCSORTHOVIEW
350
B6B
  3
STYLESHEET
350
B5F
  3
TSTACKALIGN
350
B5C
  3
TSTACKSIZE
350
B5D
  3
UCSBASE
350
B75
  3
UCSORGBACK
350
B7B
  3
UCSORGBOTTOM
350
B77
  3
UCSORGFRONT
350
B7A
  3
UCSORGLEFT
350
B78
  3
UCSORGRIGHT
350
B79
  3
UCSORGTOP
350
B76
  3
UCSORTHOREF
350
B73
  3
UCSORTHOVIEW
350
B74
  3
VERSIONGUID
350
B67
  0
XRECORD
  5
B7D
102
{ACAD_REACTORS
330
B3B
102
}
330
B3B
100
AcDbXrecord
340
1F
  0
XRECORD
  5
B7C
102
{ACAD_REACTORS
330
B39
102
}
330
B39
100
AcDbXrecord
340
1B
  0
MLINESTYLE
  5
18
102
{ACAD_REACTORS
330
17
102
}
330
17
100
AcDbMlineStyle
  2
STANDARD
 70
     0
  3

 62
   256
 51
90.0
 52
90.0
 71
     2
 49
0.5
 62
   256
  6
BYLAYER
 49
-0.5
 62
   256
  6
BYLAYER
  0
ACDBPLACEHOLDER
  5
F
102
{ACAD_REACTORS
330
E
102
}
330
0
100
AcDbPlaceHolder
280
     0
  0
XRECORD
  5
B65
102
{ACAD_REACTORS
330
B5B
102
}
330
B5B
100
AcDbXrecord
 90
        0
  0
XRECORD
  5
B69
102
{ACAD_REACTORS
330
B5B
102
}
330
B5B
100
AcDbXrecord
1000
DSTYLE
1002
{
1070
   278
 70
     0
1070
   342
340
220
1070
   371
 70
     0
1070
   372
 70
     0
1002
}
  0
XRECORD
  5
B66
102
{ACAD_REACTORS
330
B5B
102
}
330
B5B
100
AcDbXrecord
  1

  0
XRECORD
  5
B5E
102
{ACAD_REACTORS
330
B5B
102
}
330
B5B
100
AcDbXrecord
  1

  0
XRECORD
  5
B64
102
{ACAD_REACTORS
330
B5B
102
}
330
B5B
100
AcDbXrecord
 90
        1
  0
XRECORD
  5
B60
102
{ACAD_REACTORS
330
B5B
102
}
330
B5B
100
AcDbXrecord
340
1A
  0
XRECORD
  5
B63
102
{ACAD_REACTORS
330
B5B
102
}
330
B5B
100
AcDbXrecord
 90
    10781
  0
XRECORD
  5
B61
102
{ACAD_REACTORS
330
B5B
102
}
330
B5B
100
AcDbXrecord
340
19
  0
XRECORD
  5
B62
102
{ACAD_REACTORS
330
B5B
102
}
330
B5B
100
AcDbXrecord
340
E
  0
XRECORD
  5
B68
102
{ACAD_REACTORS
330
B5B
102
}
330
B5B
100
AcDbXrecord
 40
0.0
  0
XRECORD
  5
B6C
102
{ACAD_REACTORS
330
B5B
102
}
330
B5B
100
AcDbXrecord
340
0
  0
XRECORD
  5
B72
102
{ACAD_REACTORS
330
B5B
102
}
330
B5B
100
AcDbXrecord
 10
0.0
 20
0.0
 30
0.0
  0
XRECORD
  5
B6E
102
{ACAD_REACTORS
330
B5B
102
}
330
B5B
100
AcDbXrecord
 10
0.0
 20
0.0
 30
0.0
  0
XRECORD
  5
B71
102
{ACAD_REACTORS
330
B5B
102
}
330
B5B
100
AcDbXrecord
 10
0.0
 20
0.0
 30
0.0
  0
XRECORD
  5
B6F
102
{ACAD_REACTORS
330
B5B
102
}
330
B5B
100
AcDbXrecord
 10
0.0
 20
0.0
 30
0.0
  0
XRECORD
  5
B70
102
{ACAD_REACTORS
330
B5B
102
}
330
B5B
100
AcDbXrecord
 10
0.0
 20
0.0
 30
0.0
  0
XRECORD
  5
B6D
102
{ACAD_REACTORS
330
B5B
102
}
330
B5B
100
AcDbXrecord
 10
0.0
 20
0.0
 30
0.0
  0
XRECORD
  5
B6A
102
{ACAD_REACTORS
330
B5B
102
}
330
B5B
100
AcDbXrecord
340
0
  0
XRECORD
  5
B6B
102
{ACAD_REACTORS
330
B5B
102
}
330
B5B
100
AcDbXrecord
 70
     0
  0
XRECORD
  5
B5F
102
{ACAD_REACTORS
330
B5B
102
}
330
B5B
100
AcDbXrecord
  1

  0
XRECORD
  5
B5C
102
{ACAD_REACTORS
330
B5B
102
}
330
B5B
100
AcDbXrecord
 90
        1
  0
XRECORD
  5
B5D
102
{ACAD_REACTORS
330
B5B
102
}
330
B5B
100
AcDbXrecord
 90
       70
  0
XRECORD
  5
B75
102
{ACAD_REACTORS
330
B5B
102
}
330
B5B
100
AcDbXrecord
340
0
  0
XRECORD
  5
B7B
102
{ACAD_REACTORS
330
B5B
102
}
330
B5B
100
AcDbXrecord
 10
0.0
 20
0.0
 30
0.0
  0
XRECORD
  5
B77
102
{ACAD_REACTORS
330
B5B
102
}
330
B5B
100
AcDbXrecord
 10
0.0
 20
0.0
 30
0.0
  0
XRECORD
  5
B7A
102
{ACAD_REACTORS
330
B5B
102
}
330
B5B
100
AcDbXrecord
 10
0.0
 20
0.0
 30
0.0
  0
XRECORD
  5
B78
102
{ACAD_REACTORS
330
B5B
102
}
330
B5B
100
AcDbXrecord
 10
0.0
 20
0.0
 30
0.0
  0
XRECORD
  5
B79
102
{ACAD_REACTORS
330
B5B
102
}
330
B5B
100
AcDbXrecord
 10
0.0
 20
0.0
 30
0.0
  0
XRECORD
  5
B76
102
{ACAD_REACTORS
330
B5B
102
}
330
B5B
100
AcDbXrecord
 10
0.0
 20
0.0
 30
0.0
  0
XRECORD
  5
B73
102
{ACAD_REACTORS
330
B5B
102
}
330
B5B
100
AcDbXrecord
340
0
  0
XRECORD
  5
B74
102
{ACAD_REACTORS
330
B5B
102
}
330
B5B
100
AcDbXrecord
 70
     0
  0
XRECORD
  5
B67
102
{ACAD_REACTORS
330
B5B
102
}
330
B5B
100
AcDbXrecord
  1
{5DE36860-F4F0-4A64-B652-069E2082960B}
  0
ENDSEC
  0
EOF
