  0
SECTION
  2
HEADER
  9
$ACADVER
  1
AC1014
  9
$ACADMAINTVER
 70
     9
  9
$DWGCODEPAGE
  3
ANSI_1252
  9
$INSBASE
 10
0.0
 20
0.0
 30
0.0
  9
$EXTMIN
 10
-36.28149196166523
 20
-2.33757446563117
 30
0.0
  9
$EXTMAX
 10
36.28142752646593
 20
44.08757446563097
 30
0.0
  9
$LIMMIN
 10
0.0
 20
0.0
  9
$LIMMAX
 10
17.0
 20
11.0
  9
$ORTHOMODE
 70
     1
  9
$REGENMODE
 70
     1
  9
$FILLMODE
 70
     1
  9
$QTEXTMODE
 70
     0
  9
$MIRRTEXT
 70
     1
  9
$DRAGMODE
 70
     2
  9
$LTSCALE
 40
0.9350000000000001
  9
$OSMODE
 70
    37
  9
$ATTMODE
 70
     1
  9
$TEXTSIZE
 40
0.2
  9
$TRACEWID
 40
0.05
  9
$TEXTSTYLE
  7
STANDARD
  9
$CLAYER
  8
0
  9
$CELTYPE
  6
BYLAYER
  9
$CECOLOR
 62
   256
  9
$CELTSCALE
 40
1.0
  9
$DELOBJ
 70
     1
  9
$DISPSILH
 70
     0
  9
$DIMSCALE
 40
1.0
  9
$DIMASZ
 40
0.1875
  9
$DIMEXO
 40
0.10625
  9
$DIMDLI
 40
0.646
  9
$DIMRND
 40
0.0
  9
$DIMDLE
 40
0.0
  9
$DIMEXE
 40
0.306
  9
$DIMTP
 40
0.0
  9
$DIMTM
 40
0.0
  9
$DIMTXT
 40
0.125
  9
$DIMCEN
 40
0.153
  9
$DIMTSZ
 40
0.0
  9
$DIMTOL
 70
     0
  9
$DIMLIM
 70
     0
  9
$DIMTIH
 70
     1
  9
$DIMTOH
 70
     1
  9
$DIMSE1
 70
     0
  9
$DIMSE2
 70
     0
  9
$DIMTAD
 70
     0
  9
$DIMZIN
 70
     0
  9
$DIMBLK
  1
_FILLED
  9
$DIMASO
 70
     1
  9
$DIMSHO
 70
     1
  9
$DIMPOST
  1

  9
$DIMAPOST
  1

  9
$DIMALT
 70
     0
  9
$DIMALTD
 70
     2
  9
$DIMALTF
 40
25.4
  9
$DIMLFAC
 40
1.0
  9
$DIMTOFL
 70
     0
  9
$DIMTVP
 40
0.0
  9
$DIMTIX
 70
     0
  9
$DIMSOXD
 70
     0
  9
$DIMSAH
 70
     0
  9
$DIMBLK1
  1

  9
$DIMBLK2
  1

  9
$DIMSTYLE
  2
STANDARD
  9
$DIMCLRD
 70
     0
  9
$DIMCLRE
 70
     0
  9
$DIMCLRT
 70
     0
  9
$DIMTFAC
 40
1.0
  9
$DIMGAP
 40
0.09
  9
$DIMJUST
 70
     0
  9
$DIMSD1
 70
     0
  9
$DIMSD2
 70
     0
  9
$DIMTOLJ
 70
     1
  9
$DIMTZIN
 70
     0
  9
$DIMALTZ
 70
     0
  9
$DIMALTTZ
 70
     0
  9
$DIMFIT
 70
     3
  9
$DIMUPT
 70
     0
  9
$DIMUNIT
 70
     2
  9
$DIMDEC
 70
     4
  9
$DIMTDEC
 70
     4
  9
$DIMALTU
 70
     2
  9
$DIMALTTD
 70
     2
  9
$DIMTXSTY
  7
STANDARD
  9
$DIMAUNIT
 70
     0
  9
$LUNITS
 70
     2
  9
$LUPREC
 70
     4
  9
$SKETCHINC
 40
0.1
  9
$FILLETRAD
 40
0.0
  9
$AUNITS
 70
     0
  9
$AUPREC
 70
     0
  9
$MENU
  1
acad
  9
$ELEVATION
 40
0.0
  9
$PELEVATION
 40
0.0
  9
$THICKNESS
 40
0.0
  9
$LIMCHECK
 70
     0
  9
$BLIPMODE
 70
     0
  9
$CHAMFERA
 40
0.0
  9
$CHAMFERB
 40
0.0
  9
$CHAMFERC
 40
0.0
  9
$CHAMFERD
 40
0.0
  9
$SKPOLY
 70
     0
  9
$TDCREATE
 40
2454026.433579861
  9
$TDUPDATE
 40
2454085.374904641
  9
$TDINDWG
 40
0.0631367824
  9
$TDUSRTIMER
 40
0.0631367824
  9
$USRTIMER
 70
     1
  9
$ANGBASE
 50
0.0
  9
$ANGDIR
 70
     0
  9
$PDMODE
 70
     3
  9
$PDSIZE
 40
0.03125
  9
$PLINEWID
 40
0.0
  9
$COORDS
 70
     2
  9
$SPLFRAME
 70
     0
  9
$SPLINETYPE
 70
     6
  9
$SPLINESEGS
 70
     8
  9
$ATTDIA
 70
     0
  9
$ATTREQ
 70
     1
  9
$HANDLING
 70
-16383
  9
$HANDSEED
  5
1C8F
  9
$SURFTAB1
 70
     6
  9
$SURFTAB2
 70
     6
  9
$SURFTYPE
 70
     6
  9
$SURFU
 70
     6
  9
$SURFV
 70
     6
  9
$UCSNAME
  2

  9
$UCSORG
 10
0.0
 20
0.0
 30
0.0
  9
$UCSXDIR
 10
1.0
 20
0.0
 30
0.0
  9
$UCSYDIR
 10
0.0
 20
1.0
 30
0.0
  9
$PUCSNAME
  2

  9
$PUCSORG
 10
0.0
 20
0.0
 30
0.0
  9
$PUCSXDIR
 10
1.0
 20
0.0
 30
0.0
  9
$PUCSYDIR
 10
0.0
 20
1.0
 30
0.0
  9
$USERI1
 70
     0
  9
$USERI2
 70
     0
  9
$USERI3
 70
     0
  9
$USERI4
 70
     0
  9
$USERI5
 70
     0
  9
$USERR1
 40
0.0
  9
$USERR2
 40
0.0
  9
$USERR3
 40
0.0
  9
$USERR4
 40
0.0
  9
$USERR5
 40
0.0
  9
$WORLDVIEW
 70
     1
  9
$SHADEDGE
 70
     3
  9
$SHADEDIF
 70
    70
  9
$TILEMODE
 70
     1
  9
$MAXACTVP
 70
    16
  9
$PINSBASE
 10
0.0
 20
0.0
 30
0.0
  9
$PLIMCHECK
 70
     0
  9
$PEXTMIN
 10
1.000000000000000E+20
 20
1.000000000000000E+20
 30
1.000000000000000E+20
  9
$PEXTMAX
 10
-1.000000000000000E+20
 20
-1.000000000000000E+20
 30
-1.000000000000000E+20
  9
$PLIMMIN
 10
0.0
 20
0.0
  9
$PLIMMAX
 10
12.0
 20
9.0
  9
$UNITMODE
 70
     0
  9
$VISRETAIN
 70
     0
  9
$PLINEGEN
 70
     1
  9
$PSLTSCALE
 70
     0
  9
$TREEDEPTH
 70
  3020
  9
$PICKSTYLE
 70
     1
  9
$CMLSTYLE
  2
STANDARD
  9
$CMLJUST
 70
     0
  9
$CMLSCALE
 40
1.0
  9
$PROXYGRAPHICS
 70
     0
  9
$MEASUREMENT
 70
     0
  0
ENDSEC
  0
SECTION
  2
CLASSES
  0
CLASS
  1
ACDBDICTIONARYWDFLT
  2
AcDbDictionaryWithDefault
  3
AutoCAD 2000
 90
        0
280
     0
281
     0
  0
CLASS
  1
ACDBPLACEHOLDER
  2
AcDbPlaceHolder
  3
AutoCAD 2000
 90
        0
280
     0
281
     0
  0
CLASS
  1
LAYOUT
  2
AcDbLayout
  3
AutoCAD 2000
 90
        0
280
     0
281
     0
  0
CLASS
  1
LWPOLYLINE
  2
AcDbPolyline
  3
AutoCAD 2000
 90
        0
280
     0
281
     1
  0
CLASS
  1
IMAGE
  2
AcDbRasterImage
  3
ISM
 90
      127
280
     0
281
     1
  0
CLASS
  1
OLE2FRAME
  2
AcDbOle2Frame
  3
AutoCAD 2000
 90
        0
280
     0
281
     1
  0
CLASS
  1
HATCH
  2
AcDbHatch
  3
AutoCAD 2000
 90
        0
280
     0
281
     1
  0
CLASS
  1
DICTIONARYVAR
  2
AcDbDictionaryVar
  3
AutoCAD 2000
 90
        0
280
     0
281
     0
  0
CLASS
  1
RASTERVARIABLES
  2
AcDbRasterVariables
  3
ISM
 90
        0
280
     0
281
     0
  0
CLASS
  1
IMAGEDEF
  2
AcDbRasterImageDef
  3
ISM
 90
        0
280
     0
281
     0
  0
CLASS
  1
IMAGEDEF_REACTOR
  2
AcDbRasterImageDefReactor
  3
ISM
 90
        1
280
     0
281
     0
  0
CLASS
  1
IDBUFFER
  2
AcDbIdBuffer
  3
AutoCAD 2000
 90
        0
280
     0
281
     0
  0
CLASS
  1
SPATIAL_FILTER
  2
AcDbSpatialFilter
  3
AutoCAD 2000
 90
        0
280
     0
281
     0
  0
CLASS
  1
XRECORD
  2
AcDbXrecord
  3
AutoCAD 2000
 90
        0
280
     0
281
     0
  0
CLASS
  1
SORTENTSTABLE
  2
AcDbSortentsTable
  3
AutoCAD 2000
 90
        0
280
     0
281
     0
  0
CLASS
  1
LAYER_INDEX
  2
AcDbLayerIndex
  3
AutoCAD 2000
 90
        0
280
     0
281
     0
  0
CLASS
  1
SPATIAL_INDEX
  2
AcDbSpatialIndex
  3
AutoCAD 2000
 90
        0
280
     0
281
     0
  0
CLASS
  1
OBJECT_PTR
  2
CAseDLPNTableRecord
  3
ASE-LPNTableRecord
 90
        1
280
     0
281
     0
  0
CLASS
  1
PLOTSETTINGS
  2
AcDbPlotSettings
  3
AutoCAD 2000
 90
        0
280
     0
281
     0
  0
CLASS
  1
VBA_PROJECT
  2
AcDbVbaProject
  3
acadvba
 90
        0
280
     0
281
     0
  0
CLASS
  1
WIPEOUT
  2
AcDbWipeout
  3
WipeOut|AutoCAD Express Tool|expresstools@autodesk.com
 90
      127
280
     0
281
     1
  0
CLASS
  1
WIPEOUTVARIABLES
  2
AcDbWipeoutVariables
  3
WipeOut|AutoCAD Express Tool|expresstools@autodesk.com
 90
        0
280
     0
281
     0
  0
CLASS
  1
RTEXT
  2
RText
  3
RText|AutoCAD Express Tool|expresstools@autodesk.com
 90
        0
280
     0
281
     1
  0
CLASS
  1
ARCALIGNEDTEXT
  2
AcDbArcAlignedText
  3
ATEXT|AutoCAD Express Tool|expresstools@autodesk.com
 90
        0
280
     0
281
     1
  0
CLASS
  1
LONG_TRANSACTION
  2
AcDbLongTransaction
  3
AutoCAD 2000
 90
        0
280
     0
281
     0
  0
CLASS
  1
LWPOLYLINE
  2
AcDbPolyline
  3
AutoCAD 2000
 90
        0
280
     0
281
     1
  0
CLASS
  1
HATCH
  2
AcDbHatch
  3
AutoCAD 2000
 90
        0
280
     0
281
     1
  0
CLASS
  1
XRECORD
  2
AcDbXrecord
  3
AutoCAD 2000
 90
        0
280
     0
281
     0
  0
CLASS
  1
LONG_TRANSACTION
  2
AcDbLongTransaction
  3
AutoCAD 2000
 90
        0
280
     0
281
     0
  0
CLASS
  1
LWPOLYLINE
  2
AcDbPolyline
  3
AutoCAD 2000
 90
        0
280
     0
281
     1
  0
CLASS
  1
HATCH
  2
AcDbHatch
  3
AutoCAD 2000
 90
        0
280
     0
281
     1
  0
CLASS
  1
XRECORD
  2
AcDbXrecord
  3
AutoCAD 2000
 90
        0
280
     0
281
     0
  0
ENDSEC
  0
SECTION
  2
TABLES
  0
TABLE
  2
VPORT
  5
8
330
0
100
AcDbSymbolTable
 70
     4
  0
VPORT
  5
1C6B
330
8
100
AcDbSymbolTableRecord
100
AcDbViewportTableRecord
  2
*ACTIVE
 70
     0
 10
0.0
 20
0.0
 11
1.0
 21
1.0
 12
0.0006452748870071
 22
21.92895343221485
 13
0.0
 23
0.0
 14
1.0
 24
1.0
 15
0.0
 25
0.0
 16
0.0
 26
0.0
 36
1.0
 17
0.0
 27
0.0
 37
0.0
 40
49.09678638605631
 41
1.745424292845257
 42
50.0
 43
0.0
 44
0.0
 50
0.0
 51
0.0
 71
     0
 72
   100
 73
     1
 74
     1
 75
     0
 76
     0
 77
     0
 78
     0
  0
ENDTAB
  0
TABLE
  2
LTYPE
  5
5
330
0
100
AcDbSymbolTable
 70
     2
  0
LTYPE
  5
14
330
5
100
AcDbSymbolTableRecord
100
AcDbLinetypeTableRecord
  2
BYBLOCK
 70
     0
  3

 72
    65
 73
     0
 40
0.0
  0
LTYPE
  5
15
330
5
100
AcDbSymbolTableRecord
100
AcDbLinetypeTableRecord
  2
BYLAYER
 70
     0
  3

 72
    65
 73
     0
 40
0.0
  0
LTYPE
  5
16
330
5
100
AcDbSymbolTableRecord
100
AcDbLinetypeTableRecord
  2
CONTINUOUS
 70
     0
  3
Solid line
 72
    65
 73
     0
 40
0.0
  0
LTYPE
  5
1295
330
5
100
AcDbSymbolTableRecord
100
AcDbLinetypeTableRecord
  2
CENTERX2
 70
     0
  3
Center (2x) ________  __  ________  __  _____
 72
    65
 73
     4
 40
4.0
 49
2.5
 74
     0
 49
-0.5
 74
     0
 49
0.5
 74
     0
 49
-0.5
 74
     0
  0
ENDTAB
  0
TABLE
  2
LAYER
  5
2
330
0
100
AcDbSymbolTable
 70
     2
  0
LAYER
  5
10
330
2
100
AcDbSymbolTableRecord
100
AcDbLayerTableRecord
  2
0
 70
     0
 62
     7
  6
CONTINUOUS
  0
LAYER
  5
B09
330
2
100
AcDbSymbolTableRecord
100
AcDbLayerTableRecord
  2
CENTER
 70
     0
 62
     1
  6
CENTERX2
  0
ENDTAB
  0
TABLE
  2
STYLE
  5
3
330
0
100
AcDbSymbolTable
 70
     2
  0
STYLE
  5
11
330
3
100
AcDbSymbolTableRecord
100
AcDbTextStyleTableRecord
  2
STANDARD
 70
     0
 40
0.0
 41
0.8
 50
0.0
 71
     0
 42
0.2
  3
txt
  4

  0
STYLE
  5
21B
330
3
100
AcDbSymbolTableRecord
100
AcDbTextStyleTableRecord
  2
TEXTSTYLE_1
 70
     0
 40
0.0
 41
0.8
 50
0.0
 71
     0
 42
0.2
  3
txt
  4

  0
ENDTAB
  0
TABLE
  2
VIEW
  5
6
330
0
100
AcDbSymbolTable
 70
     0
  0
ENDTAB
  0
TABLE
  2
UCS
  5
7
330
0
100
AcDbSymbolTable
 70
     0
  0
ENDTAB
  0
TABLE
  2
APPID
  5
9
330
0
100
AcDbSymbolTable
 70
     2
  0
APPID
  5
21F
330
9
100
AcDbSymbolTableRecord
100
AcDbRegAppTableRecord
  2
ACAD
 70
     0
  0
APPID
  5
AFF
330
9
100
AcDbSymbolTableRecord
100
AcDbRegAppTableRecord
  2
DCO15
 70
     0
  0
ENDTAB
  0
TABLE
  2
DIMSTYLE
  5
A
330
0
100
AcDbSymbolTable
 70
     1
  0
DIMSTYLE
105
240
330
A
100
AcDbSymbolTableRecord
100
AcDbDimStyleTableRecord
  2
STANDARD
 70
     0
  3

  4

  5
_FILLED
  6
_FILLED
  7
_FILLED
 40
1.0
 41
0.1875
 42
0.0625
 43
0.38
 44
0.18
 45
0.0
 46
0.0
 47
0.00001
 48
0.00001
140
0.125
141
0.09
142
0.0
143
25.4
144
1.0
145
0.0
146
1.0
147
0.09
 71
     0
 72
     0
 73
     1
 74
     1
 75
     0
 76
     0
 77
     0
 78
     4
170
     0
171
     2
172
     0
173
     0
174
     0
175
     0
176
     0
177
     0
178
     0
270
     2
271
     5
272
     5
273
     2
274
     2
340
11
275
     0
280
     0
281
     0
282
     0
283
     1
284
     4
285
     0
286
     0
287
     3
288
     0
  0
ENDTAB
  0
TABLE
  2
BLOCK_RECORD
  5
1
330
0
100
AcDbSymbolTable
 70
     1
  0
BLOCK_RECORD
  5
1F
102
{ACAD_XDICTIONARY
360
1C43
102
}
330
1
100
AcDbSymbolTableRecord
100
AcDbBlockTableRecord
  2
*MODEL_SPACE
  0
BLOCK_RECORD
  5
1B
102
{ACAD_XDICTIONARY
360
1C41
102
}
330
1
100
AcDbSymbolTableRecord
100
AcDbBlockTableRecord
  2
*PAPER_SPACE
  0
BLOCK_RECORD
  5
220
330
1
100
AcDbSymbolTableRecord
100
AcDbBlockTableRecord
  2
_FILLED
  0
ENDTAB
  0
ENDSEC
  0
SECTION
  2
BLOCKS
  0
BLOCK
  5
20
330
1F
100
AcDbEntity
  8
0
100
AcDbBlockBegin
  2
*MODEL_SPACE
 70
     0
 10
0.0
 20
0.0
 30
0.0
  3
*MODEL_SPACE
  1

  0
ENDBLK
  5
21
330
1F
100
AcDbEntity
  8
0
100
AcDbBlockEnd
  0
BLOCK
  5
1C
330
1B
100
AcDbEntity
 67
     1
  8
0
100
AcDbBlockBegin
  2
*PAPER_SPACE
 70
     0
 10
0.0
 20
0.0
 30
0.0
  3
*PAPER_SPACE
  1

  0
ENDBLK
  5
1D
330
1B
100
AcDbEntity
 67
     1
  8
0
100
AcDbBlockEnd
  0
BLOCK
  5
442
330
220
100
AcDbEntity
  8
0
100
AcDbBlockBegin
  2
_FILLED
 70
     0
 10
0.0
 20
0.0
 30
0.0
  3
_FILLED
  1

  0
SOLID
  5
443
330
220
100
AcDbEntity
  8
0
  6
BYBLOCK
 62
     0
100
AcDbTrace
 10
0.0
 20
0.0
 30
0.0
 11
-1.0
 21
0.1666666667
 31
0.0
 12
-1.0
 22
-0.1666666667
 32
0.0
 13
-1.0
 23
-0.1666666667
 33
0.0
  0
ENDBLK
  5
444
330
220
100
AcDbEntity
  8
0
  6
BYBLOCK
 62
     0
100
AcDbBlockEnd
  0
ENDSEC
  0
SECTION
  2
ENTITIES
  0
MTEXT
  5
4BB
330
1F
100
AcDbEntity
  8
0
  6
CONTINUOUS
 62
     2
100
AcDbMText
 10
15.84375
 20
2.3125
 30
0.0
 40
0.09375
 41
0.075
 71
     2
 72
     1
  1
 \P \P 
  7
TEXTSTYLE_1
1001
ACAD
1000
MTEXTBEGIN
1070
    73
1070
     1
1070
    44
1040
1.0
1070
    74
1070
     0
1000
MTEXTEND
1000
MTEXTBEGIN
1070
    73
1070
     1
1070
    44
1040
1.0
1070
    74
1070
     0
1000
MTEXTEND
  0
LWPOLYLINE
  5
924
330
1F
100
AcDbEntity
  8
0
100
AcDbPolyline
 90
       22
 70
     0
 43
0.0
 10
-30.94611654719964
 20
20.87500001599992
 10
-30.92800673279965
 20
20.04132280479993
 10
-30.87389502719965
 20
19.21353816479992
 10
-30.78413364639965
 20
18.39289412159992
 10
-30.65922811039965
 20
17.58144701439992
 10
-30.50386044479964
 20
16.79953595039992
 10
-30.33038610719964
 20
16.08369132319992
 10
-30.15020054239965
 20
15.44792712479993
 10
-29.97183313119965
 20
14.89288536639992
 10
-29.79916495519964
 20
14.40814915519992
 10
-29.63284386239965
 20
13.98001710719992
 10
-29.47337117119964
 20
13.59914797919992
 10
-29.32154094079964
 20
13.25964238399993
 10
-29.17757075199965
 20
12.95603616479992
 10
-29.04173499999965
 20
12.68428143039993
 10
-28.91427730079965
 20
12.44115507199992
 10
-28.79516117439965
 20
12.22357671199992
 10
-28.68409063679965
 20
12.02857241279993
 10
-28.58053757919964
 20
11.85326368959992
 10
-28.48376740479964
 20
11.69486071039992
 10
-28.39286281439964
 20
11.55065816959992
 10
-28.30670058879964
 20
11.41796513919993
  0
LWPOLYLINE
  5
925
330
1F
100
AcDbEntity
  8
0
100
AcDbPolyline
 90
       23
 70
     0
 43
0.0
 10
-30.94611654719964
 20
20.87500001599992
 10
-30.92961397439964
 20
21.67088922239993
 10
-30.88029459999964
 20
22.46146414719993
 10
-30.79845831199965
 20
23.24567682079992
 10
-30.68433382559964
 20
24.02293150399993
 10
-30.54115913919964
 20
24.77792863039992
 10
-30.37879414879964
 20
25.47875455679992
 10
-30.20770263039965
 20
26.10860869119993
 10
-30.03621847359965
 20
26.66389157599992
 10
-29.86905927039964
 20
27.15106658719993
 10
-29.70761122559964
 20
27.58175290079994
 10
-29.55218789439964
 20
27.96594354079992
 10
-29.40338133759965
 20
28.30997049599993
 10
-29.26166488639964
 20
28.61867455679991
 10
-29.12721029759965
 20
28.89630679199992
 10
-29.00026030239965
 20
29.14604750879992
 10
-28.88096170879965
 20
29.37060981599994
 10
-28.76921430399965
 20
29.57264206719993
 10
-28.66470829599965
 20
29.75470840479992
 10
-28.56694627519965
 20
29.91929521919992
 10
-28.47526337439965
 20
30.06881581279994
 10
-28.38884263999965
 20
30.20561846239992
 10
-28.30670058879964
 20
30.33203486079993
  0
LWPOLYLINE
  5
926
330
1F
100
AcDbEntity
  8
0
100
AcDbPolyline
 90
       10
 70
     0
 43
0.0
 10
-31.37433819679964
 20
20.87499999999992
 10
-31.34740763199964
 20
21.90228798559992
 10
-31.25588817759965
 20
23.02326599199993
 10
-31.07948577439964
 20
24.25039667839992
 10
-30.81070919039964
 20
25.51574629119993
 10
-30.46430502239964
 20
26.73070007199992
 10
-30.04814625919965
 20
27.88331441119991
 10
-29.59964699039964
 20
28.90280639039993
 10
-29.13617946399964
 20
29.79124299039993
 10
-28.66463618879965
 20
30.56422982399992
  0
LINE
  5
927
330
1F
100
AcDbEntity
  8
0
100
AcDbLine
 10
-28.66463618879965
 20
30.56422982399992
 30
0.0
 11
-28.65572059199965
 21
30.57773951679992
 31
0.0
  0
LWPOLYLINE
  5
928
330
1F
100
AcDbEntity
  8
0
100
AcDbPolyline
 90
       10
 70
     0
 43
0.0
 10
-28.65572059199965
 20
30.57773951679992
 10
-28.49908216799965
 20
30.81000105119993
 10
-28.33731758719964
 20
31.04033079839992
 10
-28.17041117919965
 20
31.26863755039993
 10
-27.99834331359965
 20
31.49482985599992
 10
-27.82108857279965
 20
31.71881912799993
 10
-27.63862101119965
 20
31.94051157119993
 10
-27.45091440639965
 20
32.15980672639993
 10
-27.25794201599965
 20
32.37659863839992
 10
-27.05964822879964
 20
32.59080633119994
  0
LWPOLYLINE
  5
929
330
1F
100
AcDbEntity
  8
0
100
AcDbPolyline
 90
       24
 70
     0
 43
0.0
 10
-28.30670058879964
 20
30.33203486079993
 10
-27.91503000959965
 20
30.89679823039993
 10
-27.49494378559965
 20
31.44481626719992
 10
-27.04807099039964
 20
31.97358273279992
 10
-26.57627845279964
 20
32.48072815519994
 10
-26.08167005599964
 20
32.96403278079994
 10
-25.56535379039965
 20
33.42249079039992
 10
-25.02708685759964
 20
33.85630237279993
 10
-24.46722014559965
 20
34.26514382719993
 10
-23.88749395999965
 20
34.64760546559993
 10
-23.29126814879964
 20
35.00150189279993
 10
-22.68081166559964
 20
35.32569734399992
 10
-22.05730042399964
 20
35.61973756639993
 10
-21.42112554719964
 20
35.88359378559992
 10
-20.77377491359964
 20
36.11678226559992
 10
-20.11744804959965
 20
36.31860599359991
 10
-19.45452386719965
 20
36.48850288319993
 10
-18.78567366239964
 20
36.62645515039993
 10
-18.11083135519964
 20
36.73248948319992
 10
-17.43068789599965
 20
36.80644499359992
 10
-16.74624512319964
 20
36.84809059519993
 10
-16.05872221279964
 20
36.85714554079992
 10
-15.36969299519964
 20
36.83344536159994
 10
-14.68084504639965
 20
36.77690899839991
  0
LWPOLYLINE
  5
92A
330
1F
100
AcDbEntity
  8
0
100
AcDbPolyline
 90
        4
 70
     0
 43
0.0
 10
-27.05964822879964
 20
32.59080633119994
 10
-26.94629539999964
 20
32.70956591679992
 10
-26.83170508159964
 20
32.82700574239992
 10
-26.71592932479965
 20
32.94307621599994
  0
LWPOLYLINE
  5
92B
330
1F
100
AcDbEntity
  8
0
100
AcDbPolyline
 90
        4
 70
     0
 43
0.0
 10
-26.71592932319965
 20
8.806923782399934
 10
-26.83170508159964
 20
8.922994257599924
 10
-26.94629539999964
 20
9.040434084799926
 10
-27.05964822879964
 20
9.159193670399929
  0
LWPOLYLINE
  5
92C
330
1F
100
AcDbEntity
  8
0
100
AcDbPolyline
 90
       10
 70
     0
 43
0.0
 10
-27.05964822879964
 20
9.159193670399929
 10
-27.25798439199964
 20
9.373448047999929
 10
-27.45098692639964
 20
9.590276356799932
 10
-27.63871213599965
 20
9.809596999999925
 10
-27.82118746719964
 20
10.03130341279993
 10
-27.99843984319964
 20
10.25529455679992
 10
-28.17049591679964
 20
10.48147607999993
 10
-28.33738182399964
 20
10.70975884799993
 10
-28.49911791519965
 20
10.94005088959993
 10
-28.65572059039965
 20
11.17226048319993
  0
LWPOLYLINE
  5
92D
330
1F
100
AcDbEntity
  8
0
100
AcDbPolyline
 90
       24
 70
     0
 43
0.0
 10
-28.30670058879964
 20
11.41796513919993
 10
-27.91503000959965
 20
10.85320177119993
 10
-27.49494378559965
 20
10.30518373279993
 10
-27.04807099039964
 20
9.776417268799932
 10
-26.57627845279964
 20
9.269271844799931
 10
-26.08167005599964
 20
8.785967219199932
 10
-25.56535379039965
 20
8.327509211199924
 10
-25.02708685759964
 20
7.893697627199927
 10
-24.46722014559965
 20
7.484856172799922
 10
-23.88749395999965
 20
7.102394534399934
 10
-23.29126814879964
 20
6.748498108799935
 10
-22.68081166559964
 20
6.424302655999923
 10
-22.05730042399964
 20
6.130262435199924
 10
-21.42112554719964
 20
5.86640621439993
 10
-20.77377491359964
 20
5.633217735999934
 10
-20.11744804959965
 20
5.431394006399926
 10
-19.45452386719965
 20
5.26149711679993
 10
-18.78567366239964
 20
5.123544851199923
 10
-18.11083135519964
 20
5.01751051679993
 10
-17.43068789599965
 20
4.943555007999933
 10
-16.74624512319964
 20
4.901909404799923
 10
-16.05872221279964
 20
4.892854459199924
 10
-15.36969299519964
 20
4.916554638399929
 10
-14.68084504639965
 20
4.973091003199925
  0
LINE
  5
92E
330
1F
100
AcDbEntity
  8
0
100
AcDbLine
 10
-28.65572059039965
 20
11.17226048319993
 30
0.0
 11
-28.66463618879965
 21
11.18577017599993
 31
0.0
  0
LWPOLYLINE
  5
92F
330
1F
100
AcDbEntity
  8
0
100
AcDbPolyline
 90
       10
 70
     0
 43
0.0
 10
-28.66463618879965
 20
11.18577017599993
 10
-29.13261107519964
 20
11.95244840479992
 10
-29.59065938239964
 20
12.82854142879992
 10
-30.03001292479964
 20
13.82165047679993
 10
-30.43780680799964
 20
14.93785567999992
 10
-30.78789987999964
 20
16.14347219039993
 10
-31.06855394079965
 20
17.43841583519993
 10
-31.25390433919964
 20
18.70893196479993
 10
-31.34732137919964
 20
19.84607197599993
 10
-31.37433819679964
 20
20.87499999999992
  0
LWPOLYLINE
  5
930
330
1F
100
AcDbEntity
  8
0
100
AcDbPolyline
 90
       13
 70
     0
 43
0.0
 10
-26.71592932479965
 20
32.94307621599994
 10
-26.09566681439964
 20
33.52390539999992
 10
-25.37781552319964
 20
34.11933703679993
 10
-24.53921011199964
 20
34.72600998559993
 10
-23.55605358879964
 20
35.33270354079992
 10
-22.41693377119964
 20
35.91306254079994
 10
-21.19743468319965
 20
36.40560415679992
 10
-19.93998583039964
 20
36.78834682719993
 10
-18.67465694559964
 20
37.05517516959993
 10
-17.50729536959965
 20
37.20163051679993
 10
-16.45933418559964
 20
37.25409020799993
 10
-15.51605428959964
 20
37.23806511839991
 10
-14.66693391839964
 20
37.17229764479994
  0
LWPOLYLINE
  5
931
330
1F
100
AcDbEntity
  8
0
100
AcDbPolyline
 90
       10
 70
     0
 43
0.0
 10
-24.55910693759964
 20
20.87500168799992
 10
-24.54201194719965
 20
20.13166552799992
 10
-24.49027563039964
 20
19.38187522719992
 10
-24.40356481759964
 20
18.63020590239993
 10
-24.28223102559964
 20
17.88217989279992
 10
-24.12744151839964
 20
17.14380465919993
 10
-23.94064028319964
 20
16.41899466399992
 10
-23.72366286079964
 20
15.71129374399993
 10
-23.47892297279964
 20
15.02443265919993
 10
-23.20900548159964
 20
14.36112078239992
  0
LWPOLYLINE
  5
932
330
1F
100
AcDbEntity
  8
0
100
AcDbPolyline
 90
       36
 70
     0
 43
0.0
 10
-23.39706211039965
 20
20.84345802719993
 10
-23.39485339359965
 20
20.67177093279993
 10
-23.39022644159964
 20
20.50020428479993
 10
-23.38318277919964
 20
20.32876444799993
 10
-23.37372354719965
 20
20.15746520639993
 10
-23.36185191679964
 20
19.98634815839993
 10
-23.34757229439964
 20
19.81545764799993
 10
-23.33088377279965
 20
19.64478977599992
 10
-23.31178746719964
 20
19.47438355519993
 10
-23.29028850719965
 20
19.30430030559992
 10
-23.26639792799964
 20
19.13461911999992
 10
-23.24012330239964
 20
18.96538289759992
 10
-23.21146677919965
 20
18.79660242559992
 10
-23.18043021759964
 20
18.62829078879993
 10
-23.14701647999964
 20
18.46046804319992
 10
-23.11123048159964
 20
18.29316755199992
 10
-23.07307637279965
 20
18.12641944799993
 10
-23.03255669919964
 20
17.96024433759993
 10
-22.98967626719964
 20
17.79467316319993
 10
-22.94444486079964
 20
17.62975755839993
 10
-22.89687392479964
 20
17.46555208799992
 10
-22.84697742559965
 20
17.30210943679992
 10
-22.79476789759964
 20
17.13947233279992
 10
-22.74025773439964
 20
16.97768296799992
 10
-22.68345291999965
 20
16.81676430239993
 10
-22.62434373439965
 20
16.65669486079993
 10
-22.56293283679965
 20
16.49749199999992
 10
-22.49922993599964
 20
16.33919267199992
 10
-22.43325383519964
 20
16.18185369439993
 10
-22.36502587519964
 20
16.02553190879993
 10
-22.29455162879964
 20
15.87024717279993
 10
-22.22183181759964
 20
15.71601213599993
 10
-22.14691234719964
 20
15.56293152959993
 10
-22.06983999039964
 20
15.41109760159993
 10
-21.99065508159964
 20
15.26058268639992
 10
-21.90939607679964
 20
15.11145062239992
  0
LINE
  5
933
330
1F
100
AcDbEntity
  8
0
100
AcDbLine
 10
-23.39720477759965
 20
20.87500041279993
 30
0.0
 11
-23.39706211039965
 21
20.84345802719993
 31
0.0
  0
LWPOLYLINE
  5
934
330
1F
100
AcDbEntity
  8
0
100
AcDbPolyline
 90
       11
 70
     0
 43
0.0
 10
-24.55910693439964
 20
20.87500168799992
 10
-24.54526297759964
 20
21.54368060479993
 10
-24.50340819999965
 20
22.21784966559992
 10
-24.43322847679964
 20
22.89448452319993
 10
-24.33485760479964
 20
23.56944729439993
 10
-24.20894240639964
 20
24.23843689759992
 10
-24.05646387199965
 20
24.89798340639991
 10
-23.87863123519964
 20
25.54526341439994
 10
-23.67686860159964
 20
26.17782307039992
 10
-23.45301734559965
 20
26.79302016319992
 10
-23.20900548159964
 20
27.38887921919992
  0
LWPOLYLINE
  5
935
330
1F
100
AcDbEntity
  8
0
100
AcDbPolyline
 90
       37
 70
     0
 43
0.0
 10
-23.54738949439965
 20
27.58424531999994
 10
-23.52109970079964
 20
27.64568518879993
 10
-23.49481714879965
 20
27.70836826559992
 10
-23.46884959519964
 20
27.77068547679992
 10
-23.44309105279964
 20
27.83252718559994
 10
-23.41731007519964
 20
27.89427088479992
 10
-23.39101772959965
 20
27.95697885759993
 10
-23.36369547999964
 20
28.02179655359994
 10
-23.33558149119965
 20
28.08807923519994
 10
-23.30672487839964
 20
28.15564665119991
 10
-23.27633135679965
 20
28.22628206399993
 10
-23.24345287519964
 20
28.30206648639993
 10
-23.20701216159964
 20
28.38529353599993
 10
-23.16586113279964
 20
28.47830658079992
 10
-23.11887325439964
 20
28.58325907359993
 10
-23.06494004639964
 20
28.70209817439992
 10
-23.00520335679965
 20
28.83173164159991
 10
-22.94347395679964
 20
28.96353655039992
 10
-22.88385675199964
 20
29.08880419199992
 10
-22.82669235839965
 20
29.20708968639992
 10
-22.77133474879965
 20
29.31997517919994
 10
-22.71714402239964
 20
29.42892703519992
 10
-22.66294873599964
 20
29.53638507999993
 10
-22.60768367039964
 20
29.64445176799994
 10
-22.55236709119964
 20
29.75111987039993
 10
-22.49798377279964
 20
29.85455621919992
 10
-22.44277785119964
 20
29.95813433279993
 10
-22.38425602079965
 20
30.06639765919992
 10
-22.31980948479964
 20
30.18382850239992
 10
-22.24760985759964
 20
30.31319935039992
 10
-22.17080071039965
 20
30.44834804159994
 10
-22.09395612639965
 20
30.58105367999992
 10
-22.01714533119964
 20
30.71125035199993
 10
-21.93912228159964
 20
30.84104373759991
 10
-21.85866571199964
 20
30.97234261439992
 10
-21.77424106879965
 20
31.10739479039994
 10
-21.68401690079965
 20
31.24870332159993
  0
LWPOLYLINE
  5
936
330
1F
100
AcDbEntity
  8
0
100
AcDbPolyline
 90
       19
 70
     0
 43
0.0
 10
-23.20900548159964
 20
27.38887921919992
 10
-23.06504825599964
 20
27.69660048959993
 10
-22.89749382719965
 20
28.00683678399993
 10
-22.70443797279964
 20
28.32027926239992
 10
-22.48946978879965
 20
28.62962908159992
 10
-22.27468815039965
 20
28.90756901759992
 10
-22.07448190879965
 20
29.14473715199993
 10
-21.89043496639965
 20
29.34748899359992
 10
-21.71986112479964
 20
29.52428515999993
 10
-21.56177291039965
 20
29.67978704959993
 10
-21.41611682079964
 20
29.81670230559991
 10
-21.28366827519964
 20
29.93638952799993
 10
-21.16375486079964
 20
30.04110209119993
 10
-21.05231357119965
 20
30.13551710239993
 10
-20.94451137919965
 20
30.22434844799993
 10
-20.83580095359964
 20
30.31157355999992
 10
-20.72529626399965
 20
30.39794023679992
 10
-20.61367940639965
 20
30.48294141439991
 10
-20.50167797759964
 20
30.56608624959993
  0
LWPOLYLINE
  5
937
330
1F
100
AcDbEntity
  8
0
100
AcDbPolyline
 90
       35
 70
     0
 43
0.0
 10
-21.95930215039964
 20
26.64472607359992
 10
-22.04164917279964
 20
26.48928225119992
 10
-22.12179293279964
 20
26.33238484159993
 10
-22.19969880319964
 20
26.17408907679991
 10
-22.27533199359964
 20
26.01445298079993
 10
-22.34866084479965
 20
25.85353130719993
 10
-22.41965828159965
 20
25.69137758719993
 10
-22.48825403999965
 20
25.52815459199992
 10
-22.55442256159964
 20
25.36393242559994
 10
-22.61815220959964
 20
25.19875018399993
 10
-22.67943071999964
 20
25.03265163359994
 10
-22.73824595519964
 20
24.86568206399992
 10
-22.79458900159965
 20
24.69787883999991
 10
-22.84845173119964
 20
24.52928174719993
 10
-22.89982814399964
 20
24.35992732959992
 10
-22.94871244959965
 20
24.18984906079993
 10
-22.99509839999964
 20
24.01907963359993
 10
-23.03897961919964
 20
23.84765929439993
 10
-23.08034518239965
 20
23.67565098719992
 10
-23.11919057119964
 20
23.50309163679992
 10
-23.15551164639964
 20
23.33001434879993
 10
-23.18930409599964
 20
23.15645828319992
 10
-23.22056304959965
 20
22.98246776799993
 10
-23.24928346719965
 20
22.80808988799992
 10
-23.27546322879964
 20
22.63335906399993
 10
-23.29910070719964
 20
22.45831144959993
 10
-23.32019365119964
 20
22.28298563679993
 10
-23.33873983199965
 20
22.10741738559993
 10
-23.35473858239965
 20
21.93164225119993
 10
-23.36818972479964
 20
21.75570304159993
 10
-23.37909196319964
 20
21.57965065759992
 10
-23.38744440639965
 20
21.40352184319992
 10
-23.39324674239965
 20
21.22735256479992
 10
-23.39649982559965
 20
21.05117087839992
 10
-23.39720477919965
 20
20.87500041279993
  0
LINE
  5
938
330
1F
100
AcDbEntity
  8
0
100
AcDbLine
 10
-21.94997722879965
 20
26.66197891839992
 30
0.0
 11
-21.95930215039964
 21
26.64472607359992
 31
0.0
  0
LWPOLYLINE
  5
939
330
1F
100
AcDbEntity
  8
0
100
AcDbPolyline
 90
       27
 70
     0
 43
0.0
 10
-21.89758568319964
 20
15.09020080319993
 10
-21.82988777439964
 20
14.97096569439992
 10
-21.75957974879965
 20
14.85145186559992
 10
-21.68662138879964
 20
14.73168050559992
 10
-21.61097083519964
 20
14.61167442079992
 10
-21.53259380959965
 20
14.49147202079993
 10
-21.45146127839964
 20
14.37112167199993
 10
-21.36753267999964
 20
14.25065663199993
 10
-21.28079619519964
 20
14.13015277119993
 10
-21.19125214879964
 20
14.00970014879992
 10
-21.09891119679965
 20
13.88939837919993
 10
-21.00380068159964
 20
13.76936299199992
 10
-20.90603792639964
 20
13.64981100959993
 10
-20.80566626239965
 20
13.53085363039993
 10
-20.70272337759964
 20
13.41258855999993
 10
-20.59722955199965
 20
13.29508880799993
 10
-20.48917769439964
 20
13.17839540799992
 10
-20.37855172479964
 20
13.06254053599992
 10
-20.26531253919964
 20
12.94753099519992
 10
-20.14945978559965
 20
12.83341421439992
 10
-20.03104114559965
 20
12.72028280319993
 10
-19.91008643839965
 20
12.60820792479992
 10
-19.78661688319964
 20
12.49725043199993
 10
-19.66066912159964
 20
12.38748291999992
 10
-19.53229219039964
 20
12.27898539519992
 10
-19.40156182719964
 20
12.17185561599993
 10
-19.26856397759965
 20
12.06619334239992
  0
LINE
  5
93A
330
1F
100
AcDbEntity
  8
0
100
AcDbLine
 10
-21.90939611199965
 20
15.11145060159992
 30
0.0
 11
-21.89758568319964
 21
15.09020080319993
 31
0.0
  0
LWPOLYLINE
  5
93B
330
1F
100
AcDbEntity
  8
0
100
AcDbPolyline
 90
       19
 70
     0
 43
0.0
 10
-23.20900548159964
 20
14.36112078239992
 10
-23.06504825599964
 20
14.05339951199992
 10
-22.89749382719965
 20
13.74316321599992
 10
-22.70443797279964
 20
13.42972073919992
 10
-22.48946978879965
 20
13.12037091999992
 10
-22.27468815039965
 20
12.84243098239993
 10
-22.07448190879965
 20
12.60526284959992
 10
-21.89043496639965
 20
12.40251100639993
 10
-21.71986112479964
 20
12.22571483999992
 10
-21.56177291039965
 20
12.07021295039993
 10
-21.41611682079964
 20
11.93329769599992
 10
-21.28366827519964
 20
11.81361047359992
 10
-21.16375486079964
 20
11.70889791039992
 10
-21.05231357119965
 20
11.61448289759992
 10
-20.94451137919965
 20
11.52565155199992
 10
-20.83580095359964
 20
11.43842643999992
 10
-20.72529626399965
 20
11.35205976479993
 10
-20.61367940639965
 20
11.26705858559992
 10
-20.50167797759964
 20
11.18391375039992
  0
LWPOLYLINE
  5
93C
330
1F
100
AcDbEntity
  8
0
100
AcDbPolyline
 90
        3
 70
     0
 43
0.0
 10
-23.54738949439965
 20
14.16575468159993
 10
-23.52109970079964
 20
14.10431481119992
 10
-23.49481714879965
 20
14.04163173439992
  0
LWPOLYLINE
  5
93D
330
1F
100
AcDbEntity
  8
0
100
AcDbPolyline
 90
       34
 70
     0
 43
0.0
 10
-23.49481714879965
 20
14.04163173439992
 10
-23.44309105279964
 20
13.91747281439992
 10
-23.41731007519964
 20
13.85572911519993
 10
-23.39101772959965
 20
13.79302114399992
 10
-23.36369547999964
 20
13.72820344799993
 10
-23.33558149119965
 20
13.66192076639993
 10
-23.30672487839964
 20
13.59435335039992
 10
-23.27633135679965
 20
13.52371793759992
 10
-23.24345287519964
 20
13.44793351519993
 10
-23.20701216159964
 20
13.36470646559992
 10
-23.16586113279964
 20
13.27169342079993
 10
-23.11887325439964
 20
13.16674092639992
 10
-23.06494004639964
 20
13.04790182559992
 10
-23.00520335679965
 20
12.91826835999992
 10
-22.94347395679964
 20
12.78646345119993
 10
-22.88385675199964
 20
12.66119580959993
 10
-22.82669235839965
 20
12.54291031359993
 10
-22.77133474879965
 20
12.43002482079992
 10
-22.71714402239964
 20
12.32107296479992
 10
-22.66294873599964
 20
12.21361491999992
 10
-22.60768367039964
 20
12.10554823359993
 10
-22.55236709119964
 20
11.99888012959992
 10
-22.49798377279964
 20
11.89544378079992
 10
-22.44277785119964
 20
11.79186566879993
 10
-22.38425602079965
 20
11.68360234239992
 10
-22.31980948479964
 20
11.56617149759992
 10
-22.24760985759964
 20
11.43680065119993
 10
-22.17080071039965
 20
11.30165195999992
 10
-22.09395612639965
 20
11.16894631999993
 10
-22.01714533119964
 20
11.03874964799993
 10
-21.93912228159964
 20
10.90895626239992
 10
-21.85866571199964
 20
10.77765738719992
 10
-21.77424106879965
 20
10.64260520959993
 10
-21.68401690079965
 20
10.50129667839992
  0
LWPOLYLINE
  5
949
330
1F
100
AcDbEntity
  8
0
100
AcDbPolyline
 90
       18
 70
     0
 43
0.0
 10
-19.26856397759965
 20
12.06619334239992
 10
-19.14016552319964
 20
11.96723635359993
 10
-19.00980169439964
 20
11.86971246559993
 10
-18.87752790719964
 20
11.77368363999993
 10
-18.74346254079965
 20
11.67925291679992
 10
-18.60765067359964
 20
11.58646644159992
 10
-18.47007239199964
 20
11.49532601759993
 10
-18.33080117119965
 20
11.40589262559993
 10
-18.19002268479964
 20
11.31829111679992
 10
-18.04820953919965
 20
11.23280556159993
 10
-17.90451935199965
 20
11.14893315839992
 10
-17.75881595359964
 20
11.06663051039993
 10
-17.61191067519964
 20
10.98637449439992
 10
-17.46441310879965
 20
10.90847842399992
 10
-17.31646967519964
 20
10.83298528639993
 10
-17.16784581759964
 20
10.75975099839992
 10
-17.01800453759964
 20
10.68850817119992
 10
-16.86652310879965
 20
10.61907957919993
  0
LWPOLYLINE
  5
94A
330
1F
100
AcDbEntity
  8
0
100
AcDbPolyline
 90
       16
 70
     0
 43
0.0
 10
-5.40029623679965
 20
34.18829539359991
 10
-5.700796659199642
 20
34.08120804159993
 10
-6.218482564799646
 20
33.92375498719992
 10
-6.783130065599653
 20
33.77970948799994
 10
-7.396988489599653
 20
33.64983458719992
 10
-8.060813118399646
 20
33.53541192319993
 10
-8.76430047199965
 20
33.43886248319994
 10
-9.408656326399647
 20
33.36911651679993
 10
-9.983148095999649
 20
33.31953486559992
 10
-10.51232483359964
 20
33.28263858399994
 10
-11.04714955519964
 20
33.25224239679993
 10
-11.59569753439965
 20
33.22611712319992
 10
-12.17024026079964
 20
33.20110105279992
 10
-12.79987069599964
 20
33.17134494559992
 10
-13.52332496799964
 20
33.12526382239993
 10
-14.25895401599964
 20
33.05368354559992
  0
LWPOLYLINE
  5
94B
330
1F
100
AcDbEntity
  8
0
100
AcDbPolyline
 90
       25
 70
     0
 43
0.0
 10
14.29999736800035
 20
9.808059348799929
 10
14.40732638720035
 20
9.829012187199936
 10
14.51006389600035
 20
9.85006518719993
 10
14.60965531360035
 20
9.871413035199935
 10
14.70872826720035
 20
9.893574967999924
 10
14.80828592480035
 20
9.916782067199932
 10
14.90722140640035
 20
9.940782476799924
 10
15.00619556640034
 20
9.965735513599923
 10
15.10701829600035
 20
9.992132550399929
 10
15.20680157600035
 20
10.01923695999993
 10
15.30635576160035
 20
10.04725686399993
 10
15.40653983680034
 20
10.07644721599993
 10
15.50791965440035
 20
10.10700767519992
 10
15.61066112960035
 20
10.13903374879993
 10
15.71458933440035
 20
10.17251700959992
 10
15.81965991840035
 20
10.20748670559993
 10
15.92631215360034
 20
10.24413997599992
 10
16.03501490880034
 20
10.28270547359993
 10
16.14598927200034
 20
10.32334349919993
 10
16.25939022880035
 20
10.36620228959992
 10
16.37521254400035
 20
10.41137812319992
 10
16.49348450880034
 20
10.45898640479993
 10
16.61442529760034
 20
10.50922962559992
 10
16.73844870240035
 20
10.56240980479992
 10
16.86611593280035
 20
10.61892469919992
  0
LINE
  5
94C
330
1F
100
AcDbEntity
  8
0
100
AcDbLine
 10
14.25888958240035
 20
9.800325603199922
 30
0.0
 11
14.29999736800035
 21
9.808059348799929
 31
0.0
  0
LWPOLYLINE
  5
94D
330
1F
100
AcDbEntity
  8
0
100
AcDbPolyline
 90
       22
 70
     0
 43
0.0
 10
2.677873672000355
 20
6.446773057599926
 10
2.710544476800347
 20
6.452791830399931
 10
2.743414321600351
 20
6.45968390239993
 10
2.776476785600348
 20
6.467383502399925
 10
2.809698630400358
 20
6.475824398399922
 10
2.843253688000356
 20
6.485001979199935
 10
2.878135937600358
 20
6.495175119999927
 10
2.91529876160035
 20
6.506658527999931
 10
2.955768318400355
 20
6.519848679999924
 10
3.000753217600358
 20
6.535263667199927
 10
3.051458913600352
 20
6.55348456639993
 10
3.109339632000352
 20
6.57524439199993
 10
3.175825438400348
 20
6.601328299199934
 10
3.248739609600345
 20
6.631064972799933
 10
3.323776084800353
 20
6.662691260799931
 10
3.397501364800358
 20
6.694592633599924
 10
3.469602260800353
 20
6.726433182399929
 10
3.539918868800352
 20
6.757975796799925
 10
3.608736350400345
 20
6.789213446399926
 10
3.676971009600347
 20
6.820460755199931
 10
3.745605275200357
 20
6.852091227199935
 10
3.987280664000348
 20
6.963953971199927
  0
LWPOLYLINE
  5
94E
330
1F
100
AcDbEntity
  8
0
100
AcDbPolyline
 90
       12
 70
     0
 43
0.0
 10
14.25888958240035
 20
8.696316447999933
 10
14.85703822400036
 20
8.781795639999927
 10
15.41321134880035
 20
8.888625103999928
 10
15.96507880160035
 20
9.022583039999929
 10
16.53953469440035
 20
9.191282609599923
 10
17.13924611360034
 20
9.397775556799928
 10
17.74818238080035
 20
9.638790483199926
 10
18.35205372320035
 20
9.909903395199933
 10
18.93833663200035
 20
10.20577109119993
 10
19.49690019520035
 20
10.52064716959992
 10
20.01955952480035
 20
10.84842470559992
 10
20.50161354400034
 20
11.18391375039992
  0
LINE
  5
94F
330
1F
100
AcDbEntity
  8
0
100
AcDbLine
 10
-12.64730082239964
 20
4.813500334399932
 30
0.0
 11
-12.67424164959964
 21
4.810112887999935
 31
0.0
  0
LWPOLYLINE
  5
950
330
1F
100
AcDbEntity
  8
0
100
AcDbPolyline
 90
        4
 70
     0
 43
0.0
 10
-12.67424164959964
 20
4.810112887999935
 10
-13.33042464799964
 20
4.729628923199925
 10
-13.98710133919965
 20
4.652967580799924
 10
-14.64430884639964
 20
4.580125716799926
  0
LWPOLYLINE
  5
951
330
1F
100
AcDbEntity
  8
0
100
AcDbPolyline
 90
       14
 70
     0
 43
0.0
 10
-12.69314885599964
 20
5.202904017599934
 10
-11.44388127519964
 20
5.351523276799923
 10
-10.31846118559964
 20
5.472629310399923
 10
-9.301359526399647
 20
5.57160341279993
 10
-8.37958288959965
 20
5.652665315199925
 10
-7.542203348799649
 20
5.719149033599933
 10
-6.779789729599645
 20
5.773724695999931
 10
-6.084183452799653
 20
5.818540647999924
 10
-5.448666470399647
 20
5.855308929599928
 10
-4.867184841599641
 20
5.885431900799929
 10
-4.333979398399652
 20
5.910072316799926
 10
-3.843718871999644
 20
5.930179614399932
 10
-3.394311937599642
 20
5.946425871999934
 10
-2.985416596799641
 20
5.959337507199933
  0
LWPOLYLINE
  5
952
330
1F
100
AcDbEntity
  8
0
100
AcDbPolyline
 90
        4
 70
     0
 43
0.0
 10
-14.68084504639965
 20
4.973091003199925
 10
-14.01014385919964
 20
5.046399836799935
 10
-13.34759424799965
 20
5.123101267199928
 10
-12.69314885599964
 20
5.202904017599934
  0
LINE
  5
953
330
1F
100
AcDbEntity
  8
0
100
AcDbLine
 10
-14.64430884639964
 20
4.580125716799926
 30
0.0
 11
-14.66693391839964
 21
4.577702356799932
 31
0.0
  0
LWPOLYLINE
  5
954
330
1F
100
AcDbEntity
  8
0
100
AcDbPolyline
 90
       13
 70
     0
 43
0.0
 10
-14.66693391839964
 20
4.577702356799932
 10
-15.51606001279964
 20
4.511934603199932
 10
-16.45659762079964
 20
4.495869758399933
 10
-17.49540559519964
 20
4.547357787199928
 10
-18.64185799199964
 20
4.689423115199929
 10
-19.87606363839964
 20
4.945393374399927
 10
-21.11075743679964
 20
5.314070575999934
 10
-22.33018276159965
 20
5.79768259519993
 10
-23.49979566559964
 20
6.385678876799929
 10
-24.51136224799964
 20
7.005325767999934
 10
-25.36796807999964
 20
7.623010883199924
 10
-26.09462849599964
 20
8.225176755199925
 10
-26.71592932319965
 20
8.806923782399934
  0
LINE
  5
955
330
1F
100
AcDbEntity
  8
0
100
AcDbLine
 10
-6.086278601599648
 20
6.098854007999932
 30
0.0
 11
-5.358127131199641
 21
6.153705143999928
 31
0.0
  0
LWPOLYLINE
  5
956
330
1F
100
AcDbEntity
  8
0
100
AcDbPolyline
 90
       13
 70
     0
 43
0.0
 10
3.815566782400349
 20
6.522774391999931
 10
3.715140366400358
 20
6.515724870399935
 10
3.616974659200348
 20
6.508249043199924
 10
3.520017518400347
 20
6.500276113599923
 10
3.423376051200346
 20
6.491724491199931
 10
3.328329352000348
 20
6.482702588799924
 10
3.234580070400351
 20
6.47318690239993
 10
3.141946912000346
 20
6.463159227199923
 10
3.051374406400352
 20
6.452730012799932
 10
2.962691017600345
 20
6.441896387199932
 10
2.875183539200346
 20
6.430579331199922
 10
2.788643769600351
 20
6.418750382399935
 10
2.703315012800356
 20
6.406441734399933
  0
LWPOLYLINE
  5
957
330
1F
100
AcDbEntity
  8
0
100
AcDbPolyline
 90
        9
 70
     0
 43
0.0
 10
-6.086278601599648
 20
6.098854007999932
 10
-6.220324059199644
 20
6.090149494399923
 10
-6.347952207999643
 20
6.084914190399928
 10
-6.46255646239965
 20
6.083768475199931
 10
-6.556088206399653
 20
6.086934337599927
 10
-6.623773155199646
 20
6.093971220799929
 10
-6.666600191999652
 20
6.104653663999926
 10
-6.683050295999652
 20
6.118930750399925
 10
-6.681051363199646
 20
6.126504159999925
  0
LWPOLYLINE
  5
958
330
1F
100
AcDbEntity
  8
0
100
AcDbPolyline
 90
       19
 70
     0
 43
0.0
 10
14.47626127200035
 20
6.15391917279993
 10
15.12009803680035
 20
6.195120881599933
 10
15.68555692160034
 20
6.258217775999924
 10
16.18904974720035
 20
6.340101569599923
 10
16.64281216800035
 20
6.438520761599932
 10
17.05541490400035
 20
6.551765542399934
 10
17.43519717280035
 20
6.679197311999928
 10
17.78875305600035
 20
6.820749222399925
 10
18.12125735520035
 20
6.976805283199922
 10
18.44342038720035
 20
7.151769945599923
 10
18.76366537120035
 20
7.350630395199928
 10
19.08475879680035
 20
7.576649364799934
 10
19.41765375520035
 20
7.840288630399925
 10
19.76462411520035
 20
8.147422788799929
 10
20.12429418240035
 20
8.501581110399925
 10
20.49633196480035
 20
8.907775052799934
 10
20.88046892960035
 20
9.371793875199927
 10
21.27650360000035
 20
9.900460948799931
 10
21.68395246720035
 20
10.50129667839992
  0
LWPOLYLINE
  5
959
330
1F
100
AcDbEntity
  8
0
100
AcDbPolyline
 90
        3
 70
     0
 43
0.0
 10
3.815566782400349
 20
6.522774391999931
 10
4.275019163200351
 20
6.547888476799926
 10
4.430158176000357
 20
6.552732612799928
  0
LWPOLYLINE
  5
95A
330
1F
100
AcDbEntity
  8
0
100
AcDbPolyline
 90
        5
 70
     0
 43
0.0
 10
-2.988989820799648
 20
5.562118118399922
 10
-5.078228431999651
 20
5.478848723199931
 10
-7.372917335999648
 20
5.337530676799929
 10
-9.886412830399645
 20
5.122577215999925
 10
-12.64730082239964
 20
4.813500334399932
  0
LWPOLYLINE
  5
95B
330
1F
100
AcDbEntity
  8
0
100
AcDbPolyline
 90
        4
 70
     0
 43
0.0
 10
-12.64634069919965
 20
6.15994166239993
 10
-13.26766322719964
 20
6.142201910399933
 10
-13.87902237439964
 20
6.139119172799922
 10
-14.47632570559964
 20
6.153919174399931
  0
LWPOLYLINE
  5
95C
330
1F
100
AcDbEntity
  8
0
100
AcDbPolyline
 90
       10
 70
     0
 43
0.0
 10
-6.384908174399644
 20
6.548679579199927
 10
-6.46918919519965
 20
6.546392582399931
 10
-7.128089716799653
 20
6.518368524799925
 10
-7.842285255999644
 20
6.478595819199924
 10
-8.620447974399649
 20
6.427132047999933
 10
-9.465843849599647
 20
6.365488222399932
 10
-10.30246694719965
 20
6.302799983999932
 10
-11.11045301599965
 20
6.244951891199931
 10
-11.89264877119964
 20
6.195970819199928
 10
-12.64634069919965
 20
6.15994166239993
  0
LWPOLYLINE
  5
95D
330
1F
100
AcDbEntity
  8
0
100
AcDbPolyline
 90
        4
 70
     0
 43
0.0
 10
-2.985416596799641
 20
5.959337507199933
 10
-1.990438875199647
 20
5.98366258719993
 10
-0.9953006015996416
 20
5.998258244799927
 10
-0.0000322175996425
 20
6.003123999999928
  0
LWPOLYLINE
  5
95E
330
1F
100
AcDbEntity
  8
0
100
AcDbPolyline
 90
       17
 70
     0
 43
0.0
 10
-0.0000322175996425
 20
6.553952289599934
 10
-0.104793463999645
 20
6.553258793599923
 10
-0.208979737599652
 20
6.551178313599933
 10
-0.3114336495996535
 20
6.547734223999924
 10
-0.4113168991996512
 20
6.542964849599925
 10
-0.50745595999965
 20
6.536948470399934
 10
-0.5991956255996522
 20
6.529759094399935
 10
-0.6855101679996418
 20
6.521521836799934
 10
-0.7660534271996549
 20
6.512322995199923
 10
-0.8403765567996439
 20
6.502264531199926
 10
-0.9082835935996522
 20
6.491418254399931
 10
-0.9695319167996425
 20
6.479855795199924
 10
-1.023785577599643
 20
6.467665254399932
 10
-1.070906423999648
 20
6.454884863999922
 10
-1.110491267199652
 20
6.441612020799922
 10
-1.142330735999653
 20
6.427876687999926
 10
-1.166006134399641
 20
6.413773619199929
  0
LWPOLYLINE
  5
95F
330
1F
100
AcDbEntity
  8
0
100
AcDbPolyline
 90
        5
 70
     0
 43
0.0
 10
-0.0000322175996425
 20
5.606240444799922
 10
-0.7668446287996498
 20
5.603334796799927
 10
-1.47700049279965
 20
5.595463993599935
 10
-2.203478075199644
 20
5.582259977599932
 10
-2.988989820799648
 20
5.562118118399922
  0
LWPOLYLINE
  5
960
330
1F
100
AcDbEntity
  8
0
100
AcDbPolyline
 90
       17
 70
     0
 43
0.0
 10
-0.0000322175996425
 20
6.254362051199933
 10
-0.102745991999644
 20
6.254931748799933
 10
-0.2052251855996483
 20
6.256649745599929
 10
-0.3065283807996517
 20
6.259519503999925
 10
-0.4060429503996412
 20
6.263546332799933
 10
-0.50270236959965
 20
6.268710972799922
 10
-0.5958357039996438
 20
6.275001355199933
 10
-0.6842461871996515
 20
6.282355348799924
 10
-0.7673256991996491
 20
6.29073419039993
 10
-0.8443328799996445
 20
6.300074966399932
 10
-0.914778542399649
 20
6.310330939199928
 10
-0.9780971967996416
 20
6.321435803199932
 10
-1.033734145599641
 20
6.333304540799929
 10
-1.081335035199647
 20
6.345874483199935
 10
-1.120425663999643
 20
6.359028511999923
 10
-1.150815732799646
 20
6.37271158879993
 10
-1.172196772799655
 20
6.386798758399933
  0
LWPOLYLINE
  5
961
330
1F
100
AcDbEntity
  8
0
100
AcDbPolyline
 90
       20
 70
     0
 43
0.0
 10
-0.0000322175996425
 20
6.584898166399923
 10
0.1047299088003475
 20
6.584204673599927
 10
0.208918851200348
 20
6.582124158399935
 10
0.311366576000349
 20
6.578680347199934
 10
0.411250918400352
 20
6.573911054399928
 10
0.5073828832003463
 20
6.567895324799934
 10
0.5991216496003452
 20
6.560706313599922
 10
0.6854430848003508
 20
6.552468665599931
 10
0.7659872400003528
 20
6.54326993119993
 10
0.8403159600003496
 20
6.533210857599925
 10
0.9082159760003454
 20
6.522365868799923
 10
0.9694649136003581
 20
6.510803548799927
 10
1.023714001600349
 20
6.498614395199922
 10
1.070833337600358
 20
6.485834987199922
 10
1.110418155200345
 20
6.472562945599932
 10
1.142256606400348
 20
6.458829292799933
 10
1.16593304480035
 20
6.444727785599923
 10
1.18108607200035
 20
6.43032953119993
 10
1.187316692800347
 20
6.415772411199924
 10
1.187467782400357
 20
6.413137017599922
  0
LWPOLYLINE
  5
962
330
1F
100
AcDbEntity
  8
0
100
AcDbPolyline
 90
        4
 70
     0
 43
0.0
 10
2.985352163200357
 20
5.959337507199933
 10
1.990374457600349
 20
5.98366258559993
 10
0.9952362016003453
 20
5.998258244799927
 10
-0.0000322175996425
 20
6.003123999999928
  0
LWPOLYLINE
  5
963
330
1F
100
AcDbEntity
  8
0
100
AcDbPolyline
 90
        5
 70
     0
 43
0.0
 10
2.98892538720035
 20
5.562118118399922
 10
2.195257640000345
 20
5.582437142399925
 10
1.468484478400352
 20
5.595586940799933
 10
0.7621522304003568
 20
5.603369758399935
 10
-0.0000322175996425
 20
5.606240444799922
  0
LWPOLYLINE
  5
964
330
1F
100
AcDbEntity
  8
0
100
AcDbPolyline
 90
       10
 70
     0
 43
0.0
 10
6.384843948800348
 20
6.548679572799926
 10
6.469124761600351
 20
6.546392582399931
 10
7.128025283200354
 20
6.518368524799925
 10
7.842220822400346
 20
6.478595819199924
 10
8.620383540800357
 20
6.427132047999933
 10
9.465779416000355
 20
6.365488222399932
 10
10.30240251360035
 20
6.302799983999932
 10
11.11038858080035
 20
6.244951891199931
 10
11.89258433760035
 20
6.195970819199928
 10
12.64627626560034
 20
6.15994166239993
  0
LWPOLYLINE
  5
965
330
1F
100
AcDbEntity
  8
0
100
AcDbPolyline
 90
        4
 70
     0
 43
0.0
 10
12.64627626560034
 20
6.15994166239993
 10
13.26759879360035
 20
6.142201910399933
 10
13.87895794080035
 20
6.139119172799922
 10
14.47626127040035
 20
6.153919174399931
  0
LWPOLYLINE
  5
966
330
1F
100
AcDbEntity
  8
0
100
AcDbPolyline
 90
        3
 70
     0
 43
0.0
 10
-3.815631215999648
 20
6.522774391999931
 10
-4.27508359679965
 20
6.547888476799926
 10
-4.430223513599646
 20
6.552732639999931
  0
LWPOLYLINE
  5
967
330
1F
100
AcDbEntity
  8
0
100
AcDbPolyline
 90
       19
 70
     0
 43
0.0
 10
-14.47632570559964
 20
6.15391917279993
 10
-15.12016247039964
 20
6.195120881599933
 10
-15.68562135519964
 20
6.258217775999924
 10
-16.18911418079964
 20
6.340101569599923
 10
-16.64287660159964
 20
6.438520761599932
 10
-17.05547933759964
 20
6.551765542399934
 10
-17.43526160639964
 20
6.679197311999928
 10
-17.78881748959964
 20
6.820749222399925
 10
-18.12132178879965
 20
6.976805283199922
 10
-18.44348482079965
 20
7.151769945599923
 10
-18.76372980479964
 20
7.350630395199928
 10
-19.08482323039964
 20
7.576649364799934
 10
-19.41771819039965
 20
7.840288630399925
 10
-19.76468855039965
 20
8.147422788799929
 10
-20.12435861599965
 20
8.501581110399925
 10
-20.49639639999965
 20
8.907775052799934
 10
-20.88053336319965
 20
9.371793875199927
 10
-21.27656803359964
 20
9.900460948799931
 10
-21.68401690079965
 20
10.50129667839992
  0
LWPOLYLINE
  5
968
330
1F
100
AcDbEntity
  8
0
100
AcDbPolyline
 90
        9
 70
     0
 43
0.0
 10
6.086214166400349
 20
6.098854007999932
 10
6.220685728000358
 20
6.090126601599934
 10
6.348346712000346
 20
6.084901927999922
 10
6.46281387680035
 20
6.083771651199924
 10
6.556202216000354
 20
6.086945851199928
 10
6.623801899200355
 20
6.09398617439993
 10
6.666581121600355
 20
6.104672534399924
 10
6.682988536000348
 20
6.118949063999934
 10
6.680986868800356
 20
6.126504163199925
  0
LWPOLYLINE
  5
969
330
1F
100
AcDbEntity
  8
0
100
AcDbPolyline
 90
       13
 70
     0
 43
0.0
 10
-3.815631215999648
 20
6.522774391999931
 10
-3.715204799999643
 20
6.515724870399935
 10
-3.617039092799647
 20
6.508249043199924
 10
-3.520081951999646
 20
6.500276113599923
 10
-3.423440484799645
 20
6.491724491199931
 10
-3.328393785599647
 20
6.482702588799924
 10
-3.23464450399965
 20
6.47318690239993
 10
-3.142011347199645
 20
6.463159227199923
 10
-3.051438839999651
 20
6.452730012799932
 10
-2.962755451199644
 20
6.441896387199932
 10
-2.875247974399645
 20
6.430579331199922
 10
-2.78870820319965
 20
6.418750382399935
 10
-2.703379446399654
 20
6.406441734399933
  0
LINE
  5
96A
330
1F
100
AcDbEntity
  8
0
100
AcDbLine
 10
6.086214166400349
 20
6.098854007999932
 30
0.0
 11
5.358062697600356
 21
6.153705143999928
 31
0.0
  0
LWPOLYLINE
  5
96B
330
1F
100
AcDbEntity
  8
0
100
AcDbPolyline
 90
        8
 70
     0
 43
0.0
 10
5.358062697600356
 20
6.153705143999928
 10
5.262409750400347
 20
6.162151476799934
 10
5.160526580800347
 20
6.173769545599924
 10
5.061709688000345
 20
6.187733828799935
 10
4.973583070400348
 20
6.202912134399923
 10
4.898708297600347
 20
6.218776495999932
 10
4.842316507200347
 20
6.234138076799922
 10
4.807262635200356
 20
6.247804691199931
  0
LINE
  5
96C
330
1F
100
AcDbEntity
  8
0
100
AcDbLine
 10
14.66686948320035
 20
4.577702356799932
 30
0.0
 11
14.64424441280035
 21
4.580125716799926
 31
0.0
  0
LWPOLYLINE
  5
96D
330
1F
100
AcDbEntity
  8
0
100
AcDbPolyline
 90
        4
 70
     0
 43
0.0
 10
14.68078061280035
 20
4.973091003199925
 10
14.01007942560035
 20
5.046399836799935
 10
13.34752981440035
 20
5.123101267199928
 10
12.69308442240035
 20
5.202904017599934
  0
LWPOLYLINE
  5
96E
330
1F
100
AcDbEntity
  8
0
100
AcDbPolyline
 90
        4
 70
     0
 43
0.0
 10
14.64424441280035
 20
4.580125716799926
 10
13.98703690560036
 20
4.652967580799924
 10
13.33036021440035
 20
4.729628923199925
 10
12.67417721760035
 20
4.810112887999935
  0
LWPOLYLINE
  5
96F
330
1F
100
AcDbEntity
  8
0
100
AcDbPolyline
 90
        5
 70
     0
 43
0.0
 10
12.64723638720034
 20
4.813500334399932
 10
9.851176409600352
 20
5.126020694399926
 10
7.334331931200349
 20
5.340334804799923
 10
5.057330428800351
 20
5.479892403199926
 10
2.98892538720035
 20
5.562118118399922
  0
LWPOLYLINE
  5
970
330
1F
100
AcDbEntity
  8
0
100
AcDbPolyline
 90
       14
 70
     0
 43
0.0
 10
12.69308442240035
 20
5.202904017599934
 10
11.44381684000034
 20
5.351523276799923
 10
10.31839675200034
 20
5.472629310399923
 10
9.301295092800355
 20
5.57160341279993
 10
8.379518456000351
 20
5.652665315199925
 10
7.54213891360035
 20
5.719149033599933
 10
6.779725296000346
 20
5.773724695999931
 10
6.084119019200354
 20
5.818540647999924
 10
5.448602036800348
 20
5.855308929599928
 10
4.867120408000356
 20
5.885431900799929
 10
4.333914964800353
 20
5.910072316799926
 10
3.843654438400346
 20
5.930179614399932
 10
3.394247504000357
 20
5.946425871999934
 10
2.985352163200357
 20
5.959337507199933
  0
LINE
  5
971
330
1F
100
AcDbEntity
  8
0
100
AcDbLine
 10
12.67417721760035
 20
4.810112887999935
 30
0.0
 11
12.64723638720034
 21
4.813500334399932
 31
0.0
  0
LWPOLYLINE
  5
972
330
1F
100
AcDbEntity
  8
0
100
AcDbPolyline
 90
       12
 70
     0
 43
0.0
 10
-14.25895401599964
 20
8.696316447999933
 10
-14.85710265759965
 20
8.781795639999927
 10
-15.41327578239964
 20
8.888625103999928
 10
-15.96514323519965
 20
9.022583039999929
 10
-16.53959912959964
 20
9.191282609599923
 10
-17.13931054719964
 20
9.397775556799928
 10
-17.74824681439964
 20
9.638790483199926
 10
-18.35211815679965
 20
9.909903395199933
 10
-18.93840106559964
 20
10.20577109119993
 10
-19.49696462879964
 20
10.52064716959992
 10
-20.01962395839964
 20
10.84842470559992
 10
-20.50167797759964
 20
11.18391375039992
  0
LWPOLYLINE
  5
973
330
1F
100
AcDbEntity
  8
0
100
AcDbPolyline
 90
       21
 70
     0
 43
0.0
 10
-2.677938105599654
 20
6.446773057599926
 10
-2.710608910399646
 20
6.452791830399931
 10
-2.74347875519965
 20
6.45968390239993
 10
-2.776541220799646
 20
6.467383502399925
 10
-2.809763063999643
 20
6.475824398399922
 10
-2.843318121599654
 20
6.485001979199935
 10
-2.878200372799643
 20
6.495175119999927
 10
-2.915363195199649
 20
6.506658527999931
 10
-2.955832751999654
 20
6.519848679999924
 10
-3.000817651199643
 20
6.535263667199927
 10
-3.051523347199651
 20
6.55348456639993
 10
-3.109404067199651
 20
6.57524439199993
 10
-3.175889871999647
 20
6.601328299199934
 10
-3.248804043199644
 20
6.631064972799933
 10
-3.323840518399652
 20
6.662691260799931
 10
-3.397565798399643
 20
6.694592633599924
 10
-3.469666694399652
 20
6.726433182399929
 10
-3.539983303999651
 20
6.757975796799925
 10
-3.608800783999644
 20
6.789213446399926
 10
-3.677035444799646
 20
6.820460755199931
 10
-3.745669708799642
 20
6.852091227199935
  0
LINE
  5
974
330
1F
100
AcDbEntity
  8
0
100
AcDbLine
 10
-14.30006180159965
 20
9.808059348799929
 30
0.0
 11
-14.25895401599964
 21
9.800325603199922
 31
0.0
  0
LWPOLYLINE
  5
975
330
1F
100
AcDbEntity
  8
0
100
AcDbPolyline
 90
       16
 70
     0
 43
0.0
 10
-5.400296342399645
 20
7.561704644799931
 10
-5.700796659199642
 20
7.668791958399935
 10
-6.218482564799646
 20
7.82624501279993
 10
-6.783130065599653
 20
7.970290511999934
 10
-7.396988489599653
 20
8.100165412799924
 10
-8.060813118399646
 20
8.214588078399927
 10
-8.76430047199965
 20
8.311137518399931
 10
-9.408656326399647
 20
8.380883483199923
 10
-9.983148095999649
 20
8.430465135999924
 10
-10.51232483359964
 20
8.467361417599931
 10
-11.04714955519964
 20
8.497757604799929
 10
-11.59569753439965
 20
8.52388287839993
 10
-12.17024026079964
 20
8.54889894719993
 10
-12.79987069599964
 20
8.578655054399931
 10
-13.52332496799964
 20
8.624736177599928
 10
-14.25895401599964
 20
8.696316454399934
  0
LWPOLYLINE
  5
976
330
1F
100
AcDbEntity
  8
0
100
AcDbPolyline
 90
       25
 70
     0
 43
0.0
 10
-16.86652310879965
 20
10.61907957919993
 10
-16.74060002399965
 20
10.56331898559993
 10
-16.61574282239965
 20
10.50975808639992
 10
-16.49433801919965
 20
10.45930888959992
 10
-16.37597669919965
 20
10.41165536799992
 10
-16.26026882239965
 20
10.36651481279993
 10
-16.14701745599965
 20
10.32370214399992
 10
-16.03603448479964
 20
10.28305004959993
 10
-15.92711245439965
 20
10.24439705759992
 10
-15.82006298559964
 20
10.20760111999993
 10
-15.71463896319965
 20
10.17251195519992
 10
-15.61056336799965
 20
10.13898223839993
 10
-15.50776182399964
 20
10.10693964159992
 10
-15.40627444159964
 20
10.07634967999993
 10
-15.30584617279965
 20
10.04709255039992
 10
-15.20573535359964
 20
10.01892417599992
 10
-15.10521641759964
 20
9.991634831999931
 10
-15.00511666879964
 20
9.965441950399934
 10
-14.90613577279964
 20
9.940498108799928
 10
-14.80701506079964
 20
9.916464555199922
 10
-14.70749412959964
 20
9.893278447999932
 10
-14.60798130239964
 20
9.871032393599932
 10
-14.50771910719964
 20
9.849560303999922
 10
-14.40525321759964
 20
9.828584531199922
 10
-14.30006180159965
 20
9.808059348799929
  0
LINE
  5
977
330
1F
100
AcDbEntity
  8
0
100
AcDbLine
 10
-3.745669708799642
 20
6.852091227199935
 30
0.0
 11
-3.987345476799649
 21
6.963954145599927
 31
0.0
  0
LWPOLYLINE
  5
978
330
1F
100
AcDbEntity
  8
0
100
AcDbPolyline
 90
        3
 70
     0
 43
0.0
 10
4.631717230400351
 20
35.41882737439992
 10
4.721555886400349
 20
35.45992280959991
 10
4.807262635200356
 20
35.50219531039992
  0
LWPOLYLINE
  5
979
330
1F
100
AcDbEntity
  8
0
100
AcDbPolyline
 90
        6
 70
     0
 43
0.0
 10
2.81755139200035
 20
34.13532255359992
 10
3.253711788800355
 20
34.31879740639992
 10
3.663691592000358
 20
34.54999191519992
 10
4.041623668800351
 20
34.82568803359991
 10
4.382086422400345
 20
35.14205095839993
 10
4.612532148800351
 20
35.40674162879993
  0
LWPOLYLINE
  5
97B
330
1F
100
AcDbEntity
  8
0
100
AcDbPolyline
 90
        8
 70
     0
 43
0.0
 10
4.807262635200356
 20
35.50219531039992
 10
4.842316507200347
 20
35.51586192479992
 10
4.898708297600347
 20
35.53122350399992
 10
4.973583070400348
 20
35.54708786719992
 10
5.061709688000345
 20
35.56226617279993
 10
5.160526580800347
 20
35.57623045599992
 10
5.262409750400347
 20
35.58784852479992
 10
5.358062697600356
 20
35.59629485759991
  0
LINE
  5
97C
330
1F
100
AcDbEntity
  8
0
100
AcDbLine
 10
2.034015857600348
 20
33.89984092639993
 30
0.0
 11
2.81755139200035
 21
34.13532255359992
 31
0.0
  0
LWPOLYLINE
  5
97D
330
1F
100
AcDbEntity
  8
0
100
AcDbPolyline
 90
       21
 70
     0
 43
0.0
 10
3.853284544000356
 20
8.473253302399925
 10
3.872802363200346
 20
8.474861971199928
 10
4.208294502400345
 20
8.504624921599926
 10
4.618313780800345
 20
8.543411883199922
 10
5.135168952000352
 20
8.594767783999927
 10
5.739459484800345
 20
8.657093059199922
 10
6.348010611200347
 20
8.721663364799923
 10
6.956194417600354
 20
8.787906206399924
 10
7.556860584000357
 20
8.854922027199933
 10
8.134278956800354
 20
8.920844462399927
 10
8.689220446400351
 20
8.985716268799933
 10
9.229279507200356
 20
9.050511967999923
 10
9.764106036800352
 20
9.11662588799993
 10
10.31591351680034
 20
9.187256595199926
 10
10.89112546080035
 20
9.26391350399993
 10
11.47800099680035
 20
9.345807508799936
 10
12.06715892000034
 20
9.432297070399926
 10
12.64551636480035
 20
9.521890387199931
 10
13.20596035520035
 20
9.61360372799993
 10
13.74472900800036
 20
9.706692071999924
 10
14.25888958240035
 20
9.800325559999933
  0
LWPOLYLINE
  5
97E
330
1F
100
AcDbEntity
  8
0
100
AcDbPolyline
 90
       21
 70
     0
 43
0.0
 10
-14.25895401599964
 20
9.800325559999933
 10
-13.74660440159965
 20
9.707013483199929
 10
-13.21024467999965
 20
9.614313633599934
 10
-12.65256686879965
 20
9.523003049599935
 10
-12.07690179039965
 20
9.433756705599932
 10
-11.49041177599965
 20
9.347574119999933
 10
-10.90326912799964
 20
9.265559791999933
 10
-10.32718319839964
 20
9.188718908799927
 10
-9.776807251199645
 20
9.118214516799923
 10
-9.243932463999644
 20
9.05228796799993
 10
-8.706663443199648
 20
8.987774233599935
 10
-8.15408852319965
 20
8.923125977599923
 10
-7.579545119999654
 20
8.857476340799934
 10
-6.979894542399652
 20
8.790513708799934
 10
-6.375897276799651
 20
8.724657105599931
 10
-5.769736748799648
 20
8.660257507199929
 10
-5.162776159999641
 20
8.597562889599927
 10
-4.625973643199646
 20
8.544149615999927
 10
-4.201330436799654
 20
8.503980940799934
 10
-3.863960579199645
 20
8.474101279999928
 10
-3.853404041599649
 20
8.473233131199933
  0
LWPOLYLINE
  5
97F
330
1F
100
AcDbEntity
  8
0
100
AcDbPolyline
 90
        7
 70
     0
 43
0.0
 10
2.81755139200035
 20
7.614677446399923
 10
2.034060568000352
 20
7.850147988799932
 10
1.229124448000344
 20
8.008518777599931
 10
0.4111885520003503
 20
8.088130891199924
 10
-0.411106219199642
 20
8.08813801279993
 10
-1.229076027199642
 20
8.008535326399922
 10
-2.034080291199646
 20
7.850159073599925
  0
LWPOLYLINE
  5
982
330
1F
100
AcDbEntity
  8
0
100
AcDbPolyline
 90
        3
 70
     0
 43
0.0
 10
4.807262635200356
 20
6.247804691199931
 10
4.721563675200354
 20
6.290073492799933
 10
4.631717230400351
 20
6.331172625599933
  0
LWPOLYLINE
  5
983
330
1F
100
AcDbEntity
  8
0
100
AcDbPolyline
 90
        6
 70
     0
 43
0.0
 10
4.331148451200345
 20
33.49005523359993
 10
4.906583923200354
 20
33.82469540319992
 10
5.439533256000355
 20
34.21724304479992
 10
5.923617200000347
 20
34.66284707359993
 10
6.353042518400354
 20
35.15599374719993
 10
6.681044728000355
 20
35.62349935199994
  0
LWPOLYLINE
  5
984
330
1F
100
AcDbEntity
  8
0
100
AcDbPolyline
 90
       26
 70
     0
 43
0.0
 10
-0.0000322175996425
 20
10.49176433119993
 10
0.0946884736003531
 20
10.49418389119992
 10
0.1903167456003521
 20
10.50165647199992
 10
0.2864853920003545
 20
10.51442956319992
 10
0.38276215840035
 20
10.53266302239993
 10
0.4781371392003527
 20
10.55628626399992
 10
0.5717731408003564
 20
10.58508527039992
 10
0.6634390608003534
 20
10.61892355999992
 10
0.7530259216003506
 20
10.65770371999992
 10
0.8405696416003499
 20
10.70142106399993
 10
0.9265996640003455
 20
10.75043028799993
 10
1.011608840000345
 20
10.80528644799993
 10
1.095894705600354
 20
10.86666044639993
 10
1.179472180800356
 20
10.93525123999992
 10
1.262162278400349
 20
11.01182317599993
 10
1.343851049600356
 20
11.09749493759993
 10
1.424015836800346
 20
11.19335872319993
 10
1.501562459200353
 20
11.30017464319992
 10
1.574058022400347
 20
11.41672769599992
 10
1.639702187200352
 20
11.54201987199992
 10
1.696397736000345
 20
11.67341277919993
 10
1.742967856000358
 20
11.80858910559993
 10
1.779218635200347
 20
11.94695403519992
 10
1.804890950400345
 20
12.08747040959993
 10
1.819893657600356
 20
12.22960327519993
 10
1.824111603200346
 20
12.37287973759993
  0
LINE
  5
986
330
1F
100
AcDbEntity
  8
CENTER
100
AcDbLine
 10
3.940754018879427
 20
12.37499999999992
 30
0.0
 11
-3.940818454078712
 21
12.37499999999992
 31
0.0
  0
LWPOLYLINE
  5
988
330
1F
100
AcDbEntity
  8
0
100
AcDbPolyline
 90
        7
 70
     0
 43
0.0
 10
-1.824176019199644
 20
12.37287973759993
 10
-1.848258743999654
 20
12.37326252799992
 10
-1.87485403679965
 20
12.37363614239993
 10
-1.903524271999647
 20
12.37399466719992
 10
-1.933797678399646
 20
12.37433243199993
 10
-1.965176107199642
 20
12.37464409919992
 10
-1.997143223999646
 20
12.37492475999992
  0
LWPOLYLINE
  5
989
330
1F
100
AcDbEntity
  8
0
100
AcDbPolyline
 90
       10
 70
     0
 43
0.0
 10
4.331148451200345
 20
8.259944767999925
 10
3.424146596800351
 20
8.664811579199934
 10
2.475635577600353
 20
8.972867571199927
 10
1.497243110400358
 20
9.180308358399926
 10
0.5008237872003568
 20
9.284631761599925
 10
-0.501597867199653
 20
9.284594711999929
 10
-1.497913468799641
 20
9.180212683199926
 10
-2.476098083199648
 20
8.972761068799925
 10
-3.424345660799648
 20
8.664759849599931
 10
-4.331212884799644
 20
8.259944767999925
  0
LWPOLYLINE
  5
98A
330
1F
100
AcDbEntity
  8
0
100
AcDbPolyline
 90
        6
 70
     0
 43
0.0
 10
4.331148451200345
 20
8.259944767999925
 10
4.90658472960035
 20
7.925304068799931
 10
5.43953473440035
 20
7.532755735999927
 10
5.923619193600355
 20
7.087150878399924
 10
6.353044843200347
 20
6.594003263999923
 10
6.681044728000355
 20
6.126500647999932
  0
LWPOLYLINE
  5
98B
330
1F
100
AcDbEntity
  8
0
100
AcDbPolyline
 90
        3
 70
     0
 43
0.0
 10
4.631717230400351
 20
6.331172625599933
 10
4.613787547200356
 20
6.341862135999932
 10
4.612517494400346
 20
6.343259211199935
  0
LWPOLYLINE
  5
98C
330
1F
100
AcDbEntity
  8
0
100
AcDbPolyline
 90
       18
 70
     0
 43
0.0
 10
1.181086390400348
 20
6.399381222399924
 10
1.165933620800355
 20
6.413779535999935
 10
1.142257372800354
 20
6.427881159999927
 10
1.110418998400358
 20
6.441614980799926
 10
1.070834115200351
 20
6.454887230399933
 10
1.023714563200353
 20
6.467666875199924
 10
0.9694651248003472
 20
6.479856279999935
 10
0.9082157408003544
 20
6.491418847999923
 10
0.8403152384003467
 20
6.502264071999931
 10
0.7659860496003537
 20
6.512323361599925
 10
0.6854415520003519
 20
6.521522275199927
 10
0.5991199968003505
 20
6.52976006559993
 10
0.5073813552003477
 20
6.536949185599922
 10
0.4112496752003486
 20
6.542965003199924
 10
0.3113656944003471
 20
6.547734366399922
 10
0.2089183440003486
 20
6.551178231999926
 10
0.1047297168003458
 20
6.553258783999922
 10
-0.0000322175996425
 20
6.553952289599934
  0
LWPOLYLINE
  5
98D
330
1F
100
AcDbEntity
  8
0
100
AcDbPolyline
 90
        3
 70
     0
 43
0.0
 10
-1.172196772799655
 20
6.386798758399933
 10
-1.184426902399654
 20
6.401209820799934
 10
-1.187532215999642
 20
6.413137041599924
  0
LINE
  5
98E
330
1F
100
AcDbEntity
  8
0
100
AcDbLine
 10
2.703315012800356
 20
35.34355826559992
 30
0.0
 11
2.677873672000355
 21
35.30322694399991
 31
0.0
  0
LWPOLYLINE
  5
990
330
1F
100
AcDbEntity
  8
0
100
AcDbPolyline
 90
        3
 70
     0
 43
0.0
 10
4.612517348800349
 20
35.40674077759992
 10
4.613785379200347
 20
35.40813570559992
 10
4.631717230400351
 20
35.41882737439992
  0
LWPOLYLINE
  5
991
330
1F
100
AcDbEntity
  8
0
100
AcDbPolyline
 90
       23
 70
     0
 43
0.0
 10
-0.0000322175996425
 20
14.21509367039992
 10
-0.135340382399651
 20
14.21006786079992
 10
-0.2683381071996431
 20
14.19523768959993
 10
-0.3991118831996412
 20
14.17084087039993
 10
-0.5277690863996478
 20
14.13693230239992
 10
-0.654259851199644
 20
14.09343434079993
 10
-0.7783630655996527
 20
14.04018511999993
 10
-0.8995142303996496
 20
13.97708004959993
 10
-1.016648284799647
 20
13.90431238239992
 10
-1.128616113599651
 20
13.82230775999992
 10
-1.234117235199651
 20
13.73187711999993
 10
-1.332417055999645
 20
13.63363454079993
 10
-1.423097934399653
 20
13.52797055999992
 10
-1.505592041599644
 20
13.41548432959993
 10
-1.579360499199641
 20
13.29686594239993
 10
-1.643983687999654
 20
13.17275867519993
 10
-1.699415972799645
 20
13.04299366079992
 10
-1.744156697599653
 20
12.91154771039993
 10
-1.777595703999655
 20
12.78346920319992
 10
-1.800405627199641
 20
12.66354273599992
 10
-1.814198348799653
 20
12.55631741119992
 10
-1.821465345599652
 20
12.46088373119992
 10
-1.824154023999643
 20
12.37499999999992
  0
LWPOLYLINE
  5
993
330
1F
100
AcDbEntity
  8
0
100
AcDbPolyline
 90
        6
 70
     0
 43
0.0
 10
4.612532152000351
 20
6.343258369599922
 10
4.38207309120035
 20
6.607963007999927
 10
4.041634096000347
 20
6.924303372799926
 10
3.663723291200351
 20
7.199987694399922
 10
3.253754184000353
 20
7.431181817599934
 10
2.81755139200035
 20
7.614677446399923
  0
LINE
  5
994
330
1F
100
AcDbEntity
  8
0
100
AcDbLine
 10
2.703315012800356
 20
6.406441735999933
 30
0.0
 11
2.677873672000355
 21
6.446773055999926
 31
0.0
  0
LINE
  5
995
330
1F
100
AcDbEntity
  8
0
100
AcDbLine
 10
1.181663593600358
 20
6.398032595199936
 30
0.0
 11
1.181086390400348
 21
6.399381222399924
 31
0.0
  0
LWPOLYLINE
  5
996
330
1F
100
AcDbEntity
  8
0
100
AcDbPolyline
 90
       26
 70
     0
 43
0.0
 10
-1.824176038399645
 20
12.37287973759993
 10
-1.819958859199648
 20
12.22961466559992
 10
-1.804957135999647
 20
12.08748257759992
 10
-1.779285246399642
 20
11.94696383679992
 10
-1.743035031999643
 20
11.80859816159993
 10
-1.696464881599642
 20
11.67341978239993
 10
-1.639769668799648
 20
11.54202625919992
 10
-1.574133756799643
 20
11.41674743039992
 10
-1.501645087999652
 20
11.30020165279992
 10
-1.424097347199652
 20
11.19338058719992
 10
-1.343932958399651
 20
11.09751447039992
 10
-1.262245473599652
 20
11.01184163999992
 10
-1.179557195199653
 20
10.93526916639993
 10
-1.095983811199648
 20
10.86667950879993
 10
-1.01170014239965
 20
10.80530486399993
 10
-0.9266879711996446
 20
10.75044476799992
 10
-0.84065590079965
 20
10.70143271679992
 10
-0.7531121183996456
 20
10.65771385599993
 10
-0.6635223647996506
 20
10.61893112159992
 10
-0.5718532671996466
 20
10.58509057599992
 10
-0.4782144047996477
 20
10.55628982399993
 10
-0.3828398063996483
 20
10.53266590719992
 10
-0.2865663551996429
 20
10.51443222079993
 10
-0.1903970047996532
 20
10.50165813439993
 10
-0.0947629519996449
 20
10.49418440799992
 10
-0.0000322175996425
 20
10.49176433119993
  0
LINE
  5
99F
330
1F
100
AcDbEntity
  8
0
100
AcDbLine
 10
-0.0000322175996425
 20
14.21509366239992
 30
0.0
 11
-0.0000322175996425
 21
14.38545381919992
 31
0.0
  0
LINE
  5
9A7
330
1F
100
AcDbEntity
  8
CENTER
100
AcDbLine
 10
-0.0000322175996425
 20
3.260405716244889
 30
0.0
 11
-0.0000322175996425
 21
16.05954778329086
 31
0.0
  0
LINE
  5
9A9
330
1F
100
AcDbEntity
  8
0
100
AcDbLine
 10
-1.997123103999644
 20
12.37743180639992
 30
0.0
 11
-1.997143841599641
 21
12.37499999999992
 31
0.0
  0
LINE
  5
9AA
330
1F
100
AcDbEntity
  8
0
100
AcDbLine
 10
-1.824154023999643
 20
12.37499999999992
 30
0.0
 11
-1.824176038399645
 21
12.37287973759993
 31
0.0
  0
LWPOLYLINE
  5
9AB
330
1F
100
AcDbEntity
  8
0
100
AcDbPolyline
 90
       20
 70
     0
 43
0.0
 10
-1.187532215999642
 20
6.413137041599924
 10
-1.187382415999653
 20
6.415761115199927
 10
-1.181157684799647
 20
6.430319841599924
 10
-1.166005564799651
 20
6.44472186399993
 10
-1.142329977599647
 20
6.458824817599932
 10
-1.110490433599654
 20
6.472559982399928
 10
-1.070905657599642
 20
6.485832617599925
 10
-1.023785030399654
 20
6.49861276959993
 10
-0.9695317199996546
 20
6.510803060799929
 10
-0.9082838431996444
 20
6.52236527199993
 10
-0.8403772975996483
 20
6.533211311999934
 10
-0.7660546367996412
 20
6.543269563199928
 10
-0.6855117263996429
 20
6.552468225599923
 10
-0.5991973023996489
 20
6.560705340799927
 10
-0.5074575119996505
 20
6.567894606399931
 10
-0.4113181599996418
 20
6.57391089919993
 10
-0.3114345439996422
 20
6.578680203199922
 10
-0.208980252799652
 20
6.582124239999927
 10
-0.104793659199647
 20
6.584204683199928
 10
-0.0000322175996425
 20
6.584898166399923
  0
LWPOLYLINE
  5
9AD
330
1F
100
AcDbEntity
  8
0
100
AcDbPolyline
 90
       23
 70
     0
 43
0.0
 10
1.824089588800358
 20
12.37499999999992
 10
1.821375473600351
 20
12.46137017439993
 10
1.814029243200348
 20
12.55735632479992
 10
1.800074294400356
 20
12.66523556959993
 10
1.777012225600355
 20
12.78578183519992
 10
1.743302110400346
 20
12.91418132319992
 10
1.698351400000358
 20
13.04560115679993
 10
1.642809299200347
 20
13.17509996479992
 10
1.578104529600348
 20
13.29895250399992
 10
1.504277040000356
 20
13.41733135039993
 10
1.421755112000351
 20
13.52957895199992
 10
1.331073640000351
 20
13.63501296159992
 10
1.232798974400349
 20
13.73303680159992
 10
1.127344083200352
 20
13.82326438239992
 10
1.015454502400355
 20
13.90507431679992
 10
0.8984249008003464
 20
13.97766353279992
 10
0.7773972112003483
 20
14.04061199519992
 10
0.6534304608003473
 20
14.09372915519992
 10
0.527080764800356
 20
14.13712131519993
 10
0.3985713184003534
 20
14.17094780159992
 10
0.2679511104003571
 20
14.19528569599992
 10
0.1351121936003457
 20
14.21008003999992
 10
-0.0000322175996425
 20
14.21509367039992
  0
LINE
  5
9B1
330
1F
100
AcDbEntity
  8
0
100
AcDbLine
 10
3.815566785600349
 20
34.86552819519992
 30
0.0
 11
3.815554396800347
 21
34.86601731039992
 31
0.0
  0
LINE
  5
9B2
330
1F
100
AcDbEntity
  8
0
100
AcDbLine
 10
3.815566785600349
 20
6.884471804799929
 30
0.0
 11
3.815554396800347
 21
6.883982691199932
 31
0.0
  0
LINE
  5
9B3
330
1F
100
AcDbEntity
  8
0
100
AcDbLine
 10
1.187467782400357
 20
6.413137017599922
 30
0.0
 11
1.184369744000345
 21
6.401223737599934
 31
0.0
  0
LINE
  5
9B4
330
1F
100
AcDbEntity
  8
0
100
AcDbLine
 10
-1.181157999999644
 20
6.399371537599932
 30
0.0
 11
-1.181730471999646
 21
6.398032551999932
 31
0.0
  0
LINE
  5
9B5
330
1F
100
AcDbEntity
  8
0
100
AcDbLine
 10
-2.703379446399654
 20
6.406441735999933
 30
0.0
 11
-2.677938105599654
 21
6.446773055999926
 31
0.0
  0
LINE
  5
9B6
330
1F
100
AcDbEntity
  8
0
100
AcDbLine
 10
-2.703379446399654
 20
35.34355826559992
 30
0.0
 11
-2.677938105599654
 21
35.30322694399991
 31
0.0
  0
LWPOLYLINE
  5
9B8
330
1F
100
AcDbEntity
  8
0
100
AcDbPolyline
 90
        3
 70
     0
 43
0.0
 10
-4.612581782399647
 20
6.343259222399922
 10
-4.613849814399646
 20
6.341864295999926
 10
-4.63178166559965
 20
6.331172625599933
  0
LWPOLYLINE
  5
9BA
330
1F
100
AcDbEntity
  8
0
100
AcDbPolyline
 90
        6
 70
     0
 43
0.0
 10
-4.61259658559965
 20
35.40674163199993
 10
-4.382137524799649
 20
35.14203699359991
 10
-4.041698529599646
 20
34.82569662719992
 10
-3.66378772479965
 20
34.55001230719993
 10
-3.253818619199652
 20
34.31881818239993
 10
-2.817615825599649
 20
34.13532255359992
  0
LINE
  5
9BB
330
1F
100
AcDbEntity
  8
0
100
AcDbLine
 10
1.184369744000345
 20
6.401223737599934
 30
0.0
 11
1.172149232000346
 21
6.386813081599925
 31
0.0
  0
LINE
  5
9BC
330
1F
100
AcDbEntity
  8
0
100
AcDbLine
 10
-1.166006134399641
 20
6.413773619199929
 30
0.0
 11
-1.181157999999644
 21
6.399371537599932
 31
0.0
  0
LWPOLYLINE
  5
9BD
330
1F
100
AcDbEntity
  8
0
100
AcDbPolyline
 90
        6
 70
     0
 43
0.0
 10
-4.331212884799644
 20
8.259944767999925
 10
-4.906648356799653
 20
7.925304596799932
 10
-5.439597689599654
 20
7.532756955199928
 10
-5.923681633599645
 20
7.087152927999923
 10
-6.353106951999652
 20
6.594006254399928
 10
-6.681109161599653
 20
6.126500647999932
  0
LWPOLYLINE
  5
9BE
330
1F
100
AcDbEntity
  8
0
100
AcDbPolyline
 90
        3
 70
     0
 43
0.0
 10
-4.63178166559965
 20
6.331172625599933
 10
-4.721620319999647
 20
6.290077190399927
 10
-4.807327070399654
 20
6.247804691199931
  0
LWPOLYLINE
  5
9BF
330
1F
100
AcDbEntity
  8
0
100
AcDbPolyline
 90
        6
 70
     0
 43
0.0
 10
-2.817615825599649
 20
7.614677446399923
 10
-3.253776222399654
 20
7.431202593599934
 10
-3.663756025599642
 20
7.200008086399932
 10
-4.04168810239965
 20
6.924311966399926
 10
-4.382150855999643
 20
6.607949041599923
 10
-4.61259658239965
 20
6.343258372799922
  0
LWPOLYLINE
  5
9C2
330
1F
100
AcDbEntity
  8
0
100
AcDbPolyline
 90
       10
 70
     0
 43
0.0
 10
-4.331212884799644
 20
33.49005523359993
 10
-3.42421103199965
 20
33.08518842079992
 10
-2.475700011199652
 20
32.77713242879993
 10
-1.497307545599643
 20
32.56969164159993
 10
-0.5008882223996418
 20
32.46536823839993
 10
0.5015334336003539
 20
32.46540528799993
 10
1.497849035200356
 20
32.56978731839991
 10
2.476033648000349
 20
32.77723893279993
 10
3.424281225600349
 20
33.08524015039994
 10
4.331148451200345
 20
33.49005523359993
  0
LWPOLYLINE
  5
9C3
330
1F
100
AcDbEntity
  8
0
100
AcDbPolyline
 90
        3
 70
     0
 43
0.0
 10
-4.807327070399654
 20
35.50219531039992
 10
-4.721628108799652
 20
35.45992650719993
 10
-4.63178166559965
 20
35.41882737439992
  0
LWPOLYLINE
  5
9C4
330
1F
100
AcDbEntity
  8
0
100
AcDbPolyline
 90
        6
 70
     0
 43
0.0
 10
-4.331212884799644
 20
33.49005523359993
 10
-4.906649163199649
 20
33.82469593279994
 10
-5.439599169599649
 20
34.21724426559991
 10
-5.923683627199654
 20
34.66284912159993
 10
-6.353109276799646
 20
35.15599673759992
 10
-6.681109161599653
 20
35.62349935199994
  0
LWPOLYLINE
  5
9C5
330
1F
100
AcDbEntity
  8
0
100
AcDbPolyline
 90
        3
 70
     0
 43
0.0
 10
-4.63178166559965
 20
35.41882737439992
 10
-4.61385198079964
 20
35.40813786559992
 10
-4.612581927999645
 20
35.40674079039992
  0
LWPOLYLINE
  5
9C6
330
1F
100
AcDbEntity
  8
0
100
AcDbPolyline
 90
       17
 70
     0
 43
0.0
 10
1.172149232000346
 20
6.386813081599925
 10
1.150776617600353
 20
6.372725171199931
 10
1.120393737600348
 20
6.359041065599924
 10
1.081309347200356
 20
6.345885980799934
 10
1.033717097600355
 20
6.333315756799933
 10
0.978083460800345
 20
6.321445595199932
 10
0.9147731216003583
 20
6.310340361599926
 10
0.8443271504003567
 20
6.300082766399924
 10
0.7673277488003512
 20
6.290741547199928
 10
0.6842514896003527
 20
6.282361745599928
 10
0.5958454816003459
 20
6.275006931199925
 10
0.5027065712003454
 20
6.268715111999924
 10
0.4060316208003448
 20
6.263548819199925
 10
0.3065080736003514
 20
6.259521017599922
 10
0.2051891968003579
 20
6.256650383999925
 10
0.1027004176003563
 20
6.254931958399922
 10
-0.0000322175996425
 20
6.254362051199933
  0
LWPOLYLINE
  5
9C7
330
1F
100
AcDbEntity
  8
0
100
AcDbPolyline
 90
        8
 70
     0
 43
0.0
 10
-4.807327070399654
 20
6.247804691199931
 10
-4.842380942399646
 20
6.234138076799922
 10
-4.898772731199645
 20
6.218776495999932
 10
-4.973647503999647
 20
6.202912134399923
 10
-5.061774123199644
 20
6.187733828799935
 10
-5.160591015999646
 20
6.173769545599924
 10
-5.262474183999646
 20
6.162151476799934
 10
-5.358127131199641
 20
6.153705143999928
  0
LINE
  5
9C8
330
1F
100
AcDbEntity
  8
0
100
AcDbLine
 10
-2.034080291199646
 20
7.850159073599925
 30
0.0
 11
-2.817615825599649
 21
7.614677446399923
 31
0.0
  0
LWPOLYLINE
  5
9C9
330
1F
100
AcDbEntity
  8
0
100
AcDbPolyline
 90
       60
 70
     0
 43
0.0
 10
-14.31320767679964
 20
31.99656190719993
 10
-14.48290669439964
 20
31.96337947999991
 10
-14.65038236799965
 20
31.92801911039991
 10
-14.81641884319964
 20
31.89036093759993
 10
-14.98165618079965
 20
31.85027474719992
 10
-15.14609801119965
 20
31.80776142079993
 10
-15.30986314879964
 20
31.76279055359994
 10
-15.47322006719965
 20
31.71528224479992
 10
-15.63610907679964
 20
31.66524736319992
 10
-15.79868790239964
 20
31.61263189119994
 10
-15.96110860319965
 20
31.55737328799993
 10
-16.12327861439964
 20
31.49948871999991
 10
-16.28506965439964
 20
31.43901313119993
 10
-16.44639088799964
 20
31.37597040159993
 10
-16.60709719839964
 20
31.31040820639994
 10
-16.76700692479965
 20
31.24239804639994
 10
-16.92607462079965
 20
31.17196012639992
 10
-17.08440339359964
 20
31.09904361759991
 10
-17.24193646079964
 20
31.02366342719993
 10
-17.39845309599964
 20
30.94591651679992
 10
-17.55384147519965
 20
30.86585419199993
 10
-17.70806815999964
 20
30.78348899199993
 10
-17.86100728639965
 20
30.69888338719993
 10
-18.01251567199964
 20
30.61211495679994
 10
-18.16238058559964
 20
30.52331011999992
 10
-18.31042135359964
 20
30.43258845439992
 10
-18.45649702879964
 20
30.34005515039992
 10
-18.60056521439964
 20
30.24575838239992
 10
-18.74261995039964
 20
30.14972223999992
 10
-18.88265452159965
 20
30.05197203999994
 10
-19.02063142079964
 20
29.95255538239992
 10
-19.15648513599965
 20
29.85154163359992
 10
-19.29011795199965
 20
29.74902874079994
 10
-19.42145594399965
 20
29.64510252479992
 10
-19.55046505919964
 20
29.53982114559993
 10
-19.67710620799964
 20
29.43324884639993
 10
-19.80132458879964
 20
29.32546622879992
 10
-19.92306885279965
 20
29.21655534399993
 10
-20.04231282719965
 20
29.10657948959992
 10
-20.15904012159964
 20
28.99559489759993
 10
-20.27321459039965
 20
28.88367895199992
 10
-20.38481266079965
 20
28.77090037599994
 10
-20.49384362399965
 20
28.65729619039992
 10
-20.60034067199965
 20
28.54287682719991
 10
-20.70430587359964
 20
28.42768747359993
 10
-20.80573983999964
 20
28.31177739039993
 10
-20.90464638239965
 20
28.19519246399993
 10
-21.00102390719964
 20
28.07798531039994
 10
-21.09481806399965
 20
27.96027674239992
 10
-21.18590134239965
 20
27.84229371199994
 10
-21.27424835199965
 20
27.72414783679993
 10
-21.35987436479964
 20
27.60590136639992
 10
-21.44279327039965
 20
27.48761957599994
 10
-21.52302042879965
 20
27.36936700159994
 10
-21.60059268159964
 20
27.25117637119991
 10
-21.67554609439964
 20
27.13307889119993
 10
-21.74791550399964
 20
27.01510484959992
 10
-21.81774424799964
 20
26.89726698079992
 10
-21.88508250079965
 20
26.77956049599991
 10
-21.94997719519964
 20
26.66197889919992
  0
LWPOLYLINE
  5
9CA
330
1F
100
AcDbEntity
  8
0
100
AcDbPolyline
 90
        4
 70
     0
 43
0.0
 10
-14.25895401599964
 20
32.00660754719992
 10
-14.27705476639964
 20
32.00328576319994
 10
-14.29513935359964
 20
31.99993721279993
 10
-14.31320767679964
 20
31.99656190719993
  0
LWPOLYLINE
  5
9CB
330
1F
100
AcDbEntity
  8
0
100
AcDbPolyline
 90
       12
 70
     0
 43
0.0
 10
-14.25895401599964
 20
33.05368355199992
 10
-14.85710265759965
 20
32.96820436159991
 10
-15.41327578239964
 20
32.86137489599993
 10
-15.96514323519965
 20
32.72741696159993
 10
-16.53959912959964
 20
32.55871739039993
 10
-17.13931054719964
 20
32.35222444319991
 10
-17.74824681439964
 20
32.11120951679991
 10
-18.35211815679965
 20
31.84009660639993
 10
-18.93840106559964
 20
31.54422890879992
 10
-19.49696462879964
 20
31.22935283199991
 10
-20.01962395839964
 20
30.90157529439993
 10
-20.50167797759964
 20
30.56608624959993
  0
LWPOLYLINE
  5
9CC
330
1F
100
AcDbEntity
  8
0
100
AcDbPolyline
 90
       14
 70
     0
 43
0.0
 10
12.69308442240035
 20
36.54709598239993
 10
11.44381684000034
 20
36.39847672479992
 10
10.31839675200034
 20
36.27737069119992
 10
9.301295092800355
 20
36.17839658879994
 10
8.379518456000351
 20
36.09733468639992
 10
7.54213891360035
 20
36.03085096799993
 10
6.779725296000346
 20
35.97627530399994
 10
6.084119019200354
 20
35.93145935359991
 10
5.448602036800348
 20
35.89469107199993
 10
4.867120408000356
 20
35.86456809919992
 10
4.333914964800353
 20
35.83992768319991
 10
3.843654438400346
 20
35.81982038719992
 10
3.394247504000357
 20
35.80357412959993
 10
2.985352163200357
 20
35.79066249439994
  0
LWPOLYLINE
  5
9CD
330
1F
100
AcDbEntity
  8
0
100
AcDbPolyline
 90
        4
 70
     0
 43
0.0
 10
14.68078061280035
 20
36.77690899839991
 10
14.01007942560035
 20
36.70360016479993
 10
13.34752981440035
 20
36.62689873279991
 10
12.69308442240035
 20
36.54709598239993
  0
LWPOLYLINE
  5
9CE
330
1F
100
AcDbEntity
  8
0
100
AcDbPolyline
 90
       27
 70
     0
 43
0.0
 10
-3.958253251199653
 20
33.32357379039992
 10
-4.338343807999653
 20
33.28573922239992
 10
-4.819813899199647
 20
33.23492519999992
 10
-5.311762603199642
 20
33.18139397919994
 10
-5.777970305599641
 20
33.12992625439993
 10
-6.231238587199644
 20
33.07949276159992
 10
-6.670805044799653
 20
33.03020751679993
 10
-7.095165526399643
 20
32.98229040479994
 10
-7.505328311999651
 20
32.93567031999994
 10
-7.903623171199651
 20
32.89008885759993
 10
-8.292807785599645
 20
32.84520452159993
 10
-8.676061044799649
 20
32.80058907519993
 10
-9.05601723199965
 20
32.75584186879992
 10
-9.433227622399645
 20
32.71077623359992
 10
-9.808715447999649
 20
32.66512313599993
 10
-10.18161354239965
 20
32.61884818399993
 10
-10.55178087519965
 20
32.57184505119993
 10
-10.92077784799964
 20
32.52377891359994
 10
-11.28921523199964
 20
32.47441735519991
 10
-11.65791369759965
 20
32.42348560319992
 10
-12.02790792479964
 20
32.37066168639994
 10
-12.39900361759965
 20
32.31578674879993
 10
-12.77068131519965
 20
32.25875754239992
 10
-13.14328877439964
 20
32.19934692959994
 10
-13.51630965599964
 20
32.13747399359992
 10
-13.88841850079964
 20
32.07322348479992
 10
-14.25895401599964
 20
32.00660761919992
  0
LWPOLYLINE
  5
9CF
330
1F
100
AcDbEntity
  8
0
100
AcDbPolyline
 90
       10
 70
     0
 43
0.0
 10
6.384843740800345
 20
35.20132042239991
 10
6.469124761600351
 20
35.20360741919994
 10
7.128025283200354
 20
35.23163147679993
 10
7.842220822400346
 20
35.27140418079993
 10
8.620383540800357
 20
35.32286795199992
 10
9.465779416000355
 20
35.38451177919994
 10
10.30240251360035
 20
35.44720001759994
 10
11.11038858080035
 20
35.50504810879992
 10
11.89258433760035
 20
35.55402918079993
 10
12.64627626560034
 20
35.59005833759993
  0
LWPOLYLINE
  5
9D0
330
1F
100
AcDbEntity
  8
0
100
AcDbPolyline
 90
       10
 70
     0
 43
0.0
 10
-6.384908382399647
 20
35.20132042719991
 10
-6.46918919519965
 20
35.20360741919994
 10
-7.128089716799653
 20
35.23163147679993
 10
-7.842285255999644
 20
35.27140418079993
 10
-8.620447974399649
 20
35.32286795199992
 10
-9.465843849599647
 20
35.38451177919994
 10
-10.30246694719965
 20
35.44720001759994
 10
-11.11045301599965
 20
35.50504810879992
 10
-11.89264877119964
 20
35.55402918079993
 10
-12.64634069919965
 20
35.59005833759993
  0
LWPOLYLINE
  5
9D1
330
1F
100
AcDbEntity
  8
0
100
AcDbPolyline
 90
        8
 70
     0
 43
0.0
 10
-5.358127131199641
 20
35.59629485759991
 10
-5.262474183999646
 20
35.58784852479992
 10
-5.160591015999646
 20
35.57623045599992
 10
-5.061774123199644
 20
35.56226617279993
 10
-4.973647503999647
 20
35.54708786719992
 10
-4.898772731199645
 20
35.53122350399992
 10
-4.842380942399646
 20
35.51586192479992
 10
-4.807327070399654
 20
35.50219531039992
  0
LWPOLYLINE
  5
9D2
330
1F
100
AcDbEntity
  8
0
100
AcDbPolyline
 90
        4
 70
     0
 43
0.0
 10
-14.68084504639965
 20
36.77690899839991
 10
-14.01014385919964
 20
36.70360016479993
 10
-13.34759424799965
 20
36.62689873279991
 10
-12.69314885599964
 20
36.54709598239993
  0
LWPOLYLINE
  5
9D3
330
1F
100
AcDbEntity
  8
0
100
AcDbPolyline
 90
       14
 70
     0
 43
0.0
 10
-12.69314885599964
 20
36.54709598239993
 10
-11.44388127519964
 20
36.39847672479992
 10
-10.31846118559964
 20
36.27737069119992
 10
-9.301359526399647
 20
36.17839658879994
 10
-8.37958288959965
 20
36.09733468639992
 10
-7.542203348799649
 20
36.03085096799993
 10
-6.779789729599645
 20
35.97627530399994
 10
-6.084183452799653
 20
35.93145935359991
 10
-5.448666470399647
 20
35.89469107199993
 10
-4.867184841599641
 20
35.86456809919992
 10
-4.333979398399652
 20
35.83992768319991
 10
-3.843718871999644
 20
35.81982038719992
 10
-3.394311937599642
 20
35.80357412959993
 10
-2.985416596799641
 20
35.79066249439994
  0
LWPOLYLINE
  5
9D4
330
1F
100
AcDbEntity
  8
0
100
AcDbPolyline
 90
       12
 70
     0
 43
0.0
 10
14.25888958240035
 20
33.05368355199992
 10
14.85703822400036
 20
32.96820436159991
 10
15.41321134880035
 20
32.86137489599993
 10
15.96507880160035
 20
32.72741696159993
 10
16.53953469440035
 20
32.55871739039993
 10
17.13924611360034
 20
32.35222444319991
 10
17.74818238080035
 20
32.11120951679991
 10
18.35205372320035
 20
31.84009660639993
 10
18.93833663200035
 20
31.54422890879992
 10
19.49690019520035
 20
31.22935283199991
 10
20.01955952480035
 20
30.90157529439993
 10
20.50161354400034
 20
30.56608624959993
  0
LWPOLYLINE
  5
9D5
330
1F
100
AcDbEntity
  8
0
100
AcDbPolyline
 90
       27
 70
     0
 43
0.0
 10
14.25888958240035
 20
32.00660761919992
 10
13.88747139520034
 20
32.07337898399991
 10
13.51435529120035
 20
32.13779375999992
 10
13.14035918880035
 20
32.19981270719994
 10
12.76682399360035
 20
32.25935051199992
 10
12.39419248320035
 20
32.31650133279991
 10
12.02219579200035
 20
32.37148174879992
 10
11.65140384000035
 20
32.42439011199993
 10
11.28183592160035
 20
32.47541173759994
 10
10.91250804800035
 20
32.52486205599991
 10
10.54261406880035
 20
32.57301480159993
 10
10.17154405280035
 20
32.62010317759991
 10
9.797631998400358
 20
32.66647565279992
 10
9.421162624000356
 20
32.71222135519993
 10
9.042845756800357
 20
32.75739542879994
 10
8.661879233600355
 20
32.80224102399994
 10
8.277252172800356
 20
32.84699856959993
 10
7.886292819200345
 20
32.89207172799992
 10
7.486568827200354
 20
32.93780200799993
 10
7.074925956800353
 20
32.98457573279994
 10
6.649011177600353
 20
33.03265243999992
 10
6.207789219200346
 20
33.08210419839993
 10
5.752482440000346
 20
33.13274376639994
 10
5.283710390400354
 20
33.18446743519992
 10
4.788064459200352
 20
33.23832809279993
 10
4.315616128000353
 20
33.28806879839992
 10
3.958118041600354
 20
33.32353875519991
  0
LWPOLYLINE
  5
9D6
330
1F
100
AcDbEntity
  8
0
100
AcDbPolyline
 90
        4
 70
     0
 43
0.0
 10
14.31314324320035
 20
31.99656190719993
 10
14.29507495520034
 20
31.99993720639993
 10
14.27699037120035
 20
32.00328575519994
 10
14.25888958240035
 20
32.00660754719992
  0
LWPOLYLINE
  5
9D7
330
1F
100
AcDbEntity
  8
0
100
AcDbPolyline
 90
        7
 70
     0
 43
0.0
 10
-2.817615825599649
 20
34.13532255359992
 10
-2.034125001599651
 20
33.89985201279994
 10
-1.229188881599643
 20
33.74148122399994
 10
-0.4112529855996494
 20
33.66186911039993
 10
0.4110417856003571
 20
33.66186198719994
 10
1.229011593600357
 20
33.74146467519993
 10
2.034015857600348
 20
33.89984092639993
  0
LWPOLYLINE
  5
9D8
330
1F
100
AcDbEntity
  8
0
100
AcDbPolyline
 90
       18
 70
     0
 43
0.0
 10
16.86611593280035
 20
10.61892469919992
 10
17.01720640000035
 20
10.68816478559992
 10
17.16706054560034
 20
10.75940231839993
 10
17.31647784160035
 20
10.83302355359992
 10
17.46564770880035
 20
10.90915375679992
 10
17.61414291840035
 20
10.98760738239992
 10
17.76132887200035
 20
11.06806143679992
 10
17.90633309760035
 20
11.15001156479992
 10
18.04893557600035
 20
11.23327491199992
 10
18.19021613760035
 20
11.31844970399993
 10
18.33106319200035
 20
11.40609925919993
 10
18.47042813280034
 20
11.49560006239993
 10
18.60798012960034
 20
11.58673133119992
 10
18.74369674080035
 20
11.67945997279993
 10
18.87766796320034
 20
11.77382983359993
 10
19.00987156000034
 20
11.86981146239992
 10
19.14016792480034
 20
11.96728713919992
 10
19.26849954400034
 20
12.06619334239992
  0
LWPOLYLINE
  5
9D9
330
1F
100
AcDbEntity
  8
0
100
AcDbPolyline
 90
       16
 70
     0
 43
0.0
 10
5.400231801600352
 20
7.561704606399928
 10
5.700732225600358
 20
7.668791958399935
 10
6.218418131200348
 20
7.82624501279993
 10
6.783065632000354
 20
7.970290511999934
 10
7.396924056000354
 20
8.100165412799924
 10
8.060748684800355
 20
8.214588078399927
 10
8.764236038400351
 20
8.311137518399931
 10
9.408591891200355
 20
8.380883483199923
 10
9.983083660800357
 20
8.430465135999924
 10
10.51226040000035
 20
8.467361417599931
 10
11.04708512160035
 20
8.497757604799929
 10
11.59563310080035
 20
8.52388287839993
 10
12.17017582720035
 20
8.54889894719993
 10
12.79980626240035
 20
8.578655054399931
 10
13.52326053280034
 20
8.624736177599928
 10
14.25888958240035
 20
8.696316454399934
  0
LWPOLYLINE
  5
9DA
330
1F
100
AcDbEntity
  8
0
100
AcDbPolyline
 90
       22
 70
     0
 43
0.0
 10
-2.677938105599654
 20
35.30322694399991
 10
-2.710608910399646
 20
35.29720816959992
 10
-2.74347875519965
 20
35.29031609759992
 10
-2.776541220799646
 20
35.28261649759993
 10
-2.809763063999643
 20
35.27417560319993
 10
-2.843318121599654
 20
35.26499802079992
 10
-2.878200372799643
 20
35.25482488159993
 10
-2.915363195199649
 20
35.24334147199992
 10
-2.955832751999654
 20
35.23015132159993
 10
-3.000817651199643
 20
35.21473633279991
 10
-3.051523347199651
 20
35.19651543519994
 10
-3.109404067199651
 20
35.17475560799992
 10
-3.175889871999647
 20
35.14867170079993
 10
-3.248804043199644
 20
35.11893502879992
 10
-3.323840518399652
 20
35.08730874079994
 10
-3.397565798399643
 20
35.05540736799993
 10
-3.469666694399652
 20
35.02356681759993
 10
-3.539983303999651
 20
34.99202420319993
 10
-3.608800783999644
 20
34.96078655359993
 10
-3.677035444799646
 20
34.92953924639992
 10
-3.745669708799642
 20
34.89790877439993
 10
-3.987345097599646
 20
34.78604603039993
  0
LINE
  5
9DB
330
1F
100
AcDbEntity
  8
0
100
AcDbLine
 10
12.64723638720034
 20
36.93649966719992
 30
0.0
 11
12.67417721600035
 21
36.93988711359994
 31
0.0
  0
LWPOLYLINE
  5
9DC
330
1F
100
AcDbEntity
  8
0
100
AcDbPolyline
 90
        4
 70
     0
 43
0.0
 10
12.67417721600035
 20
36.93988711359994
 10
13.33036021440035
 20
37.02037107679991
 10
13.98703690560036
 20
37.09703242079992
 10
14.64424441280035
 20
37.16987428479991
  0
LINE
  5
9DD
330
1F
100
AcDbEntity
  8
0
100
AcDbLine
 10
14.64424441280035
 20
37.16987428479991
 30
0.0
 11
14.66686948320035
 21
37.17229764479994
 31
0.0
  0
LWPOLYLINE
  5
9DE
330
1F
100
AcDbEntity
  8
0
100
AcDbPolyline
 90
       13
 70
     0
 43
0.0
 10
14.66686948320035
 20
37.17229764479994
 10
15.51599557920034
 20
37.23806539679994
 10
16.45653318720034
 20
37.25413024319992
 10
17.49534116160034
 20
37.20264221439991
 10
18.64179355840034
 20
37.06057688479994
 10
19.87599920480034
 20
36.80460662719993
 10
21.11069300320035
 20
36.43592942399992
 10
22.33011832800035
 20
35.95231740479992
 10
23.49973123040035
 20
35.36432112319992
 10
24.51129781440034
 20
34.74467423199992
 10
25.36790364640034
 20
34.12698911679992
 10
26.09456406080035
 20
33.52482324639991
 10
26.71586488960035
 20
32.94307621919994
  0
LINE
  5
9DF
330
1F
100
AcDbEntity
  8
0
100
AcDbLine
 10
6.086214166400349
 20
35.65114599199993
 30
0.0
 11
5.358062697600356
 21
35.59629485759991
 31
0.0
  0
LWPOLYLINE
  5
9E0
330
1F
100
AcDbEntity
  8
0
100
AcDbPolyline
 90
       13
 70
     0
 43
0.0
 10
-3.815631215999648
 20
35.22722560959993
 10
-3.715204799999643
 20
35.23427512959993
 10
-3.617039092799647
 20
35.24175095839992
 10
-3.520081951999646
 20
35.24972388799993
 10
-3.423440484799645
 20
35.25827551039994
 10
-3.328393785599647
 20
35.26729741119992
 10
-3.23464450399965
 20
35.27681309759994
 10
-3.142011347199645
 20
35.28684077439992
 10
-3.051438839999651
 20
35.29726998879992
 10
-2.962755451199644
 20
35.30810361279994
 10
-2.875247974399645
 20
35.31942067039993
 10
-2.78870820319965
 20
35.33124961919993
 10
-2.703379446399654
 20
35.34355826559992
  0
LWPOLYLINE
  5
9E1
330
1F
100
AcDbEntity
  8
0
100
AcDbPolyline
 90
        9
 70
     0
 43
0.0
 10
6.086214166400349
 20
35.65114599199993
 10
6.220259625600345
 20
35.65985050719992
 10
6.347887774400359
 20
35.66508580959991
 10
6.462492027200351
 20
35.66623152479992
 10
6.556023772800354
 20
35.66306566239991
 10
6.623708720000347
 20
35.65602877919992
 10
6.666535758400353
 20
35.64534633599992
 10
6.682985862400354
 20
35.63106925119992
 10
6.680986929600347
 20
35.62349583999993
  0
LWPOLYLINE
  5
9E2
330
1F
100
AcDbEntity
  8
0
100
AcDbPolyline
 90
       19
 70
     0
 43
0.0
 10
-14.47632570559964
 20
35.59608082879994
 10
-15.12016247039964
 20
35.55487911999994
 10
-15.68562135519964
 20
35.49178222559992
 10
-16.18911418079964
 20
35.40989843039993
 10
-16.64287660159964
 20
35.31147923839994
 10
-17.05547933759964
 20
35.19823445919992
 10
-17.43526160639964
 20
35.07080268959991
 10
-17.78881748959964
 20
34.92925077759993
 10
-18.12132178879965
 20
34.77319471839992
 10
-18.44348482079965
 20
34.59823005599993
 10
-18.76372980479964
 20
34.39936960479993
 10
-19.08482323039964
 20
34.17335063519992
 10
-19.41771819039965
 20
33.90971137119992
 10
-19.76468855039965
 20
33.60257721279994
 10
-20.12435861599965
 20
33.24841888959993
 10
-20.49639639999965
 20
32.84222494719994
 10
-20.88053336319965
 20
32.37820612639991
 10
-21.27656803359964
 20
31.84953905119992
 10
-21.68401690079965
 20
31.24870332159993
  0
LWPOLYLINE
  5
9E3
330
1F
100
AcDbEntity
  8
0
100
AcDbPolyline
 90
        3
 70
     0
 43
0.0
 10
-3.815631215999648
 20
35.22722560959993
 10
-4.27508359679965
 20
35.20211152319991
 10
-4.430222609599642
 20
35.19726738879991
  0
LWPOLYLINE
  5
9E4
330
1F
100
AcDbEntity
  8
0
100
AcDbPolyline
 90
        5
 70
     0
 43
0.0
 10
2.98892538720035
 20
36.18788188159992
 10
5.078163998400352
 20
36.27115127839992
 10
7.372852900800349
 20
36.41246932319994
 10
9.886348395200354
 20
36.62742278399993
 10
12.64723638720034
 20
36.93649966719992
  0
LWPOLYLINE
  5
9E5
330
1F
100
AcDbEntity
  8
0
100
AcDbPolyline
 90
        4
 70
     0
 43
0.0
 10
12.64627626560034
 20
35.59005833759993
 10
13.26759879360035
 20
35.60779808959994
 10
13.87895794080035
 20
35.61088082879992
 10
14.47626127040035
 20
35.59608082559994
  0
LWPOLYLINE
  5
9E6
330
1F
100
AcDbEntity
  8
0
100
AcDbPolyline
 90
        4
 70
     0
 43
0.0
 10
2.985352163200357
 20
35.79066249439994
 10
1.990374457600349
 20
35.76633741439993
 10
0.9952362016003453
 20
35.75174175679991
 10
-0.0000322175996425
 20
35.74687600159991
  0
LWPOLYLINE
  5
9E7
330
1F
100
AcDbEntity
  8
0
100
AcDbPolyline
 90
        5
 70
     0
 43
0.0
 10
-0.0000322175996425
 20
36.14375955519993
 10
0.7667801952003507
 20
36.14666520319993
 10
1.476936059200351
 20
36.15453600639993
 10
2.203413640000345
 20
36.16774002239994
 10
2.98892538720035
 20
36.18788188159992
  0
LWPOLYLINE
  5
9E8
330
1F
100
AcDbEntity
  8
0
100
AcDbPolyline
 90
        4
 70
     0
 43
0.0
 10
-2.985416596799641
 20
35.79066249439994
 10
-1.990438875199647
 20
35.76633741439993
 10
-0.9953006015996416
 20
35.75174175519991
 10
-0.0000322175996425
 20
35.74687600159991
  0
LWPOLYLINE
  5
9E9
330
1F
100
AcDbEntity
  8
0
100
AcDbPolyline
 90
        5
 70
     0
 43
0.0
 10
-2.988989820799648
 20
36.18788188159992
 10
-2.195322073599644
 20
36.16756285919992
 10
-1.468548911999651
 20
36.15441305919993
 10
-0.7622166639996417
 20
36.14663024319993
 10
-0.0000322175996425
 20
36.14375955519993
  0
LWPOLYLINE
  5
9EA
330
1F
100
AcDbEntity
  8
0
100
AcDbPolyline
 90
        4
 70
     0
 43
0.0
 10
-12.64634069919965
 20
35.59005833759993
 10
-13.26766322719964
 20
35.60779808959994
 10
-13.87902237439964
 20
35.61088082879992
 10
-14.47632570559964
 20
35.59608082559994
  0
LWPOLYLINE
  5
9EB
330
1F
100
AcDbEntity
  8
0
100
AcDbPolyline
 90
        3
 70
     0
 43
0.0
 10
3.815566782400349
 20
35.22722560959993
 10
4.275019163200351
 20
35.20211152319991
 10
4.430159080000347
 20
35.19726735999994
  0
LWPOLYLINE
  5
9EC
330
1F
100
AcDbEntity
  8
0
100
AcDbPolyline
 90
       19
 70
     0
 43
0.0
 10
14.47626127200035
 20
35.59608082879994
 10
15.12009803680035
 20
35.55487911999994
 10
15.68555692160034
 20
35.49178222559992
 10
16.18904974720035
 20
35.40989843039993
 10
16.64281216800035
 20
35.31147923839994
 10
17.05541490400035
 20
35.19823445919992
 10
17.43519717280035
 20
35.07080268959991
 10
17.78875305600035
 20
34.92925077759993
 10
18.12125735520035
 20
34.77319471839992
 10
18.44342038720035
 20
34.59823005599993
 10
18.76366537120035
 20
34.39936960479993
 10
19.08475879680035
 20
34.17335063519992
 10
19.41765375520035
 20
33.90971137119992
 10
19.76462411520035
 20
33.60257721279994
 10
20.12429418240035
 20
33.24841888959993
 10
20.49633196480035
 20
32.84222494719994
 10
20.88046892960035
 20
32.37820612639991
 10
21.27650360000035
 20
31.84953905119992
 10
21.68395246720035
 20
31.24870332159993
  0
LWPOLYLINE
  5
9ED
330
1F
100
AcDbEntity
  8
0
100
AcDbPolyline
 90
        9
 70
     0
 43
0.0
 10
-6.086278601599648
 20
35.65114599199993
 10
-6.220750163199642
 20
35.65987339999994
 10
-6.348411147199644
 20
35.66509807199993
 10
-6.462878310399648
 20
35.66622835039992
 10
-6.556266649599653
 20
35.66305415039993
 10
-6.623866332799654
 20
35.65601382719994
 10
-6.666645555199654
 20
35.64532746719992
 10
-6.683052969599646
 20
35.63105093599993
 10
-6.681051303999641
 20
35.62349583679993
  0
LWPOLYLINE
  5
9EE
330
1F
100
AcDbEntity
  8
0
100
AcDbPolyline
 90
       13
 70
     0
 43
0.0
 10
3.815566782400349
 20
35.22722560959993
 10
3.715140366400358
 20
35.23427512959993
 10
3.616974659200348
 20
35.24175095839992
 10
3.520017518400347
 20
35.24972388799993
 10
3.423376051200346
 20
35.25827551039994
 10
3.328329352000348
 20
35.26729741119992
 10
3.234580070400351
 20
35.27681309759994
 10
3.141946912000346
 20
35.28684077439992
 10
3.051374406400352
 20
35.29726998879992
 10
2.962691017600345
 20
35.30810361279994
 10
2.875183539200346
 20
35.31942067039993
 10
2.788643769600351
 20
35.33124961919993
 10
2.703315012800356
 20
35.34355826559992
  0
LINE
  5
9EF
330
1F
100
AcDbEntity
  8
0
100
AcDbLine
 10
-6.086278601599648
 20
35.65114599199993
 30
0.0
 11
-5.358127131199641
 21
35.59629485759991
 31
0.0
  0
LINE
  5
9F0
330
1F
100
AcDbEntity
  8
0
100
AcDbLine
 10
-14.66693391839964
 20
37.17229764479994
 30
0.0
 11
-14.64430884639964
 21
37.16987428479991
 31
0.0
  0
LWPOLYLINE
  5
9F1
330
1F
100
AcDbEntity
  8
0
100
AcDbPolyline
 90
        4
 70
     0
 43
0.0
 10
-14.64430884639964
 20
37.16987428479991
 10
-13.98710133919965
 20
37.09703242079992
 10
-13.33042464799964
 20
37.02037107679991
 10
-12.67424165119964
 20
36.93988711359994
  0
LWPOLYLINE
  5
9F2
330
1F
100
AcDbEntity
  8
0
100
AcDbPolyline
 90
        5
 70
     0
 43
0.0
 10
-12.64730082239964
 20
36.93649966719992
 10
-9.851240844799651
 20
36.62397930719992
 10
-7.334396364799648
 20
36.40966519679993
 10
-5.05739486399965
 20
36.27010759839992
 10
-2.988989820799648
 20
36.18788188159992
  0
LINE
  5
9F3
330
1F
100
AcDbEntity
  8
0
100
AcDbLine
 10
-12.67424165119964
 20
36.93988711359994
 30
0.0
 11
-12.64730082239964
 21
36.93649966719992
 31
0.0
  0
LWPOLYLINE
  5
9F4
330
1F
100
AcDbEntity
  8
0
100
AcDbPolyline
 90
       22
 70
     0
 43
0.0
 10
2.677873672000355
 20
35.30322694399991
 10
2.710544476800347
 20
35.29720816959992
 10
2.743414321600351
 20
35.29031609759992
 10
2.776476785600348
 20
35.28261649759993
 10
2.809698630400358
 20
35.27417560319993
 10
2.843253688000356
 20
35.26499802079992
 10
2.878135937600358
 20
35.25482488159993
 10
2.91529876160035
 20
35.24334147199992
 10
2.955768318400355
 20
35.23015132159993
 10
3.000753217600358
 20
35.21473633279991
 10
3.051458913600352
 20
35.19651543519994
 10
3.109339632000352
 20
35.17475560799992
 10
3.175825438400348
 20
35.14867170079993
 10
3.248739609600345
 20
35.11893502879992
 10
3.323776084800353
 20
35.08730874079994
 10
3.397501364800358
 20
35.05540736799993
 10
3.469602260800353
 20
35.02356681759993
 10
3.539918868800352
 20
34.99202420319993
 10
3.608736350400345
 20
34.96078655359993
 10
3.676971009600347
 20
34.92953924639992
 10
3.745605275200357
 20
34.89790877439993
 10
3.987281043200351
 20
34.78604585439991
  0
LWPOLYLINE
  5
9F5
330
1F
100
AcDbEntity
  8
0
100
AcDbPolyline
 90
       16
 70
     0
 43
0.0
 10
5.400231907200346
 20
34.18829535679994
 10
5.700732225600358
 20
34.08120804159993
 10
6.218418131200348
 20
33.92375498719992
 10
6.783065632000354
 20
33.77970948799994
 10
7.396924056000354
 20
33.64983458719992
 10
8.060748684800355
 20
33.53541192319993
 10
8.764236038400351
 20
33.43886248319994
 10
9.408591891200355
 20
33.36911651679993
 10
9.983083660800357
 20
33.31953486559992
 10
10.51226040000035
 20
33.28263858399994
 10
11.04708512160035
 20
33.25224239679993
 10
11.59563310080035
 20
33.22611712319992
 10
12.17017582720035
 20
33.20110105279992
 10
12.79980626240035
 20
33.17134494559992
 10
13.52326053280034
 20
33.12526382239993
 10
14.25888958240035
 20
33.05368354559992
  0
LWPOLYLINE
  5
9F6
330
1F
100
AcDbEntity
  8
0
100
AcDbPolyline
 90
       27
 70
     0
 43
0.0
 10
19.26849954400034
 20
12.06619334239992
 10
19.40149739200034
 20
12.17185561599993
 10
19.53222775520035
 20
12.27898539519992
 10
19.66060468640035
 20
12.38748291999992
 10
19.78655244960034
 20
12.49725043199993
 10
19.91002200320035
 20
12.60820792479992
 10
20.03097671040034
 20
12.72028280319993
 10
20.14939535200034
 20
12.83341421439992
 10
20.26524810560034
 20
12.94753099519992
 10
20.37848729120035
 20
13.06254053599992
 10
20.48911326080034
 20
13.17839540799992
 10
20.59716511680035
 20
13.29508880799993
 10
20.70265894400035
 20
13.41258855999993
 10
20.80560182880034
 20
13.53085363039993
 10
20.90597349280035
 20
13.64981100959993
 10
21.00373624800034
 20
13.76936299199992
 10
21.09884676160035
 20
13.88939837919993
 10
21.19118771520035
 20
14.00970014879992
 10
21.28073176160034
 20
14.13015277119993
 10
21.36746824640034
 20
14.25065663199993
 10
21.45139684480035
 20
14.37112167199993
 10
21.53252937600035
 20
14.49147202079993
 10
21.61090640160035
 20
14.61167442079992
 10
21.68655695520035
 20
14.73168050559992
 10
21.75951531520035
 20
14.85145186559992
 10
21.82982334080035
 20
14.97096569439992
 10
21.89752124960035
 20
15.09020080319993
  0
LWPOLYLINE
  5
A01
330
1F
100
AcDbEntity
  8
0
100
AcDbPolyline
 90
       36
 70
     0
 43
0.0
 10
21.90933164160035
 20
15.11145062239992
 10
21.99059663520035
 20
15.26059386719992
 10
22.06978788640034
 20
15.41112145919993
 10
22.14686556960034
 20
15.56296695359992
 10
22.22178845760035
 20
15.71605600159992
 10
22.29450895840035
 20
15.87029421919993
 10
22.36498351840034
 20
16.02558150879993
 10
22.43321362720035
 20
16.18191031679993
 10
22.49918992960036
 20
16.33925213439992
 10
22.56289107840035
 20
16.49754954559992
 10
22.62429889440034
 20
16.65674676959993
 10
22.68340489760034
 20
16.81680975039992
 10
22.74020781280034
 20
16.97772503679992
 10
22.79471726400035
 20
17.13951428799993
 10
22.84692720960034
 20
17.30215483999993
 10
22.89682451360034
 20
17.46560259039992
 10
22.94439587520035
 20
17.62981234399993
 10
22.98962675040035
 20
17.79472911679992
 10
23.03250552480035
 20
17.96029708159993
 10
23.07302376160035
 20
18.12646947839992
 10
23.11117645920034
 20
18.29321459039992
 10
23.14696096320035
 20
18.46051122719993
 10
23.18037349760035
 20
18.62833101439993
 10
23.21140966240035
 20
18.79664374879992
 10
23.24006623040035
 20
18.96542818879993
 10
23.26633973600035
 20
19.13466128959993
 10
23.29022898080034
 20
19.30433703519993
 10
23.31172703360034
 20
19.47441711199992
 10
23.33082220000035
 20
19.64481705279992
 10
23.34750952320035
 20
19.81547599519993
 10
23.36178837280035
 20
19.98635979999993
 10
23.37365966720035
 20
20.15747410079993
 10
23.38311872320035
 20
20.32877228959992
 10
23.39016224160034
 20
20.50021116479993
 10
23.39478905600034
 20
20.67177579039993
 10
23.39699767680035
 20
20.84345802719993
  0
LINE
  5
A02
330
1F
100
AcDbEntity
  8
0
100
AcDbLine
 10
21.89752124960035
 20
15.09020080319993
 30
0.0
 11
21.90933167840034
 21
15.11145060159992
 31
0.0
  0
LWPOLYLINE
  5
A06
330
1F
100
AcDbEntity
  8
0
100
AcDbPolyline
 90
       60
 70
     0
 43
0.0
 10
21.94991276160035
 20
26.66197889919992
 10
21.88502635040034
 20
26.77954575679992
 10
21.81768996640034
 20
26.89724954719993
 10
21.74785768000034
 20
27.01509388479992
 10
21.67548230400035
 20
27.13307785919992
 10
21.60052223840035
 20
27.25118568479992
 10
21.52294321280035
 20
27.36938615679993
 10
21.44270805120035
 20
27.48764971359993
 10
21.35977738720034
 20
27.60594704319991
 10
21.27414677280034
 20
27.72419831519993
 10
21.18580345280035
 20
27.84233774559992
 10
21.09473809600035
 20
27.96029655039991
 10
21.00097882240035
 20
28.07796140479992
 10
20.90459248320035
 20
28.19517985279993
 10
20.80568212160035
 20
28.31176959519992
 10
20.70426459360035
 20
28.42766142079993
 10
20.60032550400034
 20
28.54282307519993
 10
20.49385953600035
 20
28.65721118079993
 10
20.38484528480034
 20
28.77080077759991
 10
20.27324249600034
 20
28.88358704639994
 10
20.15906029440035
 20
28.99551321599993
 10
20.04234019040035
 20
29.10649352639991
 10
19.92310531200035
 20
29.21646369599993
 10
19.80135806880035
 20
29.32537995999992
 10
19.67712810560035
 20
29.43317507199994
 10
19.55047692960034
 20
29.53975790879992
 10
19.42144425920035
 20
29.64506013599994
 10
19.29007590080035
 20
29.74901130079992
 10
19.15642854080034
 20
29.85153571199991
 10
19.02057018880034
 20
29.95255303679992
 10
18.88259418240035
 20
30.05196913439992
 10
18.74257664000034
 20
30.14970772639994
 10
18.60052141440035
 20
30.24574465599993
 10
18.45643462560034
 20
30.34005384319992
 10
18.31034214400035
 20
30.43259765919994
 10
18.16229018560035
 20
30.52332576799993
 10
18.01246911200035
 20
30.61210454399993
 10
17.86106513280034
 20
30.69881455359992
 10
17.70821966880035
 20
30.78337160639994
 10
17.55407048000035
 20
30.86570024639992
 10
17.39868891360035
 20
30.94576459999991
 10
17.24215252000035
 20
31.02352665759993
 10
17.08457320640034
 20
31.09893363839994
 10
16.92618892960035
 20
31.17187939519992
 10
16.76709517760035
 20
31.24233177279994
 10
16.60719435200034
 20
31.31034088639994
 10
16.44656968960034
 20
31.37587326079993
 10
16.28530932320034
 20
31.43889687839991
 10
16.12350935680035
 20
31.49938087359991
 10
15.96129047360035
 20
31.55728743359993
 10
15.79882127360034
 20
31.61256623679993
 10
15.63624972640034
 20
31.66518267999991
 10
15.47323416000035
 20
31.71525876799994
 10
15.30969732800035
 20
31.76281921759992
 10
15.14590294880035
 20
31.80779623679991
 10
14.98148928640035
 20
31.85030041759993
 10
14.81618726080035
 20
31.89040016479994
 10
14.65008541920034
 20
31.92807002079992
 10
14.48263674080035
 20
31.96342127039993
 10
14.31314324320035
 20
31.99656190719993
  0
LINE
  5
A07
330
1F
100
AcDbEntity
  8
0
100
AcDbLine
 10
21.95923771680035
 20
26.64472607359992
 30
0.0
 11
21.94991279360035
 21
26.66197891839992
 31
0.0
  0
LWPOLYLINE
  5
A08
330
1F
100
AcDbEntity
  8
0
100
AcDbPolyline
 90
       11
 70
     0
 43
0.0
 10
24.55904249920035
 20
20.87500168799992
 10
24.54519854240035
 20
21.54368060479993
 10
24.50334376640034
 20
22.21784966559992
 10
24.43316404160034
 20
22.89448452319993
 10
24.33479317120035
 20
23.56944729439993
 10
24.20887797280034
 20
24.23843689759992
 10
24.05639943840036
 20
24.89798340639991
 10
23.87856680160035
 20
25.54526341439994
 10
23.67680416800035
 20
26.17782307039992
 10
23.45295291200035
 20
26.79302016319992
 10
23.20894104640035
 20
27.38887921919992
  0
LWPOLYLINE
  5
A09
330
1F
100
AcDbEntity
  8
0
100
AcDbPolyline
 90
       35
 70
     0
 43
0.0
 10
23.39714034400034
 20
20.87500041279993
 10
23.39643545120035
 20
21.05116563679992
 10
23.39318231680034
 20
21.22735228959993
 10
23.38737950560034
 20
21.40353347519993
 10
23.37902604640035
 20
21.57967779519992
 10
23.36812232640034
 20
21.75574589919992
 10
23.35466980480034
 20
21.93169413279993
 10
23.33867046560035
 20
22.10746755199993
 10
23.32012355200034
 20
22.28303578879993
 10
23.29902914720035
 20
22.45836727199993
 10
23.27538982880035
 20
22.63342201439992
 10
23.24920838240035
 20
22.80815761439993
 10
23.22048725760035
 20
22.98253374079992
 10
23.18922966400034
 20
23.15651170079992
 10
23.15543980320034
 20
23.33005097439992
 10
23.11912176160034
 20
23.50311175039992
 10
23.08027985280035
 20
23.67565483839993
 10
23.03891490560034
 20
23.84766042399992
 10
22.99503775200035
 20
24.01906527839993
 10
22.94865702560035
 20
24.18981682559993
 10
22.89977804800035
 20
24.35987878559991
 10
22.84840562880034
 20
24.52922287679992
 10
22.79454467520035
 20
24.69781745919992
 10
22.73820301440035
 20
24.86561958239993
 10
22.67939016800034
 20
25.03258539999992
 10
22.61811196160034
 20
25.19868608639991
 10
22.55438009600035
 20
25.36387671679993
 10
22.48820824480036
 20
25.52810930239992
 10
22.41960954720034
 20
25.69134099199992
 10
22.34860422560035
 20
25.85351381439993
 10
22.27526891040035
 20
26.01445007359991
 10
22.19963546400034
 20
26.17408680959993
 10
22.12173147840034
 20
26.33237889759992
 10
22.04158855040036
 20
26.48927492639991
 10
21.95923771680035
 20
26.64472607359992
  0
LINE
  5
A0A
330
1F
100
AcDbEntity
  8
0
100
AcDbLine
 10
23.39699767680035
 20
20.84345802719993
 30
0.0
 11
23.39714034400034
 21
20.87500041279993
 31
0.0
  0
LWPOLYLINE
  5
A0B
330
1F
100
AcDbEntity
  8
0
100
AcDbPolyline
 90
       10
 70
     0
 43
0.0
 10
24.55904250240035
 20
20.87500168799992
 10
24.54194751200036
 20
20.13166552799992
 10
24.49021119680035
 20
19.38187522719992
 10
24.40350038240035
 20
18.63020590239993
 10
24.28216659040034
 20
17.88217989279992
 10
24.12737708480035
 20
17.14380465919993
 10
23.94057584960034
 20
16.41899466399992
 10
23.72359842720035
 20
15.71129374399993
 10
23.47885853920035
 20
15.02443265919993
 10
23.20894104640035
 20
14.36112078239992
  0
LWPOLYLINE
  5
A0C
330
1F
100
AcDbEntity
  8
0
100
AcDbPolyline
 90
       37
 70
     0
 43
0.0
 10
23.54732506080035
 20
14.16575468159993
 10
23.52103526720035
 20
14.10431481119992
 10
23.49475271520034
 20
14.04163173439992
 10
23.46878516160034
 20
13.97931452479993
 10
23.44302661920035
 20
13.91747281439992
 10
23.41724564160035
 20
13.85572911519993
 10
23.39095329600036
 20
13.79302114399992
 10
23.36363104640035
 20
13.72820344799993
 10
23.33551705600035
 20
13.66192076639993
 10
23.30666044480035
 20
13.59435335039992
 10
23.27626692320035
 20
13.52371793759992
 10
23.24338844160035
 20
13.44793351519993
 10
23.20694772800035
 20
13.36470646559992
 10
23.16579669920035
 20
13.27169342079993
 10
23.11880882080035
 20
13.16674092639992
 10
23.06487561280034
 20
13.04790182559992
 10
23.00513892320034
 20
12.91826835999992
 10
22.94340952320035
 20
12.78646345119993
 10
22.88379231840035
 20
12.66119580959993
 10
22.82662792320035
 20
12.54291031359993
 10
22.77127031520035
 20
12.43002482079992
 10
22.71707958880035
 20
12.32107296479992
 10
22.66288430080035
 20
12.21361491999992
 10
22.60761923680035
 20
12.10554823359993
 10
22.55230265600034
 20
11.99888012959992
 10
22.49791933760034
 20
11.89544378079992
 10
22.44271341760035
 20
11.79186566879993
 10
22.38419158720036
 20
11.68360234239992
 10
22.31974505120035
 20
11.56617149759992
 10
22.24754542400034
 20
11.43680065119993
 10
22.17073627680035
 20
11.30165195999992
 10
22.09389169280035
 20
11.16894631999993
 10
22.01708089760034
 20
11.03874964799993
 10
21.93905784800035
 20
10.90895626239992
 10
21.85860127680035
 20
10.77765738719992
 10
21.77417663360035
 20
10.64260520959993
 10
21.68395246720035
 20
10.50129667839992
  0
LWPOLYLINE
  5
A0D
330
1F
100
AcDbEntity
  8
0
100
AcDbPolyline
 90
       19
 70
     0
 43
0.0
 10
23.20894104640035
 20
14.36112078239992
 10
23.06498382240034
 20
14.05339951199992
 10
22.89742939360035
 20
13.74316321599992
 10
22.70437353920035
 20
13.42972073919992
 10
22.48940535520036
 20
13.12037091999992
 10
22.27462371520034
 20
12.84243098239993
 10
22.07441747520034
 20
12.60526284959992
 10
21.89037053280035
 20
12.40251100639993
 10
21.71979668960035
 20
12.22571483999992
 10
21.56170847680035
 20
12.07021295039993
 10
21.41605238720035
 20
11.93329769599992
 10
21.28360384160035
 20
11.81361047359992
 10
21.16369042720034
 20
11.70889791039992
 10
21.05224913760035
 20
11.61448289759992
 10
20.94444694560035
 20
11.52565155199992
 10
20.83573651840035
 20
11.43842643999992
 10
20.72523183040035
 20
11.35205976479993
 10
20.61361497280034
 20
11.26705858559992
 10
20.50161354400034
 20
11.18391375039992
  0
LWPOLYLINE
  5
A0E
330
1F
100
AcDbEntity
  8
0
100
AcDbPolyline
 90
       19
 70
     0
 43
0.0
 10
23.20894104640035
 20
27.38887921919992
 10
23.06498382240034
 20
27.69660048959993
 10
22.89742939360035
 20
28.00683678399993
 10
22.70437353920035
 20
28.32027926239992
 10
22.48940535520036
 20
28.62962908159992
 10
22.27462371520034
 20
28.90756901759992
 10
22.07441747520034
 20
29.14473715199993
 10
21.89037053280035
 20
29.34748899359992
 10
21.71979668960035
 20
29.52428515999993
 10
21.56170847680035
 20
29.67978704959993
 10
21.41605238720035
 20
29.81670230559991
 10
21.28360384160035
 20
29.93638952799993
 10
21.16369042720034
 20
30.04110209119993
 10
21.05224913760035
 20
30.13551710239993
 10
20.94444694560035
 20
30.22434844799993
 10
20.83573651840035
 20
30.31157355999992
 10
20.72523183040035
 20
30.39794023679992
 10
20.61361497280034
 20
30.48294141439991
 10
20.50161354400034
 20
30.56608624959993
  0
LWPOLYLINE
  5
A0F
330
1F
100
AcDbEntity
  8
0
100
AcDbPolyline
 90
        3
 70
     0
 43
0.0
 10
23.54732506080035
 20
27.58424531999994
 10
23.52103526720035
 20
27.64568518879993
 10
23.49475271520034
 20
27.70836826559992
  0
LWPOLYLINE
  5
A10
330
1F
100
AcDbEntity
  8
0
100
AcDbPolyline
 90
       34
 70
     0
 43
0.0
 10
23.49475271520034
 20
27.70836826559992
 10
23.44302661920035
 20
27.83252718559994
 10
23.41724564160035
 20
27.89427088479992
 10
23.39095329600036
 20
27.95697885759993
 10
23.36363104640035
 20
28.02179655359994
 10
23.33551705600035
 20
28.08807923519994
 10
23.30666044480035
 20
28.15564665119991
 10
23.27626692320035
 20
28.22628206399993
 10
23.24338844160035
 20
28.30206648639993
 10
23.20694772800035
 20
28.38529353599993
 10
23.16579669920035
 20
28.47830658079992
 10
23.11880882080035
 20
28.58325907359993
 10
23.06487561280034
 20
28.70209817439992
 10
23.00513892320034
 20
28.83173164159991
 10
22.94340952320035
 20
28.96353655039992
 10
22.88379231840035
 20
29.08880419199992
 10
22.82662792320035
 20
29.20708968639992
 10
22.77127031520035
 20
29.31997517919994
 10
22.71707958880035
 20
29.42892703519992
 10
22.66288430080035
 20
29.53638507999993
 10
22.60761923680035
 20
29.64445176799994
 10
22.55230265600034
 20
29.75111987039993
 10
22.49791933760034
 20
29.85455621919992
 10
22.44271341760035
 20
29.95813433279993
 10
22.38419158720036
 20
30.06639765919992
 10
22.31974505120035
 20
30.18382850239992
 10
22.24754542400034
 20
30.31319935039992
 10
22.17073627680035
 20
30.44834804159994
 10
22.09389169280035
 20
30.58105367999992
 10
22.01708089760034
 20
30.71125035199993
 10
21.93905784800035
 20
30.84104373759991
 10
21.85860127680035
 20
30.97234261439992
 10
21.77417663360035
 20
31.10739479039994
 10
21.68395246720035
 20
31.24870332159993
  0
LWPOLYLINE
  5
A11
330
1F
100
AcDbEntity
  8
0
100
AcDbPolyline
 90
        4
 70
     0
 43
0.0
 10
27.05958379520035
 20
9.159193670399929
 10
26.94623096640034
 20
9.040434084799926
 10
26.83164064800035
 20
8.922994257599924
 10
26.71586489120035
 20
8.806923783999934
  0
LWPOLYLINE
  5
A12
330
1F
100
AcDbEntity
  8
0
100
AcDbPolyline
 90
       13
 70
     0
 43
0.0
 10
26.71586489120035
 20
8.806923783999934
 10
26.09560238080035
 20
8.226094599999925
 10
25.37775108960035
 20
7.630662964799924
 10
24.53914567840035
 20
7.023990014399927
 10
23.55598915360034
 20
6.417296459199931
 10
22.41686933760035
 20
5.83693745919993
 10
21.19737024960035
 20
5.344395843199933
 10
19.93992139680035
 20
4.961653172799927
 10
18.67459251200035
 20
4.694824830399923
 10
17.50723093440035
 20
4.548369484799934
 10
16.45926975200034
 20
4.495909791999935
 10
15.51598985600035
 20
4.511934883199927
 10
14.66686948320035
 20
4.577702356799932
  0
LWPOLYLINE
  5
A13
330
1F
100
AcDbEntity
  8
0
100
AcDbPolyline
 90
        4
 70
     0
 43
0.0
 10
26.71586488960035
 20
32.94307621919994
 10
26.83164064800035
 20
32.82700574239992
 10
26.94623096640034
 20
32.70956591679992
 10
27.05958379520035
 20
32.59080633119994
  0
LWPOLYLINE
  5
A14
330
1F
100
AcDbEntity
  8
0
100
AcDbPolyline
 90
       10
 70
     0
 43
0.0
 10
27.05958379520035
 20
32.59080633119994
 10
27.25791995840034
 20
32.37655195359993
 10
27.45092249280035
 20
32.15972364319994
 10
27.63864770240036
 20
31.94040300159993
 10
27.82112303360035
 20
31.71869658719994
 10
27.99837540800035
 20
31.49470544479992
 10
28.17043148320035
 20
31.26852392159993
 10
28.33731739040035
 20
31.04024115199992
 10
28.49905348160035
 20
30.80994911039992
 10
28.65565615680035
 20
30.57773951679992
  0
LINE
  5
A15
330
1F
100
AcDbEntity
  8
0
100
AcDbLine
 10
28.66457175520035
 20
11.18577017599993
 30
0.0
 11
28.65565615680035
 21
11.17226048319993
 31
0.0
  0
LWPOLYLINE
  5
A16
330
1F
100
AcDbEntity
  8
0
100
AcDbPolyline
 90
       10
 70
     0
 43
0.0
 10
28.65565615680035
 20
11.17226048319993
 10
28.49901773440035
 20
10.93999895039992
 10
28.33725315200035
 20
10.70966920159992
 10
28.17034674560035
 20
10.48136245119992
 10
27.99827888000035
 20
10.25517014399993
 10
27.82102413920036
 20
10.03118087359992
 10
27.63855657760035
 20
9.809488428799923
 10
27.45084997280035
 20
9.590193273599922
 10
27.25787758240035
 20
9.373401363199931
 10
27.05958379520035
 20
9.159193670399929
  0
LWPOLYLINE
  5
A17
330
1F
100
AcDbEntity
  8
0
100
AcDbPolyline
 90
       24
 70
     0
 43
0.0
 10
28.30663615520034
 20
11.41796513919993
 10
27.91496557600035
 20
10.85320177119993
 10
27.49487935040034
 20
10.30518373279993
 10
27.04800655520035
 20
9.776417268799932
 10
26.57621401760034
 20
9.269271844799931
 10
26.08160562240035
 20
8.785967219199932
 10
25.56528935680034
 20
8.327509211199924
 10
25.02702242400034
 20
7.893697627199927
 10
24.46715571200034
 20
7.484856172799922
 10
23.88742952480034
 20
7.102394534399934
 10
23.29120371520035
 20
6.748498108799935
 10
22.68074723200035
 20
6.424302655999923
 10
22.05723599040035
 20
6.130262435199924
 10
21.42106111360035
 20
5.86640621439993
 10
20.77371048000035
 20
5.633217735999934
 10
20.11738361600035
 20
5.431394006399926
 10
19.45445943360034
 20
5.26149711679993
 10
18.78560922880035
 20
5.123544851199923
 10
18.11076692160035
 20
5.01751051679993
 10
17.43062346240035
 20
4.943555007999933
 10
16.74618068960034
 20
4.901909404799923
 10
16.05865777920035
 20
4.892854459199924
 10
15.36962856160034
 20
4.916554638399929
 10
14.68078061280035
 20
4.973091003199925
  0
LWPOLYLINE
  5
A18
330
1F
100
AcDbEntity
  8
0
100
AcDbPolyline
 90
       24
 70
     0
 43
0.0
 10
28.30663615520034
 20
30.33203486079993
 10
27.91496557600035
 20
30.89679823039993
 10
27.49487935040034
 20
31.44481626719992
 10
27.04800655520035
 20
31.97358273279992
 10
26.57621401760034
 20
32.48072815519994
 10
26.08160562240035
 20
32.96403278079994
 10
25.56528935680034
 20
33.42249079039992
 10
25.02702242400034
 20
33.85630237279993
 10
24.46715571200034
 20
34.26514382719993
 10
23.88742952480034
 20
34.64760546559993
 10
23.29120371520035
 20
35.00150189279993
 10
22.68074723200035
 20
35.32569734399992
 10
22.05723599040035
 20
35.61973756639993
 10
21.42106111360035
 20
35.88359378559992
 10
20.77371048000035
 20
36.11678226559992
 10
20.11738361600035
 20
36.31860599359991
 10
19.45445943360034
 20
36.48850288319993
 10
18.78560922880035
 20
36.62645515039993
 10
18.11076692160035
 20
36.73248948319992
 10
17.43062346240035
 20
36.80644499359992
 10
16.74618068960034
 20
36.84809059519993
 10
16.05865777920035
 20
36.85714554079992
 10
15.36962856160034
 20
36.83344536159994
 10
14.68078061280035
 20
36.77690899839991
  0
LINE
  5
A19
330
1F
100
AcDbEntity
  8
0
100
AcDbLine
 10
28.65565615680035
 20
30.57773951679992
 30
0.0
 11
28.66457175520035
 21
30.56422982399992
 31
0.0
  0
LWPOLYLINE
  5
A1A
330
1F
100
AcDbEntity
  8
0
100
AcDbPolyline
 90
       10
 70
     0
 43
0.0
 10
28.66457175520035
 20
30.56422982399992
 10
29.13254664000035
 20
29.79755159519992
 10
29.59059494720035
 20
28.92145857119992
 10
30.02994849120035
 20
27.92834952319994
 10
30.43774237440035
 20
26.81214432159992
 10
30.78783544640034
 20
25.60652780959994
 10
31.06848950720035
 20
24.31158416639992
 10
31.25383990560035
 20
23.04106803679992
 10
31.34725694560034
 20
21.90392802399992
 10
31.37427376320034
 20
20.87499999999992
  0
LWPOLYLINE
  5
A1B
330
1F
100
AcDbEntity
  8
0
100
AcDbPolyline
 90
       23
 70
     0
 43
0.0
 10
30.94605211360035
 20
20.87500001599992
 10
30.92954954080035
 20
21.67088922239993
 10
30.88023016640034
 20
22.46146414719993
 10
30.79839387840035
 20
23.24567682079992
 10
30.68426939200035
 20
24.02293150399993
 10
30.54109470560035
 20
24.77792863039992
 10
30.37872971360034
 20
25.47875455679992
 10
30.20763819680035
 20
26.10860869119993
 10
30.03615404000035
 20
26.66389157599992
 10
29.86899483520035
 20
27.15106658719993
 10
29.70754679040035
 20
27.58175290079994
 10
29.55212346080035
 20
27.96594354079992
 10
29.40331690400034
 20
28.30997049599993
 10
29.26160045280035
 20
28.61867455679991
 10
29.12714586400035
 20
28.89630679199992
 10
29.00019586880036
 20
29.14604750879992
 10
28.88089727520035
 20
29.37060981599994
 10
28.76914987040035
 20
29.57264206719993
 10
28.66464386240035
 20
29.75470840479992
 10
28.56688184160034
 20
29.91929521919992
 10
28.47519894080035
 20
30.06881581279994
 10
28.38877820640036
 20
30.20561846239992
 10
28.30663615360034
 20
30.33203486079993
  0
LWPOLYLINE
  5
A1C
330
1F
100
AcDbEntity
  8
0
100
AcDbPolyline
 90
       22
 70
     0
 43
0.0
 10
30.94605211360035
 20
20.87500001599992
 10
30.92794229760035
 20
20.04132280479993
 10
30.87383059360035
 20
19.21353816479992
 10
30.78406921280036
 20
18.39289412159992
 10
30.65916367680035
 20
17.58144701439992
 10
30.50379601120035
 20
16.79953595039992
 10
30.33032167360035
 20
16.08369132319992
 10
30.15013610880035
 20
15.44792712479993
 10
29.97176869760035
 20
14.89288536639992
 10
29.79910052000034
 20
14.40814915519992
 10
29.63277942880035
 20
13.98001710719992
 10
29.47330673760035
 20
13.59914797919992
 10
29.32147650720035
 20
13.25964238399993
 10
29.17750631840036
 20
12.95603616479992
 10
29.04167056640035
 20
12.68428143039993
 10
28.91421286720035
 20
12.44115507199992
 10
28.79509674080035
 20
12.22357671199992
 10
28.68402620320035
 20
12.02857241279993
 10
28.58047314560034
 20
11.85326368959992
 10
28.48370297120035
 20
11.69486071039992
 10
28.39279837920035
 20
11.55065816959992
 10
28.30663615360034
 20
11.41796513919993
  0
LWPOLYLINE
  5
A1D
330
1F
100
AcDbEntity
  8
0
100
AcDbPolyline
 90
       10
 70
     0
 43
0.0
 10
31.37427376320034
 20
20.87499999999992
 10
31.34734319680035
 20
19.84771201439993
 10
31.25582374400035
 20
18.72673400799992
 10
31.07942133920035
 20
17.49960332319993
 10
30.81064475520035
 20
16.23425371039992
 10
30.46424058720035
 20
15.01929992799992
 10
30.04808182560034
 20
13.86668559039992
 10
29.59958255680035
 20
12.84719361119992
 10
29.13611502880035
 20
11.95875701119993
 10
28.66457175520035
 20
11.18577017599993
  0
CIRCLE
  5
ADD
330
1F
100
AcDbEntity
  8
0
100
AcDbCircle
 10
-0.0000322175996425
 20
12.37499999999992
 30
0.0
 40
1.2714466064
  0
ARC
  5
1C4D
330
1F
100
AcDbEntity
  8
0
100
AcDbCircle
 10
-0.0000574018825035
 20
586.5994054974253
 30
0.0
 40
586.4744054974246
100
AcDbArc
 50
268.329894180774
 51
270.0000056078248
  0
ARC
  5
1C4E
330
1F
100
AcDbEntity
  8
0
100
AcDbCircle
 10
-0.0000002304670566
 20
586.5989950549929
 30
0.0
 40
585.4173893957929
100
AcDbArc
 50
268.329865537215
 51
271.6701283051008
  0
ARC
  5
1C4F
330
1F
100
AcDbEntity
  8
0
100
AcDbCircle
 10
-0.0000065657219477
 20
586.599373414662
 30
0.0
 40
586.474373414662
100
AcDbArc
 50
270.00000064144
 51
271.6701058649127
  0
ARC
  5
1C50
330
1F
100
AcDbEntity
  8
0
100
AcDbCircle
 10
11.92660422400035
 20
20.87508227039991
 30
0.0
 40
23.8233635584
100
AcDbArc
 50
359.9998021380999
 51
21.38476584299998
  0
ARC
  5
1C51
330
1F
100
AcDbEntity
  8
0
100
AcDbCircle
 10
11.92660422400035
 20
20.87491772959991
 30
0.0
 40
22.7667578976
100
AcDbArc
 50
338.6152341569999
 51
21.38669578969997
  0
ARC
  5
1C53
330
1F
100
AcDbEntity
  8
0
100
AcDbCircle
 10
16.79486894580793
 20
18.96580073533642
 30
0.0
 40
17.53753993177346
100
AcDbArc
 50
270.8729372015053
 51
338.6236241711481
  0
ARC
  5
1C54
330
1F
100
AcDbEntity
  8
0
100
AcDbCircle
 10
16.79503103421384
 20
18.96571445096365
 30
0.0
 40
18.59396319396054
100
AcDbArc
 50
270.9170476769561
 51
338.6232129439934
  0
ARC
  5
1C55
330
1F
100
AcDbEntity
  8
0
100
AcDbCircle
 10
11.92660422400035
 20
20.87491772959991
 30
0.0
 40
23.8233635584
100
AcDbArc
 50
338.6152341569999
 51
0.0001978619000304
  0
ARC
  5
1C56
330
1F
100
AcDbEntity
  8
0
100
AcDbCircle
 10
16.79487484179326
 20
22.78420790558596
 30
0.0
 40
17.53753120201754
100
AcDbArc
 50
21.37836142361807
 51
89.12708162581582
  0
ARC
  5
1C57
330
1F
100
AcDbEntity
  8
0
100
AcDbCircle
 10
-0.0000065657219352
 20
-544.8493734146622
 30
0.0
 40
586.474373414662
100
AcDbArc
 50
88.32989413508721
 51
89.9999993585599
  0
ARC
  5
1C58
330
1F
100
AcDbEntity
  8
0
100
AcDbCircle
 10
16.79503103421385
 20
22.78428554903614
 30
0.0
 40
18.59396319396054
100
AcDbArc
 50
21.3767870560065
 51
89.08295232304384
  0
ARC
  5
1C59
330
1F
100
AcDbEntity
  8
0
100
AcDbCircle
 10
-0.0000641972344497
 20
-544.8489950552516
 30
0.0
 40
585.4173893944516
100
AcDbArc
 50
88.32986543698648
 51
91.67012820497205
  0
ARC
  5
1C5A
330
1F
100
AcDbEntity
  8
0
100
AcDbCircle
 10
-0.0000574018823578
 20
-544.8494054974255
 30
0.0
 40
586.4744054974247
100
AcDbArc
 50
89.99999439217519
 51
91.67010581922591
  0
ARC
  5
1C5B
330
1F
100
AcDbEntity
  8
0
100
AcDbCircle
 10
-16.79509546941309
 20
22.78428554903612
 30
0.0
 40
18.59396319396055
100
AcDbArc
 50
90.91704767695615
 51
158.6232129439934
  0
ARC
  5
1C5C
330
1F
100
AcDbEntity
  8
0
100
AcDbCircle
 10
-16.79493925265415
 20
22.78420789274781
 30
0.0
 40
17.53753122936108
100
AcDbArc
 50
90.87291508272596
 51
158.6216385663099
  0
ARC
  5
1C5D
330
1F
100
AcDbEntity
  8
0
100
AcDbCircle
 10
-11.92666865919966
 20
20.87508227039991
 30
0.0
 40
23.8233635584
100
AcDbArc
 50
158.615234157
 51
180.0001978618999
  0
ARC
  5
1C5E
330
1F
100
AcDbEntity
  8
0
100
AcDbCircle
 10
-11.92666865919966
 20
20.87491772959991
 30
0.0
 40
22.766757688
100
AcDbArc
 50
158.6133042103
 51
201.3847658429999
  0
ARC
  5
1C5F
330
1F
100
AcDbEntity
  8
0
100
AcDbCircle
 10
-16.79509546941309
 20
18.96571445096365
 30
0.0
 40
18.59396319396054
100
AcDbArc
 50
201.3767870560064
 51
269.0829523230438
  0
ARC
  5
1C60
330
1F
100
AcDbEntity
  8
0
100
AcDbCircle
 10
-16.79493335668973
 20
18.96580074816303
 30
0.0
 40
17.53753995909322
100
AcDbArc
 50
201.3763758389163
 51
269.1270660872565
  0
ARC
  5
1C61
330
1F
100
AcDbEntity
  8
0
100
AcDbCircle
 10
-11.92666865919966
 20
20.87491772959991
 30
0.0
 40
23.8233635584
100
AcDbArc
 50
179.9998021380999
 51
201.3847658429999
  0
ENDSEC
  0
SECTION
  2
OBJECTS
  0
DICTIONARY
  5
C
330
0
100
AcDbDictionary
  3
ACAD_GROUP
350
D
  3
ACAD_LAYOUT
350
1A
  3
ACAD_MLINESTYLE
350
17
  3
ACAD_PLOTSETTINGS
350
19
  3
ACAD_PLOTSTYLENAME
350
E
  3
ACDBHEADERROUNDTRIPXREC
350
1C6C
  0
DICTIONARY
  5
1C43
330
1F
100
AcDbDictionary
280
     1
  3
ACAD_LAYOUTSELFREF
360
1C8E
  0
DICTIONARY
  5
1C41
330
1B
100
AcDbDictionary
280
     1
  3
ACAD_LAYOUTSELFREF
360
1C8D
  0
DICTIONARY
  5
D
102
{ACAD_REACTORS
330
C
102
}
330
C
100
AcDbDictionary
  0
DICTIONARY
  5
1A
102
{ACAD_REACTORS
330
C
102
}
330
C
100
AcDbDictionary
  0
DICTIONARY
  5
17
102
{ACAD_REACTORS
330
C
102
}
330
C
100
AcDbDictionary
  3
STANDARD
350
18
  0
DICTIONARY
  5
19
102
{ACAD_REACTORS
330
C
102
}
330
C
100
AcDbDictionary
  0
ACDBDICTIONARYWDFLT
  5
E
102
{ACAD_REACTORS
330
C
102
}
330
C
100
AcDbDictionary
281
     1
  3
Normal
350
F
100
AcDbDictionaryWithDefault
340
F
  0
DICTIONARY
  5
1C6C
102
{ACAD_REACTORS
330
C
102
}
330
C
100
AcDbDictionary
  3
CEPSNTYPE
350
1C76
  3
DIMSTYLEDATA
350
1C7A
  3
FINGERPRINTGUID
350
1C77
  3
HYPERLINKBASE
350
1C6F
  3
INSUNITS
350
1C75
  3
LAYOUTDICT
350
1C71
  3
LWETCUNION
350
1C74
  3
PLOTSETDICT
350
1C72
  3
PLOTSTYLNAMDICT
350
1C73
  3
PSVPSCALE
350
1C79
  3
PUCSBASE
350
1C7D
  3
PUCSORGBACK
350
1C83
  3
PUCSORGBOTTOM
350
1C7F
  3
PUCSORGFRONT
350
1C82
  3
PUCSORGLEFT
350
1C80
  3
PUCSORGRIGHT
350
1C81
  3
PUCSORGTOP
350
1C7E
  3
PUCSORTHOREF
350
1C7B
  3
PUCSORTHOVIEW
350
1C7C
  3
STYLESHEET
350
1C70
  3
TSTACKALIGN
350
1C6D
  3
TSTACKSIZE
350
1C6E
  3
UCSBASE
350
1C86
  3
UCSORGBACK
350
1C8C
  3
UCSORGBOTTOM
350
1C88
  3
UCSORGFRONT
350
1C8B
  3
UCSORGLEFT
350
1C89
  3
UCSORGRIGHT
350
1C8A
  3
UCSORGTOP
350
1C87
  3
UCSORTHOREF
350
1C84
  3
UCSORTHOVIEW
350
1C85
  3
VERSIONGUID
350
1C78
  0
XRECORD
  5
1C8E
102
{ACAD_REACTORS
330
1C43
102
}
330
1C43
100
AcDbXrecord
340
1F
  0
XRECORD
  5
1C8D
102
{ACAD_REACTORS
330
1C41
102
}
330
1C41
100
AcDbXrecord
340
1B
  0
MLINESTYLE
  5
18
102
{ACAD_REACTORS
330
17
102
}
330
17
100
AcDbMlineStyle
  2
STANDARD
 70
     0
  3

 62
   256
 51
90.0
 52
90.0
 71
     2
 49
0.5
 62
   256
  6
BYLAYER
 49
-0.5
 62
   256
  6
BYLAYER
  0
ACDBPLACEHOLDER
  5
F
102
{ACAD_REACTORS
330
E
102
}
330
0
100
AcDbPlaceHolder
280
     0
  0
XRECORD
  5
1C76
102
{ACAD_REACTORS
330
1C6C
102
}
330
1C6C
100
AcDbXrecord
 90
        0
  0
XRECORD
  5
1C7A
102
{ACAD_REACTORS
330
1C6C
102
}
330
1C6C
100
AcDbXrecord
1000
DSTYLE
1002
{
1070
   278
 70
     0
1070
   342
340
220
1070
   371
 70
     0
1070
   372
 70
     0
1002
}
  0
XRECORD
  5
1C77
102
{ACAD_REACTORS
330
1C6C
102
}
330
1C6C
100
AcDbXrecord
  1

  0
XRECORD
  5
1C6F
102
{ACAD_REACTORS
330
1C6C
102
}
330
1C6C
100
AcDbXrecord
  1

  0
XRECORD
  5
1C75
102
{ACAD_REACTORS
330
1C6C
102
}
330
1C6C
100
AcDbXrecord
 90
        1
  0
XRECORD
  5
1C71
102
{ACAD_REACTORS
330
1C6C
102
}
330
1C6C
100
AcDbXrecord
340
1A
  0
XRECORD
  5
1C74
102
{ACAD_REACTORS
330
1C6C
102
}
330
1C6C
100
AcDbXrecord
 90
    10781
  0
XRECORD
  5
1C72
102
{ACAD_REACTORS
330
1C6C
102
}
330
1C6C
100
AcDbXrecord
340
19
  0
XRECORD
  5
1C73
102
{ACAD_REACTORS
330
1C6C
102
}
330
1C6C
100
AcDbXrecord
340
E
  0
XRECORD
  5
1C79
102
{ACAD_REACTORS
330
1C6C
102
}
330
1C6C
100
AcDbXrecord
 40
0.0
  0
XRECORD
  5
1C7D
102
{ACAD_REACTORS
330
1C6C
102
}
330
1C6C
100
AcDbXrecord
340
0
  0
XRECORD
  5
1C83
102
{ACAD_REACTORS
330
1C6C
102
}
330
1C6C
100
AcDbXrecord
 10
0.0
 20
0.0
 30
0.0
  0
XRECORD
  5
1C7F
102
{ACAD_REACTORS
330
1C6C
102
}
330
1C6C
100
AcDbXrecord
 10
0.0
 20
0.0
 30
0.0
  0
XRECORD
  5
1C82
102
{ACAD_REACTORS
330
1C6C
102
}
330
1C6C
100
AcDbXrecord
 10
0.0
 20
0.0
 30
0.0
  0
XRECORD
  5
1C80
102
{ACAD_REACTORS
330
1C6C
102
}
330
1C6C
100
AcDbXrecord
 10
0.0
 20
0.0
 30
0.0
  0
XRECORD
  5
1C81
102
{ACAD_REACTORS
330
1C6C
102
}
330
1C6C
100
AcDbXrecord
 10
0.0
 20
0.0
 30
0.0
  0
XRECORD
  5
1C7E
102
{ACAD_REACTORS
330
1C6C
102
}
330
1C6C
100
AcDbXrecord
 10
0.0
 20
0.0
 30
0.0
  0
XRECORD
  5
1C7B
102
{ACAD_REACTORS
330
1C6C
102
}
330
1C6C
100
AcDbXrecord
340
0
  0
XRECORD
  5
1C7C
102
{ACAD_REACTORS
330
1C6C
102
}
330
1C6C
100
AcDbXrecord
 70
     0
  0
XRECORD
  5
1C70
102
{ACAD_REACTORS
330
1C6C
102
}
330
1C6C
100
AcDbXrecord
  1

  0
XRECORD
  5
1C6D
102
{ACAD_REACTORS
330
1C6C
102
}
330
1C6C
100
AcDbXrecord
 90
        1
  0
XRECORD
  5
1C6E
102
{ACAD_REACTORS
330
1C6C
102
}
330
1C6C
100
AcDbXrecord
 90
       70
  0
XRECORD
  5
1C86
102
{ACAD_REACTORS
330
1C6C
102
}
330
1C6C
100
AcDbXrecord
340
0
  0
XRECORD
  5
1C8C
102
{ACAD_REACTORS
330
1C6C
102
}
330
1C6C
100
AcDbXrecord
 10
0.0
 20
0.0
 30
0.0
  0
XRECORD
  5
1C88
102
{ACAD_REACTORS
330
1C6C
102
}
330
1C6C
100
AcDbXrecord
 10
0.0
 20
0.0
 30
0.0
  0
XRECORD
  5
1C8B
102
{ACAD_REACTORS
330
1C6C
102
}
330
1C6C
100
AcDbXrecord
 10
0.0
 20
0.0
 30
0.0
  0
XRECORD
  5
1C89
102
{ACAD_REACTORS
330
1C6C
102
}
330
1C6C
100
AcDbXrecord
 10
0.0
 20
0.0
 30
0.0
  0
XRECORD
  5
1C8A
102
{ACAD_REACTORS
330
1C6C
102
}
330
1C6C
100
AcDbXrecord
 10
0.0
 20
0.0
 30
0.0
  0
XRECORD
  5
1C87
102
{ACAD_REACTORS
330
1C6C
102
}
330
1C6C
100
AcDbXrecord
 10
0.0
 20
0.0
 30
0.0
  0
XRECORD
  5
1C84
102
{ACAD_REACTORS
330
1C6C
102
}
330
1C6C
100
AcDbXrecord
340
0
  0
XRECORD
  5
1C85
102
{ACAD_REACTORS
330
1C6C
102
}
330
1C6C
100
AcDbXrecord
 70
     0
  0
XRECORD
  5
1C78
102
{ACAD_REACTORS
330
1C6C
102
}
330
1C6C
100
AcDbXrecord
  1
{C1C1DFEC-578B-4084-90F0-E0BD39620F1B}
  0
ENDSEC
  0
EOF
