  0
SECTION
  2
HEADER
  9
$ACADVER
  1
AC1014
  9
$ACADMAINTVER
 70
     9
  9
$DWGCODEPAGE
  3
ANSI_1252
  9
$INSBASE
 10
0.0
 20
0.0
 30
0.0
  9
$EXTMIN
 10
0.121237067767944
 20
-0.7547436719044525
 30
-0.0000000349181948
  9
$EXTMAX
 10
41.62610099886495
 20
20.89486595553089
 30
0.0000000814935746
  9
$LIMMIN
 10
0.0
 20
0.0
  9
$LIMMAX
 10
17.0
 20
11.0
  9
$ORTHOMODE
 70
     1
  9
$REGENMODE
 70
     1
  9
$FILLMODE
 70
     1
  9
$QTEXTMODE
 70
     0
  9
$MIRRTEXT
 70
     1
  9
$DRAGMODE
 70
     2
  9
$LTSCALE
 40
0.9350000000000001
  9
$OSMODE
 70
    37
  9
$ATTMODE
 70
     1
  9
$TEXTSIZE
 40
0.2
  9
$TRACEWID
 40
0.05
  9
$TEXTSTYLE
  7
STANDARD
  9
$CLAYER
  8
0
  9
$CELTYPE
  6
BYLAYER
  9
$CECOLOR
 62
   256
  9
$CELTSCALE
 40
1.0
  9
$DELOBJ
 70
     1
  9
$DISPSILH
 70
     0
  9
$DIMSCALE
 40
1.0
  9
$DIMASZ
 40
0.1875
  9
$DIMEXO
 40
0.10625
  9
$DIMDLI
 40
0.646
  9
$DIMRND
 40
0.0
  9
$DIMDLE
 40
0.0
  9
$DIMEXE
 40
0.306
  9
$DIMTP
 40
0.0
  9
$DIMTM
 40
0.0
  9
$DIMTXT
 40
0.125
  9
$DIMCEN
 40
0.153
  9
$DIMTSZ
 40
0.0
  9
$DIMTOL
 70
     0
  9
$DIMLIM
 70
     0
  9
$DIMTIH
 70
     1
  9
$DIMTOH
 70
     1
  9
$DIMSE1
 70
     0
  9
$DIMSE2
 70
     0
  9
$DIMTAD
 70
     0
  9
$DIMZIN
 70
     0
  9
$DIMBLK
  1
_FILLED
  9
$DIMASO
 70
     1
  9
$DIMSHO
 70
     1
  9
$DIMPOST
  1

  9
$DIMAPOST
  1

  9
$DIMALT
 70
     0
  9
$DIMALTD
 70
     2
  9
$DIMALTF
 40
25.4
  9
$DIMLFAC
 40
1.0
  9
$DIMTOFL
 70
     0
  9
$DIMTVP
 40
0.0
  9
$DIMTIX
 70
     0
  9
$DIMSOXD
 70
     0
  9
$DIMSAH
 70
     0
  9
$DIMBLK1
  1

  9
$DIMBLK2
  1

  9
$DIMSTYLE
  2
STANDARD
  9
$DIMCLRD
 70
     0
  9
$DIMCLRE
 70
     0
  9
$DIMCLRT
 70
     0
  9
$DIMTFAC
 40
1.0
  9
$DIMGAP
 40
0.09
  9
$DIMJUST
 70
     0
  9
$DIMSD1
 70
     0
  9
$DIMSD2
 70
     0
  9
$DIMTOLJ
 70
     1
  9
$DIMTZIN
 70
     0
  9
$DIMALTZ
 70
     0
  9
$DIMALTTZ
 70
     0
  9
$DIMFIT
 70
     3
  9
$DIMUPT
 70
     0
  9
$DIMUNIT
 70
     2
  9
$DIMDEC
 70
     4
  9
$DIMTDEC
 70
     4
  9
$DIMALTU
 70
     2
  9
$DIMALTTD
 70
     2
  9
$DIMTXSTY
  7
STANDARD
  9
$DIMAUNIT
 70
     0
  9
$LUNITS
 70
     2
  9
$LUPREC
 70
     4
  9
$SKETCHINC
 40
0.1
  9
$FILLETRAD
 40
0.0
  9
$AUNITS
 70
     0
  9
$AUPREC
 70
     0
  9
$MENU
  1
acad
  9
$ELEVATION
 40
0.0
  9
$PELEVATION
 40
0.0
  9
$THICKNESS
 40
0.0
  9
$LIMCHECK
 70
     0
  9
$BLIPMODE
 70
     0
  9
$CHAMFERA
 40
0.0
  9
$CHAMFERB
 40
0.0
  9
$CHAMFERC
 40
0.0
  9
$CHAMFERD
 40
0.0
  9
$SKPOLY
 70
     0
  9
$TDCREATE
 40
2454026.433579861
  9
$TDUPDATE
 40
2454085.375736412
  9
$TDINDWG
 40
0.0677170833
  9
$TDUSRTIMER
 40
0.0677170833
  9
$USRTIMER
 70
     1
  9
$ANGBASE
 50
0.0
  9
$ANGDIR
 70
     0
  9
$PDMODE
 70
     3
  9
$PDSIZE
 40
0.03125
  9
$PLINEWID
 40
0.0
  9
$COORDS
 70
     2
  9
$SPLFRAME
 70
     0
  9
$SPLINETYPE
 70
     6
  9
$SPLINESEGS
 70
     8
  9
$ATTDIA
 70
     0
  9
$ATTREQ
 70
     1
  9
$HANDLING
 70
-16383
  9
$HANDSEED
  5
1E33
  9
$SURFTAB1
 70
     6
  9
$SURFTAB2
 70
     6
  9
$SURFTYPE
 70
     6
  9
$SURFU
 70
     6
  9
$SURFV
 70
     6
  9
$UCSNAME
  2

  9
$UCSORG
 10
0.0
 20
0.0
 30
0.0
  9
$UCSXDIR
 10
1.0
 20
0.0
 30
0.0
  9
$UCSYDIR
 10
0.0
 20
1.0
 30
0.0
  9
$PUCSNAME
  2

  9
$PUCSORG
 10
0.0
 20
0.0
 30
0.0
  9
$PUCSXDIR
 10
1.0
 20
0.0
 30
0.0
  9
$PUCSYDIR
 10
0.0
 20
1.0
 30
0.0
  9
$USERI1
 70
     0
  9
$USERI2
 70
     0
  9
$USERI3
 70
     0
  9
$USERI4
 70
     0
  9
$USERI5
 70
     0
  9
$USERR1
 40
0.0
  9
$USERR2
 40
0.0
  9
$USERR3
 40
0.0
  9
$USERR4
 40
0.0
  9
$USERR5
 40
0.0
  9
$WORLDVIEW
 70
     1
  9
$SHADEDGE
 70
     3
  9
$SHADEDIF
 70
    70
  9
$TILEMODE
 70
     1
  9
$MAXACTVP
 70
    16
  9
$PINSBASE
 10
0.0
 20
0.0
 30
0.0
  9
$PLIMCHECK
 70
     0
  9
$PEXTMIN
 10
1.000000000000000E+20
 20
1.000000000000000E+20
 30
1.000000000000000E+20
  9
$PEXTMAX
 10
-1.000000000000000E+20
 20
-1.000000000000000E+20
 30
-1.000000000000000E+20
  9
$PLIMMIN
 10
0.0
 20
0.0
  9
$PLIMMAX
 10
12.0
 20
9.0
  9
$UNITMODE
 70
     0
  9
$VISRETAIN
 70
     0
  9
$PLINEGEN
 70
     1
  9
$PSLTSCALE
 70
     0
  9
$TREEDEPTH
 70
  3020
  9
$PICKSTYLE
 70
     1
  9
$CMLSTYLE
  2
STANDARD
  9
$CMLJUST
 70
     0
  9
$CMLSCALE
 40
1.0
  9
$PROXYGRAPHICS
 70
     0
  9
$MEASUREMENT
 70
     0
  0
ENDSEC
  0
SECTION
  2
CLASSES
  0
CLASS
  1
ACDBDICTIONARYWDFLT
  2
AcDbDictionaryWithDefault
  3
AutoCAD 2000
 90
        0
280
     0
281
     0
  0
CLASS
  1
ACDBPLACEHOLDER
  2
AcDbPlaceHolder
  3
AutoCAD 2000
 90
        0
280
     0
281
     0
  0
CLASS
  1
LAYOUT
  2
AcDbLayout
  3
AutoCAD 2000
 90
        0
280
     0
281
     0
  0
CLASS
  1
LWPOLYLINE
  2
AcDbPolyline
  3
AutoCAD 2000
 90
        0
280
     0
281
     1
  0
CLASS
  1
IMAGE
  2
AcDbRasterImage
  3
ISM
 90
      127
280
     0
281
     1
  0
CLASS
  1
OLE2FRAME
  2
AcDbOle2Frame
  3
AutoCAD 2000
 90
        0
280
     0
281
     1
  0
CLASS
  1
HATCH
  2
AcDbHatch
  3
AutoCAD 2000
 90
        0
280
     0
281
     1
  0
CLASS
  1
DICTIONARYVAR
  2
AcDbDictionaryVar
  3
AutoCAD 2000
 90
        0
280
     0
281
     0
  0
CLASS
  1
RASTERVARIABLES
  2
AcDbRasterVariables
  3
ISM
 90
        0
280
     0
281
     0
  0
CLASS
  1
IMAGEDEF
  2
AcDbRasterImageDef
  3
ISM
 90
        0
280
     0
281
     0
  0
CLASS
  1
IMAGEDEF_REACTOR
  2
AcDbRasterImageDefReactor
  3
ISM
 90
        1
280
     0
281
     0
  0
CLASS
  1
IDBUFFER
  2
AcDbIdBuffer
  3
AutoCAD 2000
 90
        0
280
     0
281
     0
  0
CLASS
  1
SPATIAL_FILTER
  2
AcDbSpatialFilter
  3
AutoCAD 2000
 90
        0
280
     0
281
     0
  0
CLASS
  1
XRECORD
  2
AcDbXrecord
  3
AutoCAD 2000
 90
        0
280
     0
281
     0
  0
CLASS
  1
SORTENTSTABLE
  2
AcDbSortentsTable
  3
AutoCAD 2000
 90
        0
280
     0
281
     0
  0
CLASS
  1
LAYER_INDEX
  2
AcDbLayerIndex
  3
AutoCAD 2000
 90
        0
280
     0
281
     0
  0
CLASS
  1
SPATIAL_INDEX
  2
AcDbSpatialIndex
  3
AutoCAD 2000
 90
        0
280
     0
281
     0
  0
CLASS
  1
OBJECT_PTR
  2
CAseDLPNTableRecord
  3
ASE-LPNTableRecord
 90
        1
280
     0
281
     0
  0
CLASS
  1
PLOTSETTINGS
  2
AcDbPlotSettings
  3
AutoCAD 2000
 90
        0
280
     0
281
     0
  0
CLASS
  1
VBA_PROJECT
  2
AcDbVbaProject
  3
acadvba
 90
        0
280
     0
281
     0
  0
CLASS
  1
WIPEOUT
  2
AcDbWipeout
  3
WipeOut|AutoCAD Express Tool|expresstools@autodesk.com
 90
      127
280
     0
281
     1
  0
CLASS
  1
WIPEOUTVARIABLES
  2
AcDbWipeoutVariables
  3
WipeOut|AutoCAD Express Tool|expresstools@autodesk.com
 90
        0
280
     0
281
     0
  0
CLASS
  1
RTEXT
  2
RText
  3
RText|AutoCAD Express Tool|expresstools@autodesk.com
 90
        0
280
     0
281
     1
  0
CLASS
  1
ARCALIGNEDTEXT
  2
AcDbArcAlignedText
  3
ATEXT|AutoCAD Express Tool|expresstools@autodesk.com
 90
        0
280
     0
281
     1
  0
CLASS
  1
LONG_TRANSACTION
  2
AcDbLongTransaction
  3
AutoCAD 2000
 90
        0
280
     0
281
     0
  0
CLASS
  1
LWPOLYLINE
  2
AcDbPolyline
  3
AutoCAD 2000
 90
        0
280
     0
281
     1
  0
CLASS
  1
HATCH
  2
AcDbHatch
  3
AutoCAD 2000
 90
        0
280
     0
281
     1
  0
CLASS
  1
XRECORD
  2
AcDbXrecord
  3
AutoCAD 2000
 90
        0
280
     0
281
     0
  0
CLASS
  1
LONG_TRANSACTION
  2
AcDbLongTransaction
  3
AutoCAD 2000
 90
        0
280
     0
281
     0
  0
CLASS
  1
LWPOLYLINE
  2
AcDbPolyline
  3
AutoCAD 2000
 90
        0
280
     0
281
     1
  0
CLASS
  1
HATCH
  2
AcDbHatch
  3
AutoCAD 2000
 90
        0
280
     0
281
     1
  0
CLASS
  1
XRECORD
  2
AcDbXrecord
  3
AutoCAD 2000
 90
        0
280
     0
281
     0
  0
CLASS
  1
LONG_TRANSACTION
  2
AcDbLongTransaction
  3
AutoCAD 2000
 90
        0
280
     0
281
     0
  0
CLASS
  1
LWPOLYLINE
  2
AcDbPolyline
  3
AutoCAD 2000
 90
        0
280
     0
281
     1
  0
CLASS
  1
HATCH
  2
AcDbHatch
  3
AutoCAD 2000
 90
        0
280
     0
281
     1
  0
CLASS
  1
XRECORD
  2
AcDbXrecord
  3
AutoCAD 2000
 90
        0
280
     0
281
     0
  0
ENDSEC
  0
SECTION
  2
TABLES
  0
TABLE
  2
VPORT
  5
8
330
0
100
AcDbSymbolTable
 70
     3
  0
VPORT
  5
1E0F
330
8
100
AcDbSymbolTableRecord
100
AcDbViewportTableRecord
  2
*ACTIVE
 70
     0
 10
0.0
 20
0.0
 11
1.0
 21
1.0
 12
20.81305049943248
 22
10.07006114181321
 13
0.0
 23
0.0
 14
1.0
 24
1.0
 15
0.0
 25
0.0
 16
0.0
 26
0.0
 36
1.0
 17
0.0
 27
0.0
 37
0.0
 40
23.98488199039024
 41
1.745424292845257
 42
50.0
 43
0.0
 44
0.0
 50
0.0
 51
0.0
 71
     0
 72
   100
 73
     1
 74
     1
 75
     0
 76
     0
 77
     0
 78
     0
  0
ENDTAB
  0
TABLE
  2
LTYPE
  5
5
330
0
100
AcDbSymbolTable
 70
     3
  0
LTYPE
  5
14
330
5
100
AcDbSymbolTableRecord
100
AcDbLinetypeTableRecord
  2
BYBLOCK
 70
     0
  3

 72
    65
 73
     0
 40
0.0
  0
LTYPE
  5
15
330
5
100
AcDbSymbolTableRecord
100
AcDbLinetypeTableRecord
  2
BYLAYER
 70
     0
  3

 72
    65
 73
     0
 40
0.0
  0
LTYPE
  5
16
330
5
100
AcDbSymbolTableRecord
100
AcDbLinetypeTableRecord
  2
CONTINUOUS
 70
     0
  3
Solid line
 72
    65
 73
     0
 40
0.0
  0
LTYPE
  5
1F6
330
5
100
AcDbSymbolTableRecord
100
AcDbLinetypeTableRecord
  2
HIDDEN
 70
     0
  3
Hidden __ __ __ __ __ __ __ __ __ __ __ __ __ _
 72
    65
 73
     2
 40
0.375
 49
0.25
 74
     0
 49
-0.125
 74
     0
  0
LTYPE
  5
1295
330
5
100
AcDbSymbolTableRecord
100
AcDbLinetypeTableRecord
  2
CENTERX2
 70
     0
  3
Center (2x) ________  __  ________  __  _____
 72
    65
 73
     4
 40
4.0
 49
2.5
 74
     0
 49
-0.5
 74
     0
 49
0.5
 74
     0
 49
-0.5
 74
     0
  0
ENDTAB
  0
TABLE
  2
LAYER
  5
2
330
0
100
AcDbSymbolTable
 70
     2
  0
LAYER
  5
10
330
2
100
AcDbSymbolTableRecord
100
AcDbLayerTableRecord
  2
0
 70
     0
 62
     7
  6
CONTINUOUS
  0
LAYER
  5
B09
330
2
100
AcDbSymbolTableRecord
100
AcDbLayerTableRecord
  2
CENTER
 70
     0
 62
     1
  6
CENTERX2
  0
ENDTAB
  0
TABLE
  2
STYLE
  5
3
330
0
100
AcDbSymbolTable
 70
     2
  0
STYLE
  5
11
330
3
100
AcDbSymbolTableRecord
100
AcDbTextStyleTableRecord
  2
STANDARD
 70
     0
 40
0.0
 41
0.8
 50
0.0
 71
     0
 42
0.2
  3
txt
  4

  0
STYLE
  5
21B
330
3
100
AcDbSymbolTableRecord
100
AcDbTextStyleTableRecord
  2
TEXTSTYLE_1
 70
     0
 40
0.0
 41
0.8
 50
0.0
 71
     0
 42
0.2
  3
txt
  4

  0
ENDTAB
  0
TABLE
  2
VIEW
  5
6
330
0
100
AcDbSymbolTable
 70
     0
  0
ENDTAB
  0
TABLE
  2
UCS
  5
7
330
0
100
AcDbSymbolTable
 70
     0
  0
ENDTAB
  0
TABLE
  2
APPID
  5
9
330
0
100
AcDbSymbolTable
 70
     2
  0
APPID
  5
21F
330
9
100
AcDbSymbolTableRecord
100
AcDbRegAppTableRecord
  2
ACAD
 70
     0
  0
APPID
  5
AFF
330
9
100
AcDbSymbolTableRecord
100
AcDbRegAppTableRecord
  2
DCO15
 70
     0
  0
ENDTAB
  0
TABLE
  2
DIMSTYLE
  5
A
330
0
100
AcDbSymbolTable
 70
     1
  0
DIMSTYLE
105
240
330
A
100
AcDbSymbolTableRecord
100
AcDbDimStyleTableRecord
  2
STANDARD
 70
     0
  3

  4

  5
_FILLED
  6
_FILLED
  7
_FILLED
 40
1.0
 41
0.1875
 42
0.0625
 43
0.38
 44
0.18
 45
0.0
 46
0.0
 47
0.00001
 48
0.00001
140
0.125
141
0.09
142
0.0
143
25.4
144
1.0
145
0.0
146
1.0
147
0.09
 71
     0
 72
     0
 73
     1
 74
     1
 75
     0
 76
     0
 77
     0
 78
     4
170
     0
171
     2
172
     0
173
     0
174
     0
175
     0
176
     0
177
     0
178
     0
270
     2
271
     5
272
     5
273
     2
274
     2
340
11
275
     0
280
     0
281
     0
282
     0
283
     1
284
     4
285
     0
286
     0
287
     3
288
     0
  0
ENDTAB
  0
TABLE
  2
BLOCK_RECORD
  5
1
330
0
100
AcDbSymbolTable
 70
     1
  0
BLOCK_RECORD
  5
1F
102
{ACAD_XDICTIONARY
360
1C78
102
}
330
1
100
AcDbSymbolTableRecord
100
AcDbBlockTableRecord
  2
*MODEL_SPACE
  0
BLOCK_RECORD
  5
1B
102
{ACAD_XDICTIONARY
360
1C76
102
}
330
1
100
AcDbSymbolTableRecord
100
AcDbBlockTableRecord
  2
*PAPER_SPACE
  0
BLOCK_RECORD
  5
220
330
1
100
AcDbSymbolTableRecord
100
AcDbBlockTableRecord
  2
_FILLED
  0
ENDTAB
  0
ENDSEC
  0
SECTION
  2
BLOCKS
  0
BLOCK
  5
20
330
1F
100
AcDbEntity
  8
0
100
AcDbBlockBegin
  2
*MODEL_SPACE
 70
     0
 10
0.0
 20
0.0
 30
0.0
  3
*MODEL_SPACE
  1

  0
ENDBLK
  5
21
330
1F
100
AcDbEntity
  8
0
100
AcDbBlockEnd
  0
BLOCK
  5
1C
330
1B
100
AcDbEntity
 67
     1
  8
0
100
AcDbBlockBegin
  2
*PAPER_SPACE
 70
     0
 10
0.0
 20
0.0
 30
0.0
  3
*PAPER_SPACE
  1

  0
ENDBLK
  5
1D
330
1B
100
AcDbEntity
 67
     1
  8
0
100
AcDbBlockEnd
  0
BLOCK
  5
442
330
220
100
AcDbEntity
  8
0
100
AcDbBlockBegin
  2
_FILLED
 70
     0
 10
0.0
 20
0.0
 30
0.0
  3
_FILLED
  1

  0
SOLID
  5
443
330
220
100
AcDbEntity
  8
0
  6
BYBLOCK
 62
     0
100
AcDbTrace
 10
0.0
 20
0.0
 30
0.0
 11
-1.0
 21
0.1666666667
 31
0.0
 12
-1.0
 22
-0.1666666667
 32
0.0
 13
-1.0
 23
-0.1666666667
 33
0.0
  0
ENDBLK
  5
444
330
220
100
AcDbEntity
  8
0
  6
BYBLOCK
 62
     0
100
AcDbBlockEnd
  0
ENDSEC
  0
SECTION
  2
ENTITIES
  0
MTEXT
  5
4BB
330
1F
100
AcDbEntity
  8
0
  6
CONTINUOUS
 62
     2
100
AcDbMText
 10
15.84375
 20
2.3125
 30
0.0
 40
0.09375
 41
0.075
 71
     2
 72
     1
  1
 \P \P 
  7
TEXTSTYLE_1
1001
ACAD
1000
MTEXTBEGIN
1070
    73
1070
     1
1070
    44
1040
1.0
1070
    74
1070
     0
1000
MTEXTEND
1000
MTEXTBEGIN
1070
    73
1070
     1
1070
    44
1040
1.0
1070
    74
1070
     0
1000
MTEXTEND
1000
MTEXTBEGIN
1070
    73
1070
     1
1070
    44
1040
1.0
1070
    74
1070
     0
1000
MTEXTEND
  0
LINE
  5
1CDC
330
1F
100
AcDbEntity
  8
0
100
AcDbLine
 10
28.25548961794192
 20
0.6130653648000078
 30
0.0
 11
28.56412351714192
 21
1.461030033599996
 31
0.0
  0
LINE
  5
1CDD
330
1F
100
AcDbEntity
  8
0
100
AcDbLine
 10
25.83481696674192
 20
1.49816281599999
 30
0.0
 11
26.60657274434191
 21
0.3959813392000058
 31
0.0
  0
LINE
  5
1CDF
330
1F
100
AcDbEntity
  8
CENTER
100
AcDbLine
 10
12.37452778594195
 20
3.196209248000002
 30
0.0
 11
12.37452778594195
 21
-0.7537907519999863
 31
0.0
  0
LINE
  5
1CE0
330
1F
100
AcDbEntity
  8
0
100
AcDbLine
 10
15.14770467074191
 20
0.399772091199992
 30
0.0
 11
15.83954418274191
 21
1.396562593600009
 31
0.0
  0
LINE
  5
1CE1
330
1F
100
AcDbEntity
  8
0
100
AcDbLine
 10
13.49878779714191
 20
0.616856116799994
 30
0.0
 11
13.44980087394191
 21
0.8187499999999943
 31
0.0
  0
ARC
  5
1CE2
330
1F
100
AcDbEntity
  8
0
100
AcDbCircle
 10
14.37974962914194
 20
0.9375
 30
0.0
 40
0.9375
100
AcDbArc
 50
199.9999999999999
 51
324.9999999999999
  0
ARC
  5
1CE3
330
1F
100
AcDbEntity
  8
0
100
AcDbCircle
 10
27.37452778594195
 20
0.9337092480000137
 30
0.0
 40
0.9375
100
AcDbArc
 50
215.0
 51
340.0
  0
LINE
  5
1CE4
330
1F
100
AcDbEntity
  8
0
100
AcDbLine
 10
0.125
 20
18.84620924800003
 30
0.0
 11
41.6240555718839
 21
18.84620924800003
 31
0.0
  0
LINE
  5
1CE5
330
1F
100
AcDbEntity
  8
0
100
AcDbLine
 10
0.5290601200000538
 20
20.84620924800003
 30
0.0
 11
41.21999545188384
 21
20.84620924800003
 31
0.0
  0
LINE
  5
1CE6
330
1F
100
AcDbEntity
  8
0
100
AcDbLine
 10
25.43722439794197
 20
1.688613064000008
 30
0.0
 11
29.0553852035419
 21
1.809759411199991
 31
0.0
  0
LWPOLYLINE
  5
1CE7
330
1F
100
AcDbEntity
  8
0
100
AcDbPolyline
 90
       11
 70
     0
 43
0.0
 10
29.22082672514193
 20
8.894304632
 10
29.01524729474198
 20
8.882193382400004
 10
28.83408697154192
 20
8.872828193600014
 10
28.67394510274192
 20
8.865427227200001
 10
28.52513111714193
 20
8.859219292799991
 10
28.37766543234198
 20
8.853637083199998
 10
28.22792127234191
 20
8.848480692799995
 10
28.07722830274196
 20
8.843737401600009
 10
27.92502047394197
 20
8.839308123199998
 10
27.76952360674198
 20
8.835045985600004
 10
27.60876990754195
 20
8.830767947200001
  0
LWPOLYLINE
  5
1CE8
330
1F
100
AcDbEntity
  8
0
100
AcDbPolyline
 90
        3
 70
     0
 43
0.0
 10
4.997556236823072
 20
18.84620924800003
 10
5.278566534741969
 20
16.8756605824
 10
5.653438430741914
 20
14.120153208
  0
LWPOLYLINE
  5
1CE9
330
1F
100
AcDbEntity
  8
0
  6
HIDDEN
 62
     8
100
AcDbPolyline
 90
       39
 70
     0
 43
0.0
 10
6.102688451541951
 20
17.46454368000001
 10
6.103142705941934
 20
17.452855104
 10
6.104255853141978
 20
17.43288292479999
 10
6.105719397141967
 20
17.4133156192
 10
6.107429593941958
 20
17.39397545439999
 10
6.109282701141921
 20
17.3746846944
 10
6.113987645141946
 20
17.32763230720002
 10
6.119025643541931
 20
17.2803246912
 10
6.125350197141926
 20
17.2258148672
 10
6.132117763541941
 20
17.17145331520001
 10
6.140035344341924
 20
17.11091197120001
 10
6.148311641941916
 20
17.05038866879999
 10
6.158102920341946
 20
16.98187139999999
 10
6.168306873941958
 20
16.91342461919998
 10
6.180006259541926
 20
16.83805279519998
 10
6.192181984341971
 20
16.76275006560001
 10
6.204881022741972
 20
16.68734049279999
 10
6.218120211541929
 20
16.61203773120002
 10
6.23014369314194
 20
16.54651635359999
 10
6.24267624674195
 20
16.48105002080001
 10
6.253616109141944
 20
16.4263395824
 10
6.265130760341946
 20
16.3718631312
 10
6.275061888341951
 20
16.3276386128
 10
6.285503761941924
 20
16.28321266400001
 10
6.289700569941942
 20
16.2658895472
 10
6.294070686741918
 20
16.24865051360001
 10
6.298709470741925
 20
16.23168649440001
 10
6.303712286741927
 20
16.21518842080001
 10
6.307374293141947
 20
16.20423059040001
 10
6.311225742741953
 20
16.19323701760001
 10
6.315242240341945
 20
16.181866192
 10
6.319399381141977
 20
16.1697765984
 10
6.320554102741937
 20
16.16636984799998
 10
6.321793422741905
 20
16.16300325759999
 10
6.323193485141985
 20
16.15979409120001
 10
6.324830438741912
 20
16.15685961280002
 10
6.326780425941933
 20
16.1543170816
 10
6.329119593941925
 20
16.15228376480001
 10
6.331924088341963
 20
16.1508769232
  0
LINE
  5
1CEA
330
1F
100
AcDbEntity
  8
0
  6
HIDDEN
 62
     8
100
AcDbLine
 10
6.109100273941919
 20
17.5496271664
 30
0.0
 11
8.869858896877644
 21
16.59902173854956
 31
0.0
  0
ARC
  5
1CEB
330
1F
100
AcDbEntity
  8
0
100
AcDbCircle
 10
11.10308117634196
 20
1.096209248000008
 30
0.0
 40
0.28125
100
AcDbArc
 50
225.0
 51
270.0
  0
LWPOLYLINE
  5
1CEC
330
1F
100
AcDbEntity
  8
0
100
AcDbPolyline
 90
        5
 70
     0
 43
0.0
 10
10.81971332674191
 20
9.011085555199997
 10
10.90397884194197
 20
9.006610311999992
 10
10.99316017794194
 20
9.001705329599985
 10
11.07901715714194
 20
8.996504055999992
 10
11.11935423874194
 20
8.993744017599993
  0
LWPOLYLINE
  5
1CED
330
1F
100
AcDbEntity
  8
0
100
AcDbPolyline
 90
       17
 70
     0
 43
0.0
 10
10.59076393474191
 20
1.383882419200006
 10
10.64505449954191
 20
1.381327067200004
 10
10.70559524514197
 20
1.378562387199991
 10
10.7730617651419
 20
1.375597558399988
 10
10.84815544194196
 20
1.372447958400016
 10
10.93179000994194
 20
1.369128542400005
 10
11.02509420834195
 20
1.365656464000011
 10
11.12910184034194
 20
1.362064363200005
 10
11.24394915874194
 20
1.358423281600011
 10
11.36840736994196
 20
1.354841515200007
 10
11.50119631394193
 20
1.351411150399997
 10
11.63965445634193
 20
1.348235705600018
 10
11.78178981634192
 20
1.345373740799999
 10
11.92711001474191
 20
1.342837854399988
 10
12.07459609794193
 20
1.340644249600018
 10
12.22375512514196
 20
1.338795734400008
 10
12.3742558627419
 20
1.337292561600008
  0
LINE
  5
1CEE
330
1F
100
AcDbEntity
  8
0
100
AcDbLine
 10
7.43723225359713
 20
9.377693275812646
 30
0.0
 11
8.311928606741901
 21
3.153905313600006
 31
0.0
  0
ARC
  5
1CEF
330
1F
100
AcDbEntity
  8
0
100
AcDbCircle
 10
10.31451542274197
 20
1.177668222400001
 30
0.0
 40
0.21875
100
AcDbArc
 50
45.00000023180009
 51
84.93683204110004
  0
LWPOLYLINE
  5
1CF0
330
1F
100
AcDbEntity
  8
0
100
AcDbPolyline
 90
        4
 70
     0
 43
0.0
 10
10.3338140147419
 20
1.395566630399997
 10
10.26468117794195
 20
1.401805076800002
 10
10.19533034274195
 20
1.414134402205831
 10
10.15347234114193
 20
1.424477200000012
  0
LWPOLYLINE
  5
1CF1
330
1F
100
AcDbEntity
  8
0
100
AcDbPolyline
 90
        3
 70
     0
 43
0.0
 10
10.42632822594197
 20
1.391846595200007
 10
10.49858832674198
 20
1.388342510400008
 10
10.59076393474191
 20
1.383882419200006
  0
LWPOLYLINE
  5
1CF2
330
1F
100
AcDbEntity
  8
0
100
AcDbPolyline
 90
        7
 70
     0
 43
0.0
 10
10.3338140147419
 20
1.395566630399997
 10
10.33621925154193
 20
1.395536331199991
 10
10.34361890114195
 20
1.395355999999992
 10
10.35625605154194
 20
1.394932364800013
 10
10.37430117954193
 20
1.394213556799996
 10
10.39772092194192
 20
1.393182153600008
 10
10.42632822594197
 20
1.391846595200007
  0
LWPOLYLINE
  5
1CF3
330
1F
100
AcDbEntity
  8
0
100
AcDbPolyline
 90
       22
 70
     0
 43
0.0
 10
8.318650829141972
 20
3.157724217599991
 10
8.341276521941949
 20
3.030024152000009
 10
8.372001216341971
 20
2.904036996800016
 10
8.41070305794193
 20
2.780261526400011
 10
8.457222389141918
 20
2.659209971199999
 10
8.51136997154191
 20
2.541374387199994
 10
8.572925083541974
 20
2.427235105600004
 10
8.641636809941985
 20
2.317257387200015
 10
8.717225065941931
 20
2.2118895328
 10
8.799381731541927
 20
2.111561051199998
 10
8.887771913941946
 20
2.016680905599997
 10
8.982035313941935
 20
1.927635857599995
 10
9.081787685141932
 20
1.844788875200009
 10
9.186622413141947
 20
1.768477667199988
 10
9.296112161941948
 20
1.699013299200004
 10
9.409810624341901
 20
1.636678926400009
 10
9.527254331541939
 20
1.581728641599994
 10
9.647964555541932
 20
1.534386435200019
 10
9.771449246741951
 20
1.494845291199993
 10
9.897205048341959
 20
1.463266385600007
 10
10.02471934754197
 20
1.439778446399998
 10
10.15347234114193
 20
1.424477200000012
  0
LINE
  5
1CF4
330
1F
100
AcDbEntity
  8
0
100
AcDbLine
 10
10.90420739394193
 20
0.8973354656000083
 30
0.0
 11
10.46919503074195
 21
1.33234783040001
 31
0.0
  0
LINE
  5
1CF5
330
1F
100
AcDbEntity
  8
0
100
AcDbLine
 10
5.653438430741914
 20
14.120153208
 30
0.0
 11
5.970183859541918
 21
11.67860216479999
 31
0.0
  0
LWPOLYLINE
  5
1CF6
330
1F
100
AcDbEntity
  8
0
100
AcDbPolyline
 90
        6
 70
     0
 43
0.0
 10
6.166041337941976
 20
10.2984222336
 10
6.224250462741963
 20
10.15887017439999
 10
6.301843128341943
 20
10.027999424
 10
6.400335541141942
 20
9.904686024
 10
6.521233123541946
 20
9.789563844799999
 10
6.666944760341948
 20
9.683044883200011
  0
LWPOLYLINE
  5
1CF7
330
1F
100
AcDbEntity
  8
0
100
AcDbPolyline
 90
        6
 70
     0
 43
0.0
 10
6.224249741141932
 20
10.15887161119999
 10
6.301817926741932
 20
10.0280359136
 10
6.400280584341942
 20
9.904745979200015
 10
6.521169153941912
 20
9.789617236800012
 10
6.66687115074194
 20
9.683092140799999
 10
6.835389685141933
 20
9.587935656000013
  0
LINE
  5
1CF8
330
1F
100
AcDbEntity
  8
0
100
AcDbLine
 10
6.061604429141937
 20
10.95067461119998
 30
0.0
 11
6.113729077141954
 21
10.53047866240001
 31
0.0
  0
LWPOLYLINE
  5
1CF9
330
1F
100
AcDbEntity
  8
0
100
AcDbPolyline
 90
        3
 70
     0
 43
0.0
 10
5.970183886741949
 20
11.67860215519999
 10
6.010671957141937
 20
11.3576530848
 10
6.061604429141937
 20
10.95067461119998
  0
LINE
  5
1CFA
330
1F
100
AcDbEntity
  8
0
100
AcDbLine
 10
6.113559649941919
 20
10.53149987520001
 30
0.0
 11
6.11493277794193
 21
10.52075211039999
 31
0.0
  0
LINE
  5
1CFB
330
1F
100
AcDbEntity
  8
0
100
AcDbLine
 10
6.11493277794193
 20
10.52075211039999
 30
0.0
 11
6.121232777941941
 21
10.47852292480001
 31
0.0
  0
LINE
  5
1CFC
330
1F
100
AcDbEntity
  8
0
100
AcDbLine
 10
6.121232777941941
 20
10.47852292480001
 30
0.0
 11
6.128039579541962
 21
10.44121518719998
 31
0.0
  0
LINE
  5
1CFD
330
1F
100
AcDbEntity
  8
0
100
AcDbLine
 10
6.128052913941985
 20
10.44114800799999
 30
0.0
 11
6.128039573141961
 21
10.44121518399998
 31
0.0
  0
LINE
  5
1CFE
330
1F
100
AcDbEntity
  8
0
100
AcDbLine
 10
6.128052913941985
 20
10.44114800799999
 30
0.0
 11
6.166047803541971
 21
10.29840309759998
 31
0.0
  0
LWPOLYLINE
  5
1CFF
330
1F
100
AcDbEntity
  8
0
100
AcDbPolyline
 90
       11
 70
     0
 43
0.0
 10
7.230962443541955
 20
9.433901187200007
 10
7.459669608341926
 20
9.37157916320001
 10
7.71039986754198
 20
9.316696772800014
 10
7.984417808341902
 20
9.267673148799985
 10
8.285321651541948
 20
9.222953574400008
 10
8.617219443541955
 20
9.181410747200004
 10
8.984498171541929
 20
9.142422678400009
 10
9.388961824341947
 20
9.105838713600007
 10
9.832045195541979
 20
9.071613924800004
 10
10.3150068387419
 20
9.039711667200009
 10
10.81973454434194
 20
9.011121796800011
  0
LINE
  5
1D00
330
1F
100
AcDbEntity
  8
0
100
AcDbLine
 10
6.835389685141933
 20
9.587935656000013
 30
0.0
 11
7.023515355541974
 21
9.505304150400007
 31
0.0
  0
LWPOLYLINE
  5
1D01
330
1F
100
AcDbEntity
  8
0
100
AcDbPolyline
 90
        3
 70
     0
 43
0.0
 10
6.83528842914194
 20
9.587986003200001
 10
7.02339219874193
 20
9.505351955200012
 10
7.231090254741957
 20
9.433862136000016
  0
LINE
  5
1D02
330
1F
100
AcDbEntity
  8
0
  6
HIDDEN
 62
     8
100
AcDbLine
 10
6.331924088341963
 20
16.1508769232
 30
0.0
 11
8.46289867804802
 21
15.4171235279197
 31
0.0
  0
ARC
  5
1D03
330
1F
100
AcDbEntity
  8
0
  6
HIDDEN
 62
     8
100
AcDbCircle
 10
8.666378800341931
 20
16.00807262879999
 30
0.0
 40
0.625
100
AcDbArc
 50
250.9999999999998
 51
70.99999999999991
  0
LINE
  5
1D04
330
1F
100
AcDbEntity
  8
0
100
AcDbLine
 10
19.65961292834191
 20
1.513752297600007
 30
0.0
 11
22.11910307394197
 21
1.589688108800004
 31
0.0
  0
LWPOLYLINE
  5
1D05
330
1F
100
AcDbEntity
  8
0
100
AcDbPolyline
 90
       26
 70
     0
 43
0.0
 10
19.65961292834191
 20
1.513752297600007
 10
19.11458891074192
 20
1.496549524800002
 10
18.84606354434191
 20
1.4881154304
 10
18.58045021794197
 20
1.479803510400017
 10
18.31793963714193
 20
1.471621747200003
 10
18.05872250914194
 20
1.463578126399994
 10
17.80298954114192
 20
1.455680630399996
 10
17.55093144194194
 20
1.447937243199987
 10
17.30273891714193
 20
1.440355948800004
 10
17.10268077954191
 20
1.434279214399992
 10
16.90544245634197
 20
1.428320705600015
 10
16.71112840034192
 20
1.422484796800006
 10
16.51984306274192
 20
1.416775857599986
 10
16.33169089634196
 20
1.411198264000006
 10
16.14677635234193
 20
1.4057563856
 10
15.96520388354196
 20
1.400454598400017
 10
15.78707794274197
 20
1.395297273599993
 10
15.61250297954194
 20
1.390288782400006
 10
15.44158344834193
 20
1.38543350079999
 10
15.2744237987419
 20
1.380735799999996
 10
15.11779138914192
 20
1.376384028800003
 10
14.96480223234192
 20
1.372184977599999
 10
14.81554769794195
 20
1.368142507199991
 10
14.67011916034192
 20
1.364260478400012
 10
14.5286079891419
 20
1.360542753599986
 10
14.39110555714194
 20
1.356993192000004
  0
ARC
  5
1D06
330
1F
100
AcDbEntity
  8
0
100
AcDbCircle
 10
14.39661997474195
 20
1.138316975999998
 30
0.0
 40
0.2187499984
100
AcDbArc
 50
91.47072121659995
 51
134.9999966719
  0
ARC
  5
1D07
330
1F
100
AcDbEntity
  8
0
100
AcDbCircle
 10
13.65119623874193
 20
1.099999999999994
 30
0.0
 40
0.28125
100
AcDbArc
 50
270.0
 51
314.9999999999999
  0
LINE
  5
1D08
330
1F
100
AcDbEntity
  8
0
100
AcDbLine
 10
11.10308117634196
 20
0.814959248000008
 30
0.0
 11
13.65119623874193
 21
0.8187499999999943
 31
0.0
  0
LINE
  5
1D09
330
1F
100
AcDbEntity
  8
0
100
AcDbLine
 10
13.85007001954193
 20
0.9011262175999945
 30
0.0
 11
14.24194038594197
 21
1.292996584000007
 31
0.0
  0
LINE
  5
1D0A
330
1F
100
AcDbEntity
  8
0
100
AcDbLine
 10
12.3742558627419
 20
1.337292561600008
 30
0.0
 11
14.39110555714194
 21
1.356993192000004
 31
0.0
  0
LINE
  5
1D0B
330
1F
100
AcDbEntity
  8
0
100
AcDbLine
 10
11.1193568515419
 20
8.993743752
 30
0.0
 11
11.30507062914193
 21
8.980506316800017
 31
0.0
  0
LWPOLYLINE
  5
1D0C
330
1F
100
AcDbEntity
  8
0
100
AcDbPolyline
 90
        5
 70
     0
 43
0.0
 10
11.63970404034194
 20
8.957234307199996
 10
11.89537547234198
 20
8.939152571199997
 10
12.12539681314194
 20
8.922341556800006
 10
12.33509766594193
 20
8.907226462399989
 10
12.52822884674191
 20
8.894304632
  0
LWPOLYLINE
  5
1D0D
330
1F
100
AcDbEntity
  8
0
100
AcDbPolyline
 90
        4
 70
     0
 43
0.0
 10
11.30507062914193
 20
8.980506316800017
 10
11.42181168194196
 20
8.972308078400004
 10
11.53312390754194
 20
8.964588614399985
 10
11.63970404034194
 20
8.957234307199996
  0
LWPOLYLINE
  5
1D0E
330
1F
100
AcDbEntity
  8
0
100
AcDbPolyline
 90
       11
 70
     0
 43
0.0
 10
12.52822884674191
 20
8.894304632
 10
12.73380827714191
 20
8.882193382400004
 10
12.91496860034198
 20
8.872828193600014
 10
13.07511046914197
 20
8.865427227200001
 10
13.22392445474196
 20
8.859219292799991
 10
13.37139013954191
 20
8.853637083199998
 10
13.52113429954198
 20
8.848480692799995
 10
13.67182726914194
 20
8.843737401600009
 10
13.82403509794193
 20
8.839308123199998
 10
13.97953196514191
 20
8.835045985600004
 10
14.14028566434194
 20
8.830767947200001
  0
LINE
  5
1D0F
330
1F
100
AcDbEntity
  8
0
100
AcDbLine
 10
14.14028566434194
 20
8.830767947200001
 30
0.0
 11
14.27656839714194
 21
8.827138054399995
 31
0.0
  0
LWPOLYLINE
  5
1D10
330
1F
100
AcDbEntity
  8
0
100
AcDbPolyline
 90
        3
 70
     0
 43
0.0
 10
22.11319221954198
 20
1.586485697600011
 10
23.27273580674193
 20
1.623708937599985
 10
25.29876148034196
 20
1.689036582400007
  0
LWPOLYLINE
  5
1D11
330
1F
100
AcDbEntity
  8
0
100
AcDbPolyline
 90
        4
 70
     0
 43
0.0
 10
25.83482057794191
 20
1.498166505600011
 10
25.7209387299419
 20
1.61456489919999
 10
25.57568731554198
 20
1.68818954560001
 10
25.29876148034196
 20
1.689036582400007
  0
LINE
  5
1D12
330
1F
100
AcDbEntity
  8
0
100
AcDbLine
 10
27.60876990754195
 20
8.830767947200001
 30
0.0
 11
27.47248717474195
 21
8.827138054399995
 31
0.0
  0
LINE
  5
1D13
330
1F
100
AcDbEntity
  8
0
100
AcDbLine
 10
0.2800114463999535
 20
20.61799818400004
 30
0.0
 11
0.125
 21
18.84620924800003
 31
0.0
  0
ARC
  5
1D14
330
1F
100
AcDbEntity
  8
0
100
AcDbCircle
 10
0.5290601200000538
 20
20.59620924800003
 30
0.0
 40
0.25
100
AcDbArc
 50
90.0
 51
175.0
  0
LWPOLYLINE
  5
1D15
330
1F
100
AcDbEntity
  8
0
  6
HIDDEN
 62
     8
100
AcDbPolyline
 90
       15
 70
     0
 43
0.0
 10
6.109100273941919
 20
17.5496271664
 10
6.107614827541908
 20
17.54969927199999
 10
6.106384960341927
 20
17.5489223344
 10
6.105373552341973
 20
17.54748569759999
 10
6.104184848341958
 20
17.5445079984
 10
6.103278870741917
 20
17.5411110432
 10
6.102208051541936
 20
17.53609231519999
 10
6.101467093141934
 20
17.53152436799999
 10
6.101006081941932
 20
17.5273278448
 10
6.100775104341948
 20
17.52342338400001
 10
6.100803603541919
 20
17.51617321439999
 10
6.101153286741975
 20
17.509138984
 10
6.101616555541966
 20
17.4987222672
 10
6.101986254741916
 20
17.48768139039998
 10
6.102688451541951
 20
17.46454368000001
  0
LWPOLYLINE
  5
1D16
330
1F
100
AcDbEntity
  8
0
100
AcDbPolyline
 90
        4
 70
     0
 43
0.0
 10
35.77899498114192
 20
11.67957581120001
 10
36.09561714114198
 20
14.120153208
 10
36.47048903714193
 20
16.8756605824
 10
36.75149933506077
 20
18.84620924800003
  0
LINE
  5
1D17
330
1F
100
AcDbEntity
  8
0
  6
HIDDEN
 62
     8
100
AcDbLine
 10
32.8951074207203
 20
16.60429220207791
 30
0.0
 11
35.65586573474195
 21
17.55489852639999
 31
0.0
  0
LWPOLYLINE
  5
1D18
330
1F
100
AcDbEntity
  8
0
  6
HIDDEN
 62
     8
100
AcDbPolyline
 90
       40
 70
     0
 43
0.0
 10
35.66297977474192
 20
17.492952752
 10
35.66227758434195
 20
17.46981504159998
 10
35.66182333474193
 20
17.4581264656
 10
35.66071019234192
 20
17.43815428639999
 10
35.65924665634196
 20
17.4185869808
 10
35.65753646594197
 20
17.39924681439998
 10
35.65568336354198
 20
17.37995605279999
 10
35.65097843554196
 20
17.33290366559998
 10
35.64594045314191
 20
17.285596048
 10
35.63961591714195
 20
17.23108622079999
 10
35.63284836834196
 20
17.1767246672
 10
35.62493080674193
 20
17.1161833216
 10
35.61665452834194
 20
17.05566001599999
 10
35.60686327394193
 20
16.98714274400001
 10
35.5966593411419
 20
16.91869596
 10
35.58495997954191
 20
16.8433241328
 10
35.57278427874194
 20
16.76802139840001
 10
35.56008526594195
 20
16.69261182240001
 10
35.54684610114196
 20
16.61730905440001
 10
35.53482264034192
 20
16.55178767360001
 10
35.52229010914192
 20
16.4863213376
 10
35.51135026434195
 20
16.43161089439999
 10
35.49983563074198
 20
16.37713443999999
 10
35.48990451714195
 20
16.33290991999999
 10
35.47946265794195
 20
16.2884839664
 10
35.47526585474196
 20
16.27116084799999
 10
35.47089574434193
 20
16.2539218128
 10
35.46625696514195
 20
16.23695779359999
 10
35.46125415554195
 20
16.2204597184
 10
35.45759215234193
 20
16.2095018848
 10
35.45374070594192
 20
16.198508312
 10
35.4497242131419
 20
16.18713748480002
 10
35.44556707554193
 20
16.17504788959999
 10
35.44441235554194
 20
16.1716411392
 10
35.44317303714194
 20
16.16827454880001
 10
35.44177297474192
 20
16.1650653824
 10
35.44013602274191
 20
16.1621309024
 10
35.43818603554194
 20
16.15958837120001
 10
35.43584686754195
 20
16.1575550528
 10
35.43304237474194
 20
16.15614821119999
  0
LINE
  5
1D19
330
1F
100
AcDbEntity
  8
0
100
AcDbLine
 10
33.72944195234191
 20
5.240015040000002
 30
0.0
 11
34.32452523234195
 21
9.381156815999986
 31
0.0
  0
LWPOLYLINE
  5
1D1A
330
1F
100
AcDbEntity
  8
0
100
AcDbPolyline
 90
        5
 70
     0
 43
0.0
 10
30.62970133314195
 20
8.993744017599993
 10
30.67003841474195
 20
8.996504055999992
 10
30.75589539394195
 20
9.001705329599985
 10
30.84507672994192
 20
9.006610311999992
 10
30.92934224514198
 20
9.011085555199997
  0
LINE
  5
1D1B
330
1F
100
AcDbEntity
  8
0
100
AcDbLine
 10
33.49810095714195
 20
3.629079211200007
 30
0.0
 11
33.72944195234191
 21
5.240015040000002
 31
0.0
  0
LWPOLYLINE
  5
1D1C
330
1F
100
AcDbEntity
  8
0
100
AcDbPolyline
 90
       19
 70
     0
 43
0.0
 10
33.49808253634193
 20
3.628986347199997
 10
33.46955442274196
 20
3.4740361952
 10
33.4291046211419
 20
3.32176376320001
 10
33.37697649154193
 20
3.173085192000002
 10
33.31348366434196
 20
3.028895000000005
 10
33.23900813794193
 20
2.890060699200006
 10
33.15399799234194
 20
2.757417580799994
 10
33.05896468674194
 20
2.631763684800006
 10
32.95447998434196
 20
2.513855003200006
 10
32.84117251234198
 20
2.4044009248
 10
32.71972397954192
 20
2.30405997759999
 10
32.59086507554195
 20
2.213435857600018
 10
32.45537107394193
 20
2.133073800000005
 10
32.31405716674197
 20
2.063457299199995
 10
32.16777356354197
 20
2.005005199999999
 10
32.01740037154195
 20
1.958069176000009
 10
31.86384230434197
 20
1.922931615999999
 10
31.70802323714196
 20
1.89980392160001
 10
31.55088064514194
 20
1.888825243200017
  0
LWPOLYLINE
  5
1D1D
330
1F
100
AcDbEntity
  8
0
100
AcDbPolyline
 90
        4
 70
     0
 43
0.0
 10
28.63562077954196
 20
1.592206084800011
 10
28.74268345794195
 20
1.696401783999988
 10
28.87575291074194
 20
1.764314768000019
 10
29.0553852035419
 20
1.809759411199991
  0
LINE
  5
1D1E
330
1F
100
AcDbEntity
  8
0
100
AcDbLine
 10
28.5641236947419
 20
1.461030518400008
 30
0.0
 11
28.63562077954196
 21
1.592206084800011
 31
0.0
  0
LINE
  5
1D1F
330
1F
100
AcDbEntity
  8
0
100
AcDbLine
 10
30.72743564354192
 20
1.862684633599997
 30
0.0
 11
31.55088064514194
 21
1.888825243200017
 31
0.0
  0
LWPOLYLINE
  5
1D20
330
1F
100
AcDbEntity
  8
0
100
AcDbPolyline
 90
        3
 70
     0
 43
0.0
 10
29.50403909474192
 20
1.824049529600017
 10
29.80450914434192
 20
1.833580620800006
 10
30.72743564354192
 20
1.862684633599997
  0
LINE
  5
1D21
330
1F
100
AcDbEntity
  8
0
100
AcDbLine
 10
29.0553852035419
 20
1.809759411199991
 30
0.0
 11
29.50403883714193
 21
1.824049521599988
 31
0.0
  0
LWPOLYLINE
  5
1D22
330
1F
100
AcDbEntity
  8
0
100
AcDbPolyline
 90
        4
 70
     0
 43
0.0
 10
30.4439849427419
 20
8.980506316800017
 10
30.32724388994194
 20
8.972308078400004
 10
30.21593166434195
 20
8.964588614399985
 10
30.10935153314193
 20
8.957234307199996
  0
LWPOLYLINE
  5
1D23
330
1F
100
AcDbEntity
  8
0
100
AcDbPolyline
 90
        5
 70
     0
 43
0.0
 10
30.10935153314193
 20
8.957234307199996
 10
29.85368010114195
 20
8.939152571199997
 10
29.62365876034192
 20
8.922341556800006
 10
29.41395790594191
 20
8.907226462399989
 10
29.22082672514193
 20
8.894304632
  0
LINE
  5
1D24
330
1F
100
AcDbEntity
  8
0
100
AcDbLine
 10
30.62969872034193
 20
8.993743752
 30
0.0
 11
30.4439849427419
 21
8.980506316800017
 31
0.0
  0
LWPOLYLINE
  5
1D25
330
1F
100
AcDbEntity
  8
0
100
AcDbPolyline
 90
       17
 70
     0
 43
0.0
 10
30.9293210275419
 20
9.011121796800011
 10
31.43402346114197
 20
9.039710123199995
 10
31.91696224194191
 20
9.071610486400004
 10
32.36002629474194
 20
9.105833075199996
 10
32.76447511874192
 20
9.142414620799996
 10
33.13174435234197
 20
9.18140017440001
 10
33.46363729794194
 20
9.2229404192
 10
33.76453684354197
 20
9.267656734399992
 10
34.03854727714195
 20
9.316675384000006
 10
34.28926575874192
 20
9.371549904000005
 10
34.51796531714194
 20
9.433862136000016
 10
34.72554021634192
 20
9.505304150400007
 10
34.91366588674196
 20
9.587935656000013
 10
35.08211081314192
 20
9.683044883200011
 10
35.22782244834195
 20
9.789563844799999
 10
35.34872003074196
 20
9.904686024
 10
35.44723764514191
 20
10.0280359136
  0
LINE
  5
1D26
330
1F
100
AcDbEntity
  8
0
100
AcDbLine
 10
35.62100267074191
 20
10.4411480656
 30
0.0
 11
35.62101595714193
 21
10.44121497279999
 31
0.0
  0
LINE
  5
1D27
330
1F
100
AcDbEntity
  8
0
100
AcDbLine
 10
35.62101595074193
 20
10.44121497599999
 30
0.0
 11
35.62767978594195
 21
10.477666408
 31
0.0
  0
LINE
  5
1D28
330
1F
100
AcDbEntity
  8
0
100
AcDbLine
 10
35.62767978594195
 20
10.477666408
 30
0.0
 11
35.6338874419419
 21
10.51897916640001
 31
0.0
  0
LINE
  5
1D29
330
1F
100
AcDbEntity
  8
0
  6
CONTINUOUS
 62
     7
100
AcDbLine
 10
35.6338874419419
 20
10.51897916640001
 30
0.0
 11
35.63549603074193
 21
10.5315007552
 31
0.0
  0
LINE
  5
1D2A
330
1F
100
AcDbEntity
  8
0
  6
CONTINUOUS
 62
     7
100
AcDbLine
 10
35.77899498114192
 20
11.67957581120001
 30
0.0
 11
35.73838361474196
 21
11.3576530848
 31
0.0
  0
LWPOLYLINE
  5
1D2B
330
1F
100
AcDbEntity
  8
0
  6
CONTINUOUS
 62
     7
100
AcDbPolyline
 90
        3
 70
     0
 43
0.0
 10
35.63532649474194
 20
10.53047866240001
 10
35.68745114274196
 20
10.95067461119998
 10
35.73838361474196
 20
11.3576530848
  0
LINE
  5
1D2C
330
1F
100
AcDbEntity
  8
0
100
AcDbLine
 10
35.44721244354195
 20
10.027999424
 30
0.0
 11
35.52480510914193
 21
10.15887017439999
 31
0.0
  0
LINE
  5
1D2D
330
1F
100
AcDbEntity
  8
0
100
AcDbLine
 10
35.52480583074197
 20
10.15887161119999
 30
0.0
 11
35.58300776994196
 21
10.29840309759998
 31
0.0
  0
LINE
  5
1D2E
330
1F
100
AcDbEntity
  8
0
100
AcDbLine
 10
35.58300776994196
 20
10.29840309759998
 30
0.0
 11
35.62100267074191
 21
10.4411480656
 31
0.0
  0
LWPOLYLINE
  5
1D2F
330
1F
100
AcDbEntity
  8
0
100
AcDbPolyline
 90
        7
 70
     0
 43
0.0
 10
34.32452488674192
 20
9.381154414399986
 10
34.51809312834194
 20
9.433901187200007
 10
34.72566337314191
 20
9.505351955200012
 10
34.91376714274196
 20
9.587986003200001
 10
35.0821844211419
 20
9.683092140799999
 10
35.22788641794193
 20
9.789617236800012
 10
35.34877498754195
 20
9.904745979200015
  0
ARC
  5
1D30
330
1F
100
AcDbEntity
  8
0
  6
HIDDEN
 62
     8
100
AcDbCircle
 10
33.09858770914195
 20
16.0133431584
 30
0.0
 40
0.625
100
AcDbArc
 50
109.0000186044001
 51
289.0000186043998
  0
LINE
  5
1D31
330
1F
100
AcDbEntity
  8
0
  6
HIDDEN
 62
     8
100
AcDbLine
 10
33.30206799756359
 20
15.42239411472209
 30
0.0
 11
35.43304237474194
 21
16.15614821119999
 31
0.0
  0
LWPOLYLINE
  5
1D32
330
1F
100
AcDbEntity
  8
0
  6
HIDDEN
 62
     8
100
AcDbPolyline
 90
       14
 70
     0
 43
0.0
 10
35.65586573474195
 20
17.55489852639999
 10
35.6573511811419
 20
17.55497063199999
 10
35.65858104834194
 20
17.55419369439999
 10
35.65959245634195
 20
17.55275705920001
 10
35.66078116194194
 20
17.54977936
 10
35.66168714114195
 20
17.5463824048
 10
35.66275796194196
 20
17.54136367680001
 10
35.66349892194193
 20
17.53679573120001
 10
35.66395993474197
 20
17.53259920639999
 10
35.66419091234195
 20
17.5286947456
 10
35.66416241634198
 20
17.52144457759999
 10
35.66381273474195
 20
17.5144103472
 10
35.6633494691419
 20
17.5039936288
 10
35.66297977474192
 20
17.492952752
  0
LINE
  5
1D33
330
1F
100
AcDbEntity
  8
0
100
AcDbLine
 10
41.46904412548394
 20
20.61799818400004
 30
0.0
 11
41.6240555718839
 21
18.84620924800003
 31
0.0
  0
ARC
  5
1D34
330
1F
100
AcDbEntity
  8
0
100
AcDbCircle
 10
41.21999545188384
 20
20.59620924800003
 30
0.0
 40
0.25
100
AcDbArc
 50
4.999999999999999
 51
90.0
  0
LINE
  5
1DCE
330
1F
100
AcDbEntity
  8
0
  6
HIDDEN
 62
     8
100
AcDbLine
 10
40.20586386308396
 20
20.46497141280001
 30
0.0
 11
36.49621258833232
 21
20.31114467175785
 31
0.0
  0
ARC
  5
1DD0
330
1F
100
AcDbEntity
  8
0
  6
HIDDEN
 62
     8
100
AcDbCircle
 10
37.5889758842463
 20
20.10340878026583
 30
0.0
 40
0.25
100
AcDbArc
 50
92.12091970859994
 51
174.1604735257
  0
ARC
  5
1DD1
330
1F
100
AcDbEntity
  8
0
  6
HIDDEN
 62
     8
100
AcDbCircle
 10
37.07527242184633
 20
19.78190372586585
 30
0.0
 40
0.1875
100
AcDbArc
 50
89.99979808069985
 51
173.7973829657215
  0
LINE
  5
1DD2
330
1F
100
AcDbEntity
  8
0
  6
HIDDEN
 62
     8
100
AcDbLine
 10
37.07527308262569
 20
19.96940372586469
 30
0.0
 11
37.16369439304637
 21
19.96940372586585
 31
0.0
  0
ARC
  5
1DD3
330
1F
100
AcDbEntity
  8
0
  6
HIDDEN
 62
     8
100
AcDbCircle
 10
37.16369439304637
 20
20.14690372586583
 30
0.0
 40
0.1775
100
AcDbArc
 50
270.0
 51
354.1604774670001
  0
ARC
  5
1DD4
330
1F
100
AcDbEntity
  8
0
  6
HIDDEN
 62
     8
100
AcDbCircle
 10
40.19929447108395
 20
20.64234981280002
 30
0.0
 40
0.1775
100
AcDbArc
 50
272.1210336093999
 51
353.8039410082
  0
ARC
  5
1DD5
330
1F
100
AcDbEntity
  8
0
  6
HIDDEN
 62
     8
100
AcDbCircle
 10
40.62429746788395
 20
20.59620924800003
 30
0.0
 40
0.25
100
AcDbArc
 50
90.0
 51
173.8039352020996
  0
LINE
  5
1DD6
330
1F
100
AcDbEntity
  8
0
  6
HIDDEN
 62
     8
100
AcDbLine
 10
36.75149933506078
 20
18.84620924800003
 30
0.0
 11
36.8907081447353
 21
19.81495334938078
 31
0.0
  0
LINE
  5
1DD7
330
1F
100
AcDbEntity
  8
0
  6
HIDDEN
 62
     8
100
AcDbLine
 10
34.32424031863481
 20
9.381079187333085
 30
0.0
 11
35.81762924540525
 21
19.77346539664612
 31
0.0
  0
ARC
  5
1DE5
330
1F
100
AcDbEntity
  8
0
  6
HIDDEN
 62
     8
100
AcDbCircle
 10
36.00219352251629
 20
19.74041577313119
 30
0.0
 40
0.1875
100
AcDbArc
 50
89.99979808069985
 51
173.7973829657215
  0
ARC
  5
1DE6
330
1F
100
AcDbEntity
  8
0
  6
HIDDEN
 62
     8
100
AcDbCircle
 10
36.51589698491626
 20
20.06192082753116
 30
0.0
 40
0.25
100
AcDbArc
 50
92.12091970859994
 51
174.1604735257
  0
ARC
  5
1DE7
330
1F
100
AcDbEntity
  8
0
  6
HIDDEN
 62
     8
100
AcDbCircle
 10
36.09061549371633
 20
20.10541577313117
 30
0.0
 40
0.1775
100
AcDbArc
 50
270.0
 51
354.1604774670001
  0
LINE
  5
1DE8
330
1F
100
AcDbEntity
  8
0
  6
HIDDEN
 62
     8
100
AcDbLine
 10
36.00219418329565
 20
19.92791577313002
 30
0.0
 11
36.09061549371633
 21
19.92791577313119
 31
0.0
  0
LINE
  5
1DE9
330
1F
100
AcDbEntity
  8
0
  6
HIDDEN
 62
     8
100
AcDbLine
 10
7.424815253249086
 20
9.381079187333085
 30
0.0
 11
5.931426326478643
 21
19.77346539664612
 31
0.0
  0
ARC
  5
1DEA
330
1F
100
AcDbEntity
  8
0
  6
HIDDEN
 62
     8
100
AcDbCircle
 10
8.650467862741948
 20
16.0133431584
 30
0.0
 40
0.625
100
AcDbArc
 50
250.9999813956
 51
70.99998139559989
  0
LINE
  5
1DEB
330
1F
100
AcDbEntity
  8
0
  6
HIDDEN
 62
     8
100
AcDbLine
 10
8.446987574320303
 20
15.42239411472209
 30
0.0
 11
6.316013197141955
 21
16.15614821119999
 31
0.0
  0
LINE
  5
1DEC
330
1F
100
AcDbEntity
  8
0
  6
HIDDEN
 62
     8
100
AcDbLine
 10
8.853948151163592
 20
16.60429220207791
 30
0.0
 11
6.093189837141949
 21
17.55489852639999
 31
0.0
  0
LWPOLYLINE
  5
1DED
330
1F
100
AcDbEntity
  8
0
  6
HIDDEN
 62
     8
100
AcDbPolyline
 90
       40
 70
     0
 43
0.0
 10
6.086075797141972
 20
17.492952752
 10
6.08677798754195
 20
17.46981504159998
 10
6.087232237141961
 20
17.4581264656
 10
6.088345379541976
 20
17.43815428639999
 10
6.089808915541937
 20
17.4185869808
 10
6.091519105941927
 20
17.39924681439998
 10
6.093372208341918
 20
17.37995605279999
 10
6.098077136341942
 20
17.33290366559998
 10
6.103115118741982
 20
17.285596048
 10
6.109439654741947
 20
17.23108622079999
 10
6.116207203541932
 20
17.1767246672
 10
6.124124765141971
 20
17.1161833216
 10
6.13240104354196
 20
17.05566001599999
 10
6.14219229794196
 20
16.98714274400001
 10
6.152396230741999
 20
16.91869596
 10
6.164095592341993
 20
16.8433241328
 10
6.176271293141951
 20
16.76802139840001
 10
6.18897030594195
 20
16.69261182240001
 10
6.202209470741934
 20
16.61730905440001
 10
6.214232931541971
 20
16.55178767360001
 10
6.22676546274198
 20
16.4863213376
 10
6.237705307541943
 20
16.43161089439999
 10
6.249219941141916
 20
16.37713443999999
 10
6.259151054741948
 20
16.33290991999999
 10
6.269592913941949
 20
16.2884839664
 10
6.273789717141937
 20
16.27116084799999
 10
6.278159827541969
 20
16.2539218128
 10
6.282798606741948
 20
16.23695779359999
 10
6.287801416341949
 20
16.2204597184
 10
6.291463419541969
 20
16.2095018848
 10
6.295314865941975
 20
16.198508312
 10
6.299331358741994
 20
16.18713748480002
 10
6.303488496341969
 20
16.17504788959999
 10
6.304643216341958
 20
16.1716411392
 10
6.305882534741954
 20
16.16827454880001
 10
6.307282597141977
 20
16.1650653824
 10
6.30891954914199
 20
16.1621309024
 10
6.310869536341954
 20
16.15958837120001
 10
6.313208704341946
 20
16.1575550528
 10
6.316013197141955
 20
16.15614821119999
  0
LWPOLYLINE
  5
1DEE
330
1F
100
AcDbEntity
  8
0
  6
HIDDEN
 62
     8
100
AcDbPolyline
 90
       14
 70
     0
 43
0.0
 10
6.093189837141949
 20
17.55489852639999
 10
6.091704390741995
 20
17.55497063199999
 10
6.090474523541956
 20
17.55419369439999
 10
6.089463115541946
 20
17.55275705920001
 10
6.088274409941959
 20
17.54977936
 10
6.087368430741946
 20
17.5463824048
 10
6.086297609941937
 20
17.54136367680001
 10
6.085556649941963
 20
17.53679573120001
 10
6.085095637141932
 20
17.53259920639999
 10
6.084864659541949
 20
17.5286947456
 10
6.084893155541919
 20
17.52144457759999
 10
6.085242837141947
 20
17.5144103472
 10
6.085706102741994
 20
17.5039936288
 10
6.086075797141972
 20
17.492952752
  0
LINE
  5
1DEF
330
1F
100
AcDbEntity
  8
0
  6
HIDDEN
 62
     8
100
AcDbLine
 10
1.543191708799938
 20
20.46497141280001
 30
0.0
 11
5.252842983551573
 21
20.31114467175785
 31
0.0
  0
LINE
  5
1DF0
330
1F
100
AcDbEntity
  8
0
  6
HIDDEN
 62
     8
100
AcDbLine
 10
4.997556236823115
 20
18.84620924800003
 30
0.0
 11
4.858347427148601
 21
19.81495334938078
 31
0.0
  0
ARC
  5
1DF1
330
1F
100
AcDbEntity
  8
0
  6
HIDDEN
 62
     8
100
AcDbCircle
 10
5.746862049367607
 20
19.74041577313119
 30
0.0
 40
0.1875
100
AcDbArc
 50
6.202617034278485
 51
90.00020191930017
  0
ARC
  5
1DF2
330
1F
100
AcDbEntity
  8
0
  6
HIDDEN
 62
     8
100
AcDbCircle
 10
4.673783150037564
 20
19.78190372586585
 30
0.0
 40
0.1875
100
AcDbArc
 50
6.202617034278485
 51
90.00020191930017
  0
ARC
  5
1DF3
330
1F
100
AcDbEntity
  8
0
  6
HIDDEN
 62
     8
100
AcDbCircle
 10
5.233158586967633
 20
20.06192082753116
 30
0.0
 40
0.25
100
AcDbArc
 50
5.839526474299969
 51
87.87908029140007
  0
LINE
  5
1DF4
330
1F
100
AcDbEntity
  8
0
  6
HIDDEN
 62
     8
100
AcDbLine
 10
5.746861388588243
 20
19.92791577313002
 30
0.0
 11
5.658440078167572
 21
19.92791577313119
 31
0.0
  0
ARC
  5
1DF5
330
1F
100
AcDbEntity
  8
0
  6
HIDDEN
 62
     8
100
AcDbCircle
 10
5.658440078167572
 20
20.10541577313117
 30
0.0
 40
0.1775
100
AcDbArc
 50
185.8395225329998
 51
270.0
  0
ARC
  5
1DF6
330
1F
100
AcDbEntity
  8
0
  6
HIDDEN
 62
     8
100
AcDbCircle
 10
4.16007968763759
 20
20.10340878026583
 30
0.0
 40
0.25
100
AcDbArc
 50
5.839526474299969
 51
87.87908029140007
  0
ARC
  5
1DF7
330
1F
100
AcDbEntity
  8
0
  6
HIDDEN
 62
     8
100
AcDbCircle
 10
4.58536117883753
 20
20.14690372586583
 30
0.0
 40
0.1775
100
AcDbArc
 50
185.8395225329998
 51
270.0
  0
LINE
  5
1DF8
330
1F
100
AcDbEntity
  8
0
  6
HIDDEN
 62
     8
100
AcDbLine
 10
4.673782489258201
 20
19.96940372586469
 30
0.0
 11
4.58536117883753
 21
19.96940372586585
 31
0.0
  0
ARC
  5
1DF9
330
1F
100
AcDbEntity
  8
0
  6
HIDDEN
 62
     8
100
AcDbCircle
 10
1.124758103999951
 20
20.59620924800003
 30
0.0
 40
0.25
100
AcDbArc
 50
6.196064797900318
 51
90.0
  0
ARC
  5
1DFA
330
1F
100
AcDbEntity
  8
0
  6
HIDDEN
 62
     8
100
AcDbCircle
 10
1.549761100799955
 20
20.64234981280002
 30
0.0
 40
0.1775
100
AcDbArc
 50
186.1960589917999
 51
267.8789663906
  0
LINE
  5
1E02
330
1F
100
AcDbEntity
  8
CENTER
100
AcDbLine
 10
9.579287199618782
 20
17.29033645897548
 30
0.0
 11
1.303418573799099
 21
16.12723897480152
 31
0.0
  0
ENDSEC
  0
SECTION
  2
OBJECTS
  0
DICTIONARY
  5
C
330
0
100
AcDbDictionary
  3
ACAD_GROUP
350
D
  3
ACAD_LAYOUT
350
1A
  3
ACAD_MLINESTYLE
350
17
  3
ACAD_PLOTSETTINGS
350
19
  3
ACAD_PLOTSTYLENAME
350
E
  3
ACDBHEADERROUNDTRIPXREC
350
1E10
  0
DICTIONARY
  5
1C78
330
1F
100
AcDbDictionary
280
     1
  3
ACAD_LAYOUTSELFREF
360
1E32
  0
DICTIONARY
  5
1C76
330
1B
100
AcDbDictionary
280
     1
  3
ACAD_LAYOUTSELFREF
360
1E31
  0
DICTIONARY
  5
D
102
{ACAD_REACTORS
330
C
102
}
330
C
100
AcDbDictionary
  0
DICTIONARY
  5
1A
102
{ACAD_REACTORS
330
C
102
}
330
C
100
AcDbDictionary
  0
DICTIONARY
  5
17
102
{ACAD_REACTORS
330
C
102
}
330
C
100
AcDbDictionary
  3
STANDARD
350
18
  0
DICTIONARY
  5
19
102
{ACAD_REACTORS
330
C
102
}
330
C
100
AcDbDictionary
  0
ACDBDICTIONARYWDFLT
  5
E
102
{ACAD_REACTORS
330
C
102
}
330
C
100
AcDbDictionary
281
     1
  3
Normal
350
F
100
AcDbDictionaryWithDefault
340
F
  0
DICTIONARY
  5
1E10
102
{ACAD_REACTORS
330
C
102
}
330
C
100
AcDbDictionary
  3
CEPSNTYPE
350
1E1A
  3
DIMSTYLEDATA
350
1E1E
  3
FINGERPRINTGUID
350
1E1B
  3
HYPERLINKBASE
350
1E13
  3
INSUNITS
350
1E19
  3
LAYOUTDICT
350
1E15
  3
LWETCUNION
350
1E18
  3
PLOTSETDICT
350
1E16
  3
PLOTSTYLNAMDICT
350
1E17
  3
PSVPSCALE
350
1E1D
  3
PUCSBASE
350
1E21
  3
PUCSORGBACK
350
1E27
  3
PUCSORGBOTTOM
350
1E23
  3
PUCSORGFRONT
350
1E26
  3
PUCSORGLEFT
350
1E24
  3
PUCSORGRIGHT
350
1E25
  3
PUCSORGTOP
350
1E22
  3
PUCSORTHOREF
350
1E1F
  3
PUCSORTHOVIEW
350
1E20
  3
STYLESHEET
350
1E14
  3
TSTACKALIGN
350
1E11
  3
TSTACKSIZE
350
1E12
  3
UCSBASE
350
1E2A
  3
UCSORGBACK
350
1E30
  3
UCSORGBOTTOM
350
1E2C
  3
UCSORGFRONT
350
1E2F
  3
UCSORGLEFT
350
1E2D
  3
UCSORGRIGHT
350
1E2E
  3
UCSORGTOP
350
1E2B
  3
UCSORTHOREF
350
1E28
  3
UCSORTHOVIEW
350
1E29
  3
VERSIONGUID
350
1E1C
  0
XRECORD
  5
1E32
102
{ACAD_REACTORS
330
1C78
102
}
330
1C78
100
AcDbXrecord
340
1F
  0
XRECORD
  5
1E31
102
{ACAD_REACTORS
330
1C76
102
}
330
1C76
100
AcDbXrecord
340
1B
  0
MLINESTYLE
  5
18
102
{ACAD_REACTORS
330
17
102
}
330
17
100
AcDbMlineStyle
  2
STANDARD
 70
     0
  3

 62
   256
 51
90.0
 52
90.0
 71
     2
 49
0.5
 62
   256
  6
BYLAYER
 49
-0.5
 62
   256
  6
BYLAYER
  0
ACDBPLACEHOLDER
  5
F
102
{ACAD_REACTORS
330
E
102
}
330
0
100
AcDbPlaceHolder
280
     0
  0
XRECORD
  5
1E1A
102
{ACAD_REACTORS
330
1E10
102
}
330
1E10
100
AcDbXrecord
 90
        0
  0
XRECORD
  5
1E1E
102
{ACAD_REACTORS
330
1E10
102
}
330
1E10
100
AcDbXrecord
1000
DSTYLE
1002
{
1070
   278
 70
     0
1070
   342
340
220
1070
   371
 70
     0
1070
   372
 70
     0
1002
}
  0
XRECORD
  5
1E1B
102
{ACAD_REACTORS
330
1E10
102
}
330
1E10
100
AcDbXrecord
  1

  0
XRECORD
  5
1E13
102
{ACAD_REACTORS
330
1E10
102
}
330
1E10
100
AcDbXrecord
  1

  0
XRECORD
  5
1E19
102
{ACAD_REACTORS
330
1E10
102
}
330
1E10
100
AcDbXrecord
 90
        1
  0
XRECORD
  5
1E15
102
{ACAD_REACTORS
330
1E10
102
}
330
1E10
100
AcDbXrecord
340
1A
  0
XRECORD
  5
1E18
102
{ACAD_REACTORS
330
1E10
102
}
330
1E10
100
AcDbXrecord
 90
    10781
  0
XRECORD
  5
1E16
102
{ACAD_REACTORS
330
1E10
102
}
330
1E10
100
AcDbXrecord
340
19
  0
XRECORD
  5
1E17
102
{ACAD_REACTORS
330
1E10
102
}
330
1E10
100
AcDbXrecord
340
E
  0
XRECORD
  5
1E1D
102
{ACAD_REACTORS
330
1E10
102
}
330
1E10
100
AcDbXrecord
 40
0.0
  0
XRECORD
  5
1E21
102
{ACAD_REACTORS
330
1E10
102
}
330
1E10
100
AcDbXrecord
340
0
  0
XRECORD
  5
1E27
102
{ACAD_REACTORS
330
1E10
102
}
330
1E10
100
AcDbXrecord
 10
0.0
 20
0.0
 30
0.0
  0
XRECORD
  5
1E23
102
{ACAD_REACTORS
330
1E10
102
}
330
1E10
100
AcDbXrecord
 10
0.0
 20
0.0
 30
0.0
  0
XRECORD
  5
1E26
102
{ACAD_REACTORS
330
1E10
102
}
330
1E10
100
AcDbXrecord
 10
0.0
 20
0.0
 30
0.0
  0
XRECORD
  5
1E24
102
{ACAD_REACTORS
330
1E10
102
}
330
1E10
100
AcDbXrecord
 10
0.0
 20
0.0
 30
0.0
  0
XRECORD
  5
1E25
102
{ACAD_REACTORS
330
1E10
102
}
330
1E10
100
AcDbXrecord
 10
0.0
 20
0.0
 30
0.0
  0
XRECORD
  5
1E22
102
{ACAD_REACTORS
330
1E10
102
}
330
1E10
100
AcDbXrecord
 10
0.0
 20
0.0
 30
0.0
  0
XRECORD
  5
1E1F
102
{ACAD_REACTORS
330
1E10
102
}
330
1E10
100
AcDbXrecord
340
0
  0
XRECORD
  5
1E20
102
{ACAD_REACTORS
330
1E10
102
}
330
1E10
100
AcDbXrecord
 70
     0
  0
XRECORD
  5
1E14
102
{ACAD_REACTORS
330
1E10
102
}
330
1E10
100
AcDbXrecord
  1

  0
XRECORD
  5
1E11
102
{ACAD_REACTORS
330
1E10
102
}
330
1E10
100
AcDbXrecord
 90
        1
  0
XRECORD
  5
1E12
102
{ACAD_REACTORS
330
1E10
102
}
330
1E10
100
AcDbXrecord
 90
       70
  0
XRECORD
  5
1E2A
102
{ACAD_REACTORS
330
1E10
102
}
330
1E10
100
AcDbXrecord
340
0
  0
XRECORD
  5
1E30
102
{ACAD_REACTORS
330
1E10
102
}
330
1E10
100
AcDbXrecord
 10
0.0
 20
0.0
 30
0.0
  0
XRECORD
  5
1E2C
102
{ACAD_REACTORS
330
1E10
102
}
330
1E10
100
AcDbXrecord
 10
0.0
 20
0.0
 30
0.0
  0
XRECORD
  5
1E2F
102
{ACAD_REACTORS
330
1E10
102
}
330
1E10
100
AcDbXrecord
 10
0.0
 20
0.0
 30
0.0
  0
XRECORD
  5
1E2D
102
{ACAD_REACTORS
330
1E10
102
}
330
1E10
100
AcDbXrecord
 10
0.0
 20
0.0
 30
0.0
  0
XRECORD
  5
1E2E
102
{ACAD_REACTORS
330
1E10
102
}
330
1E10
100
AcDbXrecord
 10
0.0
 20
0.0
 30
0.0
  0
XRECORD
  5
1E2B
102
{ACAD_REACTORS
330
1E10
102
}
330
1E10
100
AcDbXrecord
 10
0.0
 20
0.0
 30
0.0
  0
XRECORD
  5
1E28
102
{ACAD_REACTORS
330
1E10
102
}
330
1E10
100
AcDbXrecord
340
0
  0
XRECORD
  5
1E29
102
{ACAD_REACTORS
330
1E10
102
}
330
1E10
100
AcDbXrecord
 70
     0
  0
XRECORD
  5
1E1C
102
{ACAD_REACTORS
330
1E10
102
}
330
1E10
100
AcDbXrecord
  1
{B8082CF5-8CEF-45D3-A7B7-B648CD38A67D}
  0
ENDSEC
  0
EOF
