  0
SECTION
  2
HEADER
  9
$ACADVER
  1
AC1014
  9
$ACADMAINTVER
 70
     9
  9
$DWGCODEPAGE
  3
ANSI_1252
  9
$INSBASE
 10
0.0
 20
0.0
 30
0.0
  9
$EXTMIN
 10
-35.87500000000011
 20
0.0
 30
0.0
  9
$EXTMAX
 10
35.87499999999993
 20
41.75000000000001
 30
0.0
  9
$LIMMIN
 10
0.0
 20
0.0
  9
$LIMMAX
 10
17.0
 20
11.0
  9
$ORTHOMODE
 70
     1
  9
$REGENMODE
 70
     1
  9
$FILLMODE
 70
     1
  9
$QTEXTMODE
 70
     0
  9
$MIRRTEXT
 70
     1
  9
$DRAGMODE
 70
     2
  9
$LTSCALE
 40
0.9350000000000001
  9
$OSMODE
 70
    37
  9
$ATTMODE
 70
     1
  9
$TEXTSIZE
 40
0.2
  9
$TRACEWID
 40
0.05
  9
$TEXTSTYLE
  7
STANDARD
  9
$CLAYER
  8
0
  9
$CELTYPE
  6
BYLAYER
  9
$CECOLOR
 62
   256
  9
$CELTSCALE
 40
1.0
  9
$DELOBJ
 70
     1
  9
$DISPSILH
 70
     0
  9
$DIMSCALE
 40
1.0
  9
$DIMASZ
 40
0.1875
  9
$DIMEXO
 40
0.10625
  9
$DIMDLI
 40
0.646
  9
$DIMRND
 40
0.0
  9
$DIMDLE
 40
0.0
  9
$DIMEXE
 40
0.306
  9
$DIMTP
 40
0.0
  9
$DIMTM
 40
0.0
  9
$DIMTXT
 40
0.125
  9
$DIMCEN
 40
0.153
  9
$DIMTSZ
 40
0.0
  9
$DIMTOL
 70
     0
  9
$DIMLIM
 70
     0
  9
$DIMTIH
 70
     1
  9
$DIMTOH
 70
     1
  9
$DIMSE1
 70
     0
  9
$DIMSE2
 70
     0
  9
$DIMTAD
 70
     0
  9
$DIMZIN
 70
     0
  9
$DIMBLK
  1
_FILLED
  9
$DIMASO
 70
     1
  9
$DIMSHO
 70
     1
  9
$DIMPOST
  1

  9
$DIMAPOST
  1

  9
$DIMALT
 70
     0
  9
$DIMALTD
 70
     2
  9
$DIMALTF
 40
25.4
  9
$DIMLFAC
 40
1.0
  9
$DIMTOFL
 70
     0
  9
$DIMTVP
 40
0.0
  9
$DIMTIX
 70
     0
  9
$DIMSOXD
 70
     0
  9
$DIMSAH
 70
     0
  9
$DIMBLK1
  1

  9
$DIMBLK2
  1

  9
$DIMSTYLE
  2
STANDARD
  9
$DIMCLRD
 70
     0
  9
$DIMCLRE
 70
     0
  9
$DIMCLRT
 70
     0
  9
$DIMTFAC
 40
1.0
  9
$DIMGAP
 40
0.09
  9
$DIMJUST
 70
     0
  9
$DIMSD1
 70
     0
  9
$DIMSD2
 70
     0
  9
$DIMTOLJ
 70
     1
  9
$DIMTZIN
 70
     0
  9
$DIMALTZ
 70
     0
  9
$DIMALTTZ
 70
     0
  9
$DIMFIT
 70
     3
  9
$DIMUPT
 70
     0
  9
$DIMUNIT
 70
     2
  9
$DIMDEC
 70
     4
  9
$DIMTDEC
 70
     4
  9
$DIMALTU
 70
     2
  9
$DIMALTTD
 70
     2
  9
$DIMTXSTY
  7
STANDARD
  9
$DIMAUNIT
 70
     0
  9
$LUNITS
 70
     2
  9
$LUPREC
 70
     4
  9
$SKETCHINC
 40
0.1
  9
$FILLETRAD
 40
0.0
  9
$AUNITS
 70
     0
  9
$AUPREC
 70
     0
  9
$MENU
  1
acad
  9
$ELEVATION
 40
0.0
  9
$PELEVATION
 40
0.0
  9
$THICKNESS
 40
0.0
  9
$LIMCHECK
 70
     0
  9
$BLIPMODE
 70
     0
  9
$CHAMFERA
 40
0.0
  9
$CHAMFERB
 40
0.0
  9
$CHAMFERC
 40
0.0
  9
$CHAMFERD
 40
0.0
  9
$SKPOLY
 70
     0
  9
$TDCREATE
 40
2454026.433579861
  9
$TDUPDATE
 40
2454085.378035358
  9
$TDINDWG
 40
0.0677002546
  9
$TDUSRTIMER
 40
0.0677002546
  9
$USRTIMER
 70
     1
  9
$ANGBASE
 50
0.0
  9
$ANGDIR
 70
     0
  9
$PDMODE
 70
     3
  9
$PDSIZE
 40
0.03125
  9
$PLINEWID
 40
0.0
  9
$COORDS
 70
     2
  9
$SPLFRAME
 70
     0
  9
$SPLINETYPE
 70
     6
  9
$SPLINESEGS
 70
     8
  9
$ATTDIA
 70
     0
  9
$ATTREQ
 70
     1
  9
$HANDLING
 70
-16383
  9
$HANDSEED
  5
1F24
  9
$SURFTAB1
 70
     6
  9
$SURFTAB2
 70
     6
  9
$SURFTYPE
 70
     6
  9
$SURFU
 70
     6
  9
$SURFV
 70
     6
  9
$UCSNAME
  2

  9
$UCSORG
 10
0.0
 20
0.0
 30
0.0
  9
$UCSXDIR
 10
1.0
 20
0.0
 30
0.0
  9
$UCSYDIR
 10
0.0
 20
1.0
 30
0.0
  9
$PUCSNAME
  2

  9
$PUCSORG
 10
0.0
 20
0.0
 30
0.0
  9
$PUCSXDIR
 10
1.0
 20
0.0
 30
0.0
  9
$PUCSYDIR
 10
0.0
 20
1.0
 30
0.0
  9
$USERI1
 70
     0
  9
$USERI2
 70
     0
  9
$USERI3
 70
     0
  9
$USERI4
 70
     0
  9
$USERI5
 70
     0
  9
$USERR1
 40
0.0
  9
$USERR2
 40
0.0
  9
$USERR3
 40
0.0
  9
$USERR4
 40
0.0
  9
$USERR5
 40
0.0
  9
$WORLDVIEW
 70
     1
  9
$SHADEDGE
 70
     3
  9
$SHADEDIF
 70
    70
  9
$TILEMODE
 70
     1
  9
$MAXACTVP
 70
    16
  9
$PINSBASE
 10
0.0
 20
0.0
 30
0.0
  9
$PLIMCHECK
 70
     0
  9
$PEXTMIN
 10
1.000000000000000E+20
 20
1.000000000000000E+20
 30
1.000000000000000E+20
  9
$PEXTMAX
 10
-1.000000000000000E+20
 20
-1.000000000000000E+20
 30
-1.000000000000000E+20
  9
$PLIMMIN
 10
0.0
 20
0.0
  9
$PLIMMAX
 10
12.0
 20
9.0
  9
$UNITMODE
 70
     0
  9
$VISRETAIN
 70
     0
  9
$PLINEGEN
 70
     1
  9
$PSLTSCALE
 70
     0
  9
$TREEDEPTH
 70
  3020
  9
$PICKSTYLE
 70
     1
  9
$CMLSTYLE
  2
STANDARD
  9
$CMLJUST
 70
     0
  9
$CMLSCALE
 40
1.0
  9
$PROXYGRAPHICS
 70
     0
  9
$MEASUREMENT
 70
     0
  0
ENDSEC
  0
SECTION
  2
CLASSES
  0
CLASS
  1
ACDBDICTIONARYWDFLT
  2
AcDbDictionaryWithDefault
  3
AutoCAD 2000
 90
        0
280
     0
281
     0
  0
CLASS
  1
ACDBPLACEHOLDER
  2
AcDbPlaceHolder
  3
AutoCAD 2000
 90
        0
280
     0
281
     0
  0
CLASS
  1
LAYOUT
  2
AcDbLayout
  3
AutoCAD 2000
 90
        0
280
     0
281
     0
  0
CLASS
  1
LWPOLYLINE
  2
AcDbPolyline
  3
AutoCAD 2000
 90
        0
280
     0
281
     1
  0
CLASS
  1
IMAGE
  2
AcDbRasterImage
  3
ISM
 90
      127
280
     0
281
     1
  0
CLASS
  1
OLE2FRAME
  2
AcDbOle2Frame
  3
AutoCAD 2000
 90
        0
280
     0
281
     1
  0
CLASS
  1
HATCH
  2
AcDbHatch
  3
AutoCAD 2000
 90
        0
280
     0
281
     1
  0
CLASS
  1
DICTIONARYVAR
  2
AcDbDictionaryVar
  3
AutoCAD 2000
 90
        0
280
     0
281
     0
  0
CLASS
  1
RASTERVARIABLES
  2
AcDbRasterVariables
  3
ISM
 90
        0
280
     0
281
     0
  0
CLASS
  1
IMAGEDEF
  2
AcDbRasterImageDef
  3
ISM
 90
        0
280
     0
281
     0
  0
CLASS
  1
IMAGEDEF_REACTOR
  2
AcDbRasterImageDefReactor
  3
ISM
 90
        1
280
     0
281
     0
  0
CLASS
  1
IDBUFFER
  2
AcDbIdBuffer
  3
AutoCAD 2000
 90
        0
280
     0
281
     0
  0
CLASS
  1
SPATIAL_FILTER
  2
AcDbSpatialFilter
  3
AutoCAD 2000
 90
        0
280
     0
281
     0
  0
CLASS
  1
XRECORD
  2
AcDbXrecord
  3
AutoCAD 2000
 90
        0
280
     0
281
     0
  0
CLASS
  1
SORTENTSTABLE
  2
AcDbSortentsTable
  3
AutoCAD 2000
 90
        0
280
     0
281
     0
  0
CLASS
  1
LAYER_INDEX
  2
AcDbLayerIndex
  3
AutoCAD 2000
 90
        0
280
     0
281
     0
  0
CLASS
  1
SPATIAL_INDEX
  2
AcDbSpatialIndex
  3
AutoCAD 2000
 90
        0
280
     0
281
     0
  0
CLASS
  1
OBJECT_PTR
  2
CAseDLPNTableRecord
  3
ASE-LPNTableRecord
 90
        1
280
     0
281
     0
  0
CLASS
  1
PLOTSETTINGS
  2
AcDbPlotSettings
  3
AutoCAD 2000
 90
        0
280
     0
281
     0
  0
CLASS
  1
VBA_PROJECT
  2
AcDbVbaProject
  3
acadvba
 90
        0
280
     0
281
     0
  0
CLASS
  1
WIPEOUT
  2
AcDbWipeout
  3
WipeOut|AutoCAD Express Tool|expresstools@autodesk.com
 90
      127
280
     0
281
     1
  0
CLASS
  1
WIPEOUTVARIABLES
  2
AcDbWipeoutVariables
  3
WipeOut|AutoCAD Express Tool|expresstools@autodesk.com
 90
        0
280
     0
281
     0
  0
CLASS
  1
RTEXT
  2
RText
  3
RText|AutoCAD Express Tool|expresstools@autodesk.com
 90
        0
280
     0
281
     1
  0
CLASS
  1
ARCALIGNEDTEXT
  2
AcDbArcAlignedText
  3
ATEXT|AutoCAD Express Tool|expresstools@autodesk.com
 90
        0
280
     0
281
     1
  0
CLASS
  1
LONG_TRANSACTION
  2
AcDbLongTransaction
  3
AutoCAD 2000
 90
        0
280
     0
281
     0
  0
CLASS
  1
LWPOLYLINE
  2
AcDbPolyline
  3
AutoCAD 2000
 90
        0
280
     0
281
     1
  0
CLASS
  1
HATCH
  2
AcDbHatch
  3
AutoCAD 2000
 90
        0
280
     0
281
     1
  0
CLASS
  1
XRECORD
  2
AcDbXrecord
  3
AutoCAD 2000
 90
        0
280
     0
281
     0
  0
CLASS
  1
LONG_TRANSACTION
  2
AcDbLongTransaction
  3
AutoCAD 2000
 90
        0
280
     0
281
     0
  0
CLASS
  1
LWPOLYLINE
  2
AcDbPolyline
  3
AutoCAD 2000
 90
        0
280
     0
281
     1
  0
CLASS
  1
HATCH
  2
AcDbHatch
  3
AutoCAD 2000
 90
        0
280
     0
281
     1
  0
CLASS
  1
XRECORD
  2
AcDbXrecord
  3
AutoCAD 2000
 90
        0
280
     0
281
     0
  0
CLASS
  1
LONG_TRANSACTION
  2
AcDbLongTransaction
  3
AutoCAD 2000
 90
        0
280
     0
281
     0
  0
CLASS
  1
LWPOLYLINE
  2
AcDbPolyline
  3
AutoCAD 2000
 90
        0
280
     0
281
     1
  0
CLASS
  1
HATCH
  2
AcDbHatch
  3
AutoCAD 2000
 90
        0
280
     0
281
     1
  0
CLASS
  1
XRECORD
  2
AcDbXrecord
  3
AutoCAD 2000
 90
        0
280
     0
281
     0
  0
ENDSEC
  0
SECTION
  2
TABLES
  0
TABLE
  2
VPORT
  5
8
330
0
100
AcDbSymbolTable
 70
     3
  0
VPORT
  5
1F00
330
8
100
AcDbSymbolTableRecord
100
AcDbViewportTableRecord
  2
*ACTIVE
 70
     0
 10
0.0
 20
0.0
 11
1.0
 21
1.0
 12
-0.5946903763001217
 22
20.90516931387836
 13
0.0
 23
0.0
 14
1.0
 24
1.0
 15
0.0
 25
0.0
 16
0.0
 26
0.0
 36
1.0
 17
0.0
 27
0.0
 37
0.0
 40
45.32887730635386
 41
1.745424292845257
 42
50.0
 43
0.0
 44
0.0
 50
0.0
 51
0.0
 71
     0
 72
   100
 73
     1
 74
     1
 75
     0
 76
     0
 77
     0
 78
     0
  0
ENDTAB
  0
TABLE
  2
LTYPE
  5
5
330
0
100
AcDbSymbolTable
 70
     2
  0
LTYPE
  5
14
330
5
100
AcDbSymbolTableRecord
100
AcDbLinetypeTableRecord
  2
BYBLOCK
 70
     0
  3

 72
    65
 73
     0
 40
0.0
  0
LTYPE
  5
15
330
5
100
AcDbSymbolTableRecord
100
AcDbLinetypeTableRecord
  2
BYLAYER
 70
     0
  3

 72
    65
 73
     0
 40
0.0
  0
LTYPE
  5
16
330
5
100
AcDbSymbolTableRecord
100
AcDbLinetypeTableRecord
  2
CONTINUOUS
 70
     0
  3
Solid line
 72
    65
 73
     0
 40
0.0
  0
LTYPE
  5
1295
330
5
100
AcDbSymbolTableRecord
100
AcDbLinetypeTableRecord
  2
CENTERX2
 70
     0
  3
Center (2x) ________  __  ________  __  _____
 72
    65
 73
     4
 40
4.0
 49
2.5
 74
     0
 49
-0.5
 74
     0
 49
0.5
 74
     0
 49
-0.5
 74
     0
  0
ENDTAB
  0
TABLE
  2
LAYER
  5
2
330
0
100
AcDbSymbolTable
 70
     2
  0
LAYER
  5
10
330
2
100
AcDbSymbolTableRecord
100
AcDbLayerTableRecord
  2
0
 70
     0
 62
     7
  6
CONTINUOUS
  0
LAYER
  5
B09
330
2
100
AcDbSymbolTableRecord
100
AcDbLayerTableRecord
  2
CENTER
 70
     0
 62
     1
  6
CENTERX2
  0
ENDTAB
  0
TABLE
  2
STYLE
  5
3
330
0
100
AcDbSymbolTable
 70
     2
  0
STYLE
  5
11
330
3
100
AcDbSymbolTableRecord
100
AcDbTextStyleTableRecord
  2
STANDARD
 70
     0
 40
0.0
 41
0.8
 50
0.0
 71
     0
 42
0.2
  3
txt
  4

  0
STYLE
  5
21B
330
3
100
AcDbSymbolTableRecord
100
AcDbTextStyleTableRecord
  2
TEXTSTYLE_1
 70
     0
 40
0.0
 41
0.8
 50
0.0
 71
     0
 42
0.2
  3
txt
  4

  0
ENDTAB
  0
TABLE
  2
VIEW
  5
6
330
0
100
AcDbSymbolTable
 70
     0
  0
ENDTAB
  0
TABLE
  2
UCS
  5
7
330
0
100
AcDbSymbolTable
 70
     0
  0
ENDTAB
  0
TABLE
  2
APPID
  5
9
330
0
100
AcDbSymbolTable
 70
     2
  0
APPID
  5
21F
330
9
100
AcDbSymbolTableRecord
100
AcDbRegAppTableRecord
  2
ACAD
 70
     0
  0
APPID
  5
AFF
330
9
100
AcDbSymbolTableRecord
100
AcDbRegAppTableRecord
  2
DCO15
 70
     0
  0
ENDTAB
  0
TABLE
  2
DIMSTYLE
  5
A
330
0
100
AcDbSymbolTable
 70
     1
  0
DIMSTYLE
105
240
330
A
100
AcDbSymbolTableRecord
100
AcDbDimStyleTableRecord
  2
STANDARD
 70
     0
  3

  4

  5
_FILLED
  6
_FILLED
  7
_FILLED
 40
1.0
 41
0.1875
 42
0.0625
 43
0.38
 44
0.18
 45
0.0
 46
0.0
 47
0.00001
 48
0.00001
140
0.125
141
0.09
142
0.0
143
25.4
144
1.0
145
0.0
146
1.0
147
0.09
 71
     0
 72
     0
 73
     1
 74
     1
 75
     0
 76
     0
 77
     0
 78
     4
170
     0
171
     2
172
     0
173
     0
174
     0
175
     0
176
     0
177
     0
178
     0
270
     2
271
     5
272
     5
273
     2
274
     2
340
11
275
     0
280
     0
281
     0
282
     0
283
     1
284
     4
285
     0
286
     0
287
     3
288
     0
  0
ENDTAB
  0
TABLE
  2
BLOCK_RECORD
  5
1
330
0
100
AcDbSymbolTable
 70
     1
  0
BLOCK_RECORD
  5
1F
102
{ACAD_XDICTIONARY
360
1C43
102
}
330
1
100
AcDbSymbolTableRecord
100
AcDbBlockTableRecord
  2
*MODEL_SPACE
  0
BLOCK_RECORD
  5
1B
102
{ACAD_XDICTIONARY
360
1C41
102
}
330
1
100
AcDbSymbolTableRecord
100
AcDbBlockTableRecord
  2
*PAPER_SPACE
  0
BLOCK_RECORD
  5
220
330
1
100
AcDbSymbolTableRecord
100
AcDbBlockTableRecord
  2
_FILLED
  0
ENDTAB
  0
ENDSEC
  0
SECTION
  2
BLOCKS
  0
BLOCK
  5
20
330
1F
100
AcDbEntity
  8
0
100
AcDbBlockBegin
  2
*MODEL_SPACE
 70
     0
 10
0.0
 20
0.0
 30
0.0
  3
*MODEL_SPACE
  1

  0
ENDBLK
  5
21
330
1F
100
AcDbEntity
  8
0
100
AcDbBlockEnd
  0
BLOCK
  5
1C
330
1B
100
AcDbEntity
 67
     1
  8
0
100
AcDbBlockBegin
  2
*PAPER_SPACE
 70
     0
 10
0.0
 20
0.0
 30
0.0
  3
*PAPER_SPACE
  1

  0
ENDBLK
  5
1D
330
1B
100
AcDbEntity
 67
     1
  8
0
100
AcDbBlockEnd
  0
BLOCK
  5
442
330
220
100
AcDbEntity
  8
0
100
AcDbBlockBegin
  2
_FILLED
 70
     0
 10
0.0
 20
0.0
 30
0.0
  3
_FILLED
  1

  0
SOLID
  5
443
330
220
100
AcDbEntity
  8
0
  6
BYBLOCK
 62
     0
100
AcDbTrace
 10
0.0
 20
0.0
 30
0.0
 11
-1.0
 21
0.1666666667
 31
0.0
 12
-1.0
 22
-0.1666666667
 32
0.0
 13
-1.0
 23
-0.1666666667
 33
0.0
  0
ENDBLK
  5
444
330
220
100
AcDbEntity
  8
0
  6
BYBLOCK
 62
     0
100
AcDbBlockEnd
  0
ENDSEC
  0
SECTION
  2
ENTITIES
  0
MTEXT
  5
4BB
330
1F
100
AcDbEntity
  8
0
  6
CONTINUOUS
 62
     2
100
AcDbMText
 10
15.84375
 20
2.3125
 30
0.0
 40
0.09375
 41
0.075
 71
     2
 72
     1
  1
 \P \P 
  7
TEXTSTYLE_1
1001
ACAD
1000
MTEXTBEGIN
1070
    73
1070
     1
1070
    44
1040
1.0
1070
    74
1070
     0
1000
MTEXTEND
1000
MTEXTBEGIN
1070
    73
1070
     1
1070
    44
1040
1.0
1070
    74
1070
     0
1000
MTEXTEND
1000
MTEXTBEGIN
1070
    73
1070
     1
1070
    44
1040
1.0
1070
    74
1070
     0
1000
MTEXTEND
  0
LINE
  5
1D53
330
1F
100
AcDbEntity
  8
CENTER
100
AcDbLine
 10
0.0
 20
3.216887921861044
 30
0.0
 11
0.0
 21
16.33769053331081
 31
0.0
  0
LWPOLYLINE
  5
1D61
330
1F
100
AcDbEntity
  8
0
 62
     0
100
AcDbPolyline
 90
        5
 70
     0
 43
0.0
 10
-2.988957603199949
 20
36.1878818816
 10
-2.195289856000002
 20
36.16756285920003
 10
-1.46851669439998
 20
36.15441305920002
 10
-0.7621844464000134
 20
36.14663024320005
 10
0.0000000000000426
 20
36.14375955520002
  0
LWPOLYLINE
  5
1D62
330
1F
100
AcDbEntity
  8
0
 62
     0
100
AcDbPolyline
 90
        4
 70
     0
 43
0.0
 10
-2.98538437919997
 20
35.79066249440002
 10
-1.99040665759999
 20
35.76633741439998
 10
-0.9952683839999991
 20
35.7517417552
 10
0.0000000000000426
 20
35.74687600160002
  0
LWPOLYLINE
  5
1D63
330
1F
100
AcDbEntity
  8
0
 62
     0
100
AcDbPolyline
 90
        7
 70
     0
 43
0.0
 10
-2.81758360800002
 20
34.13532255360003
 10
-2.034092784000065
 20
33.89985201280002
 10
-1.229156663999972
 20
33.74148122399999
 10
-0.4112207679999785
 20
33.66186911040002
 10
0.4110740031999712
 20
33.66186198719999
 10
1.229043811200014
 20
33.74146467520002
 10
2.034048075200004
 20
33.89984092640004
  0
LINE
  5
1D64
330
1F
100
AcDbEntity
  8
0
 62
     0
100
AcDbLine
 10
-2.034048073600047
 20
7.850159073599968
 30
0.0
 11
-2.817583608000063
 21
7.61467744639998
 31
0.0
  0
LWPOLYLINE
  5
1D65
330
1F
100
AcDbEntity
  8
0
 62
     0
100
AcDbPolyline
 90
       10
 70
     0
 43
0.0
 10
-4.331180667200058
 20
33.49005523360002
 10
-3.424178814400036
 20
33.08518842079998
 10
-2.475667793600067
 20
32.77713242880004
 10
-1.497275327999957
 20
32.56969164160001
 10
-0.5008560048000419
 20
32.46536823840001
 10
0.5015656511999822
 20
32.46540528800001
 10
1.497881252800013
 20
32.56978731839997
 10
2.476065865599977
 20
32.77723893280001
 10
3.424313443199977
 20
33.08524015040002
 10
4.331180668799945
 20
33.49005523360002
  0
LWPOLYLINE
  5
1D67
330
1F
100
AcDbEntity
  8
0
 62
     0
100
AcDbPolyline
 90
       10
 70
     0
 43
0.0
 10
4.331180668799945
 20
8.259944768000039
 10
3.424178814400008
 20
8.664811579200048
 10
2.475667795199953
 20
8.972867571199984
 10
1.497275328000043
 20
9.180308358400012
 10
0.5008560048000135
 20
9.28463176160001
 10
-0.5015656495999821
 20
9.284594712000014
 10
-1.497881251200013
 20
9.180212683200025
 10
-2.476065865600006
 20
8.972761068800039
 10
-3.424313443200006
 20
8.664759849600002
 10
-4.331180667200058
 20
8.259944768000039
  0
LINE
  5
1D68
330
1F
100
AcDbEntity
  8
CENTER
100
AcDbLine
 10
3.940786236479084
 20
12.375
 30
0.0
 11
-3.940786236479084
 21
12.375
 31
0.0
  0
LWPOLYLINE
  5
1D69
330
1F
100
AcDbEntity
  8
0
 62
     0
100
AcDbPolyline
 90
        5
 70
     0
 43
0.0
 10
0.0000000000000426
 20
5.606240444800008
 10
-0.7668124111999788
 20
5.603334796799984
 10
-1.476968275200036
 20
5.595463993600006
 10
-2.203445857600016
 20
5.582259977600031
 10
-2.988957603199949
 20
5.562118118400022
  0
LWPOLYLINE
  5
1D6A
330
1F
100
AcDbEntity
  8
0
 62
     0
100
AcDbPolyline
 90
        4
 70
     0
 43
0.0
 10
-2.98538437919997
 20
5.959337507200032
 10
-1.99040665759999
 20
5.983662587200015
 10
-0.9952683839999991
 20
5.998258244800027
 10
0.0000000000000426
 20
6.003124000000028
  0
LWPOLYLINE
  5
1D6C
330
1F
100
AcDbEntity
  8
0
 62
     0
100
AcDbPolyline
 90
       19
 70
     0
 43
0.0
 10
-14.47629348799996
 20
35.5960808288
 10
-15.12013025280005
 20
35.55487912000002
 10
-15.68558913759996
 20
35.4917822256
 10
-16.18908196319996
 20
35.40989843040001
 10
-16.64284438399995
 20
35.31147923840002
 10
-17.05544712000001
 20
35.19823445920003
 10
-17.43522938880001
 20
35.0708026896
 10
-17.78878527199999
 20
34.92925077759998
 10
-18.12128957119996
 20
34.77319471840003
 10
-18.44345260320001
 20
34.59823005599999
 10
-18.76369758719995
 20
34.39936960480004
 10
-19.08479101279995
 20
34.17335063520001
 10
-19.41768597280004
 20
33.9097113712
 10
-19.76465633280004
 20
33.60257721279999
 10
-20.12432639840001
 20
33.24841888960004
 10
-20.49636418239999
 20
32.84222494720002
 10
-20.88050114560003
 20
32.37820612640003
 10
-21.27653581600005
 20
31.84953905120001
 10
-21.68398468319999
 20
31.24870332159999
  0
LWPOLYLINE
  5
1D6D
330
1F
100
AcDbEntity
  8
0
 62
     0
100
AcDbPolyline
 90
       22
 70
     0
 43
0.0
 10
-2.677905888000012
 20
35.30322694399997
 10
-2.710576692799989
 20
35.29720816959998
 10
-2.743446537600064
 20
35.29031609760001
 10
-2.776509003200047
 20
35.28261649760004
 10
-2.8097308464
 20
35.27417560320005
 10
-2.843285903999984
 20
35.26499802079998
 10
-2.878168155199958
 20
35.25482488159998
 10
-2.915330977600049
 20
35.24334147200001
 10
-2.955800534400012
 20
35.23015132159999
 10
-3.000785433600029
 20
35.2147363328
 10
-3.051491129600051
 20
35.19651543520002
 10
-3.109371849600009
 20
35.17475560800001
 10
-3.17585765439999
 20
35.14867170079999
 10
-3.248771825600059
 20
35.11893502879998
 10
-3.323808300799967
 20
35.08730874079999
 10
-3.397533580800043
 20
35.05540736799999
 10
-3.469634476799981
 20
35.02356681760001
 10
-3.539951086399995
 20
34.99202420320001
 10
-3.608768566400001
 20
34.96078655360004
 10
-3.677003227200046
 20
34.92953924640001
 10
-3.745637491199957
 20
34.89790877440005
 10
-3.987312880000061
 20
34.78604603039999
  0
LWPOLYLINE
  5
1D6E
330
1F
100
AcDbEntity
  8
0
 62
     0
100
AcDbPolyline
 90
        6
 70
     0
 43
0.0
 10
-4.331180667200058
 20
33.49005523360002
 10
-4.906616945599992
 20
33.82469593280002
 10
-5.439566952000021
 20
34.21724426559997
 10
-5.923651409600054
 20
34.66284912160002
 10
-6.353077059199975
 20
35.1559967376
 10
-6.681076944000054
 20
35.62349935200002
  0
LWPOLYLINE
  5
1D6F
330
1F
100
AcDbEntity
  8
0
 62
     0
100
AcDbPolyline
 90
        6
 70
     0
 43
0.0
 10
-4.612564368000064
 20
35.40674163199999
 10
-4.382105307200006
 20
35.14203699360002
 10
-4.041666312000032
 20
34.8256966272
 10
-3.663755507200065
 20
34.55001230720002
 10
-3.253786401599953
 20
34.31881818239999
 10
-2.81758360800002
 20
34.13532255360003
  0
LWPOLYLINE
  5
1D70
330
1F
100
AcDbEntity
  8
0
 62
     0
100
AcDbPolyline
 90
       13
 70
     0
 43
0.0
 10
-26.71589710719997
 20
32.94307621600002
 10
-26.09563459680005
 20
33.5239054
 10
-25.37778330559997
 20
34.11933703680002
 10
-24.5391778944
 20
34.72600998560001
 10
-23.55602137119997
 20
35.33270354079998
 10
-22.4169015536
 20
35.91306254080002
 10
-21.19740246559997
 20
36.40560415680001
 10
-19.93995361280004
 20
36.78834682719998
 10
-18.67462472799998
 20
37.05517516959999
 10
-17.50726315200002
 20
37.20163051679999
 10
-16.45930196800004
 20
37.25409020800005
 10
-15.51602207200001
 20
37.23806511840002
 10
-14.66690170080001
 20
37.17229764480005
  0
LWPOLYLINE
  5
1D71
330
1F
100
AcDbEntity
  8
0
 62
     0
100
AcDbPolyline
 90
       24
 70
     0
 43
0.0
 10
-28.30666837120004
 20
30.33203486079999
 10
-27.91499779199996
 20
30.89679823040002
 10
-27.49491156799997
 20
31.44481626720001
 10
-27.04803877280001
 20
31.97358273280004
 10
-26.57624623520003
 20
32.4807281552
 10
-26.08163783840002
 20
32.96403278079999
 10
-25.56532157279999
 20
33.4224907904
 10
-25.02705464000003
 20
33.85630237280004
 10
-24.467187928
 20
34.26514382720002
 10
-23.88746174240004
 20
34.64760546560002
 10
-23.2912359312
 20
35.00150189280005
 10
-22.68077944800002
 20
35.325697344
 10
-22.05726820640002
 20
35.61973756640004
 10
-21.42109332959996
 20
35.88359378560001
 10
-20.77374269599995
 20
36.11678226559998
 10
-20.11741583199996
 20
36.3186059936
 10
-19.45449164960002
 20
36.48850288320001
 10
-18.78564144479999
 20
36.62645515039999
 10
-18.11079913759995
 20
36.73248948320004
 10
-17.43065567840001
 20
36.80644499360001
 10
-16.74621290559999
 20
36.84809059520002
 10
-16.05868999520005
 20
36.8571455408
 10
-15.36966077760003
 20
36.83344536160003
 10
-14.68081282880002
 20
36.77690899839997
  0
LWPOLYLINE
  5
1D73
330
1F
100
AcDbEntity
  8
0
 62
     0
100
AcDbPolyline
 90
       36
 70
     0
 43
0.0
 10
-23.39702989280006
 20
20.84345802720004
 10
-23.394821176
 20
20.67177093280004
 10
-23.39019422400004
 20
20.50020428480003
 10
-23.38315056159997
 20
20.32876444800002
 10
-23.37369132960005
 20
20.1574652064
 10
-23.36181969920001
 20
19.98634815840001
 10
-23.34754007680005
 20
19.81545764800002
 10
-23.33085155520002
 20
19.64478977599999
 10
-23.31175524960003
 20
19.47438355520002
 10
-23.29025628960001
 20
19.30430030560002
 10
-23.26636571039996
 20
19.13461911999998
 10
-23.24009108479999
 20
18.96538289760003
 10
-23.21143456160002
 20
18.79660242559999
 10
-23.18039800000004
 20
18.62829078880004
 10
-23.14698426239995
 20
18.46046804320003
 10
-23.11119826399995
 20
18.29316755200001
 10
-23.07304415519998
 20
18.12641944800004
 10
-23.03252448159999
 20
17.9602443376
 10
-22.98964404960004
 20
17.79467316320001
 10
-22.9444126432
 20
17.62975755840001
 10
-22.89684170719995
 20
17.46555208799999
 10
-22.84694520800003
 20
17.30210943679999
 10
-22.79473567999998
 20
17.13947233279999
 10
-22.74022551679998
 20
16.97768296800002
 10
-22.68342070240005
 20
16.81676430240004
 10
-22.6243115168
 20
16.65669486079998
 10
-22.56290061919999
 20
16.49749200000003
 10
-22.49919771840002
 20
16.33919267200004
 10
-22.43322161759995
 20
16.1818536944
 10
-22.36499365760001
 20
16.02553190880003
 10
-22.29451941120005
 20
15.87024717280003
 10
-22.22179960000001
 20
15.71601213600003
 10
-22.1468801296
 20
15.56293152960002
 10
-22.06980777279996
 20
15.41109760160004
 10
-21.99062286400006
 20
15.26058268640004
 10
-21.90936385920004
 20
15.11145062240002
  0
LWPOLYLINE
  5
1D74
330
1F
100
AcDbEntity
  8
0
 62
     0
100
AcDbPolyline
 90
       10
 70
     0
 43
0.0
 10
-24.55907471999997
 20
20.87500168800001
 10
-24.54197972959998
 20
20.131665528
 10
-24.49024341280001
 20
19.38187522720001
 10
-24.40353260000001
 20
18.63020590240002
 10
-24.28219880800004
 20
17.88217989280004
 10
-24.12740930080004
 20
17.1438046592
 10
-23.94060806559998
 20
16.41899466399998
 10
-23.72363064320002
 20
15.711293744
 10
-23.47889075519999
 20
15.0244326592
 10
-23.20897326400002
 20
14.36112078240002
  0
LWPOLYLINE
  5
1D75
330
1F
100
AcDbEntity
  8
0
 62
     0
100
AcDbPolyline
 90
       10
 70
     0
 43
0.0
 10
-28.66460397120006
 20
11.18577017600002
 10
-29.13257885759999
 20
11.95244840480002
 10
-29.59062716479998
 20
12.82854142880002
 10
-30.02998070719998
 20
13.82165047680003
 10
-30.43777459040002
 20
14.93785567999999
 10
-30.78786766239996
 20
16.14347219040003
 10
-31.06852172320005
 20
17.43841583520004
 10
-31.25387212159997
 20
18.70893196480001
 10
-31.34728916160004
 20
19.84607197600003
 10
-31.37430597919997
 20
20.87500000000001
  0
LWPOLYLINE
  5
1D76
330
1F
100
AcDbEntity
  8
0
 62
     0
100
AcDbPolyline
 90
       22
 70
     0
 43
0.0
 10
-30.94608432959997
 20
20.87500001600001
 10
-30.9279745152
 20
20.04132280480003
 10
-30.8738628096
 20
19.21353816480002
 10
-30.78410142879995
 20
18.39289412160003
 10
-30.65919589280004
 20
17.58144701440001
 10
-30.50382822720003
 20
16.79953595040002
 10
-30.33035388959997
 20
16.08369132320002
 10
-30.15016832479996
 20
15.44792712480001
 10
-29.97180091360003
 20
14.89288536639999
 10
-29.79913273760003
 20
14.40814915519998
 10
-29.63281164480004
 20
13.98001710720002
 10
-29.47333895360005
 20
13.59914797919999
 10
-29.32150872320001
 20
13.25964238400003
 10
-29.17753853439997
 20
12.95603616479998
 10
-29.04170278240004
 20
12.68428143040002
 10
-28.91424508320001
 20
12.44115507200002
 10
-28.79512895679996
 20
12.22357671200002
 10
-28.68405841919998
 20
12.02857241279998
 10
-28.58050536160006
 20
11.85326368960001
 10
-28.48373518720002
 20
11.69486071040002
 10
-28.39283059680004
 20
11.55065816960002
 10
-28.30666837120004
 20
11.41796513920003
  0
LWPOLYLINE
  5
1D78
330
1F
100
AcDbEntity
  8
0
 62
     0
100
AcDbPolyline
 90
       12
 70
     0
 43
0.0
 10
-14.25892179839998
 20
8.696316448000018
 10
-14.85707043999998
 20
8.781795639999998
 10
-15.41324356479999
 20
8.888625104000041
 10
-15.96511101760002
 20
9.022583040000043
 10
-16.53956691200001
 20
9.191282609600037
 10
-17.13927832960003
 20
9.397775556800027
 10
-17.74821459679999
 20
9.638790483200025
 10
-18.35208593919999
 20
9.909903395200004
 10
-18.93836884800005
 20
10.20577109120001
 10
-19.49693241120003
 20
10.52064716960002
 10
-20.01959174079998
 20
10.84842470560001
 10
-20.50164576000004
 20
11.1839137504
  0
LWPOLYLINE
  5
1D79
330
1F
100
AcDbEntity
  8
0
 62
     0
100
AcDbPolyline
 90
       19
 70
     0
 43
0.0
 10
-14.47629348799996
 20
6.153919172800002
 10
-15.12013025280005
 20
6.195120881600033
 10
-15.68558913759996
 20
6.258217775999995
 10
-16.18908196319996
 20
6.340101569600008
 10
-16.64284438399995
 20
6.438520761600003
 10
-17.05544712000001
 20
6.551765542400019
 10
-17.43522938880001
 20
6.679197311999999
 10
-17.78878527199999
 20
6.820749222400039
 10
-18.12128957119996
 20
6.976805283200022
 10
-18.44345260320001
 20
7.151769945600008
 10
-18.76369758719995
 20
7.350630395199985
 10
-19.08479101279995
 20
7.576649364800019
 10
-19.41768597280004
 20
7.840288630399996
 10
-19.76465633280004
 20
8.1474227888
 10
-20.12432639840001
 20
8.501581110399982
 10
-20.49636418239999
 20
8.907775052800005
 10
-20.88050114560003
 20
9.371793875200026
 10
-21.27653581600005
 20
9.900460948800017
 10
-21.68398468319999
 20
10.50129667840003
  0
LWPOLYLINE
  5
1D7A
330
1F
100
AcDbEntity
  8
0
 62
     0
100
AcDbPolyline
 90
       13
 70
     0
 43
0.0
 10
-14.66690170080001
 20
4.577702356800003
 10
-15.51602779520005
 20
4.511934603200032
 10
-16.45656540319994
 20
4.495869758400047
 10
-17.49537337759996
 20
4.547357787199999
 10
-18.64182577439994
 20
4.6894231152
 10
-19.87603142079997
 20
4.945393374400012
 10
-21.1107252192
 20
5.31407057600002
 10
-22.330150544
 20
5.797682595200015
 10
-23.49976344800002
 20
6.385678876800014
 10
-24.51133003039997
 20
7.005325767999991
 10
-25.36793586239999
 20
7.623010883199995
 10
-26.09459627839994
 20
8.225176755199996
 10
-26.71589710559995
 20
8.806923782400033
  0
LWPOLYLINE
  5
1D7B
330
1F
100
AcDbEntity
  8
0
 62
     0
100
AcDbPolyline
 90
       27
 70
     0
 43
0.0
 10
-21.89755346559998
 20
15.0902008032
 10
-21.82985555679995
 20
14.97096569439999
 10
-21.7595475312
 20
14.85145186559999
 10
-21.68658917119997
 20
14.73168050559998
 10
-21.61093861759998
 20
14.61167442080001
 10
-21.53256159200005
 20
14.49147202080003
 10
-21.45142906079998
 20
14.37112167200003
 10
-21.36750046239997
 20
14.25065663200003
 10
-21.28076397759998
 20
14.13015277120003
 10
-21.19121993120002
 20
14.0097001488
 10
-21.09887897920005
 20
13.88939837920004
 10
-21.00376846399997
 20
13.76936299200004
 10
-20.90600570880003
 20
13.64981100960001
 10
-20.80563404480001
 20
13.53085363040004
 10
-20.70269116000004
 20
13.41258856000003
 10
-20.59719733439995
 20
13.29508880800001
 10
-20.48914547679995
 20
13.17839540799998
 10
-20.37851950720001
 20
13.06254053599998
 10
-20.26528032159997
 20
12.94753099520001
 10
-20.14942756800003
 20
12.83341421439998
 10
-20.03100892799996
 20
12.72028280320002
 10
-19.91005422079997
 20
12.60820792480002
 10
-19.78658466559996
 20
12.497250432
 10
-19.66063690400001
 20
12.38748291999998
 10
-19.53225997279999
 20
12.27898539519999
 10
-19.40152960960001
 20
12.17185561600003
 10
-19.26853176000004
 20
12.06619334240004
  0
LWPOLYLINE
  5
1D7C
330
1F
100
AcDbEntity
  8
0
 62
     0
100
AcDbPolyline
 90
       24
 70
     0
 43
0.0
 10
-28.30666837120004
 20
11.41796513920003
 10
-27.91499779199996
 20
10.85320177120003
 10
-27.49491156799997
 20
10.30518373280001
 10
-27.04803877280001
 20
9.776417268800017
 10
-26.57624623520003
 20
9.26927184480003
 10
-26.08163783840002
 20
8.785967219200031
 10
-25.56532157279999
 20
8.327509211199995
 10
-25.02705464000003
 20
7.893697627199983
 10
-24.467187928
 20
7.484856172800007
 10
-23.88746174240004
 20
7.102394534400005
 10
-23.2912359312
 20
6.748498108800006
 10
-22.68077944800002
 20
6.424302656000023
 10
-22.05726820640002
 20
6.130262435200009
 10
-21.42109332959996
 20
5.866406214400015
 10
-20.77374269599995
 20
5.63321773600002
 10
-20.11741583199996
 20
5.431394006400026
 10
-19.45449164960002
 20
5.261497116800015
 10
-18.78564144479999
 20
5.123544851200009
 10
-18.11079913759995
 20
5.017510516799987
 10
-17.43065567840001
 20
4.943555008000046
 10
-16.74621290559999
 20
4.901909404800008
 10
-16.05868999520005
 20
4.892854459200023
 10
-15.36966077760003
 20
4.9165546384
 10
-14.68081282880002
 20
4.973091003200025
  0
LWPOLYLINE
  5
1D7E
330
1F
100
AcDbEntity
  8
0
 62
     0
100
AcDbPolyline
 90
       10
 70
     0
 43
0.0
 10
-27.05961601120005
 20
9.1591936704
 10
-27.25795217440004
 20
9.373448048000014
 10
-27.45095470880001
 20
9.590276356800032
 10
-27.6386799184
 20
9.80959700000001
 10
-27.82115524959995
 20
10.03130341280002
 10
-27.99840762560002
 20
10.25529455679999
 10
-28.17046369919997
 20
10.48147608
 10
-28.33734960639999
 20
10.70975884800005
 10
-28.49908569760005
 20
10.94005088960001
 10
-28.65568837279996
 20
11.17226048319999
  0
LWPOLYLINE
  5
1D85
330
1F
100
AcDbEntity
  8
0
 62
     0
100
AcDbPolyline
 90
        4
 70
     0
 43
0.0
 10
-26.71589710559995
 20
8.806923782400033
 10
-26.83167286400005
 20
8.922994257600024
 10
-26.94626318239996
 20
9.040434084799997
 10
-27.05961601120005
 20
9.1591936704
  0
LINE
  5
1D86
330
1F
100
AcDbEntity
  8
0
 62
     0
100
AcDbLine
 10
-28.6556883728
 20
11.17226048319997
 30
0.0
 11
-28.66460397120011
 21
11.185770176
 31
0.0
  0
LWPOLYLINE
  5
1D87
330
1F
100
AcDbEntity
  8
0
 62
     0
100
AcDbPolyline
 90
       34
 70
     0
 43
0.0
 10
-23.49478493119995
 20
14.04163173440004
 10
-23.44305883520003
 20
13.91747281440002
 10
-23.41727785760004
 20
13.85572911520002
 10
-23.390985512
 20
13.79302114399997
 10
-23.36366326239995
 20
13.728203448
 10
-23.33554927359996
 20
13.6619207664
 10
-23.30669266080004
 20
13.59435335040002
 10
-23.27629913920004
 20
13.52371793760001
 10
-23.24342065759999
 20
13.44793351520003
 10
-23.20697994400002
 20
13.36470646560003
 10
-23.16582891519995
 20
13.27169342079999
 10
-23.11884103680001
 20
13.16674092640001
 10
-23.06490782880003
 20
13.04790182559999
 10
-23.00517113919995
 20
12.91826836000002
 10
-22.94344173919996
 20
12.78646345120002
 10
-22.88382453440006
 20
12.66119580959998
 10
-22.82666014080003
 20
12.54291031359999
 10
-22.77130253119999
 20
12.4300248208
 10
-22.71711180480004
 20
12.32107296480002
 10
-22.66291651839999
 20
12.21361492000001
 10
-22.6076514528
 20
12.10554823360003
 10
-22.55233487359994
 20
11.99888012959998
 10
-22.49795155520003
 20
11.89544378080002
 10
-22.44274563359995
 20
11.79186566879998
 10
-22.38422380319998
 20
11.68360234239999
 10
-22.31977726719999
 20
11.56617149760002
 10
-22.24757763999999
 20
11.43680065120004
 10
-22.17076849279995
 20
11.30165196000002
 10
-22.09392390880005
 20
11.16894631999999
 10
-22.01711311360004
 20
11.03874964800003
 10
-21.93909006400004
 20
10.90895626240002
 10
-21.85863349439996
 20
10.77765738720002
 10
-21.77420885119996
 20
10.6426052096
 10
-21.68398468319999
 20
10.50129667840003
  0
LWPOLYLINE
  5
1D88
330
1F
100
AcDbEntity
  8
0
 62
     0
100
AcDbPolyline
 90
        3
 70
     0
 43
0.0
 10
-23.54735727680004
 20
14.1657546816
 10
-23.52106748319995
 20
14.10431481120004
 10
-23.49478493119995
 20
14.04163173440004
  0
LWPOLYLINE
  5
1D89
330
1F
100
AcDbEntity
  8
0
 62
     0
100
AcDbPolyline
 90
       19
 70
     0
 43
0.0
 10
-23.20897326400002
 20
14.36112078240002
 10
-23.06501603839997
 20
14.05339951200001
 10
-22.89746160960005
 20
13.74316321600004
 10
-22.70440575519997
 20
13.42972073919999
 10
-22.48943757119998
 20
13.12037091999998
 10
-22.27465593280006
 20
12.84243098240001
 10
-22.07444969119997
 20
12.60526284960003
 10
-21.89040274880001
 20
12.40251100640001
 10
-21.71982890720001
 20
12.22571483999998
 10
-21.56174069280003
 20
12.0702129504
 10
-21.41608460319999
 20
11.93329769600002
 10
-21.28363605759996
 20
11.81361047360003
 10
-21.16372264319996
 20
11.70889791040004
 10
-21.0522813536
 20
11.61448289760001
 10
-20.9444791616
 20
11.52565155200001
 10
-20.83576873600005
 20
11.43842644000001
 10
-20.72526404640002
 20
11.35205976480001
 10
-20.61364718880004
 20
11.26705858560002
 10
-20.50164576000004
 20
11.1839137504
  0
LINE
  5
1D8A
330
1F
100
AcDbEntity
  8
0
 62
     0
100
AcDbLine
 10
-21.90936389440003
 20
15.11145060159998
 30
0.0
 11
-21.89755346560002
 21
15.09020080319999
 31
0.0
  0
LWPOLYLINE
  5
1D8B
330
1F
100
AcDbEntity
  8
0
 62
     0
100
AcDbPolyline
 90
       25
 70
     0
 43
0.0
 10
-16.86649089120005
 20
10.6190795792
 10
-16.74056780639996
 20
10.56331898560002
 10
-16.61571060479998
 20
10.50975808639999
 10
-16.49430580159999
 20
10.45930888959999
 10
-16.37594448160003
 20
10.41165536800004
 10
-16.26023660480002
 20
10.36651481280002
 10
-16.14698523839997
 20
10.32370214399999
 10
-16.0360022672
 20
10.28305004960005
 10
-15.92708023680002
 20
10.24439705760001
 10
-15.82003076799999
 20
10.20760112
 10
-15.71460674559996
 20
10.17251195519999
 10
-15.61053115040006
 20
10.1389822384
 10
-15.50772960640002
 20
10.10693964159999
 10
-15.40624222399999
 20
10.07634968000003
 10
-15.3058139552
 20
10.04709255040002
 10
-15.20570313599996
 20
10.01892417599999
 10
-15.10518420000001
 20
9.991634832000002
 10
-15.00508445120006
 20
9.965441950400034
 10
-14.9061035552
 20
9.940498108800014
 10
-14.80698284319994
 20
9.916464555199993
 10
-14.70746191200005
 20
9.893278448000003
 10
-14.60794908479995
 20
9.871032393600003
 10
-14.50768688959995
 20
9.849560304000036
 10
-14.40522100000005
 20
9.828584531199979
 10
-14.30002958400002
 20
9.8080593488
  0
LWPOLYLINE
  5
1D8C
330
1F
100
AcDbEntity
  8
0
 62
     0
100
AcDbPolyline
 90
       21
 70
     0
 43
0.0
 10
-14.25892179839998
 20
9.80032555999999
 10
-13.74657218399995
 20
9.707013483200015
 10
-13.21021246239998
 20
9.614313633600048
 10
-12.65253465120004
 20
9.523003049600006
 10
-12.07686957280005
 20
9.433756705600004
 10
-11.49037955839999
 20
9.347574120000004
 10
-10.90323691040005
 20
9.265559792000047
 10
-10.32715098080002
 20
9.188718908800026
 10
-9.776775033600031
 20
9.118214516799994
 10
-9.243900246399974
 20
9.052287968000044
 10
-8.70663122560002
 20
8.987774233600035
 10
-8.154056305600036
 20
8.923125977600037
 10
-7.579512902400054
 20
8.857476340800033
 10
-6.979862324799981
 20
8.79051370880002
 10
-6.375865059199966
 20
8.724657105600002
 10
-5.769704531200048
 20
8.660257507200029
 10
-5.162743942400041
 20
8.597562889600013
 10
-4.625941425599947
 20
8.544149615999984
 10
-4.201298219200069
 20
8.503980940799991
 10
-3.863928361600031
 20
8.474101280000027
 10
-3.853371824000035
 20
8.473233131200018
  0
LWPOLYLINE
  5
1D8D
330
1F
100
AcDbEntity
  8
0
 62
     0
100
AcDbPolyline
 90
       16
 70
     0
 43
0.0
 10
-5.400264124800017
 20
7.561704644800002
 10
-5.700764441600043
 20
7.668791958400007
 10
-6.218450347199976
 20
7.826245012800043
 10
-6.783097847999968
 20
7.970290512000033
 10
-7.396956271999968
 20
8.100165412799995
 10
-8.060780900800025
 20
8.214588078400041
 10
-8.764268254399965
 20
8.31113751840003
 10
-9.408624108799997
 20
8.38088348319998
 10
-9.983115878400056
 20
8.430465136000023
 10
-10.51229261600003
 20
8.467361417600002
 10
-11.04711733760002
 20
8.497757604800042
 10
-11.59566531679998
 20
8.523882878400016
 10
-12.17020804320005
 20
8.548898947200044
 10
-12.79983847839999
 20
8.578655054400044
 10
-13.52329275040001
 20
8.624736177600041
 10
-14.25892179839998
 20
8.696316454400019
  0
LWPOLYLINE
  5
1D8E
330
1F
100
AcDbEntity
  8
0
 62
     0
100
AcDbPolyline
 90
       10
 70
     0
 43
0.0
 10
-6.384875956800058
 20
6.548679579199998
 10
-6.469156977600007
 20
6.546392582400031
 10
-7.128057499200011
 20
6.51836852480001
 10
-7.842253038399988
 20
6.478595819200009
 10
-8.620415756800028
 20
6.427132048000046
 10
-9.465811632000011
 20
6.365488222400031
 10
-10.30243472959996
 20
6.302799984000003
 10
-11.11042079839997
 20
6.244951891200017
 10
-11.89261655360003
 20
6.195970819200013
 10
-12.6463084816
 20
6.159941662400015
  0
LWPOLYLINE
  5
1D8F
330
1F
100
AcDbEntity
  8
0
 62
     0
100
AcDbPolyline
 90
        5
 70
     0
 43
0.0
 10
-2.988957603199949
 20
5.562118118400022
 10
-5.078196214399966
 20
5.478848723199988
 10
-7.37288511840002
 20
5.3375306768
 10
-9.88638061280001
 20
5.122577216000038
 10
-12.6472686048
 20
4.813500334399989
  0
LWPOLYLINE
  5
1D90
330
1F
100
AcDbEntity
  8
0
 62
     0
100
AcDbPolyline
 90
       14
 70
     0
 43
0.0
 10
-12.69311663840001
 20
5.202904017600033
 10
-11.44384905759996
 20
5.351523276799994
 10
-10.31842896799999
 20
5.472629310400023
 10
-9.301327308800026
 20
5.57160341280003
 10
-8.379550672000007
 20
5.652665315200025
 10
-7.542171131199964
 20
5.719149033600004
 10
-6.779757512000017
 20
5.773724696000002
 10
-6.084151235199968
 20
5.818540648000023
 10
-5.448634252800005
 20
5.855308929599985
 10
-4.867152623999984
 20
5.885431900800043
 10
-4.333947180799967
 20
5.910072316799997
 10
-3.843686654399974
 20
5.930179614400017
 10
-3.394279720000056
 20
5.946425872000034
 10
-2.98538437919997
 20
5.959337507200032
  0
LINE
  5
1D91
330
1F
100
AcDbEntity
  8
0
 62
     0
100
AcDbLine
 10
-14.64427662880007
 20
4.705125716800012
 30
0.0
 11
-14.66690170080005
 21
4.702702356799989
 31
0.0
  0
LWPOLYLINE
  5
1D92
330
1F
100
AcDbEntity
  8
0
 62
     0
100
AcDbPolyline
 90
        4
 70
     0
 43
0.0
 10
-14.68081282880002
 20
4.973091003200025
 10
-14.01011164159997
 20
5.046399836800006
 10
-13.34756203039997
 20
5.123101267200027
 10
-12.69311663840001
 20
5.202904017600033
  0
LWPOLYLINE
  5
1D93
330
1F
100
AcDbEntity
  8
0
 62
     0
100
AcDbPolyline
 90
        4
 70
     0
 43
0.0
 10
-12.67420943199995
 20
4.810112888000006
 10
-13.33039243039998
 20
4.729628923199996
 10
-13.98706912159998
 20
4.652967580800023
 10
-14.64427662880003
 20
4.580125716800026
  0
LINE
  5
1D94
330
1F
100
AcDbEntity
  8
0
 62
     0
100
AcDbLine
 10
-12.64726860480004
 20
4.813500334399975
 30
0.0
 11
-12.67420943199999
 21
4.810112887999991
 31
0.0
  0
LINE
  5
1D95
330
1F
100
AcDbEntity
  8
0
 62
     0
100
AcDbLine
 10
-14.30002958400007
 20
9.808059348799986
 30
0.0
 11
-14.25892179840002
 21
9.800325603200008
 31
0.0
  0
LWPOLYLINE
  5
1D96
330
1F
100
AcDbEntity
  8
0
 62
     0
100
AcDbPolyline
 90
        4
 70
     0
 43
0.0
 10
-12.6463084816
 20
6.159941662400015
 10
-13.26763100959995
 20
6.142201910400004
 10
-13.87899015679995
 20
6.139119172800022
 10
-14.47629348799996
 20
6.15391917440003
  0
LWPOLYLINE
  5
1D97
330
1F
100
AcDbEntity
  8
0
 62
     0
100
AcDbPolyline
 90
        9
 70
     0
 43
0.0
 10
-6.086246383999949
 20
6.098854008000003
 10
-6.220291841599944
 20
6.090149494400023
 10
-6.347919990400058
 20
6.084914190400027
 10
-6.462524244800036
 20
6.083768475199988
 10
-6.556055988799997
 20
6.086934337599998
 10
-6.623740937599976
 20
6.093971220800042
 10
-6.666567974400052
 20
6.104653664000025
 10
-6.683018078400053
 20
6.118930750400025
 10
-6.681019145600046
 20
6.126504160000038
  0
LINE
  5
1D98
330
1F
100
AcDbEntity
  8
0
 62
     0
100
AcDbLine
 10
-6.086246383999991
 20
6.098854007999989
 30
0.0
 11
-5.358094913599984
 21
6.153705144000014
 31
0.0
  0
LWPOLYLINE
  5
1D99
330
1F
100
AcDbEntity
  8
0
 62
     0
100
AcDbPolyline
 90
        8
 70
     0
 43
0.0
 10
-4.807294852800012
 20
6.247804691199988
 10
-4.842348724799947
 20
6.234138076799993
 10
-4.898740513600003
 20
6.218776495999989
 10
-4.973615286400061
 20
6.202912134399994
 10
-5.061741905599959
 20
6.187733828800006
 10
-5.160558798400032
 20
6.173769545600023
 10
-5.262441966400004
 20
6.162151476800048
 10
-5.358094913599941
 20
6.153705144000028
  0
LWPOLYLINE
  5
1D9A
330
1F
100
AcDbEntity
  8
0
 62
     0
100
AcDbPolyline
 90
        6
 70
     0
 43
0.0
 10
-2.81758360800002
 20
7.614677446399994
 10
-3.253744004800026
 20
7.431202593600019
 10
-3.663723808000057
 20
7.200008086400046
 10
-4.04165588480005
 20
6.924311966400026
 10
-4.382118638399973
 20
6.607949041599979
 10
-4.612564364800007
 20
6.343258372800008
  0
LWPOLYLINE
  5
1D9B
330
1F
100
AcDbEntity
  8
0
 62
     0
100
AcDbPolyline
 90
        3
 70
     0
 43
0.0
 10
-4.631749448000007
 20
6.331172625600018
 10
-4.721588102399962
 20
6.290077190399998
 10
-4.807294852800012
 20
6.247804691199988
  0
LWPOLYLINE
  5
1D9C
330
1F
100
AcDbEntity
  8
0
 62
     0
100
AcDbPolyline
 90
        6
 70
     0
 43
0.0
 10
-4.331180667200058
 20
8.259944768000039
 10
-4.906616139200039
 20
7.925304596800017
 10
-5.439565471999983
 20
7.532756955200014
 10
-5.92364941600006
 20
7.08715292799998
 10
-6.353074734399982
 20
6.594006254399985
 10
-6.681076944000054
 20
6.126500648000003
  0
LWPOLYLINE
  5
1D9D
330
1F
100
AcDbEntity
  8
0
 62
     0
100
AcDbPolyline
 90
        3
 70
     0
 43
0.0
 10
-4.612549564799977
 20
6.343259222399993
 10
-4.613817596799961
 20
6.341864295999997
 10
-4.631749448000007
 20
6.331172625600018
  0
LINE
  5
1D9E
330
1F
100
AcDbEntity
  8
0
 62
     0
100
AcDbLine
 10
-2.703347228799998
 20
6.406441735999976
 30
0.0
 11
-2.677905888000054
 21
6.446773055999983
 31
0.0
  0
LINE
  5
1D9F
330
1F
100
AcDbEntity
  8
0
 62
     0
100
AcDbLine
 10
-3.7456374912
 20
6.852091227199991
 30
0.0
 11
-3.98731325920005
 21
6.963954145599984
 31
0.0
  0
LWPOLYLINE
  5
1DA0
330
1F
100
AcDbEntity
  8
0
 62
     0
100
AcDbPolyline
 90
       21
 70
     0
 43
0.0
 10
-2.677905888000012
 20
6.446773057600026
 10
-2.710576692799989
 20
6.452791830400045
 10
-2.743446537600064
 20
6.459683902400016
 10
-2.776509003200047
 20
6.467383502399982
 10
-2.8097308464
 20
6.475824398400007
 10
-2.843285903999984
 20
6.485001979200049
 10
-2.878168155199958
 20
6.495175120000013
 10
-2.915330977600049
 20
6.506658528000016
 10
-2.955800534400012
 20
6.519848680000009
 10
-3.000785433600029
 20
6.535263667200027
 10
-3.051491129600051
 20
6.55348456640003
 10
-3.109371849600009
 20
6.575244392000016
 10
-3.17585765439999
 20
6.601328299200034
 10
-3.248771825600059
 20
6.631064972800018
 10
-3.323808300799967
 20
6.662691260800002
 10
-3.397533580800043
 20
6.694592633600009
 10
-3.469634476799981
 20
6.726433182400015
 10
-3.539951086399995
 20
6.75797579680001
 10
-3.608768566400001
 20
6.789213446399983
 10
-3.677003227200046
 20
6.820460755200045
 10
-3.745637491199957
 20
6.852091227200006
  0
LWPOLYLINE
  5
1DA1
330
1F
100
AcDbEntity
  8
0
 62
     0
100
AcDbPolyline
 90
       13
 70
     0
 43
0.0
 10
-3.815598998400062
 20
6.522774392000044
 10
-3.715172582399944
 20
6.515724870400006
 10
-3.617006875199948
 20
6.508249043200024
 10
-3.520049734399961
 20
6.500276113600037
 10
-3.423408267199945
 20
6.491724491200002
 10
-3.328361568000062
 20
6.482702588800023
 10
-3.234612286400036
 20
6.47318690240003
 10
-3.141979129599988
 20
6.463159227199994
 10
-3.051406622399966
 20
6.452730012800046
 10
-2.962723233600016
 20
6.441896387200031
 10
-2.87521575679996
 20
6.430579331200036
 10
-2.78867598560005
 20
6.418750382400006
 10
-2.703347228799955
 20
6.406441734400019
  0
LWPOLYLINE
  5
1DA2
330
1F
100
AcDbEntity
  8
0
 62
     0
100
AcDbPolyline
 90
        3
 70
     0
 43
0.0
 10
-3.815598998400062
 20
6.522774392000044
 10
-4.275051379199979
 20
6.547888476799997
 10
-4.430191296000046
 20
6.552732640000002
  0
LWPOLYLINE
  5
1DA3
330
1F
100
AcDbEntity
  8
0
 62
     0
100
AcDbPolyline
 90
       18
 70
     0
 43
0.0
 10
-19.26853176000004
 20
12.06619334240004
 10
-19.14013330559994
 20
11.96723635360003
 10
-19.00976947679994
 20
11.86971246560001
 10
-18.87749568960005
 20
11.77368364000001
 10
-18.74343032320003
 20
11.67925291680002
 10
-18.60761845600002
 20
11.58646644160002
 10
-18.47004017440004
 20
11.49532601760002
 10
-18.33076895359995
 20
11.40589262560003
 10
-18.18999046719996
 20
11.31829111680004
 10
-18.04817732160002
 20
11.23280556160001
 10
-17.90448713439998
 20
11.14893315839999
 10
-17.75878373600001
 20
11.0666305104
 10
-17.61187845759998
 20
10.98637449439998
 10
-17.46438089119995
 20
10.90847842400002
 10
-17.3164374576
 20
10.83298528640001
 10
-17.1678136
 20
10.75975099839997
 10
-17.01797231999996
 20
10.68850817120001
 10
-16.86649089120005
 20
10.6190795792
  0
LWPOLYLINE
  5
1DA4
330
1F
100
AcDbEntity
  8
0
 62
     0
100
AcDbPolyline
 90
       12
 70
     0
 43
0.0
 10
-14.25892179839998
 20
33.05368355200001
 10
-14.85707043999998
 20
32.9682043616
 10
-15.41324356479999
 20
32.86137489599998
 10
-15.96511101760002
 20
32.72741696160001
 10
-16.53956691200001
 20
32.55871739039999
 10
-17.13927832960003
 20
32.3522244432
 10
-17.74821459679999
 20
32.1112095168
 10
-18.35208593919999
 20
31.84009660639999
 10
-18.93836884800005
 20
31.54422890880001
 10
-19.49693241120003
 20
31.22935283199997
 10
-20.01959174079998
 20
30.90157529440002
 10
-20.50164576000004
 20
30.56608624960002
  0
LWPOLYLINE
  5
1DA5
330
1F
100
AcDbEntity
  8
0
 62
     0
100
AcDbPolyline
 90
       60
 70
     0
 43
0.0
 10
-14.31317545919996
 20
31.99656190720004
 10
-14.48287447679997
 20
31.96337948000003
 10
-14.65035015040003
 20
31.9280191104
 10
-14.81638662560006
 20
31.89036093760002
 10
-14.98162396319999
 20
31.8502747472
 10
-15.14606579360004
 20
31.80776142079999
 10
-15.30983093120001
 20
31.76279055360005
 10
-15.47318784960005
 20
31.71528224480001
 10
-15.63607685919994
 20
31.66524736319998
 10
-15.79865568479995
 20
31.61263189120002
 10
-15.96107638559995
 20
31.55737328800002
 10
-16.12324639679998
 20
31.49948872
 10
-16.28503743680001
 20
31.43901313120001
 10
-16.44635867040001
 20
31.37597040160001
 10
-16.60706498079998
 20
31.31040820640005
 10
-16.76697470719996
 20
31.24239804640002
 10
-16.92604240320004
 20
31.1719601264
 10
-17.08437117599994
 20
31.0990436176
 10
-17.24190424319995
 20
31.02366342720002
 10
-17.39842087840004
 20
30.94591651679998
 10
-17.5538092576
 20
30.86585419199998
 10
-17.70803594239994
 20
30.78348899200001
 10
-17.86097506879998
 20
30.69888338720001
 10
-18.01248345439996
 20
30.6121149568
 10
-18.16234836799999
 20
30.52331011999998
 10
-18.31038913599998
 20
30.4325884544
 10
-18.45646481119997
 20
30.34005515040003
 10
-18.60053299680005
 20
30.24575838239998
 10
-18.74258773280003
 20
30.14972224000003
 10
-18.882622304
 20
30.05197204000002
 10
-19.0205992032
 20
29.95255538240003
 10
-19.15645291840003
 20
29.8515416336
 10
-19.29008573439996
 20
29.74902874080005
 10
-19.42142372639996
 20
29.64510252480001
 10
-19.55043284159997
 20
29.53982114560001
 10
-19.67707399039996
 20
29.43324884639999
 10
-19.80129237119997
 20
29.32546622880001
 10
-19.92303663519995
 20
29.21655534400004
 10
-20.04228060960004
 20
29.1065794896
 10
-20.15900790400003
 20
28.99559489760004
 10
-20.27318237280003
 20
28.88367895200003
 10
-20.3847804432
 20
28.77090037600005
 10
-20.49381140639998
 20
28.65729619040003
 10
-20.60030845440003
 20
28.54287682720003
 10
-20.70427365600001
 20
28.42768747359999
 10
-20.80570762240002
 20
28.31177739039999
 10
-20.90461416479997
 20
28.19519246400001
 10
-21.00099168959998
 20
28.07798531040005
 10
-21.09478584640005
 20
27.96027674240004
 10
-21.18586912480004
 20
27.84229371200003
 10
-21.27421613439999
 20
27.72414783680001
 10
-21.35984214720004
 20
27.60590136640003
 10
-21.4427610528
 20
27.487619576
 10
-21.52298821120003
 20
27.36936700159999
 10
-21.60056046400002
 20
27.25117637119997
 10
-21.67551387680005
 20
27.13307889120001
 10
-21.74788328639995
 20
27.0151048496
 10
-21.81771203039996
 20
26.89726698080001
 10
-21.88505028319998
 20
26.779560496
 10
-21.94994497759997
 20
26.66197889920001
  0
LWPOLYLINE
  5
1DA6
330
1F
100
AcDbEntity
  8
0
 62
     0
100
AcDbPolyline
 90
       11
 70
     0
 43
0.0
 10
-24.55907471680002
 20
20.87500168800001
 10
-24.54523076000005
 20
21.5436806048
 10
-24.50337598239999
 20
22.21784966560001
 10
-24.43319625919999
 20
22.8944845232
 10
-24.33482538719995
 20
23.5694472944
 10
-24.20891018879997
 20
24.23843689760003
 10
-24.05643165440001
 20
24.8979834064
 10
-23.87859901760005
 20
25.54526341440005
 10
-23.67683638399996
 20
26.17782307040001
 10
-23.45298512799998
 20
26.79302016319998
 10
-23.20897326400002
 20
27.38887921919998
  0
LWPOLYLINE
  5
1DA7
330
1F
100
AcDbEntity
  8
0
 62
     0
100
AcDbPolyline
 90
       10
 70
     0
 43
0.0
 10
-31.37430597919997
 20
20.87500000000001
 10
-31.34737541440002
 20
21.90228798560004
 10
-31.25585596000003
 20
23.02326599200001
 10
-31.07945355680006
 20
24.25039667840003
 10
-30.81067697279998
 20
25.51574629120001
 10
-30.46427280480004
 20
26.730700072
 10
-30.04811404159996
 20
27.8833144112
 10
-29.59961477279996
 20
28.90280639040004
 10
-29.13614724639997
 20
29.79124299040002
 10
-28.66460397120006
 20
30.564229824
  0
LWPOLYLINE
  5
1DA8
330
1F
100
AcDbEntity
  8
0
 62
     0
100
AcDbPolyline
 90
       23
 70
     0
 43
0.0
 10
-30.94608432959997
 20
20.87500001600001
 10
-30.92958175680003
 20
21.67088922240004
 10
-30.88026238239997
 20
22.4614641472
 10
-30.79842609439999
 20
23.2456768208
 10
-30.68430160800001
 20
24.022931504
 10
-30.54112692159999
 20
24.77792863040004
 10
-30.37876193120003
 20
25.47875455679998
 10
-30.20767041280005
 20
26.10860869120001
 10
-30.03618625600002
 20
26.66389157600004
 10
-29.86902705280006
 20
27.15106658719999
 10
-29.70757900799999
 20
27.58175290080005
 10
-29.55215567679995
 20
27.96594354079998
 10
-29.40334911999999
 20
28.30997049600002
 10
-29.26163266880003
 20
28.6186745568
 10
-29.12717807999998
 20
28.89630679199997
 10
-29.00022808479998
 20
29.1460475088
 10
-28.8809294912
 20
29.37060981600002
 10
-28.76918208640002
 20
29.57264206719999
 10
-28.66467607839997
 20
29.75470840480001
 10
-28.56691405759995
 20
29.91929521920003
 10
-28.47523115680003
 20
30.0688158128
 10
-28.38881042240002
 20
30.20561846239998
 10
-28.30666837120004
 20
30.33203486079999
  0
LWPOLYLINE
  5
1DA9
330
1F
100
AcDbEntity
  8
0
 62
     0
100
AcDbPolyline
 90
       35
 70
     0
 43
0.0
 10
-21.95926993279995
 20
26.64472607360001
 10
-22.04161695520004
 20
26.48928225120001
 10
-22.12176071519998
 20
26.33238484160001
 10
-22.19966658560004
 20
26.1740890768
 10
-22.27529977599995
 20
26.01445298080001
 10
-22.34862862719997
 20
25.85353130720001
 10
-22.41962606399995
 20
25.69137758720002
 10
-22.48822182240003
 20
25.52815459200003
 10
-22.55439034399997
 20
25.36393242560002
 10
-22.61811999200002
 20
25.19875018400002
 10
-22.67939850240004
 20
25.0326516336
 10
-22.73821373760001
 20
24.86568206400001
 10
-22.79455678400002
 20
24.69787884
 10
-22.84841951360006
 20
24.52928174720002
 10
-22.89979592640004
 20
24.35992732960001
 10
-22.94868023199997
 20
24.1898490608
 10
-22.99506618239998
 20
24.01907963360004
 10
-23.03894740159996
 20
23.8476592944
 10
-23.08031296480006
 20
23.67565098720003
 10
-23.11915835359998
 20
23.50309163679999
 10
-23.1554794288
 20
23.33001434880004
 10
-23.18927187840002
 20
23.15645828319999
 10
-23.22053083199996
 20
22.982467768
 10
-23.24925124960004
 20
22.808089888
 10
-23.27543101119995
 20
22.633359064
 10
-23.29906848959997
 20
22.4583114496
 10
-23.32016143359994
 20
22.2829856368
 10
-23.3387076144
 20
22.10741738560001
 10
-23.35470636480006
 20
21.93164225120001
 10
-23.36815750720002
 20
21.7557030416
 10
-23.37905974560006
 20
21.5796506576
 10
-23.38741218879995
 20
21.40352184320001
 10
-23.39321452480005
 20
21.22735256480003
 10
-23.39646760800003
 20
21.05117087840001
 10
-23.39717256160004
 20
20.87500041280005
  0
LINE
  5
1DAA
330
1F
100
AcDbEntity
  8
0
 62
     0
100
AcDbLine
 10
-23.39717256000005
 20
20.87500041280003
 30
0.0
 11
-23.3970298928001
 21
20.84345802720002
 31
0.0
  0
LINE
  5
1DAB
330
1F
100
AcDbEntity
  8
0
 62
     0
100
AcDbLine
 10
-21.94994501120004
 20
26.66197891839999
 30
0.0
 11
-21.9592699328
 21
26.6447260736
 31
0.0
  0
LWPOLYLINE
  5
1DAC
330
1F
100
AcDbEntity
  8
0
 62
     0
100
AcDbPolyline
 90
       37
 70
     0
 43
0.0
 10
-23.54735727680004
 20
27.58424531999999
 10
-23.52106748319995
 20
27.64568518879999
 10
-23.49478493119995
 20
27.70836826559998
 10
-23.46881737760004
 20
27.77068547680001
 10
-23.44305883520003
 20
27.8325271856
 10
-23.41727785760004
 20
27.8942708848
 10
-23.390985512
 20
27.95697885760002
 10
-23.36366326239995
 20
28.02179655360005
 10
-23.33554927359996
 20
28.08807923520005
 10
-23.30669266080004
 20
28.15564665120003
 10
-23.27629913920004
 20
28.22628206400004
 10
-23.24342065759999
 20
28.30206648640002
 10
-23.20697994400002
 20
28.38529353600002
 10
-23.16582891519995
 20
28.47830658080001
 10
-23.11884103680001
 20
28.58325907360002
 10
-23.06490782880003
 20
28.70209817439997
 10
-23.00517113919995
 20
28.83173164160003
 10
-22.94344173919996
 20
28.96353655039998
 10
-22.88382453440006
 20
29.08880419200001
 10
-22.82666014080003
 20
29.20708968640004
 10
-22.77130253119999
 20
29.31997517920002
 10
-22.71711180480004
 20
29.4289270352
 10
-22.66291651839999
 20
29.53638508000001
 10
-22.6076514528
 20
29.64445176800002
 10
-22.55233487359994
 20
29.75111987040004
 10
-22.49795155520003
 20
29.8545562192
 10
-22.44274563359995
 20
29.95813433280001
 10
-22.38422380319998
 20
30.06639765920001
 10
-22.31977726719999
 20
30.1838285024
 10
-22.24757763999999
 20
30.31319935040001
 10
-22.17076849279995
 20
30.44834804160002
 10
-22.09392390880005
 20
30.58105368000004
 10
-22.01711311360004
 20
30.71125035200005
 10
-21.93909006400004
 20
30.8410437376
 10
-21.85863349439996
 20
30.97234261440003
 10
-21.77420885119996
 20
31.10739479040002
 10
-21.68398468319999
 20
31.24870332159999
  0
LWPOLYLINE
  5
1DAD
330
1F
100
AcDbEntity
  8
0
 62
     0
100
AcDbPolyline
 90
       10
 70
     0
 43
0.0
 10
-28.65568837439998
 20
30.57773951680003
 10
-28.49904995039999
 20
30.81000105120001
 10
-28.33728536960002
 20
31.04033079840003
 10
-28.17037896159998
 20
31.26863755040001
 10
-27.99831109600002
 20
31.49482985599998
 10
-27.82105635520004
 20
31.71881912800002
 10
-27.63858879360005
 20
31.94051157120004
 10
-27.45088218880001
 20
32.15980672640002
 10
-27.25790979840003
 20
32.37659863840004
 10
-27.05961601120005
 20
32.59080633119999
  0
LINE
  5
1DAE
330
1F
100
AcDbEntity
  8
0
 62
     0
100
AcDbLine
 10
-28.66460397120011
 20
30.56422982399999
 30
0.0
 11
-28.65568837440003
 21
30.57773951680002
 31
0.0
  0
LWPOLYLINE
  5
1DAF
330
1F
100
AcDbEntity
  8
0
 62
     0
100
AcDbPolyline
 90
       19
 70
     0
 43
0.0
 10
-23.20897326400002
 20
27.38887921919998
 10
-23.06501603839997
 20
27.69660048960004
 10
-22.89746160960005
 20
28.00683678399998
 10
-22.70440575519997
 20
28.3202792624
 10
-22.48943757119998
 20
28.62962908160001
 10
-22.27465593280006
 20
28.90756901760001
 10
-22.07444969119997
 20
29.14473715200001
 10
-21.89040274880001
 20
29.3474889936
 10
-21.71982890720001
 20
29.52428516000004
 10
-21.56174069280003
 20
29.67978704960002
 10
-21.41608460319999
 20
29.81670230560003
 10
-21.28363605759996
 20
29.93638952800002
 10
-21.16372264319996
 20
30.04110209120002
 10
-21.0522813536
 20
30.13551710240001
 10
-20.9444791616
 20
30.22434844800001
 10
-20.83576873600005
 20
30.31157356000001
 10
-20.72526404640002
 20
30.39794023680004
 10
-20.61364718880004
 20
30.4829414144
 10
-20.50164576000004
 20
30.56608624960002
  0
LWPOLYLINE
  5
1DB0
330
1F
100
AcDbEntity
  8
0
 62
     0
100
AcDbPolyline
 90
        4
 70
     0
 43
0.0
 10
-27.05961601120005
 20
32.59080633119999
 10
-26.94626318239996
 20
32.7095659168
 10
-26.83167286400005
 20
32.8270057424
 10
-26.71589710719997
 20
32.94307621600002
  0
LWPOLYLINE
  5
1DB1
330
1F
100
AcDbEntity
  8
0
 62
     0
100
AcDbPolyline
 90
       27
 70
     0
 43
0.0
 10
-3.958221033599969
 20
33.32357379039997
 10
-4.33831159040001
 20
33.28573922239998
 10
-4.819781681599991
 20
33.23492519999998
 10
-5.311730385600029
 20
33.18139397919999
 10
-5.777938087999999
 20
33.12992625440001
 10
-6.231206369600002
 20
33.07949276159998
 10
-6.670772827199996
 20
33.03020751679999
 10
-7.095133308800043
 20
32.98229040480005
 10
-7.50529609439998
 20
32.93567032000005
 10
-7.903590953600044
 20
32.89008885760002
 10
-8.292775567999981
 20
32.84520452160002
 10
-8.676028827200028
 20
32.80058907519999
 10
-9.055985014400064
 20
32.75584186880003
 10
-9.433195404799974
 20
32.71077623360004
 10
-9.808683230400063
 20
32.66512313599999
 10
-10.1815813248
 20
32.61884818400001
 10
-10.55174865759995
 20
32.57184505120001
 10
-10.92074563039996
 20
32.5237789136
 10
-11.28918301439996
 20
32.4744173552
 10
-11.65788147999997
 20
32.4234856032
 10
-12.02787570719995
 20
32.37066168640002
 10
-12.3989714
 20
32.31578674880002
 10
-12.77064909760004
 20
32.25875754240003
 10
-13.14325655679995
 20
32.19934692960005
 10
-13.51627743839999
 20
32.13747399360001
 10
-13.88838628319997
 20
32.07322348480001
 10
-14.25892179839998
 20
32.00660761920001
  0
LWPOLYLINE
  5
1DB2
330
1F
100
AcDbEntity
  8
0
 62
     0
100
AcDbPolyline
 90
       16
 70
     0
 43
0.0
 10
-5.400264019200065
 20
34.18829539359997
 10
-5.700764441600043
 20
34.08120804160002
 10
-6.218450347199976
 20
33.92375498719998
 10
-6.783097847999968
 20
33.77970948800005
 10
-7.396956271999968
 20
33.64983458720003
 10
-8.060780900800025
 20
33.53541192320001
 10
-8.764268254399965
 20
33.43886248320002
 10
-9.408624108799997
 20
33.36911651680004
 10
-9.983115878400056
 20
33.31953486560003
 10
-10.51229261600003
 20
33.28263858400005
 10
-11.04711733760002
 20
33.25224239680001
 10
-11.59566531679998
 20
33.22611712320004
 10
-12.17020804320005
 20
33.20110105279998
 10
-12.79983847839999
 20
33.17134494559998
 10
-13.52329275040001
 20
33.12526382239998
 10
-14.25892179839998
 20
33.0536835456
  0
LWPOLYLINE
  5
1DB3
330
1F
100
AcDbEntity
  8
0
 62
     0
100
AcDbPolyline
 90
        4
 70
     0
 43
0.0
 10
-14.25892179839998
 20
32.00660754719997
 10
-14.27702254879996
 20
32.00328576320005
 10
-14.29510713600002
 20
31.99993721280005
 10
-14.31317545919996
 20
31.99656190720004
  0
LWPOLYLINE
  5
1DBC
330
1F
100
AcDbEntity
  8
0
 62
     0
100
AcDbPolyline
 90
        5
 70
     0
 43
0.0
 10
-12.6472686048
 20
36.93649966720001
 10
-9.851208627200051
 20
36.6239793072
 10
-7.33436414720002
 20
36.40966519680002
 10
-5.057362646400022
 20
36.2701075984
 10
-2.988957603199949
 20
36.1878818816
  0
LWPOLYLINE
  5
1DBD
330
1F
100
AcDbEntity
  8
0
 62
     0
100
AcDbPolyline
 90
       14
 70
     0
 43
0.0
 10
-12.69311663840001
 20
36.54709598239999
 10
-11.44384905759996
 20
36.3984767248
 10
-10.31842896799999
 20
36.27737069120003
 10
-9.301327308800026
 20
36.17839658880003
 10
-8.379550672000007
 20
36.09733468639997
 10
-7.542171131199964
 20
36.03085096800005
 10
-6.779757512000017
 20
35.97627530400002
 10
-6.084151235199968
 20
35.93145935360003
 10
-5.448634252800005
 20
35.89469107200001
 10
-4.867152623999984
 20
35.86456809919998
 10
-4.333947180799967
 20
35.83992768319997
 10
-3.843686654399974
 20
35.81982038719998
 10
-3.394279720000056
 20
35.80357412960002
 10
-2.98538437919997
 20
35.79066249440002
  0
LWPOLYLINE
  5
1DBE
330
1F
100
AcDbEntity
  8
0
 62
     0
100
AcDbPolyline
 90
       10
 70
     0
 43
0.0
 10
-6.384876164800019
 20
35.20132042719997
 10
-6.469156977600007
 20
35.20360741920002
 10
-7.128057499200011
 20
35.23163147680004
 10
-7.842253038399988
 20
35.27140418080001
 10
-8.620415756800028
 20
35.32286795199998
 10
-9.465811632000011
 20
35.38451177920002
 10
-10.30243472959996
 20
35.4472000176
 10
-11.11042079839997
 20
35.50504810880001
 10
-11.89261655360003
 20
35.55402918080001
 10
-12.6463084816
 20
35.59005833760001
  0
LINE
  5
1DBF
330
1F
100
AcDbEntity
  8
0
 62
     0
100
AcDbLine
 10
-12.67420943360002
 20
36.81488711360003
 30
0.0
 11
-12.64726860480004
 21
36.81149966719999
 31
0.0
  0
LWPOLYLINE
  5
1DC0
330
1F
100
AcDbEntity
  8
0
 62
     0
100
AcDbPolyline
 90
        4
 70
     0
 43
0.0
 10
-14.64427662880003
 20
37.16987428479997
 10
-13.98706912159998
 20
37.09703242079998
 10
-13.33039243039998
 20
37.02037107680003
 10
-12.67420943359998
 20
36.93988711360005
  0
LINE
  5
1DC1
330
1F
100
AcDbEntity
  8
0
 62
     0
100
AcDbLine
 10
-14.66690170080005
 20
37.04729764480004
 30
0.0
 11
-14.64427662880007
 21
37.04487428479996
 31
0.0
  0
LWPOLYLINE
  5
1DC2
330
1F
100
AcDbEntity
  8
0
 62
     0
100
AcDbPolyline
 90
        4
 70
     0
 43
0.0
 10
-12.6463084816
 20
35.59005833760001
 10
-13.26763100959995
 20
35.60779808960002
 10
-13.87899015679995
 20
35.61088082880003
 10
-14.47629348799996
 20
35.59608082560005
  0
LWPOLYLINE
  5
1DC3
330
1F
100
AcDbEntity
  8
0
 62
     0
100
AcDbPolyline
 90
        4
 70
     0
 43
0.0
 10
-14.68081282880002
 20
36.77690899839997
 10
-14.01011164159997
 20
36.70360016479999
 10
-13.34756203039997
 20
36.6268987328
 10
-12.69311663840001
 20
36.54709598239999
  0
LINE
  5
1DC5
330
1F
100
AcDbEntity
  8
0
 62
     0
100
AcDbLine
 10
-6.086246383999991
 20
35.65114599200001
 30
0.0
 11
-5.358094913599984
 21
35.59629485759995
 31
0.0
  0
LWPOLYLINE
  5
1DC6
330
1F
100
AcDbEntity
  8
0
 62
     0
100
AcDbPolyline
 90
        9
 70
     0
 43
0.0
 10
-6.086246383999949
 20
35.65114599200002
 10
-6.220717945600043
 20
35.65987339999999
 10
-6.348378929599974
 20
35.66509807200004
 10
-6.462846092800035
 20
35.6662283504
 10
-6.556234431999953
 20
35.66305415040001
 10
-6.623834115200068
 20
35.65601382720002
 10
-6.666613337600054
 20
35.6453274672
 10
-6.683020752000018
 20
35.63105093600002
 10
-6.681019086400013
 20
35.62349583680004
  0
LWPOLYLINE
  5
1DC7
330
1F
100
AcDbEntity
  8
0
 62
     0
100
AcDbPolyline
 90
        3
 70
     0
 43
0.0
 10
-3.815598998400062
 20
35.22722560960001
 10
-4.275051379199979
 20
35.20211152320003
 10
-4.430190392000056
 20
35.19726738879997
  0
LWPOLYLINE
  5
1DC8
330
1F
100
AcDbEntity
  8
0
 62
     0
100
AcDbPolyline
 90
       13
 70
     0
 43
0.0
 10
-3.815598998400062
 20
35.22722560960001
 10
-3.715172582399944
 20
35.23427512960002
 10
-3.617006875199948
 20
35.24175095840003
 10
-3.520049734399961
 20
35.24972388800001
 10
-3.423408267199945
 20
35.25827551039999
 10
-3.328361568000062
 20
35.2672974112
 10
-3.234612286400036
 20
35.27681309760005
 10
-3.141979129599988
 20
35.2868407744
 10
-3.051406622399966
 20
35.29726998880001
 10
-2.962723233600016
 20
35.30810361280005
 10
-2.87521575679996
 20
35.31942067040002
 10
-2.78867598560005
 20
35.33124961920005
 10
-2.703347228799955
 20
35.34355826560001
  0
LWPOLYLINE
  5
1DC9
330
1F
100
AcDbEntity
  8
0
 62
     0
100
AcDbPolyline
 90
        8
 70
     0
 43
0.0
 10
-5.358094913599941
 20
35.59629485759997
 10
-5.262441966400004
 20
35.5878485248
 10
-5.160558798400032
 20
35.57623045600003
 10
-5.061741905599959
 20
35.56226617279999
 10
-4.973615286400061
 20
35.5470878672
 10
-4.898740513600003
 20
35.53122350400004
 10
-4.842348724799947
 20
35.5158619248
 10
-4.807294852800012
 20
35.50219531040001
  0
LWPOLYLINE
  5
1DCA
330
1F
100
AcDbEntity
  8
0
 62
     0
100
AcDbPolyline
 90
        3
 70
     0
 43
0.0
 10
-4.631749448000007
 20
35.41882737440001
 10
-4.61381976319997
 20
35.40813786560001
 10
-4.61254971039996
 20
35.40674079039998
  0
LWPOLYLINE
  5
1DCB
330
1F
100
AcDbEntity
  8
0
 62
     0
100
AcDbPolyline
 90
        3
 70
     0
 43
0.0
 10
-4.807294852800012
 20
35.50219531040001
 10
-4.721595891200038
 20
35.45992650720002
 10
-4.631749448000007
 20
35.41882737440001
  0
LINE
  5
1DCC
330
1F
100
AcDbEntity
  8
0
 62
     0
100
AcDbLine
 10
-2.703347228799998
 20
35.34355826559999
 30
0.0
 11
-2.677905888000054
 21
35.30322694399996
 31
0.0
  0
LWPOLYLINE
  5
1DCE
330
1F
100
AcDbEntity
  8
0
 62
     0
100
AcDbPolyline
 90
       24
 70
     0
 43
0.0
 10
28.30666837279993
 20
30.33203486079999
 10
27.91499779359996
 20
30.89679823040002
 10
27.49491156799995
 20
31.44481626720001
 10
27.04803877279998
 20
31.97358273280004
 10
26.5762462352
 20
32.4807281552
 10
26.08163784000002
 20
32.96403278079999
 10
25.56532157439999
 20
33.4224907904
 10
25.02705464160003
 20
33.85630237280004
 10
24.4671879296
 20
34.26514382720002
 10
23.88746174240002
 20
34.64760546560002
 10
23.2912359328
 20
35.00150189280005
 10
22.68077944960002
 20
35.325697344
 10
22.05726820800002
 20
35.61973756640004
 10
21.42109333119996
 20
35.88359378560001
 10
20.77374269759995
 20
36.11678226559998
 10
20.11741583359996
 20
36.3186059936
 10
19.45449165120002
 20
36.48850288320001
 10
18.78564144639999
 20
36.62645515039999
 10
18.11079913919995
 20
36.73248948320004
 10
17.43065568000001
 20
36.80644499360001
 10
16.74621290719999
 20
36.84809059520002
 10
16.05868999679994
 20
36.8571455408
 10
15.36966077920003
 20
36.83344536160003
 10
14.68081283040002
 20
36.77690899839997
  0
LWPOLYLINE
  5
1DCF
330
1F
100
AcDbEntity
  8
0
 62
     0
100
AcDbPolyline
 90
       22
 70
     0
 43
0.0
 10
2.677905889600012
 20
35.30322694399997
 10
2.710576694399989
 20
35.29720816959998
 10
2.74344653919995
 20
35.29031609760001
 10
2.776509003200018
 20
35.28261649760004
 10
2.809730848
 20
35.27417560320005
 10
2.843285905599984
 20
35.26499802079998
 10
2.878168155200043
 20
35.25482488159998
 10
2.915330979199936
 20
35.24334147200001
 10
2.955800536000012
 20
35.23015132159999
 10
3.000785435200029
 20
35.2147363328
 10
3.051491131199938
 20
35.19651543520002
 10
3.10937184959998
 20
35.17475560800001
 10
3.17585765599999
 20
35.14867170079999
 10
3.248771827199945
 20
35.11893502879998
 10
3.323808302399967
 20
35.08730874079999
 10
3.397533582400043
 20
35.05540736799999
 10
3.469634478399981
 20
35.02356681760001
 10
3.539951086399966
 20
34.99202420320001
 10
3.608768568000002
 20
34.96078655360004
 10
3.677003227200017
 20
34.92953924640001
 10
3.745637492799957
 20
34.89790877440005
 10
3.987313260800007
 20
34.78604585440002
  0
LWPOLYLINE
  5
1DD0
330
1F
100
AcDbEntity
  8
0
 62
     0
100
AcDbPolyline
 90
       19
 70
     0
 43
0.0
 10
14.47629348959996
 20
35.5960808288
 10
15.12013025439993
 20
35.55487912000002
 10
15.68558913919996
 20
35.4917822256
 10
16.18908196479996
 20
35.40989843040001
 10
16.64284438559995
 20
35.31147923840002
 10
17.05544712160001
 20
35.19823445920003
 10
17.43522939040001
 20
35.0708026896
 10
17.78878527359999
 20
34.92925077759998
 10
18.12128957279996
 20
34.77319471840003
 10
18.44345260480001
 20
34.59823005599999
 10
18.76369758879995
 20
34.39936960480004
 10
19.08479101439995
 20
34.17335063520001
 10
19.41768597280001
 20
33.9097113712
 10
19.76465633280001
 20
33.60257721279999
 10
20.12432640000001
 20
33.24841888960004
 10
20.49636418239997
 20
32.84222494720002
 10
20.88050114720003
 20
32.37820612640003
 10
21.27653581759993
 20
31.84953905120001
 10
21.68398468479999
 20
31.24870332159999
  0
LWPOLYLINE
  5
1DD1
330
1F
100
AcDbEntity
  8
0
 62
     0
100
AcDbPolyline
 90
       13
 70
     0
 43
0.0
 10
14.66690170079998
 20
37.17229764480005
 10
15.51602779679994
 20
37.23806539679999
 10
16.45656540479994
 20
37.25413024320001
 10
17.49537337919996
 20
37.2026422144
 10
18.64182577599994
 20
37.06057688480003
 10
19.87603142239997
 20
36.80460662720004
 10
21.1107252208
 20
36.43592942400001
 10
22.3301505456
 20
35.95231740480001
 10
23.49976344799999
 20
35.36432112320001
 10
24.51133003199997
 20
34.74467423200003
 10
25.36793586399999
 20
34.12698911679997
 10
26.09459627840003
 20
33.5248232464
 10
26.71589710719995
 20
32.94307621920002
  0
LWPOLYLINE
  5
1DD2
330
1F
100
AcDbEntity
  8
0
 62
     0
100
AcDbPolyline
 90
        6
 70
     0
 43
0.0
 10
4.331180668799945
 20
33.49005523360002
 10
4.906616140800039
 20
33.82469540320001
 10
5.439565473599984
 20
34.21724304480001
 10
5.923649417599946
 20
34.66284707360002
 10
6.353074735999982
 20
35.15599374720001
 10
6.681076945600054
 20
35.62349935200002
  0
LWPOLYLINE
  5
1DD3
330
1F
100
AcDbEntity
  8
0
 62
     0
100
AcDbPolyline
 90
        6
 70
     0
 43
0.0
 10
2.817583609600021
 20
34.13532255360003
 10
3.253744006400026
 20
34.31879740640001
 10
3.663723809599943
 20
34.54999191520001
 10
4.04165588640005
 20
34.8256880336
 10
4.382118639999973
 20
35.14205095840004
 10
4.612564366400007
 20
35.40674162880005
  0
LWPOLYLINE
  5
1DD5
330
1F
100
AcDbEntity
  8
0
 62
     0
100
AcDbPolyline
 90
       10
 70
     0
 43
0.0
 10
31.37430598079997
 20
20.87500000000001
 10
31.34737541439999
 20
19.84771201439999
 10
31.25585596160003
 20
18.726734008
 10
31.07945355680003
 20
17.49960332320002
 10
30.81067697279995
 20
16.23425371039998
 10
30.46427280480001
 20
15.01929992800002
 10
30.04811404319996
 20
13.86668559039999
 10
29.59961477439996
 20
12.84719361120001
 10
29.13614724639994
 20
11.95875701120003
 10
28.66460397279995
 20
11.18577017600002
  0
LWPOLYLINE
  5
1DD6
330
1F
100
AcDbEntity
  8
0
 62
     0
100
AcDbPolyline
 90
       22
 70
     0
 43
0.0
 10
30.94608433119997
 20
20.87500001600001
 10
30.92797451519997
 20
20.04132280480003
 10
30.8738628112
 20
19.21353816480002
 10
30.78410143039995
 20
18.39289412160003
 10
30.65919589440004
 20
17.58144701440001
 10
30.50382822880003
 20
16.79953595040002
 10
30.33035389119997
 20
16.08369132320002
 10
30.15016832639996
 20
15.44792712480001
 10
29.97180091520003
 20
14.89288536639999
 10
29.7991327376
 20
14.40814915519998
 10
29.63281164640004
 20
13.98001710720002
 10
29.47333895519993
 20
13.59914797919999
 10
29.32150872480001
 20
13.25964238400003
 10
29.17753853599997
 20
12.95603616479998
 10
29.04170278400004
 20
12.68428143040002
 10
28.91424508480001
 20
12.44115507200002
 10
28.79512895839996
 20
12.22357671200002
 10
28.68405842079998
 20
12.02857241279998
 10
28.58050536319995
 20
11.85326368960001
 10
28.48373518880002
 20
11.69486071040002
 10
28.39283059680001
 20
11.55065816960002
 10
28.30666837120002
 20
11.41796513920003
  0
LWPOLYLINE
  5
1DD7
330
1F
100
AcDbEntity
  8
0
 62
     0
100
AcDbPolyline
 90
       10
 70
     0
 43
0.0
 10
24.55907472000005
 20
20.87500168800001
 10
24.54197972959995
 20
20.131665528
 10
24.49024341440001
 20
19.38187522720001
 10
24.40353259999999
 20
18.63020590240002
 10
24.28219880800002
 20
17.88217989280004
 10
24.12740930240004
 20
17.1438046592
 10
23.94060806719998
 20
16.41899466399998
 10
23.72363064480002
 20
15.711293744
 10
23.47889075679999
 20
15.0244326592
 10
23.20897326399999
 20
14.36112078240002
  0
LWPOLYLINE
  5
1DD8
330
1F
100
AcDbEntity
  8
0
 62
     0
100
AcDbPolyline
 90
       36
 70
     0
 43
0.0
 10
21.90936385920001
 20
15.11145062240002
 10
21.99062885280004
 20
15.2605938672
 10
22.06982010400001
 20
15.4111214592
 10
22.14689778719996
 20
15.56296695359999
 10
22.22182067520002
 20
15.71605600160002
 10
22.29454117599998
 20
15.8702942192
 10
22.36501573599996
 20
16.02558150880004
 10
22.43324584479994
 20
16.1819103168
 10
22.49922214719997
 20
16.33925213440001
 10
22.56292329599993
 20
16.49754954560002
 10
22.62433111199997
 20
16.65674676960004
 10
22.68343711519996
 20
16.81680975040002
 10
22.74024003039998
 20
16.97772503680001
 10
22.79474948160002
 20
17.139514288
 10
22.84695942720002
 20
17.30215484000003
 10
22.89685673119997
 20
17.46560259040002
 10
22.9444280928
 20
17.62981234400003
 10
22.98965896799999
 20
17.79472911680001
 10
23.03253774240003
 20
17.96029708160001
 10
23.07305597919996
 20
18.12646947840001
 10
23.11120867679999
 20
18.29321459040001
 10
23.14699318080003
 20
18.46051122720003
 10
23.18040571520002
 20
18.62833101439998
 10
23.21144187999998
 20
18.79664374880003
 10
23.24009844799995
 20
18.9654281888
 10
23.26637195360005
 20
19.1346612896
 10
23.29026119839993
 20
19.30433703520004
 10
23.31175925120003
 20
19.47441711200004
 10
23.33085441760003
 20
19.64481705279998
 10
23.34754174080005
 20
19.81547599520003
 10
23.36182059039997
 20
19.98635980000001
 10
23.37369188480003
 20
20.15747410080003
 10
23.3831509408
 20
20.32877228960002
 10
23.3901944592
 20
20.50021116480003
 10
23.39482127360001
 20
20.67177579039999
 10
23.39702989439995
 20
20.84345802720004
  0
LWPOLYLINE
  5
1DDA
330
1F
100
AcDbEntity
  8
0
 62
     0
100
AcDbPolyline
 90
       24
 70
     0
 43
0.0
 10
28.30666837279993
 20
11.41796513920003
 10
27.91499779359996
 20
10.85320177120003
 10
27.49491156799995
 20
10.30518373280001
 10
27.04803877279998
 20
9.776417268800017
 10
26.5762462352
 20
9.26927184480003
 10
26.08163784000002
 20
8.785967219200031
 10
25.56532157439999
 20
8.327509211199995
 10
25.02705464160003
 20
7.893697627199983
 10
24.4671879296
 20
7.484856172800007
 10
23.88746174240002
 20
7.102394534400005
 10
23.2912359328
 20
6.748498108800006
 10
22.68077944960002
 20
6.424302656000023
 10
22.05726820800002
 20
6.130262435200009
 10
21.42109333119996
 20
5.866406214400015
 10
20.77374269759995
 20
5.63321773600002
 10
20.11741583359996
 20
5.431394006400026
 10
19.45449165120002
 20
5.261497116800015
 10
18.78564144639999
 20
5.123544851200009
 10
18.11079913919995
 20
5.017510516799987
 10
17.43065568000001
 20
4.943555008000046
 10
16.74621290719999
 20
4.901909404800008
 10
16.05868999679994
 20
4.892854459200023
 10
15.36966077920003
 20
4.9165546384
 10
14.68081283040002
 20
4.973091003200025
  0
LWPOLYLINE
  5
1DDB
330
1F
100
AcDbEntity
  8
0
 62
     0
100
AcDbPolyline
 90
       13
 70
     0
 43
0.0
 10
26.71589710879997
 20
8.806923784000005
 10
26.09563459839994
 20
8.226094600000024
 10
25.37778330719997
 20
7.630662964800038
 10
24.539177896
 20
7.023990014400013
 10
23.55602137119994
 20
6.417296459200045
 10
22.4169015552
 20
5.836937459200001
 10
21.19740246719997
 20
5.344395843200018
 10
19.93995361440004
 20
4.961653172800041
 10
18.67462472959998
 20
4.694824830400037
 10
17.50726315199999
 20
4.548369484800005
 10
16.45930196960004
 20
4.495909792000034
 10
15.51602207360001
 20
4.511934883200027
 10
14.66690170079998
 20
4.577702356800003
  0
LWPOLYLINE
  5
1DDC
330
1F
100
AcDbEntity
  8
0
 62
     0
100
AcDbPolyline
 90
       19
 70
     0
 43
0.0
 10
14.47629348959996
 20
6.153919172800002
 10
15.12013025439993
 20
6.195120881600033
 10
15.68558913919996
 20
6.258217775999995
 10
16.18908196479996
 20
6.340101569600008
 10
16.64284438559995
 20
6.438520761600003
 10
17.05544712160001
 20
6.551765542400019
 10
17.43522939040001
 20
6.679197311999999
 10
17.78878527359999
 20
6.820749222400039
 10
18.12128957279996
 20
6.976805283200022
 10
18.44345260480001
 20
7.151769945600008
 10
18.76369758879995
 20
7.350630395199985
 10
19.08479101439995
 20
7.576649364800019
 10
19.41768597280001
 20
7.840288630399996
 10
19.76465633280001
 20
8.1474227888
 10
20.12432640000001
 20
8.501581110399982
 10
20.49636418239997
 20
8.907775052800005
 10
20.88050114720003
 20
9.371793875200026
 10
21.27653581759993
 20
9.900460948800017
 10
21.68398468479999
 20
10.50129667840003
  0
LWPOLYLINE
  5
1DDD
330
1F
100
AcDbEntity
  8
0
 62
     0
100
AcDbPolyline
 90
       12
 70
     0
 43
0.0
 10
14.25892179999998
 20
8.696316448000018
 10
14.85707044159998
 20
8.781795639999998
 10
15.41324356639999
 20
8.888625104000041
 10
15.96511101920002
 20
9.022583040000043
 10
16.53956691199998
 20
9.191282609600037
 10
17.13927833120003
 20
9.397775556800027
 10
17.74821459839999
 20
9.638790483200025
 10
18.35208594079999
 20
9.909903395200004
 10
18.93836884959993
 20
10.20577109120001
 10
19.49693241280003
 20
10.52064716960002
 10
20.01959174239998
 20
10.84842470560001
 10
20.50164576159993
 20
11.1839137504
  0
LWPOLYLINE
  5
1DDE
330
1F
100
AcDbEntity
  8
0
 62
     0
100
AcDbPolyline
 90
       25
 70
     0
 43
0.0
 10
14.30002958560002
 20
9.8080593488
 10
14.40735860479996
 20
9.829012187200035
 10
14.51009611359999
 20
9.85006518720003
 10
14.60968753119998
 20
9.871413035200035
 10
14.70876048480003
 20
9.89357496800001
 10
14.80831814239995
 20
9.916782067200031
 10
14.907253624
 20
9.940782476800009
 10
15.00622778400001
 20
9.965735513600023
 10
15.10705051359995
 20
9.992132550400029
 10
15.20683379359995
 20
10.01923696000001
 10
15.30638797919998
 20
10.04725686400003
 10
15.40657205439997
 20
10.07644721600003
 10
15.50795187199996
 20
10.10700767520002
 10
15.61069334719995
 20
10.1390337488
 10
15.71462155199997
 20
10.17251700959998
 10
15.819692136
 20
10.2074867056
 10
15.92634437119993
 20
10.24413997599999
 10
16.03504712639998
 20
10.28270547360001
 10
16.14602148960004
 20
10.32334349920002
 10
16.25942244640002
 20
10.36620228959999
 10
16.37524476159994
 20
10.41137812320001
 10
16.49351672639993
 20
10.4589864048
 10
16.61445751519993
 20
10.50922962559998
 10
16.73848091999995
 20
10.56240980479999
 10
16.86614815039995
 20
10.61892469920003
  0
LWPOLYLINE
  5
1DDF
330
1F
100
AcDbEntity
  8
0
 62
     0
100
AcDbPolyline
 90
       16
 70
     0
 43
0.0
 10
5.400264019200037
 20
7.561704606399999
 10
5.700764443200043
 20
7.668791958400007
 10
6.218450348799976
 20
7.826245012800043
 10
6.783097849599968
 20
7.970290512000033
 10
7.396956273599968
 20
8.100165412799995
 10
8.060780902400026
 20
8.214588078400041
 10
8.764268255999965
 20
8.31113751840003
 10
9.408624108799969
 20
8.38088348319998
 10
9.983115878400028
 20
8.430465136000023
 10
10.51229261760003
 20
8.467361417600002
 10
11.04711733920002
 20
8.497757604800042
 10
11.59566531839998
 20
8.523882878400016
 10
12.17020804480005
 20
8.548898947200044
 10
12.79983847999999
 20
8.578655054400044
 10
13.52329275039998
 20
8.624736177600041
 10
14.25892179999998
 20
8.696316454400019
  0
LWPOLYLINE
  5
1DE0
330
1F
100
AcDbEntity
  8
0
 62
     0
100
AcDbPolyline
 90
        6
 70
     0
 43
0.0
 10
4.331180668799945
 20
8.259944768000039
 10
4.906616947199992
 20
7.925304068800031
 10
5.439566951999992
 20
7.532755736000027
 10
5.923651411200054
 20
7.087150878400009
 10
6.353077060799975
 20
6.594003263999994
 10
6.681076945600054
 20
6.126500648000003
  0
LWPOLYLINE
  5
1DE1
330
1F
100
AcDbEntity
  8
0
 62
     0
100
AcDbPolyline
 90
       21
 70
     0
 43
0.0
 10
3.853316761600055
 20
8.47325330240001
 10
3.87283458079996
 20
8.474861971200041
 10
4.208326719999988
 20
8.504624921600012
 10
4.618345998399988
 20
8.543411883200022
 10
5.135201169600051
 20
8.594767784000012
 10
5.739491702400002
 20
8.657093059200022
 10
6.348042828800018
 20
8.721663364800022
 10
6.956226635200025
 20
8.787906206400023
 10
7.556892801599971
 20
8.854922027200032
 10
8.134311174399996
 20
8.920844462400012
 10
8.689252663999965
 20
8.985716268800004
 10
9.229311724799956
 20
9.05051196799998
 10
9.764138254400037
 20
9.116625888000001
 10
10.31594573440001
 20
9.187256595199997
 10
10.8911576784
 20
9.263913504000029
 10
11.47803321439998
 20
9.345807508800035
 10
12.06719113759997
 20
9.432297070400025
 10
12.64554858240005
 20
9.521890387200031
 10
13.20599257279995
 20
9.613603728000001
 10
13.74476122560001
 20
9.706692072000024
 10
14.25892179999998
 20
9.80032555999999
  0
LWPOLYLINE
  5
1DE2
330
1F
100
AcDbEntity
  8
0
 62
     0
100
AcDbPolyline
 90
       14
 70
     0
 43
0.0
 10
12.69311664000001
 20
5.202904017600033
 10
11.44384905760004
 20
5.351523276799994
 10
10.31842896959999
 20
5.472629310400023
 10
9.301327310400026
 20
5.57160341280003
 10
8.379550673600007
 20
5.652665315200025
 10
7.542171131200049
 20
5.719149033600004
 10
6.779757513600017
 20
5.773724696000002
 10
6.084151236799968
 20
5.818540648000023
 10
5.448634254400005
 20
5.855308929599985
 10
4.867152625599985
 20
5.885431900800043
 10
4.333947182399967
 20
5.910072316799997
 10
3.843686655999974
 20
5.930179614400017
 10
3.394279721599943
 20
5.946425872000034
 10
2.98538438079997
 20
5.959337507200032
  0
LWPOLYLINE
  5
1DE3
330
1F
100
AcDbEntity
  8
0
 62
     0
100
AcDbPolyline
 90
        5
 70
     0
 43
0.0
 10
12.64726860479997
 20
4.813500334399989
 10
9.851208627200023
 20
5.126020694399997
 10
7.33436414880002
 20
5.340334804799979
 10
5.057362646399994
 20
5.479892403199997
 10
2.988957604799949
 20
5.562118118400022
  0
LWPOLYLINE
  5
1DE4
330
1F
100
AcDbEntity
  8
0
 62
     0
100
AcDbPolyline
 90
        9
 70
     0
 43
0.0
 10
6.086246384000034
 20
6.098854008000003
 10
6.220717945600014
 20
6.090126601600005
 10
6.348378929599945
 20
6.084901927999979
 10
6.462846094400035
 20
6.083771651199995
 10
6.556234433599954
 20
6.086945851200042
 10
6.623834116799955
 20
6.093986174400029
 10
6.66661333919994
 20
6.104672534399995
 10
6.683020753600018
 20
6.118949064000005
 10
6.681019086399984
 20
6.126504163199982
  0
LWPOLYLINE
  5
1DE5
330
1F
100
AcDbEntity
  8
0
 62
     0
100
AcDbPolyline
 90
       10
 70
     0
 43
0.0
 10
6.384876166400019
 20
6.548679572799997
 10
6.469156979200008
 20
6.546392582400031
 10
7.128057500800011
 20
6.51836852480001
 10
7.842253039999988
 20
6.478595819200009
 10
8.620415758400028
 20
6.427132048000046
 10
9.465811633600011
 20
6.365488222400031
 10
10.30243473119996
 20
6.302799984000003
 10
11.11042079840005
 20
6.244951891200017
 10
11.89261655520003
 20
6.195970819200013
 10
12.6463084832
 20
6.159941662400015
  0
LINE
  5
1DE6
330
1F
100
AcDbEntity
  8
0
 62
     0
100
AcDbLine
 10
6.086246383999991
 20
6.098854007999989
 30
0.0
 11
5.358094915200013
 21
6.153705144000014
 31
0.0
  0
LWPOLYLINE
  5
1DE7
330
1F
100
AcDbEntity
  8
0
 62
     0
100
AcDbPolyline
 90
        5
 70
     0
 43
0.0
 10
2.988957604799949
 20
5.562118118400022
 10
2.195289857600002
 20
5.582437142400024
 10
1.46851669599998
 20
5.595586940800004
 10
0.7621844480000135
 20
5.603369758400006
 10
0.0000000000000426
 20
5.606240444800008
  0
LWPOLYLINE
  5
1DE8
330
1F
100
AcDbEntity
  8
0
 62
     0
100
AcDbPolyline
 90
        4
 70
     0
 43
0.0
 10
2.98538438079997
 20
5.959337507200032
 10
1.990406675200048
 20
5.983662585600043
 10
0.9952684192000305
 20
5.998258244800027
 10
0.0000000000000426
 20
6.003124000000028
  0
LWPOLYLINE
  5
1DE9
330
1F
100
AcDbEntity
  8
0
 62
     0
100
AcDbPolyline
 90
        7
 70
     0
 43
0.0
 10
2.817583609600021
 20
7.614677446399994
 10
2.034092785599952
 20
7.850147988800031
 10
1.229156665599973
 20
8.008518777600002
 10
0.4112207695999786
 20
8.088130891200037
 10
-0.411074001599971
 20
8.08813801280003
 10
-1.229043809600014
 20
8.008535326400036
 10
-2.034048073600004
 20
7.850159073599982
  0
LWPOLYLINE
  5
1DEA
330
1F
100
AcDbEntity
  8
0
 62
     0
100
AcDbPolyline
 90
       17
 70
     0
 43
0.0
 10
1.172181449600017
 20
6.38681308160001
 10
1.150808835200038
 20
6.372725171200002
 10
1.120425955199991
 20
6.359041065600038
 10
1.081341564799956
 20
6.345885980800019
 10
1.03374931520004
 20
6.333315756800018
 10
0.9781156783999875
 20
6.321445595200046
 10
0.9148053391999582
 20
6.31034036160004
 10
0.8443593679999565
 20
6.300082766400024
 10
0.7673599663999511
 20
6.290741547200028
 10
0.684283707199981
 20
6.282361745599999
 10
0.5958776991999884
 20
6.275006931199996
 10
0.5027387888000448
 20
6.268715112000009
 10
0.4060638384000157
 20
6.263548819200039
 10
0.3065402911999371
 20
6.259521017599993
 10
0.2052214143999862
 20
6.256650384000025
 10
0.1027326351999562
 20
6.254931958400007
 10
0.0000000000000426
 20
6.254362051200033
  0
LINE
  5
1DEB
330
1F
100
AcDbEntity
  8
0
 62
     0
100
AcDbLine
 10
-1.165973916799998
 20
6.413773619200014
 30
0.0
 11
-1.181125782400044
 21
6.399371537600018
 31
0.0
  0
LINE
  5
1DEC
330
1F
100
AcDbEntity
  8
0
 62
     0
100
AcDbLine
 10
1.184401961599974
 20
6.401223737599991
 30
0.0
 11
1.172181449599975
 21
6.386813081599996
 31
0.0
  0
LINE
  5
1DED
330
1F
100
AcDbEntity
  8
0
 62
     0
100
AcDbLine
 10
-1.181125782400044
 20
6.399371537600018
 30
0.0
 11
-1.181698254400089
 21
6.398032552000017
 31
0.0
  0
LINE
  5
1DEE
330
1F
100
AcDbEntity
  8
0
 62
     0
100
AcDbLine
 10
1.1875
 20
6.413137017599979
 30
0.0
 11
1.184401961599974
 21
6.401223737599991
 31
0.0
  0
LWPOLYLINE
  5
1DEF
330
1F
100
AcDbEntity
  8
0
 62
     0
100
AcDbPolyline
 90
       20
 70
     0
 43
0.0
 10
-1.187499998400042
 20
6.413137041600023
 10
-1.187350198400011
 20
6.415761115199998
 10
-1.181125467200061
 20
6.430319841600024
 10
-1.165973347200022
 20
6.444721863999987
 10
-1.142297759999976
 20
6.458824817600046
 10
-1.110458216000054
 20
6.472559982400028
 10
-1.070873439999971
 20
6.485832617600024
 10
-1.023752812799969
 20
6.498612769600029
 10
-0.9694995023999837
 20
6.510803060800029
 10
-0.9082516256000445
 20
6.522365272000016
 10
-0.8403450799999774
 20
6.533211312000005
 10
-0.7660224191999561
 20
6.543269563200013
 10
-0.685479508800043
 20
6.55246822559998
 10
-0.5991650847999637
 20
6.560705340799998
 10
-0.5074252943999938
 20
6.567894606400002
 10
-0.4112859423999709
 20
6.573910899200043
 10
-0.3114023264000281
 20
6.578680203200022
 10
-0.2089480351999811
 20
6.582124239999998
 10
-0.1047614416000471
 20
6.584204683199985
 10
0.0000000000000426
 20
6.584898166400037
  0
LINE
  5
1DF0
330
1F
100
AcDbEntity
  8
0
 62
     0
100
AcDbLine
 10
1.181695811199915
 20
6.398032595199993
 30
0.0
 11
1.181118607999906
 21
6.399381222399995
 31
0.0
  0
LWPOLYLINE
  5
1DF1
330
1F
100
AcDbEntity
  8
0
 62
     0
100
AcDbPolyline
 90
        3
 70
     0
 43
0.0
 10
-1.172164555200041
 20
6.386798758400018
 10
-1.184394684800011
 20
6.401209820800048
 10
-1.187499998400042
 20
6.413137041600023
  0
LWPOLYLINE
  5
1DF2
330
1F
100
AcDbEntity
  8
0
 62
     0
100
AcDbPolyline
 90
       18
 70
     0
 43
0.0
 10
1.181118607999948
 20
6.399381222400009
 10
1.165965838400026
 20
6.413779536000006
 10
1.142289590400011
 20
6.42788116000004
 10
1.110451216000043
 20
6.441614980800025
 10
1.07086633279998
 20
6.454887230400018
 10
1.023746780799953
 20
6.467666875200009
 10
0.9694973423999471
 20
6.479856279999992
 10
0.9082479584000537
 20
6.491418848000037
 10
0.8403474559999466
 20
6.502264072000016
 10
0.7660182671999536
 20
6.512323361600024
 10
0.6854737696000229
 20
6.521522275199984
 10
0.5991522144000072
 20
6.529760065600001
 10
0.5074135727999618
 20
6.536949185600022
 10
0.4112818927999769
 20
6.542965003199995
 10
0.3113979120000039
 20
6.547734366400007
 10
0.2089505616000196
 20
6.551178231999998
 10
0.1047619343999457
 20
6.553258783999993
 10
0.0000000000000426
 20
6.55395228959999
  0
LWPOLYLINE
  5
1DF3
330
1F
100
AcDbEntity
  8
0
 62
     0
100
AcDbPolyline
 90
       20
 70
     0
 43
0.0
 10
0.0000000000000426
 20
6.584898166400037
 10
0.1047621263999616
 20
6.584204673600041
 10
0.2089510687999763
 20
6.58212415840002
 10
0.3113987936000484
 20
6.578680347200034
 10
0.4112831359999945
 20
6.573911054400028
 10
0.5074151007999462
 20
6.567895324800034
 10
0.5991538671999451
 20
6.560706313600022
 10
0.6854753023999792
 20
6.552468665599988
 10
0.7660194576000521
 20
6.543269931199986
 10
0.8403481775999779
 20
6.533210857600025
 10
0.9082481935999311
 20
6.522365868800036
 10
0.9694971312000433
 20
6.510803548799984
 10
1.023746219200049
 20
6.498614395199993
 10
1.070865555199972
 20
6.485834987200021
 10
1.110450372800002
 20
6.472562945600046
 10
1.142288823999976
 20
6.45882929279999
 10
1.165965262399978
 20
6.444727785599994
 10
1.18111828959995
 20
6.43032953120003
 10
1.187348910399961
 20
6.415772411200023
 10
1.187500000000042
 20
6.413137017599993
  0
LWPOLYLINE
  5
1DF4
330
1F
100
AcDbEntity
  8
0
 62
     0
100
AcDbPolyline
 90
       17
 70
     0
 43
0.0
 10
0.0000000000000426
 20
6.254362051200033
 10
-0.1027137744000157
 20
6.254931748800018
 10
-0.2051929679999631
 20
6.2566497456
 10
-0.3064961631999523
 20
6.259519504000039
 10
-0.4060107327999987
 20
6.263546332800004
 10
-0.5026701520000217
 20
6.268710972799979
 10
-0.5958034864000439
 20
6.275001355200018
 10
-0.6842139695999805
 20
6.282355348799981
 10
-0.7672934816000208
 20
6.290734190399987
 10
-0.8443006624000446
 20
6.300074966400032
 10
-0.9147463247999922
 20
6.310330939200028
 10
-0.9780649791999422
 20
6.321435803200031
 10
-1.033701927999985
 20
6.3333045408
 10
-1.081302817600047
 20
6.345874483200034
 10
-1.120393446400001
 20
6.359028512000023
 10
-1.150783515199989
 20
6.372711588799987
 10
-1.172164555200041
 20
6.386798758400018
  0
LWPOLYLINE
  5
1DF5
330
1F
100
AcDbEntity
  8
0
 62
     0
100
AcDbPolyline
 90
       17
 70
     0
 43
0.0
 10
0.0000000000000426
 20
6.55395228959999
 10
-0.1047612463999741
 20
6.553258793599994
 10
-0.2089475199999953
 20
6.551178313600033
 10
-0.3114014319999825
 20
6.547734224000024
 10
-0.4112846815999803
 20
6.542964849599982
 10
-0.5074237424000359
 20
6.536948470399991
 10
-0.5991634080000523
 20
6.529759094400006
 10
-0.6854779503999709
 20
6.521521836800005
 10
-0.7660212095999697
 20
6.512322995200023
 10
-0.8403443391999445
 20
6.502264531200026
 10
-0.9082513760000239
 20
6.491418254400016
 10
-0.9694996991999715
 20
6.479855795199981
 10
-1.023753359999957
 20
6.467665254400017
 10
-1.070874206400006
 20
6.454884864000021
 10
-1.110459049600038
 20
6.441612020800008
 10
-1.142298518399982
 20
6.42787668800004
 10
-1.165973916799956
 20
6.413773619200028
  0
LINE
  5
1DF6
330
1F
100
AcDbEntity
  8
0
 62
     0
100
AcDbLine
 10
3.815599003199963
 20
6.8844718048
 30
0.0
 11
3.81558661439999
 21
6.883982691200003
 31
0.0
  0
LINE
  5
1DF7
330
1F
100
AcDbEntity
  8
0
 62
     0
100
AcDbLine
 10
2.703347230399913
 20
6.406441735999976
 30
0.0
 11
2.677905889599969
 21
6.446773055999983
 31
0.0
  0
LWPOLYLINE
  5
1DF8
330
1F
100
AcDbEntity
  8
0
 62
     0
100
AcDbPolyline
 90
        6
 70
     0
 43
0.0
 10
4.612564369599951
 20
6.343258369600007
 10
4.382105308800007
 20
6.607963008000027
 10
4.041666313600032
 20
6.924303372800025
 10
3.663755508799951
 20
7.199987694400036
 10
3.253786401600038
 20
7.431181817600034
 10
2.817583609600021
 20
7.614677446399994
  0
LWPOLYLINE
  5
1DF9
330
1F
100
AcDbEntity
  8
0
 62
     0
100
AcDbPolyline
 90
        3
 70
     0
 43
0.0
 10
4.631749447999979
 20
6.331172625600018
 10
4.61381976479997
 20
6.341862135999988
 10
4.61254971199996
 20
6.34325921120002
  0
LWPOLYLINE
  5
1DFA
330
1F
100
AcDbEntity
  8
0
 62
     0
100
AcDbPolyline
 90
        3
 70
     0
 43
0.0
 10
4.807294852799984
 20
6.247804691199988
 10
4.721595892800038
 20
6.290073492800004
 10
4.631749447999979
 20
6.331172625600018
  0
LWPOLYLINE
  5
1DFB
330
1F
100
AcDbEntity
  8
0
 62
     0
100
AcDbPolyline
 90
        8
 70
     0
 43
0.0
 10
5.358094915200055
 20
6.153705144000028
 10
5.262441968000004
 20
6.162151476800048
 10
5.160558798400003
 20
6.173769545600023
 10
5.06174190559993
 20
6.187733828800006
 10
4.973615287999948
 20
6.202912134399994
 10
4.898740515200003
 20
6.218776495999989
 10
4.842348724800032
 20
6.234138076799993
 10
4.807294852799984
 20
6.247804691199988
  0
LWPOLYLINE
  5
1DFC
330
1F
100
AcDbEntity
  8
0
 62
     0
100
AcDbPolyline
 90
        3
 70
     0
 43
0.0
 10
3.815598999999949
 20
6.522774392000044
 10
4.275051380799979
 20
6.547888476799997
 10
4.430190393599943
 20
6.552732612800028
  0
LWPOLYLINE
  5
1DFD
330
1F
100
AcDbEntity
  8
0
 62
     0
100
AcDbPolyline
 90
       13
 70
     0
 43
0.0
 10
3.815598999999949
 20
6.522774392000044
 10
3.715172584000058
 20
6.515724870400006
 10
3.617006876799948
 20
6.508249043200024
 10
3.520049735999961
 20
6.500276113600037
 10
3.423408268799946
 20
6.491724491200002
 10
3.328361569599948
 20
6.482702588800023
 10
3.234612288000036
 20
6.47318690240003
 10
3.14197912959996
 20
6.463159227199994
 10
3.051406623999966
 20
6.452730012800046
 10
2.962723235200016
 20
6.441896387200031
 10
2.875215756800045
 20
6.430579331200036
 10
2.788675987200051
 20
6.418750382400006
 10
2.703347230399955
 20
6.406441734400019
  0
LWPOLYLINE
  5
1DFE
330
1F
100
AcDbEntity
  8
0
 62
     0
100
AcDbPolyline
 90
       22
 70
     0
 43
0.0
 10
2.677905889600012
 20
6.446773057600026
 10
2.710576694399989
 20
6.452791830400045
 10
2.74344653919995
 20
6.459683902400016
 10
2.776509003200018
 20
6.467383502399982
 10
2.809730848
 20
6.475824398400007
 10
2.843285905599984
 20
6.485001979200049
 10
2.878168155200043
 20
6.495175120000013
 10
2.915330979199936
 20
6.506658528000016
 10
2.955800536000012
 20
6.519848680000009
 10
3.000785435200029
 20
6.535263667200027
 10
3.051491131199938
 20
6.55348456640003
 10
3.10937184959998
 20
6.575244392000016
 10
3.17585765599999
 20
6.601328299200034
 10
3.248771827199945
 20
6.631064972800018
 10
3.323808302399967
 20
6.662691260800002
 10
3.397533582400043
 20
6.694592633600009
 10
3.469634478399981
 20
6.726433182400015
 10
3.539951086399966
 20
6.75797579680001
 10
3.608768568000002
 20
6.789213446399983
 10
3.677003227200017
 20
6.820460755200045
 10
3.745637492799957
 20
6.852091227200006
 10
3.987312881599947
 20
6.963953971200012
  0
LINE
  5
1DFF
330
1F
100
AcDbEntity
  8
0
 62
     0
100
AcDbLine
 10
12.67420943519994
 20
4.810112887999991
 30
0.0
 11
12.64726860479993
 21
4.813500334399975
 31
0.0
  0
LWPOLYLINE
  5
1E00
330
1F
100
AcDbEntity
  8
0
 62
     0
100
AcDbPolyline
 90
        4
 70
     0
 43
0.0
 10
14.64427663040003
 20
4.580125716800026
 10
13.98706912319998
 20
4.652967580800023
 10
13.33039243199998
 20
4.729628923199996
 10
12.67420943519998
 20
4.810112888000006
  0
LWPOLYLINE
  5
1E01
330
1F
100
AcDbEntity
  8
0
 62
     0
100
AcDbPolyline
 90
        4
 70
     0
 43
0.0
 10
14.68081283040002
 20
4.973091003200025
 10
14.01011164319997
 20
5.046399836800006
 10
13.34756203199997
 20
5.123101267200027
 10
12.69311664000001
 20
5.202904017600033
  0
LINE
  5
1E02
330
1F
100
AcDbEntity
  8
0
 62
     0
100
AcDbLine
 10
14.66690170079994
 20
4.702702356799989
 30
0.0
 11
14.64427663039998
 21
4.705125716800012
 31
0.0
  0
LWPOLYLINE
  5
1E03
330
1F
100
AcDbEntity
  8
0
 62
     0
100
AcDbPolyline
 90
        4
 70
     0
 43
0.0
 10
12.6463084832
 20
6.159941662400015
 10
13.26763101119995
 20
6.142201910400004
 10
13.87899015839995
 20
6.139119172800022
 10
14.47629348799994
 20
6.15391917440003
  0
LINE
  5
1E04
330
1F
100
AcDbEntity
  8
0
 62
     0
100
AcDbLine
 10
14.25892179999993
 20
9.800325603200008
 30
0.0
 11
14.30002958559998
 21
9.808059348799986
 31
0.0
  0
LINE
  5
1E05
330
1F
100
AcDbEntity
  8
0
 62
     0
100
AcDbLine
 10
0.0
 20
14.21509366239996
 30
0.0
 11
0.0
 21
14.38545381919999
 31
0.0
  0
CIRCLE
  5
1E06
330
1F
100
AcDbEntity
  8
0
 62
     0
100
AcDbCircle
 10
0.0
 20
12.375
 30
0.0
 40
1.2714466064
  0
LWPOLYLINE
  5
1E07
330
1F
100
AcDbEntity
  8
0
 62
     0
100
AcDbPolyline
 90
       23
 70
     0
 43
0.0
 10
1.824121806399986
 20
12.37500000000001
 10
1.821407691200008
 20
12.46137017439998
 10
1.814061460800004
 20
12.55735632479998
 10
1.800106511999999
 20
12.6652355696
 10
1.77704444320004
 20
12.78578183520001
 10
1.743334327999988
 20
12.91418132320002
 10
1.698383617599958
 20
13.0456011568
 10
1.642841516800032
 20
13.17509996479999
 10
1.578136747199934
 20
13.29895250400001
 10
1.504309257600013
 20
13.4173313504
 10
1.421787329600007
 20
13.52957895200002
 10
1.331105857599979
 20
13.63501296160002
 10
1.232831191999977
 20
13.73303680160002
 10
1.12737630079998
 20
13.82326438240001
 10
1.015486720000055
 20
13.90507431679999
 10
0.8984571184000031
 20
13.97766353280003
 10
0.7774294287999482
 20
14.04061199519999
 10
0.6534626783999756
 20
14.09372915519999
 10
0.5271129823999417
 20
14.13712131519999
 10
0.3986035360000386
 20
14.1709478016
 10
0.2679833280000565
 20
14.19528569599999
 10
0.1351444111999598
 20
14.21008003999999
 10
0.0000000000000426
 20
14.2150936704
  0
LINE
  5
1E08
330
1F
100
AcDbEntity
  8
0
 62
     0
100
AcDbLine
 10
-1.824121806400057
 20
12.375
 30
0.0
 11
-1.824143820800031
 21
12.37287973759998
 31
0.0
  0
LINE
  5
1E09
330
1F
100
AcDbEntity
  8
0
 62
     0
100
AcDbLine
 10
-1.997090886400087
 20
12.37743180640001
 30
0.0
 11
-1.997111624000012
 21
12.375
 31
0.0
  0
LWPOLYLINE
  5
1E0A
330
1F
100
AcDbEntity
  8
0
 62
     0
100
AcDbPolyline
 90
       26
 70
     0
 43
0.0
 10
-1.824143820799989
 20
12.3728797376
 10
-1.819926641600048
 20
12.22961466559998
 10
-1.804924918400004
 20
12.08748257759999
 10
-1.779253028800056
 20
11.94696383679998
 10
-1.743002814399986
 20
11.80859816160001
 10
-1.696432664000056
 20
11.67341978240001
 10
-1.639737451200019
 20
11.5420262592
 10
-1.574101539199958
 20
11.4167474304
 10
-1.501612870400052
 20
11.30020165280002
 10
-1.424065129600037
 20
11.19338058720002
 10
-1.343900740799952
 20
11.09751447039998
 10
-1.262213256000066
 20
11.01184164000001
 10
-1.179524977600024
 20
10.93526916640003
 10
-1.095951593599991
 20
10.86667950880003
 10
-1.011667924799965
 20
10.805304864
 10
-0.9266557535999737
 20
10.75044476800003
 10
-0.8406236832000359
 20
10.70143271680002
 10
-0.7530799007999605
 20
10.657713856
 10
-0.6634901471999939
 20
10.61893112159999
 10
-0.5718210496000467
 20
10.58509057600004
 10
-0.478182187200062
 20
10.55628982399998
 10
-0.3828075887999631
 20
10.53266590720001
 10
-0.2865341375999861
 20
10.51443222080003
 10
-0.1903647872000675
 20
10.50165813439998
 10
-0.0947307344000166
 20
10.49418440799998
 10
0.0000000000000426
 20
10.4917643312
  0
LWPOLYLINE
  5
1E0B
330
1F
100
AcDbEntity
  8
0
 62
     0
100
AcDbPolyline
 90
       23
 70
     0
 43
0.0
 10
0.0000000000000426
 20
14.2150936704
 10
-0.1353081647999517
 20
14.21006786080001
 10
-0.2683058895999721
 20
14.1952376896
 10
-0.3990796656000413
 20
14.17084087040002
 10
-0.5277368688000053
 20
14.13693230240001
 10
-0.6542276336000015
 20
14.09343434080001
 10
-0.7783308480000671
 20
14.04018512
 10
-0.8994820127999929
 20
13.97708004960004
 10
-1.016616067200018
 20
13.90431238240002
 10
-1.128583895999966
 20
13.82230776000001
 10
-1.23408501759998
 20
13.73187711999999
 10
-1.33238483839996
 20
13.63363454080003
 10
-1.423065716799968
 20
13.52797056000004
 10
-1.505559823999945
 20
13.41548432960003
 10
-1.579328281600012
 20
13.29686594240003
 10
-1.643951470400068
 20
13.1727586752
 10
-1.699383755200031
 20
13.0429936608
 10
-1.744124480000053
 20
12.9115477104
 10
-1.777563486399984
 20
12.78346920320002
 10
-1.800373409600027
 20
12.66354273600002
 10
-1.814166131200025
 20
12.55631741119999
 10
-1.821433128000037
 20
12.46088373120001
 10
-1.824121806400015
 20
12.37500000000001
  0
LWPOLYLINE
  5
1E0C
330
1F
100
AcDbEntity
  8
0
 62
     0
100
AcDbPolyline
 90
        7
 70
     0
 43
0.0
 10
-1.824143801599987
 20
12.3728797376
 10
-1.848226526399983
 20
12.37326252800001
 10
-1.874821819200022
 20
12.37363614240003
 10
-1.903492054400047
 20
12.37399466720002
 10
-1.933765460799989
 20
12.37433243200003
 10
-1.965143889600042
 20
12.37464409920001
 10
-1.997111006399975
 20
12.37492476000001
  0
LWPOLYLINE
  5
1E0D
330
1F
100
AcDbEntity
  8
0
 62
     0
100
AcDbPolyline
 90
       26
 70
     0
 43
0.0
 10
0.0000000000000426
 20
10.4917643312
 10
0.0947206912000383
 20
10.49418389120002
 10
0.1903489632000372
 20
10.50165647199999
 10
0.2865176096000113
 20
10.51442956320001
 10
0.3827943760000352
 20
10.53266302240003
 10
0.4781693568000236
 20
10.556286264
 10
0.5718053583999989
 20
10.5850852704
 10
0.6634712783999675
 20
10.61892355999999
 10
0.7530581392000358
 20
10.65770372000004
 10
0.8406018592000208
 20
10.701421064
 10
0.9266318816000165
 20
10.75043028800003
 10
1.011641057599987
 20
10.80528644800001
 10
1.095926923199996
 20
10.86666044639999
 10
1.179504398399942
 20
10.93525124000002
 10
1.262194496000049
 20
11.01182317600002
 10
1.343883267200041
 20
11.09749493760001
 10
1.42404805439996
 20
11.1933587232
 10
1.501594676800024
 20
11.30017464320003
 10
1.574090239999961
 20
11.41672769600002
 10
1.639734404799966
 20
11.54201987200003
 10
1.696429953599974
 20
11.67341277920003
 10
1.743000073600043
 20
11.8085891056
 10
1.779250852799961
 20
11.94695403520002
 10
1.804923168000001
 20
12.08747040960004
 10
1.819925875199984
 20
12.22960327520003
 10
1.82414382079996
 20
12.3728797376
  0
LWPOLYLINE
  5
1E0F
330
1F
100
AcDbEntity
  8
0
 62
     0
100
AcDbPolyline
 90
       10
 70
     0
 43
0.0
 10
28.65568837439996
 20
11.17226048319999
 10
28.49904995199999
 20
10.93999895040003
 10
28.33728536959999
 20
10.70966920159999
 10
28.17037896319998
 20
10.48136245120004
 10
27.99831109760002
 20
10.25517014400004
 10
27.82105635680004
 20
10.03118087360003
 10
27.63858879520005
 20
9.80948842879998
 10
27.45088219040001
 20
9.590193273600007
 10
27.25790980000003
 20
9.373401363200017
 10
27.05961601279993
 20
9.1591936704
  0
LWPOLYLINE
  5
1E15
330
1F
100
AcDbEntity
  8
0
 62
     0
100
AcDbPolyline
 90
        4
 70
     0
 43
0.0
 10
27.05961601279993
 20
9.1591936704
 10
26.94626318399996
 20
9.040434084799997
 10
26.83167286559994
 20
8.922994257600024
 10
26.71589710879997
 20
8.806923784000005
  0
LWPOLYLINE
  5
1E16
330
1F
100
AcDbEntity
  8
0
 62
     0
100
AcDbPolyline
 90
       27
 70
     0
 43
0.0
 10
19.26853176160004
 20
12.06619334240004
 10
19.40152960959999
 20
12.17185561600003
 10
19.53225997279996
 20
12.27898539519999
 10
19.66063690399998
 20
12.38748291999998
 10
19.78658466719996
 20
12.497250432
 10
19.91005422079995
 20
12.60820792480002
 10
20.03100892800004
 20
12.72028280320002
 10
20.14942756960003
 20
12.83341421439998
 10
20.26528032319997
 20
12.94753099520001
 10
20.37851950880001
 20
13.06254053599998
 10
20.48914547839995
 20
13.17839540799998
 10
20.59719733440003
 20
13.29508880800001
 10
20.70269116160004
 20
13.41258856000003
 10
20.80563404640001
 20
13.53085363040004
 10
20.90600571040003
 20
13.64981100960001
 10
21.00376846559997
 20
13.76936299200004
 10
21.09887897920002
 20
13.88939837920004
 10
21.19121993280002
 20
14.0097001488
 10
21.28076397919998
 20
14.13015277120003
 10
21.36750046399997
 20
14.25065663200003
 10
21.45142906239998
 20
14.37112167200003
 10
21.53256159360005
 20
14.49147202080003
 10
21.61093861919998
 20
14.61167442080001
 10
21.68658917279997
 20
14.73168050559998
 10
21.7595475328
 20
14.85145186559999
 10
21.82985555839995
 20
14.97096569439999
 10
21.89755346719998
 20
15.0902008032
  0
LWPOLYLINE
  5
1E17
330
1F
100
AcDbEntity
  8
0
 62
     0
100
AcDbPolyline
 90
       18
 70
     0
 43
0.0
 10
16.86614815039995
 20
10.61892469920003
 10
17.01723861759994
 20
10.68816478560002
 10
17.16709276320004
 20
10.75940231840003
 10
17.31651005919995
 20
10.83302355360002
 10
17.4656799264
 20
10.90915375679999
 10
17.61417513600001
 20
10.98760738239998
 10
17.76136108960001
 20
11.06806143680002
 10
17.90636531520003
 20
11.15001156479998
 10
18.04896779359994
 20
11.23327491200002
 10
18.19024835520001
 20
11.318449704
 10
18.33109540959996
 20
11.40609925920001
 10
18.47046035040004
 20
11.49560006240001
 10
18.60801234720001
 20
11.58673133119999
 10
18.74372895840001
 20
11.67945997279999
 10
18.87770018079997
 20
11.77382983360003
 10
19.00990377759994
 20
11.86981146239999
 10
19.14020014240001
 20
11.96728713919999
 10
19.26853176160004
 20
12.06619334240004
  0
LWPOLYLINE
  5
1E18
330
1F
100
AcDbEntity
  8
0
 62
     0
100
AcDbPolyline
 90
       19
 70
     0
 43
0.0
 10
23.20897326399999
 20
14.36112078240002
 10
23.06501603999997
 20
14.05339951200001
 10
22.89746161119994
 20
13.74316321600004
 10
22.70440575679997
 20
13.42972073919999
 10
22.48943757279998
 20
13.12037091999998
 10
22.27465593280002
 20
12.84243098240001
 10
22.07444969279997
 20
12.60526284960003
 10
21.89040275040001
 20
12.40251100640001
 10
21.71982890719998
 20
12.22571483999998
 10
21.56174069440003
 20
12.0702129504
 10
21.41608460479999
 20
11.93329769600002
 10
21.28363605919996
 20
11.81361047360003
 10
21.16372264479996
 20
11.70889791040004
 10
21.0522813552
 20
11.61448289760001
 10
20.9444791632
 20
11.52565155200001
 10
20.83576873600001
 20
11.43842644000001
 10
20.72526404800002
 20
11.35205976480001
 10
20.61364719040004
 20
11.26705858560002
 10
20.50164576159993
 20
11.1839137504
  0
LWPOLYLINE
  5
1E19
330
1F
100
AcDbEntity
  8
0
 62
     0
100
AcDbPolyline
 90
       37
 70
     0
 43
0.0
 10
23.54735727840004
 20
14.1657546816
 10
23.52106748479995
 20
14.10431481120004
 10
23.49478493279995
 20
14.04163173440004
 10
23.46881737920004
 20
13.97931452480004
 10
23.44305883680003
 20
13.91747281440002
 10
23.41727785920004
 20
13.85572911520002
 10
23.3909855136
 20
13.79302114399997
 10
23.36366326399995
 20
13.728203448
 10
23.33554927359994
 20
13.6619207664
 10
23.30669266240004
 20
13.59435335040002
 10
23.27629914080004
 20
13.52371793760001
 10
23.24342065919999
 20
13.44793351520003
 10
23.20697994560002
 20
13.36470646560003
 10
23.16582891679995
 20
13.27169342079999
 10
23.11884103840001
 20
13.16674092640001
 10
23.06490783040003
 20
13.04790182559999
 10
23.00517114079995
 20
12.91826836000002
 10
22.94344174079996
 20
12.78646345120002
 10
22.88382453599994
 20
12.66119580959998
 10
22.8266601408
 20
12.54291031359999
 10
22.77130253279999
 20
12.4300248208
 10
22.71711180640004
 20
12.32107296480002
 10
22.66291651839996
 20
12.21361492000001
 10
22.6076514544
 20
12.10554823360003
 10
22.55233487360003
 20
11.99888012959998
 10
22.4979515552
 20
11.89544378080002
 10
22.44274563519995
 20
11.79186566879998
 10
22.38422380479998
 20
11.68360234239999
 10
22.31977726879999
 20
11.56617149760002
 10
22.24757764159999
 20
11.43680065120004
 10
22.17076849439995
 20
11.30165196000002
 10
22.09392391039993
 20
11.16894631999999
 10
22.01711311520004
 20
11.03874964800003
 10
21.93909006560004
 20
10.90895626240002
 10
21.85863349439994
 20
10.77765738720002
 10
21.77420885120004
 20
10.6426052096
 10
21.68398468479999
 20
10.50129667840003
  0
LINE
  5
1E1A
330
1F
100
AcDbEntity
  8
0
 62
     0
100
AcDbLine
 10
21.89755346719994
 20
15.09020080319999
 30
0.0
 11
21.90936389599994
 21
15.11145060159998
 31
0.0
  0
LINE
  5
1E1B
330
1F
100
AcDbEntity
  8
0
 62
     0
100
AcDbLine
 10
28.66460397279991
 20
11.185770176
 30
0.0
 11
28.65568837439991
 21
11.17226048319997
 31
0.0
  0
LWPOLYLINE
  5
1E1C
330
1F
100
AcDbEntity
  8
0
 62
     0
100
AcDbPolyline
 90
       60
 70
     0
 43
0.0
 10
21.94994497919997
 20
26.66197889920001
 10
21.88505856800002
 20
26.77954575680003
 10
21.81772218400003
 20
26.89724954720004
 10
21.74788989760001
 20
27.01509388480003
 10
21.67551452159993
 20
27.13307785920001
 10
21.60055445599998
 20
27.25118568479997
 10
21.52297543039996
 20
27.36938615679999
 10
21.44274026880002
 20
27.48764971359999
 10
21.35980960479996
 20
27.6059470432
 10
21.27417899039998
 20
27.72419831520001
 10
21.18583567039995
 20
27.8423377456
 10
21.09477031359999
 20
27.96029655039997
 10
21.00101104000002
 20
28.07796140479998
 10
20.90462470079994
 20
28.19517985279999
 10
20.80571433920003
 20
28.31176959520003
 10
20.70429681119996
 20
28.42766142080002
 10
20.60035772159999
 20
28.54282307520005
 10
20.49389175360003
 20
28.65721118080001
 10
20.38487750239998
 20
28.77080077759997
 10
20.27327471359994
 20
28.88358704640002
 10
20.15909251199996
 20
28.99551321600002
 10
20.04237240800005
 20
29.10649352640003
 10
19.92313752960005
 20
29.21646369600002
 10
19.8013902864
 20
29.32537996000003
 10
19.67716032319997
 20
29.43317507199999
 10
19.55050914719997
 20
29.53975790880004
 10
19.4214764768
 20
29.64506013600005
 10
19.29010811840002
 20
29.74901130079997
 10
19.15646075839997
 20
29.851535712
 10
19.02060240639995
 20
29.95255303680001
 10
18.88262639999997
 20
30.05196913440001
 10
18.74260885760001
 20
30.14970772639999
 10
18.60055363200005
 20
30.24574465600001
 10
18.45646684319994
 20
30.34005384320001
 10
18.31037436160004
 20
30.4325976592
 10
18.16232240319997
 20
30.52332576800002
 10
18.01250132960005
 20
30.61210454400004
 10
17.86109735040001
 20
30.69881455360003
 10
17.70825188639996
 20
30.78337160640002
 10
17.55410269760004
 20
30.86570024639998
 10
17.39872113120002
 20
30.94576460000003
 10
17.24218473759997
 20
31.02352665760004
 10
17.084605424
 20
31.09893363840003
 10
16.92622114719999
 20
31.1718793952
 10
16.7671273952
 20
31.24233177280002
 10
16.60722656959994
 20
31.31034088640002
 10
16.44660190719996
 20
31.37587326080002
 10
16.28534154080004
 20
31.4388968784
 10
16.12354157439999
 20
31.4993808736
 10
15.96132269119998
 20
31.55728743360005
 10
15.79885349119995
 20
31.61256623679999
 10
15.636281944
 20
31.66518268
 10
15.47326637760004
 20
31.71525876800002
 10
15.30972954559995
 20
31.76281921760001
 10
15.14593516639995
 20
31.80779623680002
 10
14.98152150399998
 20
31.85030041760002
 10
14.81621947839998
 20
31.89040016480005
 10
14.65011763679994
 20
31.92807002080003
 10
14.48266895839997
 20
31.96342127040004
 10
14.31317546079996
 20
31.99656190720004
  0
LWPOLYLINE
  5
1E1D
330
1F
100
AcDbEntity
  8
0
 62
     0
100
AcDbPolyline
 90
       12
 70
     0
 43
0.0
 10
14.25892179999998
 20
33.05368355200001
 10
14.85707044159998
 20
32.9682043616
 10
15.41324356639999
 20
32.86137489599998
 10
15.96511101920002
 20
32.72741696160001
 10
16.53956691199998
 20
32.55871739039999
 10
17.13927833120003
 20
32.3522244432
 10
17.74821459839999
 20
32.1112095168
 10
18.35208594079999
 20
31.84009660639999
 10
18.93836884959993
 20
31.54422890880001
 10
19.49693241280003
 20
31.22935283199997
 10
20.01959174239998
 20
30.90157529440002
 10
20.50164576159993
 20
30.56608624960002
  0
LWPOLYLINE
  5
1E1E
330
1F
100
AcDbEntity
  8
0
 62
     0
100
AcDbPolyline
 90
       16
 70
     0
 43
0.0
 10
5.400264124799988
 20
34.1882953568
 10
5.700764443200043
 20
34.08120804160002
 10
6.218450348799976
 20
33.92375498719998
 10
6.783097849599968
 20
33.77970948800005
 10
7.396956273599968
 20
33.64983458720003
 10
8.060780902400026
 20
33.53541192320001
 10
8.764268255999965
 20
33.43886248320002
 10
9.408624108799969
 20
33.36911651680004
 10
9.983115878400028
 20
33.31953486560003
 10
10.51229261760003
 20
33.28263858400005
 10
11.04711733920002
 20
33.25224239680001
 10
11.59566531839998
 20
33.22611712320004
 10
12.17020804480005
 20
33.20110105279998
 10
12.79983847999999
 20
33.17134494559998
 10
13.52329275039998
 20
33.12526382239998
 10
14.25892179999998
 20
33.0536835456
  0
LWPOLYLINE
  5
1E1F
330
1F
100
AcDbEntity
  8
0
 62
     0
100
AcDbPolyline
 90
       27
 70
     0
 43
0.0
 10
14.25892179999998
 20
32.00660761920001
 10
13.88750361279998
 20
32.073378984
 10
13.51438750879997
 20
32.13779375999997
 10
13.14039140640004
 20
32.19981270720002
 10
12.76685621120002
 20
32.25935051200004
 10
12.39422470080005
 20
32.3165013328
 10
12.02222800960002
 20
32.37148174880003
 10
11.65143605760003
 20
32.42439011200004
 10
11.28186813919994
 20
32.47541173760005
 10
10.91254026560004
 20
32.52486205600003
 10
10.54264628640002
 20
32.57301480159999
 10
10.17157627039994
 20
32.62010317760003
 10
9.797664215999972
 20
32.6664756528
 10
9.421194841599955
 20
32.71222135520004
 10
9.042877974400013
 20
32.75739542880002
 10
8.661911451199941
 20
32.80224102400002
 10
8.277284390399969
 20
32.84699856959999
 10
7.886325036799959
 20
32.89207172799997
 10
7.486601044799996
 20
32.93780200800002
 10
7.074958174400009
 20
32.98457573280002
 10
6.649043395200052
 20
33.03265244
 10
6.20782143679996
 20
33.08210419840004
 10
5.752514657599974
 20
33.13274376639999
 10
5.28374260799994
 20
33.18446743520003
 10
4.788096676799952
 20
33.23832809280004
 10
4.315648345599967
 20
33.2880687984
 10
3.958150259199939
 20
33.3235387552
  0
LINE
  5
1E20
330
1F
100
AcDbEntity
  8
0
 62
     0
100
AcDbLine
 10
2.034048075199962
 20
33.89984092640003
 30
0.0
 11
2.817583609599978
 21
34.13532255360002
 31
0.0
  0
LINE
  5
1E21
330
1F
100
AcDbEntity
  8
0
 62
     0
100
AcDbLine
 10
3.815599003199963
 20
34.86552819519999
 30
0.0
 11
3.81558661439999
 21
34.86601731039996
 31
0.0
  0
LWPOLYLINE
  5
1E22
330
1F
100
AcDbEntity
  8
0
 62
     0
100
AcDbPolyline
 90
        4
 70
     0
 43
0.0
 10
14.31317546079996
 20
31.99656190720004
 10
14.29510717279997
 20
31.99993720640005
 10
14.27702258879996
 20
32.00328575520002
 10
14.25892179999998
 20
32.00660754719997
  0
LWPOLYLINE
  5
1E23
330
1F
100
AcDbEntity
  8
0
 62
     0
100
AcDbPolyline
 90
       23
 70
     0
 43
0.0
 10
30.94608433119997
 20
20.87500001600001
 10
30.92958175840003
 20
21.67088922240004
 10
30.88026238399997
 20
22.4614641472
 10
30.798426096
 20
23.2456768208
 10
30.68430160960001
 20
24.022931504
 10
30.54112692319999
 20
24.77792863040004
 10
30.3787619312
 20
25.47875455679998
 10
30.20767041440005
 20
26.10860869120001
 10
30.03618625760002
 20
26.66389157600004
 10
29.86902705280003
 20
27.15106658719999
 10
29.70757900799997
 20
27.58175290080005
 10
29.55215567839995
 20
27.96594354079998
 10
29.40334912159999
 20
28.30997049600002
 10
29.26163267040003
 20
28.6186745568
 10
29.12717808159998
 20
28.89630679199997
 10
29.00022808639998
 20
29.1460475088
 10
28.8809294928
 20
29.37060981600002
 10
28.76918208800002
 20
29.57264206719999
 10
28.66467607999998
 20
29.75470840480001
 10
28.56691405919995
 20
29.91929521920003
 10
28.47523115840003
 20
30.0688158128
 10
28.38881042400002
 20
30.20561846239998
 10
28.30666837120002
 20
30.33203486079999
  0
LWPOLYLINE
  5
1E24
330
1F
100
AcDbEntity
  8
0
 62
     0
100
AcDbPolyline
 90
       10
 70
     0
 43
0.0
 10
28.66460397279995
 20
30.564229824
 10
29.13257885759996
 20
29.7975515952
 10
29.59062716479995
 20
28.9214585712
 10
30.02998070879998
 20
27.92834952319999
 10
30.43777459200002
 20
26.8121443216
 10
30.78786766399996
 20
25.60652780959999
 10
31.06852172480005
 20
24.31158416640001
 10
31.25387212319997
 20
23.04106803680004
 10
31.34728916319993
 20
21.90392802399999
 10
31.37430598079997
 20
20.87500000000001
  0
LWPOLYLINE
  5
1E25
330
1F
100
AcDbEntity
  8
0
 62
     0
100
AcDbPolyline
 90
       11
 70
     0
 43
0.0
 10
24.55907471679999
 20
20.87500168800001
 10
24.54523076000002
 20
21.5436806048
 10
24.50337598399999
 20
22.21784966560001
 10
24.43319625919996
 20
22.8944845232
 10
24.33482538879995
 20
23.5694472944
 10
24.20891019039997
 20
24.23843689760003
 10
24.05643165600001
 20
24.8979834064
 10
23.87859901919993
 20
25.54526341440005
 10
23.67683638559996
 20
26.17782307040001
 10
23.45298512959998
 20
26.79302016319998
 10
23.20897326399999
 20
27.38887921919998
  0
LWPOLYLINE
  5
1E26
330
1F
100
AcDbEntity
  8
0
 62
     0
100
AcDbPolyline
 90
       35
 70
     0
 43
0.0
 10
23.39717256160001
 20
20.87500041280005
 10
23.39646766879995
 20
21.05116563680003
 10
23.39321453439997
 20
21.2273522896
 10
23.38741172320003
 20
21.4035334752
 10
23.37905826399996
 20
21.57967779519999
 10
23.36815454399997
 20
21.75574589920002
 10
23.35470202239996
 20
21.93169413280004
 10
23.33870268319996
 20
22.10746755200001
 10
23.32015576960002
 20
22.28303578880003
 10
23.29906136480001
 20
22.45836727199999
 10
23.27542204640001
 20
22.63342201439998
 10
23.24924060000005
 20
22.8081576144
 10
23.22051947519996
 20
22.98253374079997
 10
23.18926188159996
 20
23.15651170079998
 10
23.15547202079998
 20
23.33005097439998
 10
23.11915397919999
 20
23.50311175040003
 10
23.08031207039998
 20
23.67565483840003
 10
23.03894712319997
 20
23.84766042400003
 10
22.99506996960001
 20
24.01906527839999
 10
22.9486892432
 20
24.18981682560003
 10
22.8998102656
 20
24.35987878559997
 10
22.84843784640001
 20
24.52922287680003
 10
22.79457689279995
 20
24.69781745920001
 10
22.738235232
 20
24.86561958240004
 10
22.67942238560003
 20
25.03258539999997
 10
22.61814417919997
 20
25.19868608639997
 10
22.55441231360002
 20
25.36387671680002
 10
22.48824046240001
 20
25.52810930239998
 10
22.4196417648
 20
25.69134099200001
 10
22.34863644320005
 20
25.85351381440001
 10
22.27530112799995
 20
26.01445007360003
 10
22.19966768160002
 20
26.17408680960001
 10
22.12176369599994
 20
26.33237889760001
 10
22.04162076799995
 20
26.48927492640003
 10
21.95926993439995
 20
26.64472607360001
  0
LINE
  5
1E27
330
1F
100
AcDbEntity
  8
0
 62
     0
100
AcDbLine
 10
23.3970298943999
 20
20.84345802720002
 30
0.0
 11
23.39717256159997
 21
20.87500041280003
 31
0.0
  0
LINE
  5
1E28
330
1F
100
AcDbEntity
  8
0
 62
     0
100
AcDbLine
 10
21.95926993439991
 20
26.6447260736
 30
0.0
 11
21.94994501119992
 21
26.66197891839999
 31
0.0
  0
LWPOLYLINE
  5
1E29
330
1F
100
AcDbEntity
  8
0
 62
     0
100
AcDbPolyline
 90
       34
 70
     0
 43
0.0
 10
23.49478493279995
 20
27.70836826559998
 10
23.44305883680003
 20
27.8325271856
 10
23.41727785920004
 20
27.8942708848
 10
23.3909855136
 20
27.95697885760002
 10
23.36366326399995
 20
28.02179655360005
 10
23.33554927359994
 20
28.08807923520005
 10
23.30669266240004
 20
28.15564665120003
 10
23.27629914080004
 20
28.22628206400004
 10
23.24342065919999
 20
28.30206648640002
 10
23.20697994560002
 20
28.38529353600002
 10
23.16582891679995
 20
28.47830658080001
 10
23.11884103840001
 20
28.58325907360002
 10
23.06490783040003
 20
28.70209817439997
 10
23.00517114079995
 20
28.83173164160003
 10
22.94344174079996
 20
28.96353655039998
 10
22.88382453599994
 20
29.08880419200001
 10
22.8266601408
 20
29.20708968640004
 10
22.77130253279999
 20
29.31997517920002
 10
22.71711180640004
 20
29.4289270352
 10
22.66291651839996
 20
29.53638508000001
 10
22.6076514544
 20
29.64445176800002
 10
22.55233487360003
 20
29.75111987040004
 10
22.4979515552
 20
29.8545562192
 10
22.44274563519995
 20
29.95813433280001
 10
22.38422380479998
 20
30.06639765920001
 10
22.31977726879999
 20
30.1838285024
 10
22.24757764159999
 20
30.31319935040001
 10
22.17076849439995
 20
30.44834804160002
 10
22.09392391039993
 20
30.58105368000004
 10
22.01711311520004
 20
30.71125035200005
 10
21.93909006560004
 20
30.8410437376
 10
21.85863349439994
 20
30.97234261440003
 10
21.77420885120004
 20
31.10739479040002
 10
21.68398468479999
 20
31.24870332159999
  0
LWPOLYLINE
  5
1E2A
330
1F
100
AcDbEntity
  8
0
 62
     0
100
AcDbPolyline
 90
        3
 70
     0
 43
0.0
 10
23.54735727840004
 20
27.58424531999999
 10
23.52106748479995
 20
27.64568518879999
 10
23.49478493279995
 20
27.70836826559998
  0
LWPOLYLINE
  5
1E2B
330
1F
100
AcDbEntity
  8
0
 62
     0
100
AcDbPolyline
 90
       19
 70
     0
 43
0.0
 10
23.20897326399999
 20
27.38887921919998
 10
23.06501603999997
 20
27.69660048960004
 10
22.89746161119994
 20
28.00683678399998
 10
22.70440575679997
 20
28.3202792624
 10
22.48943757279998
 20
28.62962908160001
 10
22.27465593280002
 20
28.90756901760001
 10
22.07444969279997
 20
29.14473715200001
 10
21.89040275040001
 20
29.3474889936
 10
21.71982890719998
 20
29.52428516000004
 10
21.56174069440003
 20
29.67978704960002
 10
21.41608460479999
 20
29.81670230560003
 10
21.28363605919996
 20
29.93638952800002
 10
21.16372264479996
 20
30.04110209120002
 10
21.0522813552
 20
30.13551710240001
 10
20.9444791632
 20
30.22434844800001
 10
20.83576873600001
 20
30.31157356000001
 10
20.72526404800002
 20
30.39794023680004
 10
20.61364719040004
 20
30.4829414144
 10
20.50164576159993
 20
30.56608624960002
  0
LWPOLYLINE
  5
1E2C
330
1F
100
AcDbEntity
  8
0
 62
     0
100
AcDbPolyline
 90
       10
 70
     0
 43
0.0
 10
27.05961601279993
 20
32.59080633119999
 10
27.25795217600004
 20
32.37655195359998
 10
27.45095471040001
 20
32.15972364320005
 10
27.63867992
 20
31.94040300160004
 10
27.82115525119995
 20
31.7186965872
 10
27.99840762559999
 20
31.4947054448
 10
28.17046370079997
 20
31.26852392159999
 10
28.33734960799999
 20
31.04024115199997
 10
28.49908569920005
 20
30.80994911040001
 10
28.65568837439996
 20
30.57773951680003
  0
LINE
  5
1E2D
330
1F
100
AcDbEntity
  8
0
 62
     0
100
AcDbLine
 10
28.65568837439991
 20
30.57773951680002
 30
0.0
 11
28.66460397279991
 21
30.56422982399999
 31
0.0
  0
LWPOLYLINE
  5
1E2E
330
1F
100
AcDbEntity
  8
0
 62
     0
100
AcDbPolyline
 90
        4
 70
     0
 43
0.0
 10
26.71589710719995
 20
32.94307621920002
 10
26.83167286559994
 20
32.8270057424
 10
26.94626318399996
 20
32.7095659168
 10
27.05961601279993
 20
32.59080633119999
  0
LWPOLYLINE
  5
1E31
330
1F
100
AcDbEntity
  8
0
 62
     0
100
AcDbPolyline
 90
        5
 70
     0
 43
0.0
 10
2.988957604799949
 20
36.1878818816
 10
5.078196215999966
 20
36.27115127840001
 10
7.372885118399992
 20
36.41246932320003
 10
9.886380612799982
 20
36.62742278399999
 10
12.64726860479997
 20
36.93649966720001
  0
LWPOLYLINE
  5
1E32
330
1F
100
AcDbEntity
  8
0
 62
     0
100
AcDbPolyline
 90
        9
 70
     0
 43
0.0
 10
6.086246384000034
 20
35.65114599200002
 10
6.220291843199944
 20
35.65985050720003
 10
6.347919991999944
 20
35.6650858096
 10
6.462524244800007
 20
35.66623152480004
 10
6.556055990399997
 20
35.66306566240003
 10
6.623740937599947
 20
35.65602877919998
 10
6.666567976000052
 20
35.645346336
 10
6.683018079999939
 20
35.63106925120003
 10
6.681019147199933
 20
35.62349583999999
  0
LWPOLYLINE
  5
1E33
330
1F
100
AcDbEntity
  8
0
 62
     0
100
AcDbPolyline
 90
       10
 70
     0
 43
0.0
 10
6.384875958399945
 20
35.2013204224
 10
6.469156979200008
 20
35.20360741920002
 10
7.128057500800011
 20
35.23163147680004
 10
7.842253039999988
 20
35.27140418080001
 10
8.620415758400028
 20
35.32286795199998
 10
9.465811633600011
 20
35.38451177920002
 10
10.30243473119996
 20
35.4472000176
 10
11.11042079840005
 20
35.50504810880001
 10
11.89261655520003
 20
35.55402918080001
 10
12.6463084832
 20
35.59005833760001
  0
LWPOLYLINE
  5
1E34
330
1F
100
AcDbEntity
  8
0
 62
     0
100
AcDbPolyline
 90
       14
 70
     0
 43
0.0
 10
12.69311664000001
 20
36.54709598239999
 10
11.44384905760004
 20
36.3984767248
 10
10.31842896959999
 20
36.27737069120003
 10
9.301327310400026
 20
36.17839658880003
 10
8.379550673600007
 20
36.09733468639997
 10
7.542171131200049
 20
36.03085096800005
 10
6.779757513600017
 20
35.97627530400002
 10
6.084151236799968
 20
35.93145935360003
 10
5.448634254400005
 20
35.89469107200001
 10
4.867152625599985
 20
35.86456809919998
 10
4.333947182399967
 20
35.83992768319997
 10
3.843686655999974
 20
35.81982038719998
 10
3.394279721599943
 20
35.80357412960002
 10
2.98538438079997
 20
35.79066249440002
  0
LWPOLYLINE
  5
1E35
330
1F
100
AcDbEntity
  8
0
 62
     0
100
AcDbPolyline
 90
        5
 70
     0
 43
0.0
 10
0.0000000000000426
 20
36.14375955520002
 10
0.766812412799979
 20
36.14666520320004
 10
1.476968276800036
 20
36.15453600640002
 10
2.203445857599987
 20
36.16774002239999
 10
2.988957604799949
 20
36.1878818816
  0
LWPOLYLINE
  5
1E36
330
1F
100
AcDbEntity
  8
0
 62
     0
100
AcDbPolyline
 90
        4
 70
     0
 43
0.0
 10
2.98538438079997
 20
35.79066249440002
 10
1.990406675200048
 20
35.76633741439998
 10
0.9952684192000305
 20
35.75174175679997
 10
0.0000000000000426
 20
35.74687600160002
  0
LWPOLYLINE
  5
1E37
330
1F
100
AcDbEntity
  8
0
 62
     0
100
AcDbPolyline
 90
       13
 70
     0
 43
0.0
 10
3.815598999999949
 20
35.22722560960001
 10
3.715172584000058
 20
35.23427512960002
 10
3.617006876799948
 20
35.24175095840003
 10
3.520049735999961
 20
35.24972388800001
 10
3.423408268799946
 20
35.25827551039999
 10
3.328361569599948
 20
35.2672974112
 10
3.234612288000036
 20
35.27681309760005
 10
3.14197912959996
 20
35.2868407744
 10
3.051406623999966
 20
35.29726998880001
 10
2.962723235200016
 20
35.30810361280005
 10
2.875215756800045
 20
35.31942067040002
 10
2.788675987200051
 20
35.33124961920005
 10
2.703347230399955
 20
35.34355826560001
  0
LWPOLYLINE
  5
1E38
330
1F
100
AcDbEntity
  8
0
 62
     0
100
AcDbPolyline
 90
        3
 70
     0
 43
0.0
 10
3.815598999999949
 20
35.22722560960001
 10
4.275051380799979
 20
35.20211152320003
 10
4.430191297599932
 20
35.19726736000002
  0
LINE
  5
1E39
330
1F
100
AcDbEntity
  8
0
 62
     0
100
AcDbLine
 10
6.086246383999991
 20
35.65114599200001
 30
0.0
 11
5.358094915200013
 21
35.59629485759995
 31
0.0
  0
LWPOLYLINE
  5
1E3A
330
1F
100
AcDbEntity
  8
0
 62
     0
100
AcDbPolyline
 90
        3
 70
     0
 43
0.0
 10
4.612549566399977
 20
35.40674077759998
 10
4.613817596800046
 20
35.4081357056
 10
4.631749447999979
 20
35.41882737440001
  0
LINE
  5
1E3B
330
1F
100
AcDbEntity
  8
0
 62
     0
100
AcDbLine
 10
2.703347230399913
 20
35.34355826559999
 30
0.0
 11
2.677905889599969
 21
35.30322694399996
 31
0.0
  0
LWPOLYLINE
  5
1E3C
330
1F
100
AcDbEntity
  8
0
 62
     0
100
AcDbPolyline
 90
        8
 70
     0
 43
0.0
 10
4.807294852799984
 20
35.50219531040001
 10
4.842348724800032
 20
35.5158619248
 10
4.898740515200003
 20
35.53122350400004
 10
4.973615287999948
 20
35.5470878672
 10
5.06174190559993
 20
35.56226617279999
 10
5.160558798400003
 20
35.57623045600003
 10
5.262441968000004
 20
35.5878485248
 10
5.358094915200055
 20
35.59629485759997
  0
LWPOLYLINE
  5
1E3D
330
1F
100
AcDbEntity
  8
0
 62
     0
100
AcDbPolyline
 90
        3
 70
     0
 43
0.0
 10
4.631749447999979
 20
35.41882737440001
 10
4.721588103999962
 20
35.45992280959997
 10
4.807294852799984
 20
35.50219531040001
  0
LWPOLYLINE
  5
1E3F
330
1F
100
AcDbEntity
  8
0
 62
     0
100
AcDbPolyline
 90
        4
 70
     0
 43
0.0
 10
12.6463084832
 20
35.59005833760001
 10
13.26763101119995
 20
35.60779808960002
 10
13.87899015839995
 20
35.61088082880003
 10
14.47629348799994
 20
35.59608082560005
  0
LINE
  5
1E40
330
1F
100
AcDbEntity
  8
0
 62
     0
100
AcDbLine
 10
14.64427663039998
 20
37.04487428479996
 30
0.0
 11
14.66690170079994
 21
37.04729764480004
 31
0.0
  0
LWPOLYLINE
  5
1E41
330
1F
100
AcDbEntity
  8
0
 62
     0
100
AcDbPolyline
 90
        4
 70
     0
 43
0.0
 10
12.67420943359995
 20
36.93988711360005
 10
13.33039243199998
 20
37.02037107680003
 10
13.98706912319998
 20
37.09703242079998
 10
14.64427663040003
 20
37.16987428479997
  0
LINE
  5
1E42
330
1F
100
AcDbEntity
  8
0
 62
     0
100
AcDbLine
 10
12.64726860479993
 20
36.81149966719999
 30
0.0
 11
12.67420943359991
 21
36.81488711360003
 31
0.0
  0
LWPOLYLINE
  5
1E43
330
1F
100
AcDbEntity
  8
0
 62
     0
100
AcDbPolyline
 90
        4
 70
     0
 43
0.0
 10
14.68081283040002
 20
36.77690899839997
 10
14.01011164319997
 20
36.70360016479999
 10
13.34756203199997
 20
36.6268987328
 10
12.69311664000001
 20
36.54709598239999
  0
ARC
  5
1EBC
330
1F
100
AcDbEntity
  8
0
 62
     0
100
AcDbCircle
 10
-25.95572016800008
 20
158.8701977871999
 30
0.0
 40
119.9797575232
100
AcDbArc
 50
270.0419759400999
 51
275.4526470193997
  0
LINE
  5
1EBD
330
1F
100
AcDbEntity
  8
0
 62
     0
100
AcDbLine
 10
-35.34593988000006
 20
41.46998855359998
 30
0.0
 11
35.34593987999994
 21
41.46998855359998
 31
0.0
  0
LINE
  5
1EBE
330
1F
100
AcDbEntity
  8
0
 62
     0
100
AcDbLine
 10
-35.50095132479998
 20
41.62499999999994
 30
0.0
 11
35.50095132479998
 21
41.62499999999994
 31
0.0
  0
LWPOLYLINE
  5
1EBF
330
1F
100
AcDbEntity
  8
0
 62
     0
100
AcDbPolyline
 90
        7
 70
     0
 43
0.0
 10
-35.50095132480005
 20
41.62500000000001
 10
-35.56563853120003
 20
41.6165019632
 10
-35.62570303680009
 20
41.59164841120004
 10
-35.67717028960005
 20
41.55216909600001
 10
-35.71664905920006
 20
41.50070191200002
 10
-35.74150208800013
 20
41.440638064
 10
-35.75000000000007
 20
41.37595132640003
  0
LWPOLYLINE
  5
1EC0
330
1F
100
AcDbEntity
  8
0
 62
     0
100
AcDbPolyline
 90
        7
 70
     0
 43
0.0
 10
-35.34593988000013
 20
41.4699885536
 10
-35.41014855680005
 20
41.46108214240003
 10
-35.46994702880006
 20
41.43598020960003
 10
-35.52138204640012
 20
41.39637540799999
 10
-35.56098495520014
 20
41.34493869279999
 10
-35.58608466880009
 20
41.28513918080002
 10
-35.59498855360011
 20
41.22093988000002
  0
LWPOLYLINE
  5
1EC1
330
1F
100
AcDbEntity
  8
0
 62
     0
100
AcDbPolyline
 90
       11
 70
     0
 43
0.0
 10
-30.99665530080001
 20
37.84630665920003
 10
-30.94651575840005
 20
37.96342070559997
 10
-30.8798759024
 20
38.08910754239999
 10
-30.79424082399994
 20
38.21997057760002
 10
-30.68674045120003
 20
38.35284845119998
 10
-30.55289363840002
 20
38.4852572512
 10
-30.38658361280006
 20
38.61362414560001
 10
-30.18702155839999
 20
38.72835298399998
 10
-29.96312387999997
 20
38.81692776639996
 10
-29.723095216
 20
38.8722872304
 10
-29.47883217440001
 20
38.89072431680002
  0
ARC
  5
1EC2
330
1F
100
AcDbEntity
  8
0
 62
     0
100
AcDbCircle
 10
-40.91786462240008
 20
35.79414418079994
 30
0.0
 40
9.814073398399999
100
AcDbArc
 50
334.3385662141999
 51
0.0
  0
LINE
  5
1EC3
330
1F
100
AcDbEntity
  8
0
 62
     0
100
AcDbLine
 10
-31.10377319840006
 20
35.79414418079994
 30
0.0
 11
-31.10385569120001
 21
37.26565418559999
 31
0.0
  0
LWPOLYLINE
  5
1EC4
330
1F
100
AcDbEntity
  8
0
 62
     0
100
AcDbPolyline
 90
        4
 70
     0
 43
0.0
 10
-31.10385569119996
 20
37.26565418560001
 10
-31.09396412639997
 20
37.4449538752
 10
-31.05989908800002
 20
37.64129808959997
 10
-30.99665530080001
 20
37.84630665920003
  0
LINE
  5
1EC5
330
1F
100
AcDbEntity
  8
0
 62
     0
100
AcDbLine
 10
-29.47883217440005
 20
38.8907243168
 30
0.0
 11
-25.95572016800008
 21
38.8906304944
 31
0.0
  0
ARC
  5
1EC6
330
1F
100
AcDbEntity
  8
0
 62
     0
100
AcDbCircle
 10
25.95572016799997
 20
158.8701977871999
 30
0.0
 40
119.9797575008
100
AcDbArc
 50
264.5473529805998
 51
269.9580240599
  0
ARC
  5
1EC7
330
1F
100
AcDbEntity
  8
0
 62
     0
100
AcDbCircle
 10
-0.0002418960000341
 20
-67.08086649440002
 30
0.0
 40
107.4574250656
100
AcDbArc
 50
88.82156754660019
 51
91.17817303119993
  0
ARC
  5
1EC8
330
1F
100
AcDbEntity
  8
0
 62
     0
100
AcDbCircle
 10
-0.0002418960000341
 20
-67.08086649440002
 30
0.0
 40
107.4573618495999
100
AcDbArc
 50
91.17817303119993
 51
96.55296509469989
  0
ARC
  5
1EC9
330
1F
100
AcDbEntity
  8
0
 62
     0
100
AcDbCircle
 10
-25.81606784073187
 20
157.4766683967244
 30
0.0
 40
118.5792363346878
100
AcDbArc
 50
275.4494565523564
 51
276.5627698083231
  0
ARC
  5
1ECA
330
1F
100
AcDbEntity
  8
0
 62
     0
100
AcDbCircle
 10
-0.0002418960000341
 20
-67.08086649440002
 30
0.0
 40
107.4573616848
100
AcDbArc
 50
83.44703490520009
 51
88.82156754660019
  0
ARC
  5
1ECB
330
1F
100
AcDbEntity
  8
0
 62
     0
100
AcDbCircle
 10
25.95572016799997
 20
158.8701977871999
 30
0.0
 40
119.979730112
100
AcDbArc
 50
263.4668189617001
 51
264.5473529805998
  0
LWPOLYLINE
  5
1ECC
330
1F
100
AcDbEntity
  8
0
 62
     0
100
AcDbPolyline
 90
       11
 70
     0
 43
0.0
 10
29.47883217439998
 20
38.89072431680002
 10
29.72309525279995
 20
38.87228722560003
 10
29.96312395040006
 20
38.81692774400001
 10
30.18702165439997
 20
38.72835293760001
 10
30.38658372320007
 20
38.61362407040003
 10
30.55289375039994
 20
38.48525715199999
 10
30.68674056000002
 20
38.35284833120001
 10
30.79424092640003
 20
38.21997043839998
 10
30.87987599360001
 20
38.0891073872
 10
30.94651583679994
 20
37.96342053919996
 10
30.99665530079998
 20
37.84630665920003
  0
ARC
  5
1ECD
330
1F
100
AcDbEntity
  8
0
 62
     0
100
AcDbCircle
 10
40.91786462239997
 20
35.79414418079994
 30
0.0
 40
9.814073396799999
100
AcDbArc
 50
180.0
 51
205.6614337857999
  0
LINE
  5
1ECE
330
1F
100
AcDbEntity
  8
0
 62
     0
100
AcDbLine
 10
31.10385569120001
 20
37.26565418559999
 30
0.0
 11
31.10377319839995
 21
35.79414418079994
 31
0.0
  0
LWPOLYLINE
  5
1ECF
330
1F
100
AcDbEntity
  8
0
 62
     0
100
AcDbPolyline
 90
        4
 70
     0
 43
0.0
 10
30.99665530079998
 20
37.84630665920003
 10
31.05989896959993
 20
37.64129858399998
 10
31.09396410080005
 20
37.44495410559996
 10
31.10385569120005
 20
37.26565418560001
  0
LINE
  5
1ED0
330
1F
100
AcDbEntity
  8
0
 62
     0
100
AcDbLine
 10
25.95572016799997
 20
38.8906304944
 30
0.0
 11
29.34880632319993
 21
38.89071362559997
 31
0.0
  0
LINE
  5
1ED1
330
1F
100
AcDbEntity
  8
0
 62
     0
100
AcDbLine
 10
29.34880632319993
 20
38.89071362559997
 30
0.0
 11
29.47883217439994
 21
38.8907243168
 31
0.0
  0
LWPOLYLINE
  5
1ED2
330
1F
100
AcDbEntity
  8
0
 62
     0
100
AcDbPolyline
 90
        7
 70
     0
 43
0.0
 10
35.50095132480002
 20
41.62499999999996
 10
35.56563853120001
 20
41.6165019632
 10
35.62570303520003
 20
41.59164840959995
 10
35.67717028960002
 20
41.55216909600001
 10
35.71664905920004
 20
41.50070191200002
 10
35.74150208799999
 20
41.440638064
 10
35.74999999999993
 20
41.3759513248
  0
LWPOLYLINE
  5
1ED3
330
1F
100
AcDbEntity
  8
0
 62
     0
100
AcDbPolyline
 90
        7
 70
     0
 43
0.0
 10
35.34593987999999
 20
41.4699885536
 10
35.41014855680002
 20
41.46108214240003
 10
35.46994702880003
 20
41.43598020960003
 10
35.52138204639998
 20
41.39637540639997
 10
35.5609849552
 20
41.34493869279999
 10
35.58608466880007
 20
41.28513917919998
 10
35.59498855359997
 20
41.22093988000002
  0
LINE
  5
1ED4
330
1F
100
AcDbEntity
  8
0
 62
     0
100
AcDbLine
 10
-35.75000000000011
 20
41.37595132479998
 30
0.0
 11
-35.75000000000011
 21
0.3740486735999866
 31
0.0
  0
ARC
  5
1ED5
330
1F
100
AcDbEntity
  8
0
 62
     0
100
AcDbCircle
 10
-9.864699168000015
 20
20.87499999999999
 30
0.0
 40
24.637012288
100
AcDbArc
 50
154.3385662142
 51
205.6614337857999
  0
ARC
  5
1ED6
330
1F
100
AcDbEntity
  8
0
 62
     0
100
AcDbCircle
 10
9.864699167999901
 20
20.87499999999999
 30
0.0
 40
24.637012288
100
AcDbArc
 50
334.3385662141999
 51
25.6614337858
  0
LINE
  5
1ED7
330
1F
100
AcDbEntity
  8
0
 62
     0
100
AcDbLine
 10
35.59498855359993
 20
41.22093988
 30
0.0
 11
35.59498855359993
 21
0.529060119999997
 31
0.0
  0
LINE
  5
1ED8
330
1F
100
AcDbEntity
  8
0
 62
     0
100
AcDbLine
 10
35.74999999999988
 20
41.37595132479998
 30
0.0
 11
35.74999999999988
 21
0.3740486735999866
 31
0.0
  0
ARC
  5
1ED9
330
1F
100
AcDbEntity
  8
0
 62
     0
100
AcDbCircle
 10
-25.95572016800008
 20
-117.1201977872
 30
0.0
 40
119.9797575008
100
AcDbArc
 50
84.54735298059988
 51
89.95802405990003
  0
LINE
  5
1EDA
330
1F
100
AcDbEntity
  8
0
 62
     0
100
AcDbLine
 10
-35.50095132479998
 20
0.125
 30
0.0
 11
35.50095132479998
 21
0.125
 31
0.0
  0
LINE
  5
1EDB
330
1F
100
AcDbEntity
  8
0
 62
     0
100
AcDbLine
 10
35.34593987999994
 20
0.2800114464000103
 30
0.0
 11
-35.34593988000006
 21
0.2800114464000103
 31
0.0
  0
LWPOLYLINE
  5
1EDC
330
1F
100
AcDbEntity
  8
0
 62
     0
100
AcDbPolyline
 90
        7
 70
     0
 43
0.0
 10
-35.34593988000001
 20
0.2800114464000245
 10
-35.41014855679994
 20
0.2889178575999978
 10
-35.46994702879995
 20
0.3140197903999962
 10
-35.5213820464
 20
0.3536245920000312
 10
-35.56098495520002
 20
0.4050613072000289
 10
-35.58608466879998
 20
0.4648608192000126
 10
-35.5949885536
 20
0.5290601200000112
  0
LWPOLYLINE
  5
1EDD
330
1F
100
AcDbEntity
  8
0
 62
     0
100
AcDbPolyline
 90
        7
 70
     0
 43
0.0
 10
-35.50095132479994
 20
0.1250000000000142
 10
-35.56563853120003
 20
0.1334980367999634
 10
-35.62570303679997
 20
0.158351588799988
 10
-35.67717028959994
 20
0.1978309040000141
 10
-35.71664905919995
 20
0.2492980880000033
 10
-35.74150208800002
 20
0.3093619360000304
 10
-35.75000000000007
 20
0.3740486736000008
  0
ARC
  5
1EDE
330
1F
100
AcDbEntity
  8
0
 62
     0
100
AcDbCircle
 10
-40.91786462240008
 20
5.955855819199996
 30
0.0
 40
9.814073396799999
100
AcDbArc
 50
0.0
 51
25.6614337858
  0
LINE
  5
1EDF
330
1F
100
AcDbEntity
  8
0
 62
     0
100
AcDbLine
 10
-25.95572016800008
 20
2.859369503999971
 30
0.0
 11
-29.34880632320005
 21
2.859286372799999
 31
0.0
  0
LINE
  5
1EE0
330
1F
100
AcDbEntity
  8
0
 62
     0
100
AcDbLine
 10
-31.10385569120001
 20
4.484345814400001
 30
0.0
 11
-31.10377319840006
 21
5.955855819199996
 31
0.0
  0
LWPOLYLINE
  5
1EE1
330
1F
100
AcDbEntity
  8
0
 62
     0
100
AcDbPolyline
 90
       11
 70
     0
 43
0.0
 10
-29.47883217440001
 20
2.85927568320001
 10
-29.72309525279998
 20
2.877712774399995
 10
-29.96312395039997
 20
2.933072256000016
 10
-30.1870216544
 20
3.021647062399964
 10
-30.38658372319999
 20
3.136375929599992
 10
-30.55289375039997
 20
3.264742847999983
 10
-30.68674055999993
 20
3.397151668799963
 10
-30.79424092639995
 20
3.530029561599988
 10
-30.87987599359992
 20
3.660892612799969
 10
-30.94651583679997
 20
3.786579459199984
 10
-30.99665530080001
 20
3.903693339200017
  0
LWPOLYLINE
  5
1EE2
330
1F
100
AcDbEntity
  8
0
 62
     0
100
AcDbPolyline
 90
        4
 70
     0
 43
0.0
 10
-30.99665530080001
 20
3.903693339200017
 10
-31.05989896960007
 20
4.108701415999988
 10
-31.09396410079996
 20
4.305045892799981
 10
-31.10385569119996
 20
4.484345814400015
  0
LINE
  5
1EE3
330
1F
100
AcDbEntity
  8
0
 62
     0
100
AcDbLine
 10
-29.34880632320005
 20
2.859286372799999
 30
0.0
 11
-29.47883217440005
 21
2.859275683199996
 31
0.0
  0
ARC
  5
1EE4
330
1F
100
AcDbEntity
  8
0
 62
     0
100
AcDbCircle
 10
-25.95572016800008
 20
-117.1201977872
 30
0.0
 40
119.9795684336
100
AcDbArc
 50
89.95802405990003
 51
90.0
  0
LWPOLYLINE
  5
1EE5
330
1F
100
AcDbEntity
  8
0
 62
     0
100
AcDbPolyline
 90
        7
 70
     0
 43
0.0
 10
35.59498855359997
 20
0.5290601200000112
 10
35.58608457120003
 20
0.4648604624000115
 10
35.56098484319993
 20
0.4050611135999845
 10
35.52138201120003
 20
0.3536245583999999
 10
35.46994687199996
 20
0.314019699200017
 10
35.41014822399999
 20
0.2889177663999618
 10
35.34593987999999
 20
0.2800114464000245
  0
LWPOLYLINE
  5
1EE6
330
1F
100
AcDbEntity
  8
0
 62
     0
100
AcDbPolyline
 90
        7
 70
     0
 43
0.0
 10
35.50095132480002
 20
0.1250000000000142
 10
35.56563853120001
 20
0.1334980367999634
 10
35.62570303520003
 20
0.158351588799988
 10
35.67717028960002
 20
0.1978309040000141
 10
35.71664905920004
 20
0.2492980880000033
 10
35.74150208799999
 20
0.3093619360000304
 10
35.74999999999993
 20
0.3740486736000008
  0
ARC
  5
1EE7
330
1F
100
AcDbEntity
  8
0
 62
     0
100
AcDbCircle
 10
25.95572016799997
 20
-117.1201977872
 30
0.0
 40
119.9797575232
100
AcDbArc
 50
90.04197594009996
 51
95.45264701940011
  0
ARC
  5
1EE8
330
1F
100
AcDbEntity
  8
0
 62
     0
100
AcDbCircle
 10
-0.0002418960000341
 20
108.8308664943999
 30
0.0
 40
107.4574250559999
100
AcDbArc
 50
268.8218269688
 51
271.1784324533998
  0
ARC
  5
1EE9
330
1F
100
AcDbEntity
  8
0
 62
     0
100
AcDbCircle
 10
-0.0002418960000341
 20
108.8308664943999
 30
0.0
 40
107.4573618495999
100
AcDbArc
 50
263.4470349052997
 51
268.8218269688
  0
ARC
  5
1EEA
330
1F
100
AcDbEntity
  8
0
 62
     0
100
AcDbCircle
 10
-25.95572016800008
 20
-117.1201977872
 30
0.0
 40
119.979730112
100
AcDbArc
 50
83.46681896170009
 51
84.54735298059988
  0
ARC
  5
1EEB
330
1F
100
AcDbEntity
  8
0
 62
     0
100
AcDbCircle
 10
-0.0002418960000341
 20
108.8308664943999
 30
0.0
 40
107.4573616848
100
AcDbArc
 50
271.1784324533998
 51
276.5529650947998
  0
ARC
  5
1EEC
330
1F
100
AcDbEntity
  8
0
 62
     0
100
AcDbCircle
 10
25.95572016799997
 20
-117.1201977872
 30
0.0
 40
119.979730112
100
AcDbArc
 50
95.45264701940011
 51
96.53318103850025
  0
ARC
  5
1EED
330
1F
100
AcDbEntity
  8
0
 62
     0
100
AcDbCircle
 10
25.95572016799997
 20
-117.1201977872
 30
0.0
 40
119.9796921936
100
AcDbArc
 50
96.53318103850025
 51
96.55319457420011
  0
ARC
  5
1EEE
330
1F
100
AcDbEntity
  8
0
 62
     0
100
AcDbCircle
 10
40.91786462239997
 20
5.955855819199996
 30
0.0
 40
9.814073398399999
100
AcDbArc
 50
154.3385662142
 51
180.0
  0
LINE
  5
1EEF
330
1F
100
AcDbEntity
  8
0
 62
     0
100
AcDbLine
 10
29.47883217439994
 20
2.859275683199996
 30
0.0
 11
25.95572016799997
 21
2.859369503999971
 31
0.0
  0
ARC
  5
1EF0
330
1F
100
AcDbEntity
  8
0
 62
     0
100
AcDbCircle
 10
25.95572016799997
 20
-117.1201977872
 30
0.0
 40
119.9795684336
100
AcDbArc
 50
90.0
 51
90.04197594009996
  0
LINE
  5
1EF1
330
1F
100
AcDbEntity
  8
0
 62
     0
100
AcDbLine
 10
31.10377319839995
 20
5.955855819199996
 30
0.0
 11
31.10385569120001
 21
4.484345814400001
 31
0.0
  0
LWPOLYLINE
  5
1EF2
330
1F
100
AcDbEntity
  8
0
 62
     0
100
AcDbPolyline
 90
       11
 70
     0
 43
0.0
 10
30.99665530079998
 20
3.903693339200017
 10
30.94651575840002
 20
3.786579294399999
 10
30.87987590239997
 20
3.660892456000013
 10
30.79424082400002
 20
3.530029422400005
 10
30.68674045120001
 20
3.39715154720001
 10
30.55289363839999
 20
3.264742748799974
 10
30.38658361279992
 20
3.136375854400014
 10
30.18702155840007
 20
3.021647014400016
 10
29.96312387999994
 20
2.933072233600015
 10
29.72309521439994
 20
2.877712769600023
 10
29.47883217439998
 20
2.85927568320001
  0
LWPOLYLINE
  5
1EF3
330
1F
100
AcDbEntity
  8
0
 62
     0
100
AcDbPolyline
 90
        4
 70
     0
 43
0.0
 10
31.10385569120005
 20
4.484345814400015
 10
31.09396412640005
 20
4.305046124799972
 10
31.05989908799999
 20
4.1087019104
 10
30.99665530079998
 20
3.903693339200017
  0
LINE
  5
1EF4
330
1F
100
AcDbEntity
  8
0
 62
     0
100
AcDbLine
 10
-35.59498855360004
 20
0.529060119999997
 30
0.0
 11
-35.59498855360004
 21
41.22093988
 31
0.0
  0
ENDSEC
  0
SECTION
  2
OBJECTS
  0
DICTIONARY
  5
C
330
0
100
AcDbDictionary
  3
ACAD_GROUP
350
D
  3
ACAD_LAYOUT
350
1A
  3
ACAD_MLINESTYLE
350
17
  3
ACAD_PLOTSETTINGS
350
19
  3
ACAD_PLOTSTYLENAME
350
E
  3
ACDBHEADERROUNDTRIPXREC
350
1F01
  0
DICTIONARY
  5
1C43
330
1F
100
AcDbDictionary
280
     1
  3
ACAD_LAYOUTSELFREF
360
1F23
  0
DICTIONARY
  5
1C41
330
1B
100
AcDbDictionary
280
     1
  3
ACAD_LAYOUTSELFREF
360
1F22
  0
DICTIONARY
  5
D
102
{ACAD_REACTORS
330
C
102
}
330
C
100
AcDbDictionary
  0
DICTIONARY
  5
1A
102
{ACAD_REACTORS
330
C
102
}
330
C
100
AcDbDictionary
  0
DICTIONARY
  5
17
102
{ACAD_REACTORS
330
C
102
}
330
C
100
AcDbDictionary
  3
STANDARD
350
18
  0
DICTIONARY
  5
19
102
{ACAD_REACTORS
330
C
102
}
330
C
100
AcDbDictionary
  0
ACDBDICTIONARYWDFLT
  5
E
102
{ACAD_REACTORS
330
C
102
}
330
C
100
AcDbDictionary
281
     1
  3
Normal
350
F
100
AcDbDictionaryWithDefault
340
F
  0
DICTIONARY
  5
1F01
102
{ACAD_REACTORS
330
C
102
}
330
C
100
AcDbDictionary
  3
CEPSNTYPE
350
1F0B
  3
DIMSTYLEDATA
350
1F0F
  3
FINGERPRINTGUID
350
1F0C
  3
HYPERLINKBASE
350
1F04
  3
INSUNITS
350
1F0A
  3
LAYOUTDICT
350
1F06
  3
LWETCUNION
350
1F09
  3
PLOTSETDICT
350
1F07
  3
PLOTSTYLNAMDICT
350
1F08
  3
PSVPSCALE
350
1F0E
  3
PUCSBASE
350
1F12
  3
PUCSORGBACK
350
1F18
  3
PUCSORGBOTTOM
350
1F14
  3
PUCSORGFRONT
350
1F17
  3
PUCSORGLEFT
350
1F15
  3
PUCSORGRIGHT
350
1F16
  3
PUCSORGTOP
350
1F13
  3
PUCSORTHOREF
350
1F10
  3
PUCSORTHOVIEW
350
1F11
  3
STYLESHEET
350
1F05
  3
TSTACKALIGN
350
1F02
  3
TSTACKSIZE
350
1F03
  3
UCSBASE
350
1F1B
  3
UCSORGBACK
350
1F21
  3
UCSORGBOTTOM
350
1F1D
  3
UCSORGFRONT
350
1F20
  3
UCSORGLEFT
350
1F1E
  3
UCSORGRIGHT
350
1F1F
  3
UCSORGTOP
350
1F1C
  3
UCSORTHOREF
350
1F19
  3
UCSORTHOVIEW
350
1F1A
  3
VERSIONGUID
350
1F0D
  0
XRECORD
  5
1F23
102
{ACAD_REACTORS
330
1C43
102
}
330
1C43
100
AcDbXrecord
340
1F
  0
XRECORD
  5
1F22
102
{ACAD_REACTORS
330
1C41
102
}
330
1C41
100
AcDbXrecord
340
1B
  0
MLINESTYLE
  5
18
102
{ACAD_REACTORS
330
17
102
}
330
17
100
AcDbMlineStyle
  2
STANDARD
 70
     0
  3

 62
   256
 51
90.0
 52
90.0
 71
     2
 49
0.5
 62
   256
  6
BYLAYER
 49
-0.5
 62
   256
  6
BYLAYER
  0
ACDBPLACEHOLDER
  5
F
102
{ACAD_REACTORS
330
E
102
}
330
0
100
AcDbPlaceHolder
280
     0
  0
XRECORD
  5
1F0B
102
{ACAD_REACTORS
330
1F01
102
}
330
1F01
100
AcDbXrecord
 90
        0
  0
XRECORD
  5
1F0F
102
{ACAD_REACTORS
330
1F01
102
}
330
1F01
100
AcDbXrecord
1000
DSTYLE
1002
{
1070
   278
 70
     0
1070
   342
340
220
1070
   371
 70
     0
1070
   372
 70
     0
1002
}
  0
XRECORD
  5
1F0C
102
{ACAD_REACTORS
330
1F01
102
}
330
1F01
100
AcDbXrecord
  1

  0
XRECORD
  5
1F04
102
{ACAD_REACTORS
330
1F01
102
}
330
1F01
100
AcDbXrecord
  1

  0
XRECORD
  5
1F0A
102
{ACAD_REACTORS
330
1F01
102
}
330
1F01
100
AcDbXrecord
 90
        1
  0
XRECORD
  5
1F06
102
{ACAD_REACTORS
330
1F01
102
}
330
1F01
100
AcDbXrecord
340
1A
  0
XRECORD
  5
1F09
102
{ACAD_REACTORS
330
1F01
102
}
330
1F01
100
AcDbXrecord
 90
    10781
  0
XRECORD
  5
1F07
102
{ACAD_REACTORS
330
1F01
102
}
330
1F01
100
AcDbXrecord
340
19
  0
XRECORD
  5
1F08
102
{ACAD_REACTORS
330
1F01
102
}
330
1F01
100
AcDbXrecord
340
E
  0
XRECORD
  5
1F0E
102
{ACAD_REACTORS
330
1F01
102
}
330
1F01
100
AcDbXrecord
 40
0.0
  0
XRECORD
  5
1F12
102
{ACAD_REACTORS
330
1F01
102
}
330
1F01
100
AcDbXrecord
340
0
  0
XRECORD
  5
1F18
102
{ACAD_REACTORS
330
1F01
102
}
330
1F01
100
AcDbXrecord
 10
0.0
 20
0.0
 30
0.0
  0
XRECORD
  5
1F14
102
{ACAD_REACTORS
330
1F01
102
}
330
1F01
100
AcDbXrecord
 10
0.0
 20
0.0
 30
0.0
  0
XRECORD
  5
1F17
102
{ACAD_REACTORS
330
1F01
102
}
330
1F01
100
AcDbXrecord
 10
0.0
 20
0.0
 30
0.0
  0
XRECORD
  5
1F15
102
{ACAD_REACTORS
330
1F01
102
}
330
1F01
100
AcDbXrecord
 10
0.0
 20
0.0
 30
0.0
  0
XRECORD
  5
1F16
102
{ACAD_REACTORS
330
1F01
102
}
330
1F01
100
AcDbXrecord
 10
0.0
 20
0.0
 30
0.0
  0
XRECORD
  5
1F13
102
{ACAD_REACTORS
330
1F01
102
}
330
1F01
100
AcDbXrecord
 10
0.0
 20
0.0
 30
0.0
  0
XRECORD
  5
1F10
102
{ACAD_REACTORS
330
1F01
102
}
330
1F01
100
AcDbXrecord
340
0
  0
XRECORD
  5
1F11
102
{ACAD_REACTORS
330
1F01
102
}
330
1F01
100
AcDbXrecord
 70
     0
  0
XRECORD
  5
1F05
102
{ACAD_REACTORS
330
1F01
102
}
330
1F01
100
AcDbXrecord
  1

  0
XRECORD
  5
1F02
102
{ACAD_REACTORS
330
1F01
102
}
330
1F01
100
AcDbXrecord
 90
        1
  0
XRECORD
  5
1F03
102
{ACAD_REACTORS
330
1F01
102
}
330
1F01
100
AcDbXrecord
 90
       70
  0
XRECORD
  5
1F1B
102
{ACAD_REACTORS
330
1F01
102
}
330
1F01
100
AcDbXrecord
340
0
  0
XRECORD
  5
1F21
102
{ACAD_REACTORS
330
1F01
102
}
330
1F01
100
AcDbXrecord
 10
0.0
 20
0.0
 30
0.0
  0
XRECORD
  5
1F1D
102
{ACAD_REACTORS
330
1F01
102
}
330
1F01
100
AcDbXrecord
 10
0.0
 20
0.0
 30
0.0
  0
XRECORD
  5
1F20
102
{ACAD_REACTORS
330
1F01
102
}
330
1F01
100
AcDbXrecord
 10
0.0
 20
0.0
 30
0.0
  0
XRECORD
  5
1F1E
102
{ACAD_REACTORS
330
1F01
102
}
330
1F01
100
AcDbXrecord
 10
0.0
 20
0.0
 30
0.0
  0
XRECORD
  5
1F1F
102
{ACAD_REACTORS
330
1F01
102
}
330
1F01
100
AcDbXrecord
 10
0.0
 20
0.0
 30
0.0
  0
XRECORD
  5
1F1C
102
{ACAD_REACTORS
330
1F01
102
}
330
1F01
100
AcDbXrecord
 10
0.0
 20
0.0
 30
0.0
  0
XRECORD
  5
1F19
102
{ACAD_REACTORS
330
1F01
102
}
330
1F01
100
AcDbXrecord
340
0
  0
XRECORD
  5
1F1A
102
{ACAD_REACTORS
330
1F01
102
}
330
1F01
100
AcDbXrecord
 70
     0
  0
XRECORD
  5
1F0D
102
{ACAD_REACTORS
330
1F01
102
}
330
1F01
100
AcDbXrecord
  1
{F5470059-DE01-4AD6-AB18-EFE407155941}
  0
ENDSEC
  0
EOF
