  0
SECTION
  2
HEADER
  9
$ACADVER
  1
AC1014
  9
$ACADMAINTVER
 70
     9
  9
$DWGCODEPAGE
  3
ANSI_1252
  9
$INSBASE
 10
0.0
 20
0.0
 30
0.0
  9
$EXTMIN
 10
-35.87499998658497
 20
-1.668518839440878
 30
0.0
  9
$EXTMAX
 10
35.87500001341503
 20
20.51273820561605
 30
0.0
  9
$LIMMIN
 10
0.0
 20
0.0
  9
$LIMMAX
 10
17.0
 20
11.0
  9
$ORTHOMODE
 70
     1
  9
$REGENMODE
 70
     1
  9
$FILLMODE
 70
     1
  9
$QTEXTMODE
 70
     0
  9
$MIRRTEXT
 70
     1
  9
$DRAGMODE
 70
     2
  9
$LTSCALE
 40
0.9350000000000001
  9
$OSMODE
 70
    37
  9
$ATTMODE
 70
     1
  9
$TEXTSIZE
 40
0.2
  9
$TRACEWID
 40
0.05
  9
$TEXTSTYLE
  7
STANDARD
  9
$CLAYER
  8
0
  9
$CELTYPE
  6
BYLAYER
  9
$CECOLOR
 62
   256
  9
$CELTSCALE
 40
1.0
  9
$DELOBJ
 70
     1
  9
$DISPSILH
 70
     0
  9
$DIMSCALE
 40
1.0
  9
$DIMASZ
 40
0.1875
  9
$DIMEXO
 40
0.10625
  9
$DIMDLI
 40
0.646
  9
$DIMRND
 40
0.0
  9
$DIMDLE
 40
0.0
  9
$DIMEXE
 40
0.306
  9
$DIMTP
 40
0.0
  9
$DIMTM
 40
0.0
  9
$DIMTXT
 40
0.125
  9
$DIMCEN
 40
0.153
  9
$DIMTSZ
 40
0.0
  9
$DIMTOL
 70
     0
  9
$DIMLIM
 70
     0
  9
$DIMTIH
 70
     1
  9
$DIMTOH
 70
     1
  9
$DIMSE1
 70
     0
  9
$DIMSE2
 70
     0
  9
$DIMTAD
 70
     0
  9
$DIMZIN
 70
     0
  9
$DIMBLK
  1
_FILLED
  9
$DIMASO
 70
     1
  9
$DIMSHO
 70
     1
  9
$DIMPOST
  1

  9
$DIMAPOST
  1

  9
$DIMALT
 70
     0
  9
$DIMALTD
 70
     2
  9
$DIMALTF
 40
25.4
  9
$DIMLFAC
 40
1.0
  9
$DIMTOFL
 70
     0
  9
$DIMTVP
 40
0.0
  9
$DIMTIX
 70
     0
  9
$DIMSOXD
 70
     0
  9
$DIMSAH
 70
     0
  9
$DIMBLK1
  1

  9
$DIMBLK2
  1

  9
$DIMSTYLE
  2
STANDARD
  9
$DIMCLRD
 70
     0
  9
$DIMCLRE
 70
     0
  9
$DIMCLRT
 70
     0
  9
$DIMTFAC
 40
1.0
  9
$DIMGAP
 40
0.09
  9
$DIMJUST
 70
     0
  9
$DIMSD1
 70
     0
  9
$DIMSD2
 70
     0
  9
$DIMTOLJ
 70
     1
  9
$DIMTZIN
 70
     0
  9
$DIMALTZ
 70
     0
  9
$DIMALTTZ
 70
     0
  9
$DIMFIT
 70
     3
  9
$DIMUPT
 70
     0
  9
$DIMUNIT
 70
     2
  9
$DIMDEC
 70
     4
  9
$DIMTDEC
 70
     4
  9
$DIMALTU
 70
     2
  9
$DIMALTTD
 70
     2
  9
$DIMTXSTY
  7
STANDARD
  9
$DIMAUNIT
 70
     0
  9
$LUNITS
 70
     2
  9
$LUPREC
 70
     4
  9
$SKETCHINC
 40
0.1
  9
$FILLETRAD
 40
0.0
  9
$AUNITS
 70
     0
  9
$AUPREC
 70
     0
  9
$MENU
  1
acad
  9
$ELEVATION
 40
0.0
  9
$PELEVATION
 40
0.0
  9
$THICKNESS
 40
0.0
  9
$LIMCHECK
 70
     0
  9
$BLIPMODE
 70
     0
  9
$CHAMFERA
 40
0.0
  9
$CHAMFERB
 40
0.0
  9
$CHAMFERC
 40
0.0
  9
$CHAMFERD
 40
0.0
  9
$SKPOLY
 70
     0
  9
$TDCREATE
 40
2454026.433579861
  9
$TDUPDATE
 40
2454085.378806585
  9
$TDINDWG
 40
0.0821850000
  9
$TDUSRTIMER
 40
0.0821850000
  9
$USRTIMER
 70
     1
  9
$ANGBASE
 50
0.0
  9
$ANGDIR
 70
     0
  9
$PDMODE
 70
     3
  9
$PDSIZE
 40
0.03125
  9
$PLINEWID
 40
0.0
  9
$COORDS
 70
     2
  9
$SPLFRAME
 70
     0
  9
$SPLINETYPE
 70
     6
  9
$SPLINESEGS
 70
     8
  9
$ATTDIA
 70
     0
  9
$ATTREQ
 70
     1
  9
$HANDLING
 70
-16383
  9
$HANDSEED
  5
2097
  9
$SURFTAB1
 70
     6
  9
$SURFTAB2
 70
     6
  9
$SURFTYPE
 70
     6
  9
$SURFU
 70
     6
  9
$SURFV
 70
     6
  9
$UCSNAME
  2

  9
$UCSORG
 10
0.0
 20
0.0
 30
0.0
  9
$UCSXDIR
 10
1.0
 20
0.0
 30
0.0
  9
$UCSYDIR
 10
0.0
 20
1.0
 30
0.0
  9
$PUCSNAME
  2

  9
$PUCSORG
 10
0.0
 20
0.0
 30
0.0
  9
$PUCSXDIR
 10
1.0
 20
0.0
 30
0.0
  9
$PUCSYDIR
 10
0.0
 20
1.0
 30
0.0
  9
$USERI1
 70
     0
  9
$USERI2
 70
     0
  9
$USERI3
 70
     0
  9
$USERI4
 70
     0
  9
$USERI5
 70
     0
  9
$USERR1
 40
0.0
  9
$USERR2
 40
0.0
  9
$USERR3
 40
0.0
  9
$USERR4
 40
0.0
  9
$USERR5
 40
0.0
  9
$WORLDVIEW
 70
     1
  9
$SHADEDGE
 70
     3
  9
$SHADEDIF
 70
    70
  9
$TILEMODE
 70
     1
  9
$MAXACTVP
 70
    16
  9
$PINSBASE
 10
0.0
 20
0.0
 30
0.0
  9
$PLIMCHECK
 70
     0
  9
$PEXTMIN
 10
1.000000000000000E+20
 20
1.000000000000000E+20
 30
1.000000000000000E+20
  9
$PEXTMAX
 10
-1.000000000000000E+20
 20
-1.000000000000000E+20
 30
-1.000000000000000E+20
  9
$PLIMMIN
 10
0.0
 20
0.0
  9
$PLIMMAX
 10
12.0
 20
9.0
  9
$UNITMODE
 70
     0
  9
$VISRETAIN
 70
     0
  9
$PLINEGEN
 70
     1
  9
$PSLTSCALE
 70
     0
  9
$TREEDEPTH
 70
  3020
  9
$PICKSTYLE
 70
     1
  9
$CMLSTYLE
  2
STANDARD
  9
$CMLJUST
 70
     0
  9
$CMLSCALE
 40
1.0
  9
$PROXYGRAPHICS
 70
     0
  9
$MEASUREMENT
 70
     0
  0
ENDSEC
  0
SECTION
  2
CLASSES
  0
CLASS
  1
ACDBDICTIONARYWDFLT
  2
AcDbDictionaryWithDefault
  3
AutoCAD 2000
 90
        0
280
     0
281
     0
  0
CLASS
  1
ACDBPLACEHOLDER
  2
AcDbPlaceHolder
  3
AutoCAD 2000
 90
        0
280
     0
281
     0
  0
CLASS
  1
LAYOUT
  2
AcDbLayout
  3
AutoCAD 2000
 90
        0
280
     0
281
     0
  0
CLASS
  1
LWPOLYLINE
  2
AcDbPolyline
  3
AutoCAD 2000
 90
        0
280
     0
281
     1
  0
CLASS
  1
IMAGE
  2
AcDbRasterImage
  3
ISM
 90
      127
280
     0
281
     1
  0
CLASS
  1
OLE2FRAME
  2
AcDbOle2Frame
  3
AutoCAD 2000
 90
        0
280
     0
281
     1
  0
CLASS
  1
HATCH
  2
AcDbHatch
  3
AutoCAD 2000
 90
        0
280
     0
281
     1
  0
CLASS
  1
DICTIONARYVAR
  2
AcDbDictionaryVar
  3
AutoCAD 2000
 90
        0
280
     0
281
     0
  0
CLASS
  1
RASTERVARIABLES
  2
AcDbRasterVariables
  3
ISM
 90
        0
280
     0
281
     0
  0
CLASS
  1
IMAGEDEF
  2
AcDbRasterImageDef
  3
ISM
 90
        0
280
     0
281
     0
  0
CLASS
  1
IMAGEDEF_REACTOR
  2
AcDbRasterImageDefReactor
  3
ISM
 90
        1
280
     0
281
     0
  0
CLASS
  1
IDBUFFER
  2
AcDbIdBuffer
  3
AutoCAD 2000
 90
        0
280
     0
281
     0
  0
CLASS
  1
SPATIAL_FILTER
  2
AcDbSpatialFilter
  3
AutoCAD 2000
 90
        0
280
     0
281
     0
  0
CLASS
  1
XRECORD
  2
AcDbXrecord
  3
AutoCAD 2000
 90
        0
280
     0
281
     0
  0
CLASS
  1
SORTENTSTABLE
  2
AcDbSortentsTable
  3
AutoCAD 2000
 90
        0
280
     0
281
     0
  0
CLASS
  1
LAYER_INDEX
  2
AcDbLayerIndex
  3
AutoCAD 2000
 90
        0
280
     0
281
     0
  0
CLASS
  1
SPATIAL_INDEX
  2
AcDbSpatialIndex
  3
AutoCAD 2000
 90
        0
280
     0
281
     0
  0
CLASS
  1
OBJECT_PTR
  2
CAseDLPNTableRecord
  3
ASE-LPNTableRecord
 90
        1
280
     0
281
     0
  0
CLASS
  1
PLOTSETTINGS
  2
AcDbPlotSettings
  3
AutoCAD 2000
 90
        0
280
     0
281
     0
  0
CLASS
  1
VBA_PROJECT
  2
AcDbVbaProject
  3
acadvba
 90
        0
280
     0
281
     0
  0
CLASS
  1
WIPEOUT
  2
AcDbWipeout
  3
WipeOut|AutoCAD Express Tool|expresstools@autodesk.com
 90
      127
280
     0
281
     1
  0
CLASS
  1
WIPEOUTVARIABLES
  2
AcDbWipeoutVariables
  3
WipeOut|AutoCAD Express Tool|expresstools@autodesk.com
 90
        0
280
     0
281
     0
  0
CLASS
  1
RTEXT
  2
RText
  3
RText|AutoCAD Express Tool|expresstools@autodesk.com
 90
        0
280
     0
281
     1
  0
CLASS
  1
ARCALIGNEDTEXT
  2
AcDbArcAlignedText
  3
ATEXT|AutoCAD Express Tool|expresstools@autodesk.com
 90
        0
280
     0
281
     1
  0
CLASS
  1
LONG_TRANSACTION
  2
AcDbLongTransaction
  3
AutoCAD 2000
 90
        0
280
     0
281
     0
  0
CLASS
  1
LWPOLYLINE
  2
AcDbPolyline
  3
AutoCAD 2000
 90
        0
280
     0
281
     1
  0
CLASS
  1
HATCH
  2
AcDbHatch
  3
AutoCAD 2000
 90
        0
280
     0
281
     1
  0
CLASS
  1
XRECORD
  2
AcDbXrecord
  3
AutoCAD 2000
 90
        0
280
     0
281
     0
  0
CLASS
  1
LONG_TRANSACTION
  2
AcDbLongTransaction
  3
AutoCAD 2000
 90
        0
280
     0
281
     0
  0
CLASS
  1
LWPOLYLINE
  2
AcDbPolyline
  3
AutoCAD 2000
 90
        0
280
     0
281
     1
  0
CLASS
  1
HATCH
  2
AcDbHatch
  3
AutoCAD 2000
 90
        0
280
     0
281
     1
  0
CLASS
  1
XRECORD
  2
AcDbXrecord
  3
AutoCAD 2000
 90
        0
280
     0
281
     0
  0
CLASS
  1
LONG_TRANSACTION
  2
AcDbLongTransaction
  3
AutoCAD 2000
 90
        0
280
     0
281
     0
  0
CLASS
  1
LWPOLYLINE
  2
AcDbPolyline
  3
AutoCAD 2000
 90
        0
280
     0
281
     1
  0
CLASS
  1
HATCH
  2
AcDbHatch
  3
AutoCAD 2000
 90
        0
280
     0
281
     1
  0
CLASS
  1
XRECORD
  2
AcDbXrecord
  3
AutoCAD 2000
 90
        0
280
     0
281
     0
  0
CLASS
  1
LONG_TRANSACTION
  2
AcDbLongTransaction
  3
AutoCAD 2000
 90
        0
280
     0
281
     0
  0
CLASS
  1
LWPOLYLINE
  2
AcDbPolyline
  3
AutoCAD 2000
 90
        0
280
     0
281
     1
  0
CLASS
  1
HATCH
  2
AcDbHatch
  3
AutoCAD 2000
 90
        0
280
     0
281
     1
  0
CLASS
  1
XRECORD
  2
AcDbXrecord
  3
AutoCAD 2000
 90
        0
280
     0
281
     0
  0
ENDSEC
  0
SECTION
  2
TABLES
  0
TABLE
  2
VPORT
  5
8
330
0
100
AcDbSymbolTable
 70
     3
  0
VPORT
  5
2073
330
8
100
AcDbSymbolTableRecord
100
AcDbViewportTableRecord
  2
*ACTIVE
 70
     0
 10
0.0
 20
0.0
 11
1.0
 21
1.0
 12
0.4990754105012769
 22
11.96651978787231
 13
0.0
 23
0.0
 14
1.0
 24
1.0
 15
0.0
 25
0.0
 16
0.0
 26
0.0
 36
1.0
 17
0.0
 27
0.0
 37
0.0
 40
43.05631475305007
 41
1.745424292845258
 42
50.0
 43
0.0
 44
0.0
 50
0.0
 51
0.0
 71
     0
 72
   100
 73
     1
 74
     1
 75
     0
 76
     0
 77
     0
 78
     0
  0
ENDTAB
  0
TABLE
  2
LTYPE
  5
5
330
0
100
AcDbSymbolTable
 70
     3
  0
LTYPE
  5
14
330
5
100
AcDbSymbolTableRecord
100
AcDbLinetypeTableRecord
  2
BYBLOCK
 70
     0
  3

 72
    65
 73
     0
 40
0.0
  0
LTYPE
  5
15
330
5
100
AcDbSymbolTableRecord
100
AcDbLinetypeTableRecord
  2
BYLAYER
 70
     0
  3

 72
    65
 73
     0
 40
0.0
  0
LTYPE
  5
16
330
5
100
AcDbSymbolTableRecord
100
AcDbLinetypeTableRecord
  2
CONTINUOUS
 70
     0
  3
Solid line
 72
    65
 73
     0
 40
0.0
  0
LTYPE
  5
1F6
330
5
100
AcDbSymbolTableRecord
100
AcDbLinetypeTableRecord
  2
HIDDEN
 70
     0
  3
Hidden __ __ __ __ __ __ __ __ __ __ __ __ __ _
 72
    65
 73
     2
 40
0.375
 49
0.25
 74
     0
 49
-0.125
 74
     0
  0
LTYPE
  5
1295
330
5
100
AcDbSymbolTableRecord
100
AcDbLinetypeTableRecord
  2
CENTERX2
 70
     0
  3
Center (2x) ________  __  ________  __  _____
 72
    65
 73
     4
 40
4.0
 49
2.5
 74
     0
 49
-0.5
 74
     0
 49
0.5
 74
     0
 49
-0.5
 74
     0
  0
ENDTAB
  0
TABLE
  2
LAYER
  5
2
330
0
100
AcDbSymbolTable
 70
     2
  0
LAYER
  5
10
330
2
100
AcDbSymbolTableRecord
100
AcDbLayerTableRecord
  2
0
 70
     0
 62
     7
  6
CONTINUOUS
  0
LAYER
  5
B09
330
2
100
AcDbSymbolTableRecord
100
AcDbLayerTableRecord
  2
CENTER
 70
     0
 62
     1
  6
CENTERX2
  0
ENDTAB
  0
TABLE
  2
STYLE
  5
3
330
0
100
AcDbSymbolTable
 70
     2
  0
STYLE
  5
11
330
3
100
AcDbSymbolTableRecord
100
AcDbTextStyleTableRecord
  2
STANDARD
 70
     0
 40
0.0
 41
0.8
 50
0.0
 71
     0
 42
0.2
  3
txt
  4

  0
STYLE
  5
21B
330
3
100
AcDbSymbolTableRecord
100
AcDbTextStyleTableRecord
  2
TEXTSTYLE_1
 70
     0
 40
0.0
 41
0.8
 50
0.0
 71
     0
 42
0.2
  3
txt
  4

  0
ENDTAB
  0
TABLE
  2
VIEW
  5
6
330
0
100
AcDbSymbolTable
 70
     0
  0
ENDTAB
  0
TABLE
  2
UCS
  5
7
330
0
100
AcDbSymbolTable
 70
     0
  0
ENDTAB
  0
TABLE
  2
APPID
  5
9
330
0
100
AcDbSymbolTable
 70
     2
  0
APPID
  5
21F
330
9
100
AcDbSymbolTableRecord
100
AcDbRegAppTableRecord
  2
ACAD
 70
     0
  0
APPID
  5
AFF
330
9
100
AcDbSymbolTableRecord
100
AcDbRegAppTableRecord
  2
DCO15
 70
     0
  0
ENDTAB
  0
TABLE
  2
DIMSTYLE
  5
A
330
0
100
AcDbSymbolTable
 70
     1
  0
DIMSTYLE
105
240
330
A
100
AcDbSymbolTableRecord
100
AcDbDimStyleTableRecord
  2
STANDARD
 70
     0
  3

  4

  5
_FILLED
  6
_FILLED
  7
_FILLED
 40
1.0
 41
0.1875
 42
0.0625
 43
0.38
 44
0.18
 45
0.0
 46
0.0
 47
0.00001
 48
0.00001
140
0.125
141
0.09
142
0.0
143
25.4
144
1.0
145
0.0
146
1.0
147
0.09
 71
     0
 72
     0
 73
     1
 74
     1
 75
     0
 76
     0
 77
     0
 78
     4
170
     0
171
     2
172
     0
173
     0
174
     0
175
     0
176
     0
177
     0
178
     0
270
     2
271
     5
272
     5
273
     2
274
     2
340
11
275
     0
280
     0
281
     0
282
     0
283
     1
284
     4
285
     0
286
     0
287
     3
288
     0
  0
ENDTAB
  0
TABLE
  2
BLOCK_RECORD
  5
1
330
0
100
AcDbSymbolTable
 70
     1
  0
BLOCK_RECORD
  5
1F
102
{ACAD_XDICTIONARY
360
1C14
102
}
330
1
100
AcDbSymbolTableRecord
100
AcDbBlockTableRecord
  2
*MODEL_SPACE
  0
BLOCK_RECORD
  5
1B
102
{ACAD_XDICTIONARY
360
1C12
102
}
330
1
100
AcDbSymbolTableRecord
100
AcDbBlockTableRecord
  2
*PAPER_SPACE
  0
BLOCK_RECORD
  5
220
330
1
100
AcDbSymbolTableRecord
100
AcDbBlockTableRecord
  2
_FILLED
  0
ENDTAB
  0
ENDSEC
  0
SECTION
  2
BLOCKS
  0
BLOCK
  5
20
330
1F
100
AcDbEntity
  8
0
100
AcDbBlockBegin
  2
*MODEL_SPACE
 70
     0
 10
0.0
 20
0.0
 30
0.0
  3
*MODEL_SPACE
  1

  0
ENDBLK
  5
21
330
1F
100
AcDbEntity
  8
0
100
AcDbBlockEnd
  0
BLOCK
  5
1C
330
1B
100
AcDbEntity
 67
     1
  8
0
100
AcDbBlockBegin
  2
*PAPER_SPACE
 70
     0
 10
0.0
 20
0.0
 30
0.0
  3
*PAPER_SPACE
  1

  0
ENDBLK
  5
1D
330
1B
100
AcDbEntity
 67
     1
  8
0
100
AcDbBlockEnd
  0
BLOCK
  5
442
330
220
100
AcDbEntity
  8
0
100
AcDbBlockBegin
  2
_FILLED
 70
     0
 10
0.0
 20
0.0
 30
0.0
  3
_FILLED
  1

  0
SOLID
  5
443
330
220
100
AcDbEntity
  8
0
  6
BYBLOCK
 62
     0
100
AcDbTrace
 10
0.0
 20
0.0
 30
0.0
 11
-1.0
 21
0.1666666667
 31
0.0
 12
-1.0
 22
-0.1666666667
 32
0.0
 13
-1.0
 23
-0.1666666667
 33
0.0
  0
ENDBLK
  5
444
330
220
100
AcDbEntity
  8
0
  6
BYBLOCK
 62
     0
100
AcDbBlockEnd
  0
ENDSEC
  0
SECTION
  2
ENTITIES
  0
MTEXT
  5
4BB
330
1F
100
AcDbEntity
  8
0
  6
CONTINUOUS
 62
     2
100
AcDbMText
 10
15.84375
 20
2.3125
 30
0.0
 40
0.09375
 41
0.075
 71
     2
 72
     1
  1
 \P \P 
  7
TEXTSTYLE_1
1001
ACAD
1000
MTEXTBEGIN
1070
    73
1070
     1
1070
    44
1040
1.0
1070
    74
1070
     0
1000
MTEXTEND
1000
MTEXTBEGIN
1070
    73
1070
     1
1070
    44
1040
1.0
1070
    74
1070
     0
1000
MTEXTEND
1000
MTEXTBEGIN
1070
    73
1070
     1
1070
    44
1040
1.0
1070
    74
1070
     0
1000
MTEXTEND
1000
MTEXTBEGIN
1070
    73
1070
     1
1070
    44
1040
1.0
1070
    74
1070
     0
1000
MTEXTEND
  0
LINE
  5
1F13
330
1F
100
AcDbEntity
  8
0
100
AcDbLine
 10
-35.74999998658496
 20
18.47499999999998
 30
0.0
 11
35.75000001341503
 21
18.47499999999998
 31
0.0
  0
LINE
  5
1F14
330
1F
100
AcDbEntity
  8
0
100
AcDbLine
 10
-35.37874811458506
 20
20.09999999999998
 30
0.0
 11
35.37874814141501
 21
20.09999999999998
 31
0.0
  0
LWPOLYLINE
  5
1F15
330
1F
100
AcDbEntity
  8
0
100
AcDbPolyline
 90
       14
 70
     0
 43
0.0
 10
-16.04980048258492
 20
1.601954172799992
 10
-14.74548947778497
 20
1.577096985599979
 10
-13.25378745538499
 20
1.548456132799998
 10
-11.61268225058494
 20
1.516840635199997
 10
-9.986482735385024
 20
1.485560118399988
 10
-8.514740640984982
 20
1.457432355199983
 10
-7.241558991384962
 20
1.433357239999992
 10
-6.153302248985013
 20
1.413068603199988
 10
-5.209139535385006
 20
1.395771974399991
 10
-4.382334463384935
 20
1.380942948799997
 10
-3.658378042584999
 20
1.36828487999999
 10
-3.026089029784984
 20
1.357561476799986
 10
-2.475159199384947
 20
1.348553751999986
 10
-1.997583845785001
 20
1.341083721599986
  0
LWPOLYLINE
  5
1F16
330
1F
100
AcDbEntity
  8
0
  6
HIDDEN
 62
     8
100
AcDbPolyline
 90
       30
 70
     0
 43
0.0
 10
-5.094419442585021
 20
17.45925893119999
 10
-5.000032040985033
 20
17.40602117759999
 10
-4.90398664738494
 20
17.35622580959999
 10
-4.806424749785023
 20
17.30968301439998
 10
-4.707487840984967
 20
17.26620297919998
 10
-4.60132007938499
 20
17.22326568959999
 10
-4.493935888984978
 20
17.18332772159999
 10
-4.385503551384985
 20
17.14616331839998
 10
-4.276191352985037
 20
17.11154671999997
 10
-4.166167578585017
 20
17.07925216799998
 10
-4.016924912985004
 20
17.03902798719998
 10
-3.86681022178503
 20
17.00233992799999
 10
-3.71593938338502
 20
16.96891227199998
 10
-3.564428280984984
 20
16.93846930559999
 10
-3.41239279298496
 20
16.91073531199998
 10
-3.259948804184986
 20
16.88543457599999
 10
-3.06211495298497
 20
16.85587735359999
 10
-2.863853733785035
 20
16.82956128959998
 10
-2.665228362585011
 20
16.80611039999999
 10
-2.466302053785042
 20
16.78514869919999
 10
-2.267138023384958
 20
16.76630020799999
 10
-2.067799487384931
 20
16.74918893919999
 10
-1.795897743384998
 20
16.72817961279999
 10
-1.523815706584954
 20
16.70992039199998
 10
-1.251579861784975
 20
16.69463224959999
 10
-0.9792166905849484
 20
16.68253615839998
 10
-0.7067526793849624
 20
16.67385308799998
 10
-0.4342143081849912
 20
16.66880401439999
 10
-0.2174698617850339
 20
16.66752978879998
 10
-0.0007084601850096
 20
16.66880401439999
  0
LWPOLYLINE
  5
1F17
330
1F
100
AcDbEntity
  8
0
  6
HIDDEN
 62
     8
100
AcDbPolyline
 90
       27
 70
     0
 43
0.0
 10
-5.94065422658501
 20
16.21740616319999
 10
-5.800761476185002
 20
16.16115550879999
 10
-5.65966850018502
 20
16.10874223199999
 10
-5.517474636184928
 20
16.05991187359998
 10
-5.374279220185016
 20
16.01440997599999
 10
-5.230181591384948
 20
15.97198208159999
 10
-5.085281087385041
 20
15.93237373119998
 10
-4.923834813784978
 20
15.89145328959998
 10
-4.761659309785031
 20
15.85333835679998
 10
-4.598889895384999
 20
15.81768229919998
 10
-4.435661893784967
 20
15.78413847839999
 10
-4.204474508185043
 20
15.73981457919998
 10
-3.972688946584966
 20
15.69887455999998
 10
-3.740352288985022
 20
15.66117802879998
 10
-3.507511620185013
 20
15.62658459519998
 10
-3.274214023384942
 20
15.59495386879999
 10
-3.040506578584981
 20
15.56614546079998
 10
-2.737576898584947
 20
15.53282951039997
 10
-2.434141868184937
 20
15.50369957279998
 10
-2.130303482584949
 20
15.47845151839999
 10
-1.826163735384952
 20
15.45678122079999
 10
-1.521824624985001
 20
15.43838454719998
 10
-1.21738814658498
 20
15.42295737279998
 10
-0.9129562953850012
 20
15.41019556479999
 10
-0.6086310665849482
 20
15.39979499679998
 10
-0.3045144553850463
 20
15.39145153919999
 10
-0.0007084601850096
 20
15.38486106239999
  0
LINE
  5
1F18
330
1F
100
AcDbEntity
  8
0
100
AcDbLine
 10
-15.49999986818501
 20
0.0
 30
0.0
 11
15.49999989501496
 21
0.0
 31
0.0
  0
LINE
  5
1F19
330
1F
100
AcDbEntity
  8
0
100
AcDbLine
 10
-23.42760516578506
 20
3.369188391999983
 30
0.0
 11
-24.58950732418499
 21
8.349023473599984
 31
0.0
  0
LWPOLYLINE
  5
1F1A
330
1F
100
AcDbEntity
  8
0
100
AcDbPolyline
 90
        5
 70
     0
 43
0.0
 10
-18.07627712898498
 20
1.642833875199983
 10
-17.69525089058503
 20
1.634252665599987
 10
-17.28564341058493
 20
1.62554176479999
 10
-16.85642342338495
 20
1.616922145599986
 10
-16.65965261698498
 20
1.613129204799989
  0
LINE
  5
1F1B
330
1F
100
AcDbEntity
  8
0
100
AcDbLine
 10
-17.26202640805367
 20
1.625067486866669
 30
0.0
 11
-16.94131646338497
 21
1.477498276799991
 31
0.0
  0
LWPOLYLINE
  5
1F1C
330
1F
100
AcDbEntity
  8
0
100
AcDbPolyline
 90
       48
 70
     0
 43
0.0
 10
-23.341706248985
 20
3.092074217599986
 10
-23.32266078978499
 20
3.044996004799997
 10
-23.25650089538497
 20
2.902787412799995
 10
-23.18223769058498
 20
2.770421519999985
 10
-23.10177892738498
 20
2.648784460799987
 10
-23.01715157218494
 20
2.538461927999989
 10
-22.93003351298499
 20
2.439307900799988
 10
-22.841268556185
 20
2.350309089599988
 10
-22.75135149538503
 20
2.270418183999993
 10
-22.66055638818498
 20
2.198686499199993
 10
-22.56952527618499
 20
2.134638718399997
 10
-22.47943275298494
 20
2.078154921599988
 10
-22.39139477858496
 20
2.028961327999979
 10
-22.30647119138494
 20
1.986667531199998
 10
-22.22585132258494
 20
1.950872966399998
 10
-22.15081088738496
 20
1.921134659199992
 10
-22.08223521218495
 20
1.896814907199996
 10
-22.02029584098498
 20
1.877082099199981
 10
-21.96377465378496
 20
1.86084405119999
 10
-21.91128472258502
 20
1.847210793599998
 10
-21.86170320258496
 20
1.835555284799994
 10
-21.81465553378494
 20
1.825539430399985
 10
-21.77013719778504
 20
1.816945529599991
 10
-21.72794787298492
 20
1.809542443199987
 10
-21.68768035618494
 20
1.803098635199987
 10
-21.64883883298499
 20
1.797408940799982
 10
-21.61092824258501
 20
1.792305047999988
 10
-21.57336686018503
 20
1.787638817599997
 10
-21.53560014338494
 20
1.783293303999982
 10
-21.49713950178498
 20
1.779180281599991
 10
-21.45755574338498
 20
1.775233135999997
 10
-21.41644735138503
 20
1.771399294399998
 10
-21.37345696418502
 20
1.767638924799996
 10
-21.32826966818503
 20
1.763922124799989
 10
-21.28059702018502
 20
1.760225667199989
 10
-21.23015994018497
 20
1.756530619199992
 10
-21.17666556418497
 20
1.752820159999998
 10
-21.11983519298495
 20
1.74908100479999
 10
-21.05940215298504
 20
1.745302667199979
 10
-20.99510642018502
 20
1.741476891199994
 10
-20.92669634178502
 20
1.737597313599991
 10
-20.853925034585
 20
1.733658956799985
 10
-20.77655464098494
 20
1.729658315199998
 10
-20.69434831298495
 20
1.725592787199985
 10
-20.60706005218502
 20
1.721460263999986
 10
-20.51446596578499
 20
1.71726044319999
 10
-20.41634361058503
 20
1.712993575999988
 10
-20.31708121538496
 20
1.708849164799985
  0
LINE
  5
1F1D
330
1F
100
AcDbEntity
  8
0
100
AcDbLine
 10
-23.427605060185
 20
3.369188227199998
 30
0.0
 11
-23.40212159778503
 21
3.271081443199989
 31
0.0
  0
LINE
  5
1F1E
330
1F
100
AcDbEntity
  8
0
100
AcDbLine
 10
-23.42746268738507
 20
3.36874930239999
 30
0.0
 11
-23.38540129698505
 21
3.215738217599991
 31
0.0
  0
LINE
  5
1F1F
330
1F
100
AcDbEntity
  8
0
100
AcDbLine
 10
-23.42760515938506
 20
3.369188364799981
 30
0.0
 11
-23.42750126498505
 21
3.368847004799988
 31
0.0
  0
LWPOLYLINE
  5
1F20
330
1F
100
AcDbEntity
  8
0
100
AcDbPolyline
 90
        3
 70
     0
 43
0.0
 10
-23.40212159778501
 20
3.271081443199989
 10
-23.36800752738496
 20
3.163404241599991
 10
-23.36356823778497
 20
3.150768889599987
  0
LINE
  5
1F21
330
1F
100
AcDbEntity
  8
0
100
AcDbLine
 10
-23.38540129698505
 20
3.215738217599991
 30
0.0
 11
-23.34179093058505
 21
3.092291329599987
 31
0.0
  0
LINE
  5
1F22
330
1F
100
AcDbEntity
  8
0
100
AcDbLine
 10
-23.36356163458505
 20
3.150750292799983
 30
0.0
 11
-23.34179093058505
 21
3.092291329599987
 31
0.0
  0
LINE
  5
1F23
330
1F
100
AcDbEntity
  8
0
100
AcDbLine
 10
-23.34179093058505
 20
3.092291329599987
 30
0.0
 11
-23.34170624898503
 21
3.092074217599986
 31
0.0
  0
LINE
  5
1F24
330
1F
100
AcDbEntity
  8
0
100
AcDbLine
 10
-23.42750126498505
 20
3.368847004799988
 30
0.0
 11
-23.42746237858502
 21
3.368748415999988
 31
0.0
  0
LINE
  5
1F25
330
1F
100
AcDbEntity
  8
0
100
AcDbLine
 10
-20.31708043138498
 20
1.708849132799997
 30
0.0
 11
-20.11680487618504
 21
1.701038590399988
 31
0.0
  0
LWPOLYLINE
  5
1F26
330
1F
100
AcDbEntity
  8
0
100
AcDbPolyline
 90
        8
 70
     0
 43
0.0
 10
-20.11680487618501
 20
1.701038590399988
 10
-19.89769021218499
 20
1.693216622399987
 10
-19.65428812898493
 20
1.685185433599997
 10
-19.38633578178495
 20
1.676961315199989
 10
-19.09373862178493
 20
1.668567830399979
 10
-18.77650786978493
 20
1.660032310399998
 10
-18.43474868738495
 20
1.651384455999988
 10
-18.07627651778499
 20
1.642833860799981
  0
LINE
  5
1F27
330
1F
100
AcDbEntity
  8
0
100
AcDbLine
 10
-16.65898854498506
 20
1.613116031999993
 30
0.0
 11
-16.405680570585
 21
1.60837173439998
 31
0.0
  0
LWPOLYLINE
  5
1F28
330
1F
100
AcDbEntity
  8
0
100
AcDbPolyline
 90
        3
 70
     0
 43
0.0
 10
-16.40568057058497
 20
1.60837173439998
 10
-16.228835722585
 20
1.605147851199987
 10
-16.04980048258492
 20
1.601954172799992
  0
LINE
  5
1F29
330
1F
100
AcDbEntity
  8
0
100
AcDbLine
 10
-16.94131646338497
 20
1.477498276799991
 30
0.0
 11
-16.874885290585
 21
1.433644681599986
 31
0.0
  0
LWPOLYLINE
  5
1F2A
330
1F
100
AcDbEntity
  8
0
100
AcDbPolyline
 90
        4
 70
     0
 43
0.0
 10
-16.87488529058497
 20
1.433644681599986
 10
-16.81303486338502
 20
1.376268708799983
 10
-16.76031658498503
 20
1.307095766399982
 10
-16.74247337378504
 20
1.276550015999987
  0
LWPOLYLINE
  5
1F2B
330
1F
100
AcDbEntity
  8
0
100
AcDbPolyline
 90
        3
 70
     0
 43
0.0
 10
-15.57523432898504
 20
0.0033104911999828
 10
-15.520557464985
 20
0.000368212799998
 10
-15.49999972098497
 20
0.0001193839999871
  0
LINE
  5
1F2C
330
1F
100
AcDbEntity
  8
0
100
AcDbLine
 10
-15.75297745218496
 20
0.0354747871999734
 30
0.0
 11
-15.69169275458501
 21
0.0204103215999965
 31
0.0
  0
LINE
  5
1F2D
330
1F
100
AcDbEntity
  8
0
100
AcDbLine
 10
-15.88044950338498
 20
0.0856071455999938
 30
0.0
 11
-15.91756914178496
 21
0.1057046463999995
 31
0.0
  0
LINE
  5
1F2E
330
1F
100
AcDbEntity
  8
0
100
AcDbLine
 10
-15.84383071778496
 20
0.0674844495999878
 30
0.0
 11
-15.88044950338498
 21
0.0856071455999938
 31
0.0
  0
LINE
  5
1F2F
330
1F
100
AcDbEntity
  8
0
100
AcDbLine
 10
-15.81127542498497
 20
0.0538898255999811
 30
0.0
 11
-15.84383071778496
 21
0.0674844495999878
 31
0.0
  0
LINE
  5
1F30
330
1F
100
AcDbEntity
  8
0
100
AcDbLine
 10
-15.81123047458506
 20
0.0538740255999812
 30
0.0
 11
-15.75297745218496
 21
0.0354747871999734
 31
0.0
  0
LINE
  5
1F31
330
1F
100
AcDbEntity
  8
0
100
AcDbLine
 10
-16.45002406818504
 20
0.7289369775999717
 30
0.0
 11
-16.31801647938506
 21
0.479713718399978
 31
0.0
  0
LINE
  5
1F32
330
1F
100
AcDbEntity
  8
0
100
AcDbLine
 10
-16.31801647938506
 20
0.479713718399978
 30
0.0
 11
-16.27523317218505
 21
0.4107695519999766
 31
0.0
  0
LINE
  5
1F33
330
1F
100
AcDbEntity
  8
0
100
AcDbLine
 10
-16.27523317218505
 20
0.4107695519999766
 30
0.0
 11
-16.22748542498506
 21
0.346832676799977
 31
0.0
  0
LINE
  5
1F34
330
1F
100
AcDbEntity
  8
0
100
AcDbLine
 10
-16.22748542498506
 20
0.346832676799977
 30
0.0
 11
-16.17552013538501
 21
0.2881882143999803
 31
0.0
  0
LINE
  5
1F35
330
1F
100
AcDbEntity
  8
0
100
AcDbLine
 10
-16.17552013538501
 20
0.2881882143999803
 30
0.0
 11
-16.14584902978505
 21
0.2587035887999889
 31
0.0
  0
LINE
  5
1F36
330
1F
100
AcDbEntity
  8
0
100
AcDbLine
 10
-16.13242102978496
 20
0.2468447711999886
 30
0.0
 11
-16.14585212578505
 21
0.258706531200005
 31
0.0
  0
LWPOLYLINE
  5
1F37
330
1F
100
AcDbEntity
  8
0
100
AcDbPolyline
 90
        6
 70
     0
 43
0.0
 10
-16.04114589538492
 20
0.1810423807999939
 10
-16.06336891298495
 20
0.1959214287999771
 10
-16.08247844098501
 20
0.2091491615999814
 10
-16.09996106338495
 20
0.2216997871999808
 10
-16.11674050658494
 20
0.2343020047999857
 10
-16.13242102978493
 20
0.2468447711999886
  0
LINE
  5
1F38
330
1F
100
AcDbEntity
  8
0
100
AcDbLine
 10
-16.01527762658498
 20
0.1642867279999791
 30
0.0
 11
-16.04114589538495
 21
0.1810423807999939
 31
0.0
  0
LINE
  5
1F39
330
1F
100
AcDbEntity
  8
0
100
AcDbLine
 10
-15.985875220185
 20
0.1458881471999973
 30
0.0
 11
-16.01527762658498
 21
0.1642867279999791
 31
0.0
  0
LWPOLYLINE
  5
1F3A
330
1F
100
AcDbEntity
  8
0
100
AcDbPolyline
 90
        3
 70
     0
 43
0.0
 10
-15.91756914178493
 20
0.1057046463999995
 10
-15.95312790978503
 20
0.126163281599986
 10
-15.98587522018497
 20
0.1458881471999973
  0
LWPOLYLINE
  5
1F3B
330
1F
100
AcDbEntity
  8
0
100
AcDbPolyline
 90
        3
 70
     0
 43
0.0
 10
-15.69169275458499
 20
0.0204103215999965
 10
-15.63213042978496
 20
0.0097976271999869
 10
-15.57523432898504
 20
0.0033104911999828
  0
LWPOLYLINE
  5
1F3C
330
1F
100
AcDbEntity
  8
0
100
AcDbPolyline
 90
        3
 70
     0
 43
0.0
 10
-16.742477034585
 20
1.276532654399986
 10
-16.64866813378499
 20
1.101716403199986
 10
-16.45002406818501
 20
0.7289369775999717
  0
LWPOLYLINE
  5
1F3D
330
1F
100
AcDbEntity
  8
0
100
AcDbPolyline
 90
        3
 70
     0
 43
0.0
 10
-6.500000252185017
 20
0.0001193839999871
 10
-6.479442748184951
 20
0.0003682063999975
 10
-6.424765869784991
 20
0.0033104719999812
  0
LWPOLYLINE
  5
1F3E
330
1F
100
AcDbEntity
  8
0
100
AcDbPolyline
 90
        3
 70
     0
 43
0.0
 10
-5.228412080984966
 20
1.221877067199983
 10
-5.157228130585039
 20
1.264207391999988
 10
-4.845458218503821
 20
1.389249228300684
  0
LINE
  5
1F3F
330
1F
100
AcDbEntity
  8
0
100
AcDbLine
 10
-5.296453564184972
 20
1.163371127999994
 30
0.0
 11
-5.228412080984995
 21
1.221877067199983
 31
0.0
  0
LINE
  5
1F40
330
1F
100
AcDbEntity
  8
0
100
AcDbLine
 10
-5.354790813785044
 20
1.090780259199988
 30
0.0
 11
-5.296453564184972
 21
1.163371127999994
 31
0.0
  0
LINE
  5
1F41
330
1F
100
AcDbEntity
  8
0
100
AcDbLine
 10
-5.378370061785076
 20
1.05120602079998
 30
0.0
 11
-5.354790813785044
 21
1.090780259199988
 31
0.0
  0
LINE
  5
1F42
330
1F
100
AcDbEntity
  8
0
100
AcDbLine
 10
-5.402848308184971
 20
1.005408942399981
 30
0.0
 11
-5.378375285784969
 21
1.05118930079999
 31
0.0
  0
LINE
  5
1F43
330
1F
100
AcDbEntity
  8
0
100
AcDbLine
 10
-6.247022688985012
 20
0.0354747391999979
 30
0.0
 11
-6.188771837785012
 21
0.0538732031999985
 31
0.0
  0
LINE
  5
1F44
330
1F
100
AcDbEntity
  8
0
100
AcDbLine
 10
-6.161815860185029
 20
0.0649014431999717
 30
0.0
 11
-6.188801228184971
 21
0.0538628719999963
 31
0.0
  0
LINE
  5
1F45
330
1F
100
AcDbEntity
  8
0
100
AcDbLine
 10
-6.128853479385057
 20
0.0808144047999804
 30
0.0
 11
-6.161815860185029
 21
0.0649014431999717
 31
0.0
  0
LINE
  5
1F46
330
1F
100
AcDbEntity
  8
0
100
AcDbLine
 10
-6.092821861784969
 20
0.0999368255999969
 30
0.0
 11
-6.128853479385057
 21
0.0808144047999804
 31
0.0
  0
LINE
  5
1F47
330
1F
100
AcDbEntity
  8
0
100
AcDbLine
 10
-6.056979378584983
 20
0.1202415119999785
 30
0.0
 11
-6.092821861784969
 21
0.0999368255999969
 31
0.0
  0
LWPOLYLINE
  5
1F48
330
1F
100
AcDbEntity
  8
0
100
AcDbPolyline
 90
        3
 70
     0
 43
0.0
 10
-5.993942602584965
 20
0.1584459711999955
 10
-6.023717650584998
 20
0.1400264287999846
 10
-6.056979378584955
 20
0.1202415119999785
  0
LINE
  5
1F49
330
1F
100
AcDbEntity
  8
0
100
AcDbLine
 10
-5.967652156184968
 20
0.1752800623999917
 30
0.0
 11
-5.993942602584994
 21
0.1584459711999955
 31
0.0
  0
LINE
  5
1F4A
330
1F
100
AcDbEntity
  8
0
100
AcDbLine
 10
-5.944632789785046
 20
0.1905071887999838
 30
0.0
 11
-5.967652156184968
 21
0.1752800623999917
 31
0.0
  0
LINE
  5
1F4B
330
1F
100
AcDbEntity
  8
0
100
AcDbLine
 10
-5.924434434585023
 20
0.2043116447999864
 30
0.0
 11
-5.944632789785046
 21
0.1905071887999838
 31
0.0
  0
LINE
  5
1F4C
330
1F
100
AcDbEntity
  8
0
100
AcDbLine
 10
-5.905524284185062
 20
0.21770768639999
 30
0.0
 11
-5.924434434585023
 21
0.2043116447999864
 31
0.0
  0
LWPOLYLINE
  5
1F4D
330
1F
100
AcDbEntity
  8
0
100
AcDbPolyline
 90
        4
 70
     0
 43
0.0
 10
-5.854157890585028
 20
0.2586969823999823
 10
-5.869575304984991
 20
0.2451900863999867
 10
-5.886929960984943
 20
0.2314869359999818
 10
-5.905524284185034
 20
0.21770768639999
  0
LINE
  5
1F4E
330
1F
100
AcDbEntity
  8
0
100
AcDbLine
 10
-5.854150770584979
 20
0.258703751999974
 30
0.0
 11
-5.824479880985009
 21
0.2881881679999765
 31
0.0
  0
LINE
  5
1F4F
330
1F
100
AcDbEntity
  8
0
100
AcDbLine
 10
-5.824479880985009
 20
0.2881881679999765
 30
0.0
 11
-5.772514578585074
 21
0.3468326383999738
 31
0.0
  0
LINE
  5
1F50
330
1F
100
AcDbEntity
  8
0
100
AcDbLine
 10
-5.772514578585074
 20
0.3468326383999738
 30
0.0
 11
-5.724766820184996
 21
0.4107695216000025
 31
0.0
  0
LWPOLYLINE
  5
1F51
330
1F
100
AcDbEntity
  8
0
100
AcDbPolyline
 90
        3
 70
     0
 43
0.0
 10
-5.724766820184967
 20
0.4107695216000025
 10
-5.681983504985041
 20
0.4797136991999765
 10
-5.670385477784961
 20
0.5008640623999839
  0
LINE
  5
1F52
330
1F
100
AcDbEntity
  8
0
100
AcDbLine
 10
-6.308307410585044
 20
0.0204102815999932
 30
0.0
 11
-6.247022688985012
 21
0.0354747391999979
 31
0.0
  0
LWPOLYLINE
  5
1F53
330
1F
100
AcDbEntity
  8
0
100
AcDbPolyline
 90
        3
 70
     0
 43
0.0
 10
-6.424765869784991
 20
0.0033104719999812
 10
-6.367869756184958
 20
0.0097975951999842
 10
-6.308307410585015
 20
0.0204102815999932
  0
LWPOLYLINE
  5
1F54
330
1F
100
AcDbEntity
  8
0
100
AcDbPolyline
 90
        3
 70
     0
 43
0.0
 10
-5.670385477784961
 20
0.5008640623999839
 10
-5.57417551138495
 20
0.6832383743999913
 10
-5.402848308184942
 20
1.005408942399981
  0
ARC
  5
1F59
330
1F
100
AcDbEntity
  8
0
100
AcDbCircle
 10
-34.94690512578496
 20
20.21737059679996
 30
0.0
 40
0.25
100
AcDbArc
 50
90.00995300509989
 51
170.7759458403
  0
ARC
  5
1F5A
330
1F
100
AcDbEntity
  8
0
100
AcDbCircle
 10
-35.37874811458506
 20
19.84999999999998
 30
0.0
 40
0.25
100
AcDbArc
 50
90.0
 51
175.0
  0
ARC
  5
1F5B
330
1F
100
AcDbEntity
  8
0
100
AcDbCircle
 10
-35.37874811458506
 20
20.28749999999998
 30
0.0
 40
0.1875
100
AcDbArc
 50
270.0
 51
350.7759351963999
  0
LINE
  5
1F5D
330
1F
100
AcDbEntity
  8
0
100
AcDbLine
 10
-35.74999998658496
 20
18.47499999999998
 30
0.0
 11
-35.62779678978496
 21
19.87178893599998
 31
0.0
  0
LWPOLYLINE
  5
1F62
330
1F
100
AcDbEntity
  8
0
100
AcDbPolyline
 90
       20
 70
     0
 43
0.0
 10
-14.35251571618503
 20
10.04930256159998
 10
-14.94935952098499
 20
9.913603667199993
 10
-15.47226567618496
 20
9.802861788799987
 10
-15.93591632258493
 20
9.710738758399998
 10
-16.35172721058494
 20
9.632781257599987
 10
-16.72653530338503
 20
9.566157548799992
 10
-17.06753576898494
 20
9.50845616639998
 10
-17.38159259458494
 20
9.457703092799988
 10
-17.67379430498498
 20
9.412489467199989
 10
-17.95286594338493
 20
9.371074228799983
 10
-18.22724904258494
 20
9.332002737599992
 10
-18.50105233218504
 20
9.294610185599992
 10
-18.78016267618498
 20
9.258102124799989
 10
-19.07142883458503
 20
9.221702523199979
 10
-19.37501268578499
 20
9.185573102399985
 10
-19.68995028098503
 20
9.150004755199987
 10
-20.01637426978503
 20
9.115151908799987
 10
-20.35432296098496
 20
9.081181859199986
 10
-20.70395716258495
 20
9.04825187679998
 10
-21.06519221538495
 20
9.016544068799987
  0
LINE
  5
1F63
330
1F
100
AcDbEntity
  8
0
100
AcDbLine
 10
-24.952144410585
 20
9.27541099359999
 30
0.0
 11
-30.183045973604
 21
18.47499999999998
 31
0.0
  0
LWPOLYLINE
  5
1F64
330
1F
100
AcDbEntity
  8
0
100
AcDbPolyline
 90
        8
 70
     0
 43
0.0
 10
-24.95214441058497
 20
9.27541099359999
 10
-24.87961450178498
 20
9.147337681599992
 10
-24.80869835778502
 20
9.018235334399989
 10
-24.74658830658494
 20
8.89253082719999
 10
-24.69831533378497
 20
8.769134675199978
 10
-24.66040138178503
 20
8.641372015999991
 10
-24.62576548578498
 20
8.503031463999988
 10
-24.58950732258493
 20
8.349023465599998
  0
LINE
  5
1F65
330
1F
100
AcDbEntity
  8
0
100
AcDbLine
 10
-23.30033130978496
 20
8.834558699199988
 30
0.0
 11
-23.36066261058501
 21
8.830928806399981
 31
0.0
  0
LWPOLYLINE
  5
1F66
330
1F
100
AcDbEntity
  8
0
100
AcDbPolyline
 90
        4
 70
     0
 43
0.0
 10
-21.44829661538504
 20
8.984297068799989
 10
-21.54676790978497
 20
8.97609883039999
 10
-21.64028957538504
 20
8.968379366399986
 10
-21.72937584738495
 20
8.961025059199982
  0
LWPOLYLINE
  5
1F67
330
1F
100
AcDbEntity
  8
0
100
AcDbPolyline
 90
        5
 70
     0
 43
0.0
 10
-21.72937584738495
 20
8.961025059199982
 10
-21.93936184898494
 20
8.942943323199983
 10
-22.12032153698497
 20
8.926132308799992
 10
-22.27639039458493
 20
8.91101721439999
 10
-22.41177277538496
 20
8.898095383999987
  0
LWPOLYLINE
  5
1F68
330
1F
100
AcDbEntity
  8
0
100
AcDbPolyline
 90
       11
 70
     0
 43
0.0
 10
-22.41177277538496
 20
8.898095383999987
 10
-22.54722309218503
 20
8.88598413439999
 10
-22.65999276418493
 20
8.876618945599986
 10
-22.75511796578495
 20
8.869217979199987
 10
-22.84002382818504
 20
8.863010044799978
 10
-22.92108798018499
 20
8.857427835199985
 10
-23.00046854818502
 20
8.852271444799981
 10
-23.07752956898501
 20
8.847528153599995
 10
-23.15262738978502
 20
8.843098875199984
 10
-23.22662496098494
 20
8.83883673759999
 10
-23.30033130978493
 20
8.834558699199988
  0
LWPOLYLINE
  5
1F69
330
1F
100
AcDbEntity
  8
0
100
AcDbPolyline
 90
        3
 70
     0
 43
0.0
 10
-21.06519063778499
 20
9.016596127999989
 10
-21.32811327138493
 20
8.994389092799991
 10
-21.44829661538504
 20
8.984297068799989
  0
LWPOLYLINE
  5
1F6C
330
1F
100
AcDbEntity
  8
0
100
AcDbPolyline
 90
       13
 70
     0
 43
0.0
 10
-3.793669208984951
 20
15.27409922879999
 10
-4.258890572184995
 20
14.83818873599997
 10
-4.758371548184967
 20
14.40942505279998
 10
-5.295364434585039
 20
13.98719608639999
 10
-5.874123308185048
 20
13.57072930239999
 10
-6.499369672985025
 20
13.15963344799999
 10
-7.176808576984953
 20
12.75362400799998
 10
-7.913233700184932
 20
12.35262772639998
 10
-8.717195911385019
 20
11.95663528159998
 10
-9.596186210584946
 20
11.56719514879998
 10
-10.55070124898496
 20
11.18924616479998
 10
-11.55612675458495
 20
10.83548623839999
 10
-12.545375344985
 20
10.52660911679998
  0
LWPOLYLINE
  5
1F6D
330
1F
100
AcDbEntity
  8
0
100
AcDbPolyline
 90
        4
 70
     0
 43
0.0
 10
-12.545375344985
 20
10.52660911679998
 10
-13.20998610658499
 20
10.33877174719998
 10
-13.81083230818499
 20
10.18149616479999
 10
-14.35251571618503
 20
10.04930256159998
  0
LWPOLYLINE
  5
1F6F
330
1F
100
AcDbEntity
  8
0
  6
HIDDEN
 62
     8
100
AcDbPolyline
 90
       78
 70
     0
 43
0.0
 10
-5.94065422658501
 20
16.21740616319999
 10
-5.943315112985018
 20
16.21830116319998
 10
-5.976801893785008
 20
16.23012739999998
 10
-6.009946893784999
 20
16.24288296639998
 10
-6.042722858584951
 20
16.25656031039999
 10
-6.075102535384971
 20
16.27115188319999
 10
-6.107058672984962
 20
16.28665013279999
 10
-6.137955317784971
 20
16.30272068319999
 10
-6.168388720985021
 20
16.31965143679998
 10
-6.198329074584975
 20
16.33743809279998
 10
-6.227746572184955
 20
16.35607634559998
 10
-6.256611407384966
 20
16.37556189119999
 10
-6.284723503384938
 20
16.39576519839998
 10
-6.31222247778497
 20
16.41679691999999
 10
-6.339070668185044
 20
16.43865262719998
 10
-6.36523040898497
 20
16.46132788639998
 10
-6.390664040985015
 20
16.48481826559998
 10
-6.411489421785049
 20
16.50522789119998
 10
-6.431743178584937
 20
16.52620721119999
 10
-6.451395287385011
 20
16.54775104639998
 10
-6.470415728985003
 20
16.56985421279998
 10
-6.48877448738493
 20
16.59251153279998
 10
-6.506441540185036
 20
16.61571782239998
 10
-6.523431816984938
 20
16.63953437119998
 10
-6.539654546584969
 20
16.66388387999998
 10
-6.55506799138503
 20
16.68875243999998
 10
-6.569630412184991
 20
16.71412614239999
 10
-6.583300072985011
 20
16.73999107679998
 10
-6.596035236184988
 20
16.76633333599998
 10
-6.606747149784936
 20
16.79063823039999
 10
-6.616615087384943
 20
16.81530047039998
 10
-6.625599071384939
 20
16.84029575039998
 10
-6.633659117784972
 20
16.86559976319998
 10
-6.640755244185001
 20
16.89118820319998
 10
-6.646847472984958
 20
16.91703676159998
 10
-6.65129032258504
 20
16.93966205599998
 10
-6.654919402585036
 20
16.96243421439999
 10
-6.65770737698493
 20
16.98532244639999
 10
-6.659626901785017
 20
17.0082959616
 10
-6.66065064098494
 20
17.03132396799998
 10
-6.660751253785051
 20
17.05437567839999
 10
-6.659821490585031
 20
17.07879860159998
 10
-6.657802567385019
 20
17.10315746719999
 10
-6.654673247385048
 20
17.12739618239999
 10
-6.650412296984981
 20
17.15145865279998
 10
-6.644998477784938
 20
17.17528878559998
 10
-6.638773805785021
 20
17.19765393439999
 10
-6.631495421784947
 20
17.21970154239999
 10
-6.623168708184934
 20
17.24137424479998
 10
-6.613799042585
 20
17.26261467679998
 10
-6.603391807385023
 20
17.28336547679998
 10
-6.592045826585021
 20
17.30342311359999
 10
-6.579717028184958
 20
17.32289496639998
 10
-6.566439525784957
 20
17.34173416479998
 10
-6.55224743618497
 20
17.35989383359998
 10
-6.537174876184948
 20
17.37732710559998
 10
-6.523342455384963
 20
17.39190142879999
 10
-6.508901133784988
 20
17.40587390559999
 10
-6.493885490584929
 20
17.41923060319999
 10
-6.478330103385005
 20
17.43195758719998
 10
-6.462269552985034
 20
17.44404092479999
 10
-6.445738418585037
 20
17.45546668159998
 10
-6.42804310178495
 20
17.46666481279999
 10
-6.409911397784966
 20
17.47713766879999
 10
-6.391380645785019
 20
17.48688958399998
 10
-6.372488183385016
 20
17.49592489279999
 10
-6.353271354584975
 20
17.50424793119998
 10
-6.333767496985032
 20
17.51186303679998
 10
-6.309289994585
 20
17.52031506879998
 10
-6.284478871384962
 20
17.52771723999998
 10
-6.259382759385047
 20
17.53409684959999
 10
-6.23405029218496
 20
17.53948120159998
 10
-6.208530103384973
 20
17.54389759519997
 10
-6.182148943384945
 20
17.54745783199999
 10
-6.155658927385033
 20
17.55005680159999
 10
-6.12909817538501
 20
17.55172726239999
 10
-6.10250481218496
 20
17.55250197759998
 10
-6.075916959385025
 20
17.55241370239998
  0
LINE
  5
1F70
330
1F
100
AcDbEntity
  8
0
  6
HIDDEN
 62
     8
100
AcDbLine
 10
-6.075916959385054
 20
17.55241370239998
 30
0.0
 11
-5.357984530585
 21
17.53866567679998
 31
0.0
  0
LWPOLYLINE
  5
1F71
330
1F
100
AcDbEntity
  8
0
  6
HIDDEN
 62
     8
100
AcDbPolyline
 90
       30
 70
     0
 43
0.0
 10
-5.094875375384944
 20
17.45952725919998
 10
-5.096213701785003
 20
17.46031111199998
 10
-5.105063716184972
 20
17.46538695679999
 10
-5.113993608984955
 20
17.47032157759998
 10
-5.123001637785009
 20
17.47511219519998
 10
-5.132086064985045
 20
17.47975603039998
 10
-5.141245149785035
 20
17.48425030719998
 10
-5.150477152984976
 20
17.48859224799999
 10
-5.159780333784951
 20
17.49277907519999
 10
-5.169152952984958
 20
17.49680800959998
 10
-5.178593271384997
 20
17.50067627519999
 10
-5.188144164185004
 20
17.50439790079998
 10
-5.197759444184939
 20
17.50795077279998
 10
-5.20743692258496
 20
17.51133112479999
 10
-5.217174408984973
 20
17.51453518399998
 10
-5.226969714585024
 20
17.51755918079999
 10
-5.236820647384988
 20
17.52039934719999
 10
-5.246725016984996
 20
17.52305191039998
 10
-5.256680636185009
 20
17.52551310399999
 10
-5.266685312985018
 20
17.52777915519999
 10
-5.275707546584939
 20
17.52964425119998
 10
-5.284763786585003
 20
17.53134567359998
 10
-5.293850250585009
 20
17.53288009919998
 10
-5.302963164185015
 20
17.53424419839999
 10
-5.312098748184993
 20
17.53543464479999
 10
-5.321253226584971
 20
17.53644811359998
 10
-5.330422821784949
 20
17.53728127839998
 10
-5.339603754585013
 20
17.53793081119998
 10
-5.348792250584992
 20
17.53839338559998
 10
-5.357984530584971
 20
17.53866567679998
  0
LINE
  5
1F72
330
1F
100
AcDbEntity
  8
0
100
AcDbLine
 10
23.42760519421493
 20
3.369188391999983
 30
0.0
 11
24.58950735261497
 21
8.349023473599984
 31
0.0
  0
LINE
  5
1F73
330
1F
100
AcDbEntity
  8
CENTER
100
AcDbLine
 10
-0.000000000984997
 20
-1.668518839440878
 30
0.0
 11
0.0000000024117099
 21
4.08527154093067
 31
0.0
  0
LWPOLYLINE
  5
1F74
330
1F
100
AcDbEntity
  8
0
100
AcDbPolyline
 90
       14
 70
     0
 43
0.0
 10
16.04977225181507
 20
1.60195363679999
 10
14.74543102941505
 20
1.577095865599986
 10
13.25372783421495
 20
1.548454983999988
 10
11.61262521181505
 20
1.516839534399991
 10
9.98643484221499
 20
1.485559198399982
 10
8.514703239015048
 20
1.457431643199981
 10
7.241531077414961
 20
1.433356715199991
 10
6.153281647014992
 20
1.413068222399985
 10
5.209124541415022
 20
1.395771702399997
 10
4.382323959015039
 20
1.380942763199982
 10
3.658371162214976
 20
1.368284761599994
 10
3.026085039015029
 20
1.357561409599981
 10
2.475157480615067
 20
1.348553724799984
 10
1.99758387261501
 20
1.341083721599986
  0
LWPOLYLINE
  5
1F75
330
1F
100
AcDbEntity
  8
0
100
AcDbPolyline
 90
       25
 70
     0
 43
0.0
 10
0.0000000294150055
 20
1.399357382399983
 10
0.0988486326150593
 20
1.399327083199978
 10
0.1988686742149781
 20
1.399146751999978
 10
0.2996117222150047
 20
1.398723116799985
 10
0.4006445542149919
 20
1.398004308799983
 10
0.5009853590149902
 20
1.396972905599994
 10
0.5997398950149915
 20
1.395637347199993
 10
0.6965834214149851
 20
1.394016231999984
 10
0.7913819446149688
 20
1.392133262399994
 10
0.8840975286150438
 20
1.390013881599998
 10
0.975119992614978
 20
1.387673171199992
 10
1.064973333414982
 20
1.38511781919999
 10
1.154038514215031
 20
1.382353139199977
 10
1.242451515815005
 20
1.379388310399988
 10
1.330108802215036
 20
1.376238710399988
 10
1.416882371814963
 20
1.372919294399991
 10
1.502528341414986
 20
1.369447215999997
 10
1.586364410214983
 20
1.365855115199991
 10
1.66681690301506
 20
1.362214033599997
 10
1.741597951015037
 20
1.358632267199993
 10
1.808891047014995
 20
1.355201902399983
 10
1.86677293021502
 20
1.35202645759999
 10
1.914303882215008
 20
1.349164492799985
 10
1.951338525414954
 20
1.346628606399988
 10
1.977627304615012
 20
1.34443500159999
  0
LINE
  5
1F76
330
1F
100
AcDbEntity
  8
0
100
AcDbLine
 10
-1.271446594584986
 20
0.8187499999999943
 30
0.0
 11
1.271446623014966
 21
0.8187499999999943
 31
0.0
  0
ARC
  5
1F77
330
1F
100
AcDbEntity
  8
0
100
AcDbCircle
 10
-1.271446594584986
 20
1.099999999999994
 30
0.0
 40
0.28125
100
AcDbArc
 50
225.0
 51
270.0
  0
LWPOLYLINE
  5
1F78
330
1F
100
AcDbEntity
  8
0
100
AcDbPolyline
 90
        3
 70
     0
 43
0.0
 10
-1.99758944578501
 20
1.341083313599995
 10
-1.993083848984937
 20
1.342586367999984
 10
-1.977629184985048
 20
1.344434817599989
  0
LINE
  5
1F79
330
1F
100
AcDbEntity
  8
0
100
AcDbLine
 10
-1.997562903384974
 20
1.341059459199982
 30
0.0
 11
-1.99758384578503
 21
1.341083721599986
 31
0.0
  0
LINE
  5
1F7A
330
1F
100
AcDbEntity
  8
0
100
AcDbLine
 10
-1.846218879385006
 20
1.277024719999985
 30
0.0
 11
-1.846240879385064
 21
1.27704796639999
 31
0.0
  0
LINE
  5
1F7B
330
1F
100
AcDbEntity
  8
0
100
AcDbLine
 10
-1.470320376985014
 20
0.9011262175999945
 30
0.0
 11
-1.846218879385006
 21
1.277024719999985
 31
0.0
  0
LINE
  5
1F7C
330
1F
100
AcDbEntity
  8
0
100
AcDbLine
 10
-1.846240847385061
 20
1.277047971199991
 30
0.0
 11
-1.867313253785042
 21
1.295574703999989
 31
0.0
  0
LINE
  5
1F7D
330
1F
100
AcDbEntity
  8
0
100
AcDbLine
 10
-1.867313253785042
 20
1.295574703999989
 30
0.0
 11
-1.890584154584999
 21
1.311251319999996
 31
0.0
  0
LINE
  5
1F7E
330
1F
100
AcDbEntity
  8
0
100
AcDbLine
 10
-1.890584154584999
 20
1.311251319999996
 30
0.0
 11
-1.915670628185026
 21
1.323819860799986
 31
0.0
  0
LINE
  5
1F7F
330
1F
100
AcDbEntity
  8
0
100
AcDbLine
 10
-1.915670628185026
 20
1.323819860799986
 30
0.0
 11
-1.942159872985044
 21
1.333073510399998
 31
0.0
  0
LINE
  5
1F80
330
1F
100
AcDbEntity
  8
0
100
AcDbLine
 10
-1.969616010585028
 20
1.338859999999982
 30
0.0
 11
-1.997587079384985
 21
1.34108394079999
 31
0.0
  0
LWPOLYLINE
  5
1F81
330
1F
100
AcDbEntity
  8
0
100
AcDbPolyline
 90
       25
 70
     0
 43
0.0
 10
-1.977629184985048
 20
1.344434817599989
 10
-1.951340853785026
 20
1.346628430399988
 10
-1.914306805785017
 20
1.349164305599998
 10
-1.866775887384946
 20
1.35202628639999
 10
-1.808893764184958
 20
1.355201756799985
 10
-1.741607698584957
 20
1.358631783999982
 10
-1.666835183385032
 20
1.362213182399983
 10
-1.586383852184994
 20
1.365854257599991
 10
-1.502547178585004
 20
1.369446428799989
 10
-1.416902237785038
 20
1.372918510399983
 10
-1.330130228184984
 20
1.376237915199993
 10
-1.242476248984971
 20
1.379387451199988
 10
-1.15406708418503
 20
1.382352214399986
 10
-1.065001693784992
 20
1.385116974399991
 10
-0.975145053784999
 20
1.387672491199992
 10
-0.884121308185044
 20
1.390013303999978
 10
-0.7914049753850208
 20
1.392132769599982
 10
-0.6966030921849864
 20
1.394015870399982
 10
-0.5997561897849977
 20
1.395637099199987
 10
-0.5009991593849322
 20
1.396972740799981
 10
-0.400659386584934
 20
1.398004179199986
 10
-0.2996298665850503
 20
1.39872301439999
 10
-0.1988856041849516
 20
1.399146703999988
 10
-0.0988591833849881
 20
1.399327073599991
 10
-0.0000000009849686
 20
1.399357382399983
  0
LINE
  5
1F82
330
1F
100
AcDbEntity
  8
0
100
AcDbLine
 10
-1.942159872985044
 20
1.333073510399998
 30
0.0
 11
-1.969616010585028
 21
1.338859999999982
 31
0.0
  0
ARC
  5
1F83
330
1F
100
AcDbEntity
  8
0
100
AcDbCircle
 10
1.271446623014966
 20
1.099999999999994
 30
0.0
 40
0.28125
100
AcDbArc
 50
270.0
 51
314.9999999999999
  0
LWPOLYLINE
  5
1F84
330
1F
100
AcDbEntity
  8
0
100
AcDbPolyline
 90
       16
 70
     0
 43
0.0
 10
1.846219015014995
 20
1.277024828799994
 10
1.853472231014976
 20
1.283952009599985
 10
1.869644707815055
 20
1.297334436799985
 10
1.886361579815016
 20
1.308690745599989
 10
1.90318479581505
 20
1.318014599999997
 10
1.919647357415001
 20
1.325371655999987
 10
1.935090848615018
 20
1.330847497599989
 10
1.948705632614988
 20
1.334612926399984
 10
1.959947261414995
 20
1.337005220799994
 10
1.968839547815051
 20
1.338446958399998
 10
1.975790909414982
 20
1.339295273599987
 10
1.98108221021495
 20
1.339771559999988
 10
1.984905271015023
 20
1.340018043199989
 10
1.987422194215028
 20
1.340129643199986
 10
1.988805111015054
 20
1.340169430399981
 10
1.988903464614978
 20
1.340171455999978
  0
LINE
  5
1F85
330
1F
100
AcDbEntity
  8
0
100
AcDbLine
 10
1.470320405414994
 20
0.9011262175999945
 30
0.0
 11
1.846218907814986
 21
1.277024719999985
 31
0.0
  0
LINE
  5
1F86
330
1F
100
AcDbEntity
  8
0
100
AcDbLine
 10
1.846240906215015
 20
1.27704796639999
 30
0.0
 11
1.846218907814986
 21
1.277024719999985
 31
0.0
  0
LINE
  5
1F87
330
1F
100
AcDbEntity
  8
0
100
AcDbLine
 10
1.997583872614981
 20
1.341083721599986
 30
0.0
 11
1.997562930215039
 21
1.341059459199982
 31
0.0
  0
LWPOLYLINE
  5
1F88
330
1F
100
AcDbEntity
  8
0
100
AcDbPolyline
 90
        3
 70
     0
 43
0.0
 10
1.977627304615012
 20
1.34443500159999
 10
1.993083165415001
 20
1.342586486399994
 10
1.997589474215047
 20
1.341083313599995
  0
LWPOLYLINE
  5
1F89
330
1F
100
AcDbEntity
  8
0
100
AcDbPolyline
 90
        3
 70
     0
 43
0.0
 10
1.997562930215067
 20
1.341059459199982
 10
1.995447656614956
 20
1.34047542399999
 10
1.989109168614973
 20
1.340174043199994
  0
LINE
  5
1F8A
330
1F
100
AcDbEntity
  8
0
100
AcDbLine
 10
5.378375195814996
 20
1.05118952319998
 30
0.0
 11
5.40284833821498
 21
1.00540893599998
 31
0.0
  0
LWPOLYLINE
  5
1F8B
330
1F
100
AcDbEntity
  8
0
100
AcDbPolyline
 90
        6
 70
     0
 43
0.0
 10
5.114154856614973
 20
1.282686460799993
 10
5.178780331815019
 20
1.25305901279998
 10
5.240291141415028
 20
1.213128361599984
 10
5.297820552615021
 20
1.161956907199993
 10
5.350122298214969
 20
1.097724291199995
 10
5.378370541415065
 20
1.051204969599979
  0
LINE
  5
1F8C
330
1F
100
AcDbEntity
  8
0
100
AcDbLine
 10
4.760469997945833
 20
1.387724936240744
 30
0.0
 11
5.114154856614945
 21
1.282686460799993
 31
0.0
  0
LINE
  5
1F8D
330
1F
100
AcDbEntity
  8
0
100
AcDbLine
 10
5.574175541414987
 20
0.683238371199991
 30
0.0
 11
5.67025694141499
 21
0.5012776223999822
 31
0.0
  0
LINE
  5
1F8E
330
1F
100
AcDbEntity
  8
0
100
AcDbLine
 10
5.67025694141499
 20
0.5012776223999822
 30
0.0
 11
5.681983531815021
 21
0.4797136991999765
 31
0.0
  0
LINE
  5
1F8F
330
1F
100
AcDbEntity
  8
0
100
AcDbLine
 10
5.681983531815021
 20
0.4797136991999765
 30
0.0
 11
5.724766848614976
 21
0.4107695216000025
 31
0.0
  0
LINE
  5
1F90
330
1F
100
AcDbEntity
  8
0
100
AcDbLine
 10
5.724766848614976
 20
0.4107695216000025
 30
0.0
 11
5.77251460701494
 21
0.3468326383999738
 31
0.0
  0
LINE
  5
1F91
330
1F
100
AcDbEntity
  8
0
100
AcDbLine
 10
5.77251460701494
 20
0.3468326383999738
 30
0.0
 11
5.824479909414989
 21
0.2881881679999765
 31
0.0
  0
LINE
  5
1F92
330
1F
100
AcDbEntity
  8
0
100
AcDbLine
 10
5.824479909414989
 20
0.2881881679999765
 30
0.0
 11
5.854150970214945
 21
0.2587035887999889
 31
0.0
  0
LINE
  5
1F93
330
1F
100
AcDbEntity
  8
0
100
AcDbLine
 10
5.867578967014978
 20
0.2468447727999887
 30
0.0
 11
5.854147874214945
 21
0.258706531200005
 31
0.0
  0
LWPOLYLINE
  5
1F94
330
1F
100
AcDbEntity
  8
0
100
AcDbPolyline
 90
        6
 70
     0
 43
0.0
 10
5.95885410461507
 20
0.1810423807999939
 10
5.936631088615072
 20
0.1959214272000054
 10
5.917521559014986
 20
0.2091491615999814
 10
5.900038930215046
 20
0.2216997903999811
 10
5.883259487015052
 20
0.234302007999986
 10
5.867578967015006
 20
0.2468447727999887
  0
LINE
  5
1F95
330
1F
100
AcDbEntity
  8
0
100
AcDbLine
 10
5.984722375015039
 20
0.164286726399979
 30
0.0
 11
5.958854104615042
 21
0.1810423807999939
 31
0.0
  0
LINE
  5
1F96
330
1F
100
AcDbEntity
  8
0
100
AcDbLine
 10
6.014124783014935
 20
0.1458881455999972
 30
0.0
 11
5.984722375015039
 21
0.164286726399979
 31
0.0
  0
LWPOLYLINE
  5
1F97
330
1F
100
AcDbEntity
  8
0
100
AcDbPolyline
 90
        3
 70
     0
 43
0.0
 10
6.082430864614948
 20
0.1057046431999993
 10
6.046872095015046
 20
0.1261632783999858
 10
6.014124783014963
 20
0.1458881455999972
  0
LINE
  5
1F98
330
1F
100
AcDbEntity
  8
0
100
AcDbLine
 10
6.119550504614934
 20
0.0856071423999936
 30
0.0
 11
6.08243086461492
 21
0.1057046431999993
 31
0.0
  0
LINE
  5
1F99
330
1F
100
AcDbEntity
  8
0
100
AcDbLine
 10
6.156169290214947
 20
0.0674844463999875
 30
0.0
 11
6.119550504614934
 21
0.0856071423999936
 31
0.0
  0
LINE
  5
1F9A
330
1F
100
AcDbEntity
  8
0
100
AcDbLine
 10
6.188724575015029
 20
0.0538898255999811
 30
0.0
 11
6.156169290214947
 21
0.0674844463999875
 31
0.0
  0
LINE
  5
1F9B
330
1F
100
AcDbEntity
  8
0
100
AcDbLine
 10
6.18876952541494
 20
0.0538740255999812
 30
0.0
 11
6.247022717414992
 21
0.0354747391999979
 31
0.0
  0
LINE
  5
1F9C
330
1F
100
AcDbEntity
  8
0
100
AcDbLine
 10
6.247022717414992
 20
0.0354747391999979
 30
0.0
 11
6.308307439015024
 21
0.0204102815999932
 31
0.0
  0
LWPOLYLINE
  5
1F9D
330
1F
100
AcDbEntity
  8
0
100
AcDbPolyline
 90
        3
 70
     0
 43
0.0
 10
6.308307439015052
 20
0.0204102815999932
 10
6.367869784614995
 20
0.0097975951999842
 10
6.424765898215028
 20
0.0033104719999812
  0
LWPOLYLINE
  5
1F9E
330
1F
100
AcDbEntity
  8
0
100
AcDbPolyline
 90
        3
 70
     0
 43
0.0
 10
6.424765898215028
 20
0.0033104719999812
 10
6.479442776614988
 20
0.0003682063999975
 10
6.500000280615054
 20
0.0001193839999871
  0
LINE
  5
1F9F
330
1F
100
AcDbEntity
  8
0
100
AcDbLine
 10
5.40284833821498
 20
1.00540893599998
 30
0.0
 11
5.574175541414987
 21
0.683238371199991
 31
0.0
  0
LWPOLYLINE
  5
1FA0
330
1F
100
AcDbEntity
  8
0
100
AcDbPolyline
 90
        9
 70
     0
 43
0.0
 10
18.07627651421502
 20
1.642833859199981
 10
18.43409453021503
 20
1.651368390399994
 10
18.775881995815
 20
1.660015982399983
 10
19.09314320061504
 20
1.668551292799989
 10
19.38577267101506
 20
1.676944612799985
 10
19.653759256615
 20
1.685168612799998
 10
19.89719737341501
 20
1.693199721599995
 10
20.11634958461503
 20
1.701021633599992
 10
20.30704557501498
 20
1.708439398399988
  0
LWPOLYLINE
  5
1FA1
330
1F
100
AcDbEntity
  8
0
100
AcDbPolyline
 90
        3
 70
     0
 43
0.0
 10
16.76418861501498
 20
1.313120094399991
 10
16.820312402215
 20
1.384095415999979
 10
16.88573476381499
 20
1.441886790399991
  0
LINE
  5
1FA2
330
1F
100
AcDbEntity
  8
0
100
AcDbLine
 10
16.74247338141502
 20
1.276549979199984
 30
0.0
 11
16.76418861501495
 21
1.313120094399991
 31
0.0
  0
LINE
  5
1FA3
330
1F
100
AcDbEntity
  8
0
100
AcDbLine
 10
16.64866816541494
 20
1.101716406399987
 30
0.0
 11
16.74247706941501
 21
1.276532667199987
 31
0.0
  0
LINE
  5
1FA4
330
1F
100
AcDbEntity
  8
0
100
AcDbLine
 10
16.88573476381496
 20
1.441886790399991
 30
0.0
 11
17.17896770012735
 21
1.623397717177823
 31
0.0
  0
LINE
  5
1FA5
330
1F
100
AcDbEntity
  8
0
100
AcDbLine
 10
16.95500262941503
 20
1.484763537599988
 30
0.0
 11
17.021277696615
 21
1.512785081599986
 31
0.0
  0
LWPOLYLINE
  5
1FA6
330
1F
100
AcDbEntity
  8
0
100
AcDbPolyline
 90
        5
 70
     0
 43
0.0
 10
16.04977225181507
 20
1.60195363679999
 10
16.22834080861504
 20
1.605138908799986
 10
16.40505656861502
 20
1.608360267199998
 10
16.58199312701505
 20
1.611657743999984
 10
16.85192835101499
 20
1.616834441599991
  0
LWPOLYLINE
  5
1FA7
330
1F
100
AcDbEntity
  8
0
100
AcDbPolyline
 90
        4
 70
     0
 43
0.0
 10
16.85192835101499
 20
1.616834441599991
 10
17.28023454461505
 20
1.625430017599995
 10
17.69128073021501
 20
1.634165783999989
 10
18.07627717661502
 20
1.642833875199983
  0
LINE
  5
1FA8
330
1F
100
AcDbEntity
  8
0
100
AcDbLine
 10
16.094475834215
 20
0.2177077711999971
 30
0.0
 11
16.07556570941504
 21
0.2043117439999946
 31
0.0
  0
LWPOLYLINE
  5
1FA9
330
1F
100
AcDbEntity
  8
0
100
AcDbPolyline
 90
        4
 70
     0
 43
0.0
 10
16.14584210941497
 20
0.2586969823999823
 10
16.13042475101498
 20
0.2451901327999906
 10
16.11307012701503
 20
0.2314870031999874
 10
16.09447583421503
 20
0.2177077711999971
  0
LINE
  5
1FAA
330
1F
100
AcDbEntity
  8
0
100
AcDbLine
 10
16.14584905821492
 20
0.2587035887999889
 30
0.0
 11
16.17552011901499
 21
0.2881881679999765
 31
0.0
  0
LINE
  5
1FAB
330
1F
100
AcDbEntity
  8
0
100
AcDbLine
 10
16.17552016381499
 20
0.2881882143999803
 30
0.0
 11
16.22748545181501
 21
0.346832676799977
 31
0.0
  0
LINE
  5
1FAC
330
1F
100
AcDbEntity
  8
0
100
AcDbLine
 10
16.22748545181501
 20
0.346832676799977
 30
0.0
 11
16.27523320061503
 21
0.4107695519999766
 31
0.0
  0
LWPOLYLINE
  5
1FAD
330
1F
100
AcDbEntity
  8
0
100
AcDbPolyline
 90
        3
 70
     0
 43
0.0
 10
16.27523320061506
 20
0.4107695519999766
 10
16.31801650621504
 20
0.479713718399978
 10
16.32961395901499
 20
0.5008629919999806
  0
LINE
  5
1FAE
330
1F
100
AcDbEntity
  8
0
100
AcDbLine
 10
15.83818416221502
 20
0.0649014527999725
 30
0.0
 11
15.81119877181502
 21
0.0538628735999964
 31
0.0
  0
LINE
  5
1FAF
330
1F
100
AcDbEntity
  8
0
100
AcDbLine
 10
15.871146555815
 20
0.0808144223999818
 30
0.0
 11
15.83818416221502
 21
0.0649014527999725
 31
0.0
  0
LINE
  5
1FB0
330
1F
100
AcDbEntity
  8
0
100
AcDbLine
 10
15.90717819901497
 20
0.0999368591999996
 30
0.0
 11
15.871146555815
 21
0.0808144223999818
 31
0.0
  0
LINE
  5
1FB1
330
1F
100
AcDbEntity
  8
0
100
AcDbLine
 10
15.94302071101502
 20
0.1202415647999828
 30
0.0
 11
15.90717819901497
 21
0.0999368591999996
 31
0.0
  0
LWPOLYLINE
  5
1FB2
330
1F
100
AcDbEntity
  8
0
100
AcDbPolyline
 90
        3
 70
     0
 43
0.0
 10
16.00605753821504
 20
0.1584460607999745
 10
15.97628246781506
 20
0.1400265007999906
 10
15.94302071101505
 20
0.1202415647999828
  0
LINE
  5
1FB3
330
1F
100
AcDbEntity
  8
0
100
AcDbLine
 10
16.03234799901495
 20
0.1752801615999715
 30
0.0
 11
16.00605753821501
 21
0.1584460607999745
 31
0.0
  0
LINE
  5
1FB4
330
1F
100
AcDbEntity
  8
0
100
AcDbLine
 10
16.05536736701502
 20
0.1905072943999926
 30
0.0
 11
16.03234799901495
 21
0.1752801615999715
 31
0.0
  0
LINE
  5
1FB5
330
1F
100
AcDbEntity
  8
0
100
AcDbLine
 10
16.07556570941504
 20
0.2043117439999946
 30
0.0
 11
16.05536736701502
 21
0.1905072943999926
 31
0.0
  0
LINE
  5
1FB6
330
1F
100
AcDbEntity
  8
0
100
AcDbLine
 10
15.75297748061494
 20
0.0354747871999734
 30
0.0
 11
15.81122816381501
 21
0.0538732031999985
 31
0.0
  0
LWPOLYLINE
  5
1FB7
330
1F
100
AcDbEntity
  8
0
100
AcDbPolyline
 90
        3
 70
     0
 43
0.0
 10
15.49999974941501
 20
0.0001193839999871
 10
15.52055749181501
 20
0.000368212799998
 10
15.57523435741497
 20
0.0033104911999828
  0
LWPOLYLINE
  5
1FB8
330
1F
100
AcDbEntity
  8
0
100
AcDbPolyline
 90
        3
 70
     0
 43
0.0
 10
15.57523435741497
 20
0.0033104911999828
 10
15.632130458215
 20
0.0097976271999869
 10
15.691692781415
 20
0.0204103215999965
  0
LINE
  5
1FB9
330
1F
100
AcDbEntity
  8
0
100
AcDbLine
 10
15.69169278141497
 20
0.0204103215999965
 30
0.0
 11
15.75297748061494
 21
0.0354747871999734
 31
0.0
  0
LWPOLYLINE
  5
1FBA
330
1F
100
AcDbEntity
  8
0
100
AcDbPolyline
 90
        3
 70
     0
 43
0.0
 10
16.32961395901499
 20
0.5008629919999806
 10
16.45002409661505
 20
0.7289369792000003
 10
16.64866816541497
 20
1.101716406399987
  0
LWPOLYLINE
  5
1FBB
330
1F
100
AcDbEntity
  8
0
100
AcDbPolyline
 90
       46
 70
     0
 43
0.0
 10
20.41722503741495
 20
1.713031123199982
 10
20.51648431741502
 20
1.717350121599992
 10
20.61006811261496
 20
1.721599756799989
 10
20.69821169021499
 20
1.725779911999978
 10
20.781152474215
 20
1.72989111519999
 10
20.85914921341499
 20
1.733935743999978
 10
20.93245076541497
 20
1.737916699199985
 10
21.001306431015
 20
1.741837833599987
 10
21.06597570461498
 20
1.745704622399983
 10
21.12672184541499
 20
1.749523969599991
 10
21.18381701821501
 20
1.753304862399986
 10
21.23754044061503
 20
1.757058694399987
 10
21.28818429341505
 20
1.760799910399981
 10
21.33605119421499
 20
1.764546491199979
 10
21.38141803581505
 20
1.768317756799987
 10
21.42457661021502
 20
1.772137838399984
 10
21.46584882301501
 20
1.776038065599991
 10
21.50561400541506
 20
1.780061630399984
 10
21.54433431581505
 20
1.784269721599997
 10
21.58252297821503
 20
1.78874292319999
 10
21.62076944541503
 20
1.793589993599994
 10
21.65975749981499
 20
1.79895910079999
 10
21.700166776615
 20
1.805034934399998
 10
21.742487552615
 20
1.812015655999985
 10
21.78719667101496
 20
1.820140702399982
 10
21.83464881021497
 20
1.82967512639999
 10
21.884903239015
 20
1.840864932799988
 10
21.93774936221497
 20
1.853914249599995
 10
21.99321047901504
 20
1.869094721599992
 10
22.05154713661501
 20
1.886779431999997
 10
22.11375430781505
 20
1.907663031999987
 10
22.18270251901505
 20
1.933364438399991
 10
22.26078182781499
 20
1.965879116799982
 10
22.34638280541504
 20
2.005938303999982
 10
22.43676862621499
 20
2.053607425599977
 10
22.53028037981495
 20
2.109232303999988
 10
22.62545968221503
 20
2.173112404799979
 10
22.72076131581504
 20
2.245310980799985
 10
22.81504701021505
 20
2.326021030399985
 10
22.90818103901507
 20
2.416363444799998
 10
22.99988238621496
 20
2.517754091199989
 10
23.08940908061505
 20
2.631653822399982
 10
23.17452756861497
 20
2.757907292799984
 10
23.25219562461497
 20
2.894442439999991
 10
23.31994827741506
 20
3.038555446399982
 10
23.34168465021504
 20
3.092018779199989
  0
LINE
  5
1FBC
330
1F
100
AcDbEntity
  8
0
100
AcDbLine
 10
20.307005979815
 20
1.708437785599983
 30
0.0
 11
20.41722503741492
 21
1.713031123199982
 31
0.0
  0
LINE
  5
1FBD
330
1F
100
AcDbEntity
  8
0
100
AcDbLine
 10
23.42746240541497
 20
3.368748415999988
 30
0.0
 11
23.42750129341503
 21
3.368847004799988
 31
0.0
  0
LINE
  5
1FBE
330
1F
100
AcDbEntity
  8
0
100
AcDbLine
 10
23.34178883581499
 20
3.092285886399992
 30
0.0
 11
23.34168465021501
 21
3.092018779199989
 31
0.0
  0
LWPOLYLINE
  5
1FBF
330
1F
100
AcDbEntity
  8
0
100
AcDbPolyline
 90
        3
 70
     0
 43
0.0
 10
23.34178883581502
 20
3.092285886399992
 10
23.36122050781502
 20
3.14419206239998
 10
23.36356012221496
 20
3.150745951999994
  0
LINE
  5
1FC0
330
1F
100
AcDbEntity
  8
0
100
AcDbLine
 10
23.385401323815
 20
3.215738215999991
 30
0.0
 11
23.34178883581499
 21
3.092285886399992
 31
0.0
  0
LWPOLYLINE
  5
1FC1
330
1F
100
AcDbEntity
  8
0
100
AcDbPolyline
 90
        3
 70
     0
 43
0.0
 10
23.363565691815
 20
3.150761641599984
 10
23.40131254781501
 20
3.268265364799987
 10
23.42760508861501
 20
3.369188228799998
  0
LINE
  5
1FC2
330
1F
100
AcDbEntity
  8
0
100
AcDbLine
 10
23.42750129341503
 20
3.368847004799988
 30
0.0
 11
23.42760518781504
 21
3.369188366399981
 31
0.0
  0
LINE
  5
1FC3
330
1F
100
AcDbEntity
  8
0
100
AcDbLine
 10
23.42746271581494
 20
3.36874930239999
 30
0.0
 11
23.385401323815
 21
3.215738215999991
 31
0.0
  0
LINE
  5
1FC5
330
1F
100
AcDbEntity
  8
0
100
AcDbLine
 10
24.95214443901498
 20
9.27541099359999
 30
0.0
 11
30.18304600177833
 21
18.47499999999998
 31
0.0
  0
LWPOLYLINE
  5
1FC7
330
1F
100
AcDbEntity
  8
0
100
AcDbPolyline
 90
       13
 70
     0
 43
0.0
 10
3.793669235815073
 20
15.27409922879999
 10
4.258890599015003
 20
14.83818873599997
 10
4.758371576615004
 20
14.40942505279998
 10
5.295364463014962
 20
13.98719608639999
 10
5.874123336614971
 20
13.57072930239999
 10
6.499369701414948
 20
13.15963344799999
 10
7.17680860541499
 20
12.75362400799998
 10
7.913233727015054
 20
12.35262772639998
 10
8.717195939815056
 20
11.95663528159998
 10
9.596186239014983
 20
11.56719514879998
 10
10.550701277415
 20
11.18924616479998
 10
11.55612678301498
 20
10.83548623839999
 10
12.54537537341504
 20
10.52660911679998
  0
LWPOLYLINE
  5
1FC8
330
1F
100
AcDbEntity
  8
0
  6
HIDDEN
 62
     8
100
AcDbPolyline
 90
       27
 70
     0
 43
0.0
 10
5.93923730781502
 20
16.21740616319999
 10
5.799344557415011
 20
16.16115550879999
 10
5.658251581415029
 20
16.10874223199999
 10
5.516057715815023
 20
16.05991187359998
 10
5.372862301415025
 20
16.01440997599999
 10
5.228764672614957
 20
15.97198208159999
 10
5.08386416861505
 20
15.93237373119998
 10
4.922417895014987
 20
15.89145328959998
 10
4.760242389415012
 20
15.85333835679998
 10
4.597472976615009
 20
15.81768229919998
 10
4.434244975014976
 20
15.78413847839999
 10
4.203057589415053
 20
15.73981457919998
 10
3.971272026215061
 20
15.69887455999998
 10
3.738935370215031
 20
15.66117802879998
 10
3.506094701415022
 20
15.62658459519998
 10
3.272797104614951
 20
15.59495386879999
 10
3.03908965981499
 20
15.56614546079998
 10
2.73615997981507
 20
15.53282951039997
 10
2.43272494941506
 20
15.50369957279998
 10
2.128886563815072
 20
15.47845151839999
 10
1.824746816615075
 20
15.45678122079999
 10
1.52040770621501
 20
15.43838454719998
 10
1.215971227814989
 20
15.42295737279998
 10
0.9115393766150106
 20
15.41019556479999
 10
0.6072141478150713
 20
15.39979499679998
 10
0.3030975366150557
 20
15.39145153919999
 10
-0.0007084601850096
 20
15.38486106239999
  0
LWPOLYLINE
  5
1FC9
330
1F
100
AcDbEntity
  8
0
  6
HIDDEN
 62
     8
100
AcDbPolyline
 90
       30
 70
     0
 43
0.0
 10
5.09300252381503
 20
17.45925893119999
 10
4.998615122215042
 20
17.40602117759999
 10
4.902569728614949
 20
17.35622580959999
 10
4.805007831015032
 20
17.30968301439998
 10
4.706070920615061
 20
17.26620297919998
 10
4.599903160614999
 20
17.22326568959999
 10
4.492518970214987
 20
17.18332772159999
 10
4.384086632614994
 20
17.14616331839998
 10
4.274774434215046
 20
17.11154671999997
 10
4.164750659815027
 20
17.07925216799998
 10
4.015507994215013
 20
17.03902798719998
 10
3.865393303015039
 20
17.00233992799999
 10
3.714522464615029
 20
16.96891227199998
 10
3.563011362214993
 20
16.93846930559999
 10
3.410975874214969
 20
16.91073531199998
 10
3.258531885414996
 20
16.88543457599999
 10
3.060698034214979
 20
16.85587735359999
 10
2.862436815015044
 20
16.82956128959998
 10
2.663811443815021
 20
16.80611039999999
 10
2.464885135015052
 20
16.78514869919999
 10
2.265721104614968
 20
16.76630020799999
 10
2.066382568615054
 20
16.74918893919999
 10
1.794480824615007
 20
16.72817961279999
 10
1.522398787814964
 20
16.70992039199998
 10
1.250162943014984
 20
16.69463224959999
 10
0.9777997718149578
 20
16.68253615839998
 10
0.7053357606149718
 20
16.67385308799998
 10
0.4327973894150006
 20
16.66880401439999
 10
0.2160529430150433
 20
16.66752978879998
 10
-0.0007084601850096
 20
16.66880401439999
  0
LWPOLYLINE
  5
1FCA
330
1F
100
AcDbEntity
  8
0
100
AcDbPolyline
 90
       11
 70
     0
 43
0.0
 10
0.7184190625155367
 20
17.78023999999999
 10
0.7673596646150287
 20
17.74270753119998
 10
0.8443589174149934
 20
17.67204895359998
 10
0.9148047686150135
 20
17.59489019359998
 10
0.9781150278149794
 20
17.51185436959998
 10
1.033748623014972
 20
17.42366029599998
 10
1.08134088061503
 20
17.33088266559998
 10
1.120425325415013
 20
17.23445257919999
 10
1.15080830621504
 20
17.13484751199999
 10
1.172181067815031
 20
17.03303267839999
 10
1.179039745928108
 20
16.97499999999998
  0
LWPOLYLINE
  5
1FCB
330
1F
100
AcDbEntity
  8
0
100
AcDbPolyline
 90
       11
 70
     0
 43
0.0
 10
-1.179040178827321
 20
16.97499999999998
 10
-1.17216415138499
 20
17.03313578239999
 10
-1.150782967384984
 20
17.13494600319998
 10
-1.120392800984959
 20
17.23454424959999
 10
-1.081302120985
 20
17.33096721919999
 10
-1.033701226584966
 20
17.42374332799998
 10
-0.978064319384984
 20
17.51192732639998
 10
-0.9147457481849272
 20
17.59496084
 10
-0.8443002089850182
 20
17.67210777599999
 10
-0.76729317858495
 20
17.74276331839999
 10
-0.7184179947318939
 20
17.78023999999999
  0
LWPOLYLINE
  5
1FCC
330
1F
100
AcDbEntity
  8
0
100
AcDbPolyline
 90
       20
 70
     0
 43
0.0
 10
1.187500013415061
 20
16.84470088159999
 10
1.187348970215012
 20
16.82598267999998
 10
1.181118621414967
 20
16.72300254879999
 10
1.165965851815045
 20
16.62184334879998
 10
1.142289603815029
 20
16.52342311839999
 10
1.110451229415062
 20
16.42817627999998
 10
1.070866346214998
 20
16.33668468959999
 10
1.023746794214972
 20
16.24909097759999
 10
0.9694973558149655
 20
16.16599111039998
 10
0.9082479718149585
 20
16.08756000479999
 10
0.840347469414965
 20
16.01433717759999
 10
0.7660182806149721
 20
15.94671103679999
 10
0.6854737830150413
 20
15.88510902399998
 10
0.5991522278150257
 20
15.83013464799998
 10
0.5074135862149803
 20
15.78230396319997
 10
0.4112819062149953
 20
15.74238229439998
 10
0.3113979254150223
 20
15.71079805919998
 10
0.208950575015038
 20
15.68802756319999
 10
0.1047619478149642
 20
15.67428565119999
 10
0.0000000134150611
 20
15.66970750879998
  0
LWPOLYLINE
  5
1FCD
330
1F
100
AcDbEntity
  8
0
100
AcDbPolyline
 90
       20
 70
     0
 43
0.0
 10
0.0000000134150611
 20
15.66970750879998
 10
-0.1047612329849556
 20
15.67428559199998
 10
-0.2089475065849768
 20
15.68802702719997
 10
-0.3114014185849641
 20
15.71079900479998
 10
-0.4112846681849618
 20
15.74238331359998
 10
-0.5074237289850175
 20
15.78230871679998
 10
-0.5991633945850339
 20
15.83014111839998
 10
-0.6854779369849524
 20
15.88511194879998
 10
-0.7660211961849513
 20
15.94671349439998
 10
-0.8403443257850398
 20
16.0143340928
 10
-0.9082513625850054
 20
16.08756401919998
 10
-0.9694996857849531
 20
16.16599440799999
 10
-1.023753346584939
 20
16.2491020576
 10
-1.070874192984987
 20
16.33670094879998
 10
-1.110459036185019
 20
16.42819674399999
 10
-1.142298504984964
 20
16.52345422879999
 10
-1.165973903384937
 20
16.62188478239998
 10
-1.181125768984983
 20
16.72307082399998
 10
-1.187350231385025
 20
16.82606284639999
 10
-1.187499984985024
 20
16.84470071359999
  0
LWPOLYLINE
  5
1FCE
330
1F
100
AcDbEntity
  8
0
  6
CONTINUOUS
 62
     7
100
AcDbPolyline
 90
        3
 70
     0
 43
0.0
 10
-1.187499984985024
 20
16.84470071359999
 10
-1.184394476185033
 20
16.92973021759999
 10
-1.179040178827321
 20
16.97499999999998
  0
LWPOLYLINE
  5
1FCF
330
1F
100
AcDbEntity
  8
0
  6
CONTINUOUS
 62
     7
100
AcDbPolyline
 90
        3
 70
     0
 43
0.0
 10
1.179039745928108
 20
16.97499999999998
 10
1.184401776615018
 20
16.92963076159998
 10
1.187500013415061
 20
16.84470088159999
  0
LWPOLYLINE
  5
1FD1
330
1F
100
AcDbEntity
  8
0
100
AcDbPolyline
 90
        9
 70
     0
 43
0.0
 10
0.0000000134150611
 20
18.02159417279997
 10
0.1027329702150297
 20
18.01717835199998
 10
0.2052219510150195
 20
18.00387268479998
 10
0.3065409014150333
 20
17.98167644639998
 10
0.4060643910149935
 20
17.95059751359998
 10
0.5027391606149792
 20
17.91084359519999
 10
0.5958778230150444
 20
17.86259367039998
 10
0.6842835926149889
 20
17.80641843679998
 10
0.7184190625155367
 20
17.78023999999999
  0
LWPOLYLINE
  5
1FD3
330
1F
100
AcDbEntity
  8
0
100
AcDbPolyline
 90
        9
 70
     0
 43
0.0
 10
-0.7184179947318939
 20
17.78023999999999
 10
-0.6842138569850107
 20
17.80646716639998
 10
-0.5958036121850086
 20
17.86263634079998
 10
-0.5026705257849784
 20
17.91087538559998
 10
-0.4060112825850269
 20
17.95061666879999
 10
-0.3064967657850133
 20
17.98168813439998
 10
-0.2051934905849606
 20
18.00387763199998
 10
-0.1027140905849677
 20
18.01717997439999
 10
0.0000000134150611
 20
18.02159417279997
  0
LWPOLYLINE
  5
1FD4
330
1F
100
AcDbEntity
  8
0
  6
HIDDEN
 62
     8
100
AcDbPolyline
 90
       78
 70
     0
 43
0.0
 10
5.93923730781502
 20
16.21740616319999
 10
5.941898194215028
 20
16.21830116319998
 10
5.975384975015018
 20
16.23012739999998
 10
6.008529975015008
 20
16.24288296639998
 10
6.041305939814961
 20
16.25656031039999
 10
6.07368561661498
 20
16.27115188319999
 10
6.105641754214971
 20
16.28665013279999
 10
6.13653839901498
 20
16.30272068319999
 10
6.16697180221503
 20
16.31965143679998
 10
6.196912155814985
 20
16.33743809279998
 10
6.226329653414964
 20
16.35607634559998
 10
6.255194488614975
 20
16.37556189119999
 10
6.283306584615061
 20
16.39576519839998
 10
6.31080555901498
 20
16.41679691999999
 10
6.337653747815025
 20
16.43865262719998
 10
6.36381349021498
 20
16.46132788639998
 10
6.389247122215024
 20
16.48481826559998
 10
6.410072503015058
 20
16.50522789119998
 10
6.430326259815061
 20
16.52620721119999
 10
6.44997836861502
 20
16.54775104639998
 10
6.468998810215012
 20
16.56985421279998
 10
6.487357568615053
 20
16.59251153279998
 10
6.505024621415046
 20
16.61571782239998
 10
6.522014898215061
 20
16.63953437119998
 10
6.538237627814979
 20
16.66388387999998
 10
6.553651072615039
 20
16.68875243999998
 10
6.568213493415001
 20
16.71412614239999
 10
6.58188315421502
 20
16.73999107679998
 10
6.594618317414997
 20
16.76633333599998
 10
6.605330231015059
 20
16.79063823039999
 10
6.615198168615066
 20
16.81530047039998
 10
6.624182152615063
 20
16.84029575039998
 10
6.632242199014982
 20
16.86559976319998
 10
6.63933832541501
 20
16.89118820319998
 10
6.645430554214968
 20
16.91703676159998
 10
6.64987340381505
 20
16.93966205599998
 10
6.653502483815046
 20
16.96243421439999
 10
6.656290458215053
 20
16.98532244639999
 10
6.658209983015026
 20
17.0082959616
 10
6.659233722215063
 20
17.03132396799998
 10
6.65933433501506
 20
17.05437567839999
 10
6.65840457181504
 20
17.07879860159998
 10
6.656385647015
 20
17.10315746719999
 10
6.653256328615057
 20
17.12739618239999
 10
6.648995378214991
 20
17.15145865279998
 10
6.643581559015061
 20
17.17528878559998
 10
6.63735688701503
 20
17.19765393439999
 10
6.63007850301507
 20
17.21970154239999
 10
6.621751789415057
 20
17.24137424479998
 10
6.61238212381501
 20
17.26261467679998
 10
6.601974888615032
 20
17.28336547679998
 10
6.59062890781503
 20
17.30342311359999
 10
6.578300109414968
 20
17.32289496639998
 10
6.565022607014967
 20
17.34173416479998
 10
6.550830517414979
 20
17.35989383359998
 10
6.535757957414958
 20
17.37732710559998
 10
6.521925536614972
 20
17.39190142879999
 10
6.507484215014997
 20
17.40587390559999
 10
6.492468571815052
 20
17.41923060319999
 10
6.476913184615014
 20
17.43195758719998
 10
6.460852634215044
 20
17.44404092479999
 10
6.444321499815046
 20
17.45546668159998
 10
6.426626183015073
 20
17.46666481279999
 10
6.408494479014976
 20
17.47713766879999
 10
6.389963725415
 20
17.48688958399998
 10
6.371071264615025
 20
17.49592489279999
 10
6.351854435814985
 20
17.50424793119998
 10
6.332350578215041
 20
17.51186303679998
 10
6.30787307581501
 20
17.52031506879998
 10
6.283061952614971
 20
17.52771723999998
 10
6.257965840615057
 20
17.53409684959999
 10
6.232633373414969
 20
17.53948120159998
 10
6.207113184614982
 20
17.54389759519997
 10
6.180732024615068
 20
17.54745783199999
 10
6.154242008615042
 20
17.55005680159999
 10
6.127681256615019
 20
17.55172726239999
 10
6.10108789341497
 20
17.55250197759998
 10
6.074500040615035
 20
17.55241370239998
  0
LWPOLYLINE
  5
1FD5
330
1F
100
AcDbEntity
  8
0
  6
HIDDEN
 62
     8
100
AcDbPolyline
 90
       30
 70
     0
 43
0.0
 10
5.093458456615067
 20
17.45952725919998
 10
5.094796783015013
 20
17.46031111199998
 10
5.103646797414981
 20
17.46538695679999
 10
5.112576690214964
 20
17.47032157759998
 10
5.121584719015018
 20
17.47511219519998
 10
5.130669146215055
 20
17.47975603039998
 10
5.139828231015044
 20
17.48425030719998
 10
5.149060234214985
 20
17.48859224799999
 10
5.15836341501496
 20
17.49277907519999
 10
5.167736034214968
 20
17.49680800959998
 10
5.177176352615006
 20
17.50067627519999
 10
5.186727245415013
 20
17.50439790079998
 10
5.196342525415062
 20
17.50795077279998
 10
5.20602000381497
 20
17.51133112479999
 10
5.215757490214983
 20
17.51453518399998
 10
5.225552795815033
 20
17.51755918079999
 10
5.235403728614997
 20
17.52039934719999
 10
5.245308098215005
 20
17.52305191039998
 10
5.255263717415019
 20
17.52551310399999
 10
5.265268392614999
 20
17.52777915519999
 10
5.274290627814949
 20
17.52964425119998
 10
5.283346867815012
 20
17.53134567359998
 10
5.292433331815018
 20
17.53288009919998
 10
5.301546245415025
 20
17.53424419839999
 10
5.310681829415003
 20
17.53543464479999
 10
5.319836307814981
 20
17.53644811359998
 10
5.329005903015072
 20
17.53728127839998
 10
5.338186835815022
 20
17.53793081119998
 10
5.347375331815001
 20
17.53839338559998
 10
5.35656761181498
 20
17.53866567679998
  0
LINE
  5
1FD6
330
1F
100
AcDbEntity
  8
0
  6
HIDDEN
 62
     8
100
AcDbLine
 10
6.074500040615006
 20
17.55241370239998
 30
0.0
 11
5.356567611814952
 21
17.53866567679998
 31
0.0
  0
LWPOLYLINE
  5
1FD7
330
1F
100
AcDbEntity
  8
0
100
AcDbPolyline
 90
       20
 70
     0
 43
0.0
 10
14.35251574301504
 20
10.04930256159998
 10
14.949359547815
 20
9.913603667199993
 10
15.47226570461499
 20
9.802861788799987
 10
15.93591635101496
 20
9.710738758399998
 10
16.35172723901497
 20
9.632781257599987
 10
16.72653533181507
 20
9.566157548799992
 10
17.06753579581506
 20
9.50845616639998
 10
17.38159262141495
 20
9.457703092799988
 10
17.67379433341501
 20
9.412489467199989
 10
17.95286597181497
 20
9.371074228799983
 10
18.22724907101498
 20
9.332002737599992
 10
18.50105236061496
 20
9.294610185599992
 10
18.78016270461502
 20
9.258102124799989
 10
19.07142886301495
 20
9.221702523199979
 10
19.37501271421503
 20
9.185573102399985
 10
19.68995030781504
 20
9.150004755199987
 10
20.01637429661504
 20
9.115151908799987
 10
20.35432298941499
 20
9.081181859199986
 10
20.70395719101499
 20
9.04825187679998
 10
21.06519224221507
 20
9.016544068799987
  0
LWPOLYLINE
  5
1FD8
330
1F
100
AcDbEntity
  8
0
100
AcDbPolyline
 90
        4
 70
     0
 43
0.0
 10
12.54537537341504
 20
10.52660911679998
 10
13.20998613501503
 20
10.33877174719998
 10
13.81083233661503
 20
10.18149616479999
 10
14.35251574301504
 20
10.04930256159998
  0
LWPOLYLINE
  5
1FD9
330
1F
100
AcDbEntity
  8
0
100
AcDbPolyline
 90
        8
 70
     0
 43
0.0
 10
24.95214443741498
 20
9.27541099359999
 10
24.87961453021502
 20
9.147337681599992
 10
24.80869838621505
 20
9.018235334399989
 10
24.74658833341506
 20
8.89253082719999
 10
24.69831536221501
 20
8.769134675199978
 10
24.66040141021496
 20
8.641372015999991
 10
24.62576551421502
 20
8.503031463999988
 10
24.58950735101497
 20
8.349023465599998
  0
LWPOLYLINE
  5
1FDA
330
1F
100
AcDbEntity
  8
0
100
AcDbPolyline
 90
        5
 70
     0
 43
0.0
 10
21.72937587581499
 20
8.961025059199982
 10
21.93936187741498
 20
8.942943323199983
 10
22.12032156541501
 20
8.926132308799992
 10
22.27639042301497
 20
8.91101721439999
 10
22.41177280381499
 20
8.898095383999987
  0
LWPOLYLINE
  5
1FDB
330
1F
100
AcDbEntity
  8
0
100
AcDbPolyline
 90
        4
 70
     0
 43
0.0
 10
21.44829664381497
 20
8.984297068799989
 10
21.54676793821501
 20
8.97609883039999
 10
21.64028960381496
 20
8.968379366399986
 10
21.72937587581499
 20
8.961025059199982
  0
LWPOLYLINE
  5
1FDC
330
1F
100
AcDbEntity
  8
0
100
AcDbPolyline
 90
        4
 70
     0
 43
0.0
 10
21.06519066621503
 20
9.016596127999989
 10
21.20025789501507
 20
9.005177857599989
 10
21.32811329981497
 20
8.994389092799991
 10
21.44829664381497
 20
8.984297068799989
  0
LWPOLYLINE
  5
1FDD
330
1F
100
AcDbEntity
  8
0
100
AcDbPolyline
 90
       11
 70
     0
 43
0.0
 10
22.41177280381499
 20
8.898095383999987
 10
22.54722311901504
 20
8.88598413439999
 10
22.65999279261497
 20
8.876618945599986
 10
22.75511799421498
 20
8.869217979199987
 10
22.84002385661507
 20
8.863010044799978
 10
22.92108800861503
 20
8.857427835199985
 10
23.00046857501503
 20
8.852271444799981
 10
23.07752959741505
 20
8.847528153599995
 10
23.15262741661503
 20
8.843098875199984
 10
23.22662498941498
 20
8.83883673759999
 10
23.30033133821497
 20
8.834558699199988
  0
LINE
  5
1FDE
330
1F
100
AcDbEntity
  8
0
100
AcDbLine
 10
23.30033133821494
 20
8.834558699199988
 30
0.0
 11
23.36066263901499
 21
8.830928806399981
 31
0.0
  0
LINE
  5
1FE2
330
1F
100
AcDbEntity
  8
0
  6
HIDDEN
 62
     8
100
AcDbLine
 10
34.93922385341498
 20
20.46725255519997
 30
0.0
 11
31.61494278141502
 21
20.35737604959997
 31
0.0
  0
LINE
  5
1FE6
330
1F
100
AcDbEntity
  8
0
  6
HIDDEN
 62
     8
100
AcDbLine
 10
30.94608434301493
 20
19.880178488
 30
0.0
 11
30.14709752543946
 21
18.47499999999998
 31
0.0
  0
ARC
  5
1FF5
330
1F
100
AcDbEntity
  8
0
  6
HIDDEN
 62
     8
100
AcDbCircle
 10
31.10907804221504
 20
19.78749999999998
 30
0.0
 40
0.1875
100
AcDbArc
 50
89.99979808069985
 51
150.3773680480999
  0
ARC
  5
1FF8
330
1F
100
AcDbEntity
  8
0
  6
HIDDEN
 62
     8
100
AcDbCircle
 10
31.62262427581502
 20
20.10749409119999
 30
0.0
 40
0.25
100
AcDbArc
 50
91.76074600029997
 51
173.9568727945999
  0
ARC
  5
1FF9
330
1F
100
AcDbEntity
  8
0
  6
HIDDEN
 62
     8
100
AcDbCircle
 10
31.19750001341502
 20
20.15249999999999
 30
0.0
 40
0.1775
100
AcDbArc
 50
270.0
 51
353.9568762732999
  0
ARC
  5
2018
330
1F
100
AcDbEntity
  8
0
100
AcDbCircle
 10
35.37874814141501
 20
19.84999999999998
 30
0.0
 40
0.25
100
AcDbArc
 50
4.999999999999981
 51
90.0
  0
ARC
  5
2019
330
1F
100
AcDbEntity
  8
0
100
AcDbCircle
 10
35.37874814141501
 20
20.28749999999998
 30
0.0
 40
0.1875
100
AcDbArc
 50
189.2240587662998
 51
270.0
  0
ARC
  5
201A
330
1F
100
AcDbEntity
  8
0
100
AcDbCircle
 10
34.94690515421506
 20
20.21737059679996
 30
0.0
 40
0.25
100
AcDbArc
 50
9.224054261199977
 51
89.9900797206001
  0
LINE
  5
2020
330
1F
100
AcDbEntity
  8
0
100
AcDbLine
 10
35.62779681661503
 20
19.87178893599998
 30
0.0
 11
35.75000001341503
 21
18.47499999999998
 31
0.0
  0
LINE
  5
205E
330
1F
100
AcDbEntity
  8
CENTER
100
AcDbLine
 10
2.876345024760396
 20
16.84470100106355
 30
0.0
 11
-2.87634499633036
 21
16.84470059413643
 31
0.0
  0
LINE
  5
2060
330
1F
100
AcDbEntity
  8
CENTER
100
AcDbLine
 10
0.0000000082461469
 20
13.96835578705459
 30
0.0
 11
0.0000000116422143
 21
19.72104580814538
 31
0.0
  0
LINE
  5
2062
330
1F
100
AcDbEntity
  8
0
  6
HIDDEN
 62
     8
100
AcDbLine
 10
31.19750001341502
 20
19.97499999999999
 30
0.0
 11
31.10907870299441
 21
19.97499999999881
 31
0.0
  0
LINE
  5
2063
330
1F
100
AcDbEntity
  8
0
100
AcDbLine
 10
-34.94694855396211
 20
20.46737059302795
 30
0.0
 11
34.94694843959941
 21
20.46737059305271
 31
0.0
  0
LINE
  5
2064
330
1F
100
AcDbEntity
  8
0
  6
HIDDEN
 62
     8
100
AcDbLine
 10
-30.9460843197305
 20
19.880178488
 30
0.0
 11
-30.14709750215503
 21
18.47499999999998
 31
0.0
  0
ARC
  5
2065
330
1F
100
AcDbEntity
  8
0
  6
HIDDEN
 62
     8
100
AcDbCircle
 10
-31.19749999013059
 20
20.15249999999999
 30
0.0
 40
0.1775
100
AcDbArc
 50
186.0431237267
 51
270.0
  0
LINE
  5
2066
330
1F
100
AcDbEntity
  8
0
  6
HIDDEN
 62
     8
100
AcDbLine
 10
-31.19749999013059
 20
19.97499999999999
 30
0.0
 11
-31.10907867970998
 21
19.97499999999881
 31
0.0
  0
ARC
  5
2067
330
1F
100
AcDbEntity
  8
0
  6
HIDDEN
 62
     8
100
AcDbCircle
 10
-31.10907801893061
 20
19.78749999999998
 30
0.0
 40
0.1875
100
AcDbArc
 50
29.62263195190003
 51
90.00020191930017
  0
ARC
  5
2068
330
1F
100
AcDbEntity
  8
0
  6
HIDDEN
 62
     8
100
AcDbCircle
 10
-31.6226242525306
 20
20.10749409119999
 30
0.0
 40
0.25
100
AcDbArc
 50
6.043127205400028
 51
88.23925399970004
  0
LINE
  5
2069
330
1F
100
AcDbEntity
  8
0
  6
HIDDEN
 62
     8
100
AcDbLine
 10
-34.93922383013055
 20
20.46725255519997
 30
0.0
 11
-31.61494275813059
 21
20.35737604959997
 31
0.0
  0
ENDSEC
  0
SECTION
  2
OBJECTS
  0
DICTIONARY
  5
C
330
0
100
AcDbDictionary
  3
ACAD_GROUP
350
D
  3
ACAD_LAYOUT
350
1A
  3
ACAD_MLINESTYLE
350
17
  3
ACAD_PLOTSETTINGS
350
19
  3
ACAD_PLOTSTYLENAME
350
E
  3
ACDBHEADERROUNDTRIPXREC
350
2074
  0
DICTIONARY
  5
1C14
330
1F
100
AcDbDictionary
280
     1
  3
ACAD_LAYOUTSELFREF
360
2096
  0
DICTIONARY
  5
1C12
330
1B
100
AcDbDictionary
280
     1
  3
ACAD_LAYOUTSELFREF
360
2095
  0
DICTIONARY
  5
D
102
{ACAD_REACTORS
330
C
102
}
330
C
100
AcDbDictionary
  0
DICTIONARY
  5
1A
102
{ACAD_REACTORS
330
C
102
}
330
C
100
AcDbDictionary
  0
DICTIONARY
  5
17
102
{ACAD_REACTORS
330
C
102
}
330
C
100
AcDbDictionary
  3
STANDARD
350
18
  0
DICTIONARY
  5
19
102
{ACAD_REACTORS
330
C
102
}
330
C
100
AcDbDictionary
  0
ACDBDICTIONARYWDFLT
  5
E
102
{ACAD_REACTORS
330
C
102
}
330
C
100
AcDbDictionary
281
     1
  3
Normal
350
F
100
AcDbDictionaryWithDefault
340
F
  0
DICTIONARY
  5
2074
102
{ACAD_REACTORS
330
C
102
}
330
C
100
AcDbDictionary
  3
CEPSNTYPE
350
207E
  3
DIMSTYLEDATA
350
2082
  3
FINGERPRINTGUID
350
207F
  3
HYPERLINKBASE
350
2077
  3
INSUNITS
350
207D
  3
LAYOUTDICT
350
2079
  3
LWETCUNION
350
207C
  3
PLOTSETDICT
350
207A
  3
PLOTSTYLNAMDICT
350
207B
  3
PSVPSCALE
350
2081
  3
PUCSBASE
350
2085
  3
PUCSORGBACK
350
208B
  3
PUCSORGBOTTOM
350
2087
  3
PUCSORGFRONT
350
208A
  3
PUCSORGLEFT
350
2088
  3
PUCSORGRIGHT
350
2089
  3
PUCSORGTOP
350
2086
  3
PUCSORTHOREF
350
2083
  3
PUCSORTHOVIEW
350
2084
  3
STYLESHEET
350
2078
  3
TSTACKALIGN
350
2075
  3
TSTACKSIZE
350
2076
  3
UCSBASE
350
208E
  3
UCSORGBACK
350
2094
  3
UCSORGBOTTOM
350
2090
  3
UCSORGFRONT
350
2093
  3
UCSORGLEFT
350
2091
  3
UCSORGRIGHT
350
2092
  3
UCSORGTOP
350
208F
  3
UCSORTHOREF
350
208C
  3
UCSORTHOVIEW
350
208D
  3
VERSIONGUID
350
2080
  0
XRECORD
  5
2096
102
{ACAD_REACTORS
330
1C14
102
}
330
1C14
100
AcDbXrecord
340
1F
  0
XRECORD
  5
2095
102
{ACAD_REACTORS
330
1C12
102
}
330
1C12
100
AcDbXrecord
340
1B
  0
MLINESTYLE
  5
18
102
{ACAD_REACTORS
330
17
102
}
330
17
100
AcDbMlineStyle
  2
STANDARD
 70
     0
  3

 62
   256
 51
90.0
 52
90.0
 71
     2
 49
0.5
 62
   256
  6
BYLAYER
 49
-0.5
 62
   256
  6
BYLAYER
  0
ACDBPLACEHOLDER
  5
F
102
{ACAD_REACTORS
330
E
102
}
330
0
100
AcDbPlaceHolder
280
     0
  0
XRECORD
  5
207E
102
{ACAD_REACTORS
330
2074
102
}
330
2074
100
AcDbXrecord
 90
        0
  0
XRECORD
  5
2082
102
{ACAD_REACTORS
330
2074
102
}
330
2074
100
AcDbXrecord
1000
DSTYLE
1002
{
1070
   278
 70
     0
1070
   342
340
220
1070
   371
 70
     0
1070
   372
 70
     0
1002
}
  0
XRECORD
  5
207F
102
{ACAD_REACTORS
330
2074
102
}
330
2074
100
AcDbXrecord
  1

  0
XRECORD
  5
2077
102
{ACAD_REACTORS
330
2074
102
}
330
2074
100
AcDbXrecord
  1

  0
XRECORD
  5
207D
102
{ACAD_REACTORS
330
2074
102
}
330
2074
100
AcDbXrecord
 90
        1
  0
XRECORD
  5
2079
102
{ACAD_REACTORS
330
2074
102
}
330
2074
100
AcDbXrecord
340
1A
  0
XRECORD
  5
207C
102
{ACAD_REACTORS
330
2074
102
}
330
2074
100
AcDbXrecord
 90
    10781
  0
XRECORD
  5
207A
102
{ACAD_REACTORS
330
2074
102
}
330
2074
100
AcDbXrecord
340
19
  0
XRECORD
  5
207B
102
{ACAD_REACTORS
330
2074
102
}
330
2074
100
AcDbXrecord
340
E
  0
XRECORD
  5
2081
102
{ACAD_REACTORS
330
2074
102
}
330
2074
100
AcDbXrecord
 40
0.0
  0
XRECORD
  5
2085
102
{ACAD_REACTORS
330
2074
102
}
330
2074
100
AcDbXrecord
340
0
  0
XRECORD
  5
208B
102
{ACAD_REACTORS
330
2074
102
}
330
2074
100
AcDbXrecord
 10
0.0
 20
0.0
 30
0.0
  0
XRECORD
  5
2087
102
{ACAD_REACTORS
330
2074
102
}
330
2074
100
AcDbXrecord
 10
0.0
 20
0.0
 30
0.0
  0
XRECORD
  5
208A
102
{ACAD_REACTORS
330
2074
102
}
330
2074
100
AcDbXrecord
 10
0.0
 20
0.0
 30
0.0
  0
XRECORD
  5
2088
102
{ACAD_REACTORS
330
2074
102
}
330
2074
100
AcDbXrecord
 10
0.0
 20
0.0
 30
0.0
  0
XRECORD
  5
2089
102
{ACAD_REACTORS
330
2074
102
}
330
2074
100
AcDbXrecord
 10
0.0
 20
0.0
 30
0.0
  0
XRECORD
  5
2086
102
{ACAD_REACTORS
330
2074
102
}
330
2074
100
AcDbXrecord
 10
0.0
 20
0.0
 30
0.0
  0
XRECORD
  5
2083
102
{ACAD_REACTORS
330
2074
102
}
330
2074
100
AcDbXrecord
340
0
  0
XRECORD
  5
2084
102
{ACAD_REACTORS
330
2074
102
}
330
2074
100
AcDbXrecord
 70
     0
  0
XRECORD
  5
2078
102
{ACAD_REACTORS
330
2074
102
}
330
2074
100
AcDbXrecord
  1

  0
XRECORD
  5
2075
102
{ACAD_REACTORS
330
2074
102
}
330
2074
100
AcDbXrecord
 90
        1
  0
XRECORD
  5
2076
102
{ACAD_REACTORS
330
2074
102
}
330
2074
100
AcDbXrecord
 90
       70
  0
XRECORD
  5
208E
102
{ACAD_REACTORS
330
2074
102
}
330
2074
100
AcDbXrecord
340
0
  0
XRECORD
  5
2094
102
{ACAD_REACTORS
330
2074
102
}
330
2074
100
AcDbXrecord
 10
0.0
 20
0.0
 30
0.0
  0
XRECORD
  5
2090
102
{ACAD_REACTORS
330
2074
102
}
330
2074
100
AcDbXrecord
 10
0.0
 20
0.0
 30
0.0
  0
XRECORD
  5
2093
102
{ACAD_REACTORS
330
2074
102
}
330
2074
100
AcDbXrecord
 10
0.0
 20
0.0
 30
0.0
  0
XRECORD
  5
2091
102
{ACAD_REACTORS
330
2074
102
}
330
2074
100
AcDbXrecord
 10
0.0
 20
0.0
 30
0.0
  0
XRECORD
  5
2092
102
{ACAD_REACTORS
330
2074
102
}
330
2074
100
AcDbXrecord
 10
0.0
 20
0.0
 30
0.0
  0
XRECORD
  5
208F
102
{ACAD_REACTORS
330
2074
102
}
330
2074
100
AcDbXrecord
 10
0.0
 20
0.0
 30
0.0
  0
XRECORD
  5
208C
102
{ACAD_REACTORS
330
2074
102
}
330
2074
100
AcDbXrecord
340
0
  0
XRECORD
  5
208D
102
{ACAD_REACTORS
330
2074
102
}
330
2074
100
AcDbXrecord
 70
     0
  0
XRECORD
  5
2080
102
{ACAD_REACTORS
330
2074
102
}
330
2074
100
AcDbXrecord
  1
{C3F3911D-2FD8-4A99-B5AC-186DD3DC5655}
  0
ENDSEC
  0
EOF
