  0
SECTION
  2
HEADER
  9
$ACADVER
  1
AC1014
  9
$ACADMAINTVER
 70
     9
  9
$DWGCODEPAGE
  3
ANSI_1252
  9
$INSBASE
 10
0.0
 20
0.0
 30
0.0
  9
$EXTMIN
 10
0.125
 20
-0.7537907519999863
 30
0.0
  9
$EXTMAX
 10
41.6240555718839
 20
20.51273815941209
 30
0.0
  9
$LIMMIN
 10
0.0
 20
0.0
  9
$LIMMAX
 10
17.0
 20
11.0
  9
$ORTHOMODE
 70
     1
  9
$REGENMODE
 70
     1
  9
$FILLMODE
 70
     1
  9
$QTEXTMODE
 70
     0
  9
$MIRRTEXT
 70
     1
  9
$DRAGMODE
 70
     2
  9
$LTSCALE
 40
0.9350000000000001
  9
$OSMODE
 70
    37
  9
$ATTMODE
 70
     1
  9
$TEXTSIZE
 40
0.2
  9
$TRACEWID
 40
0.05
  9
$TEXTSTYLE
  7
STANDARD
  9
$CLAYER
  8
0
  9
$CELTYPE
  6
BYLAYER
  9
$CECOLOR
 62
   256
  9
$CELTSCALE
 40
1.0
  9
$DELOBJ
 70
     1
  9
$DISPSILH
 70
     0
  9
$DIMSCALE
 40
1.0
  9
$DIMASZ
 40
0.1875
  9
$DIMEXO
 40
0.10625
  9
$DIMDLI
 40
0.646
  9
$DIMRND
 40
0.0
  9
$DIMDLE
 40
0.0
  9
$DIMEXE
 40
0.306
  9
$DIMTP
 40
0.0
  9
$DIMTM
 40
0.0
  9
$DIMTXT
 40
0.125
  9
$DIMCEN
 40
0.153
  9
$DIMTSZ
 40
0.0
  9
$DIMTOL
 70
     0
  9
$DIMLIM
 70
     0
  9
$DIMTIH
 70
     1
  9
$DIMTOH
 70
     1
  9
$DIMSE1
 70
     0
  9
$DIMSE2
 70
     0
  9
$DIMTAD
 70
     0
  9
$DIMZIN
 70
     0
  9
$DIMBLK
  1
_FILLED
  9
$DIMASO
 70
     1
  9
$DIMSHO
 70
     1
  9
$DIMPOST
  1

  9
$DIMAPOST
  1

  9
$DIMALT
 70
     0
  9
$DIMALTD
 70
     2
  9
$DIMALTF
 40
25.4
  9
$DIMLFAC
 40
1.0
  9
$DIMTOFL
 70
     0
  9
$DIMTVP
 40
0.0
  9
$DIMTIX
 70
     0
  9
$DIMSOXD
 70
     0
  9
$DIMSAH
 70
     0
  9
$DIMBLK1
  1

  9
$DIMBLK2
  1

  9
$DIMSTYLE
  2
STANDARD
  9
$DIMCLRD
 70
     0
  9
$DIMCLRE
 70
     0
  9
$DIMCLRT
 70
     0
  9
$DIMTFAC
 40
1.0
  9
$DIMGAP
 40
0.09
  9
$DIMJUST
 70
     0
  9
$DIMSD1
 70
     0
  9
$DIMSD2
 70
     0
  9
$DIMTOLJ
 70
     1
  9
$DIMTZIN
 70
     0
  9
$DIMALTZ
 70
     0
  9
$DIMALTTZ
 70
     0
  9
$DIMFIT
 70
     3
  9
$DIMUPT
 70
     0
  9
$DIMUNIT
 70
     2
  9
$DIMDEC
 70
     4
  9
$DIMTDEC
 70
     4
  9
$DIMALTU
 70
     2
  9
$DIMALTTD
 70
     2
  9
$DIMTXSTY
  7
STANDARD
  9
$DIMAUNIT
 70
     0
  9
$LUNITS
 70
     2
  9
$LUPREC
 70
     4
  9
$SKETCHINC
 40
0.1
  9
$FILLETRAD
 40
0.0
  9
$AUNITS
 70
     0
  9
$AUPREC
 70
     0
  9
$MENU
  1
acad
  9
$ELEVATION
 40
0.0
  9
$PELEVATION
 40
0.0
  9
$THICKNESS
 40
0.0
  9
$LIMCHECK
 70
     0
  9
$BLIPMODE
 70
     0
  9
$CHAMFERA
 40
0.0
  9
$CHAMFERB
 40
0.0
  9
$CHAMFERC
 40
0.0
  9
$CHAMFERD
 40
0.0
  9
$SKPOLY
 70
     0
  9
$TDCREATE
 40
2454026.433579861
  9
$TDUPDATE
 40
2454117.424940474
  9
$TDINDWG
 40
0.0801905208
  9
$TDUSRTIMER
 40
0.0801905208
  9
$USRTIMER
 70
     1
  9
$ANGBASE
 50
0.0
  9
$ANGDIR
 70
     0
  9
$PDMODE
 70
     3
  9
$PDSIZE
 40
0.03125
  9
$PLINEWID
 40
0.0
  9
$COORDS
 70
     2
  9
$SPLFRAME
 70
     0
  9
$SPLINETYPE
 70
     6
  9
$SPLINESEGS
 70
     8
  9
$ATTDIA
 70
     0
  9
$ATTREQ
 70
     1
  9
$HANDLING
 70
-16383
  9
$HANDSEED
  5
1F11
  9
$SURFTAB1
 70
     6
  9
$SURFTAB2
 70
     6
  9
$SURFTYPE
 70
     6
  9
$SURFU
 70
     6
  9
$SURFV
 70
     6
  9
$UCSNAME
  2

  9
$UCSORG
 10
0.0
 20
0.0
 30
0.0
  9
$UCSXDIR
 10
1.0
 20
0.0
 30
0.0
  9
$UCSYDIR
 10
0.0
 20
1.0
 30
0.0
  9
$PUCSNAME
  2

  9
$PUCSORG
 10
0.0
 20
0.0
 30
0.0
  9
$PUCSXDIR
 10
1.0
 20
0.0
 30
0.0
  9
$PUCSYDIR
 10
0.0
 20
1.0
 30
0.0
  9
$USERI1
 70
     0
  9
$USERI2
 70
     0
  9
$USERI3
 70
     0
  9
$USERI4
 70
     0
  9
$USERI5
 70
     0
  9
$USERR1
 40
0.0
  9
$USERR2
 40
0.0
  9
$USERR3
 40
0.0
  9
$USERR4
 40
0.0
  9
$USERR5
 40
0.0
  9
$WORLDVIEW
 70
     1
  9
$SHADEDGE
 70
     3
  9
$SHADEDIF
 70
    70
  9
$TILEMODE
 70
     1
  9
$MAXACTVP
 70
    16
  9
$PINSBASE
 10
0.0
 20
0.0
 30
0.0
  9
$PLIMCHECK
 70
     0
  9
$PEXTMIN
 10
1.000000000000000E+20
 20
1.000000000000000E+20
 30
1.000000000000000E+20
  9
$PEXTMAX
 10
-1.000000000000000E+20
 20
-1.000000000000000E+20
 30
-1.000000000000000E+20
  9
$PLIMMIN
 10
0.0
 20
0.0
  9
$PLIMMAX
 10
12.0
 20
9.0
  9
$UNITMODE
 70
     0
  9
$VISRETAIN
 70
     0
  9
$PLINEGEN
 70
     1
  9
$PSLTSCALE
 70
     0
  9
$TREEDEPTH
 70
  3020
  9
$PICKSTYLE
 70
     1
  9
$CMLSTYLE
  2
STANDARD
  9
$CMLJUST
 70
     0
  9
$CMLSCALE
 40
1.0
  9
$PROXYGRAPHICS
 70
     0
  9
$MEASUREMENT
 70
     0
  0
ENDSEC
  0
SECTION
  2
CLASSES
  0
CLASS
  1
ACDBDICTIONARYWDFLT
  2
AcDbDictionaryWithDefault
  3
AutoCAD 2000
 90
        0
280
     0
281
     0
  0
CLASS
  1
ACDBPLACEHOLDER
  2
AcDbPlaceHolder
  3
AutoCAD 2000
 90
        0
280
     0
281
     0
  0
CLASS
  1
LAYOUT
  2
AcDbLayout
  3
AutoCAD 2000
 90
        0
280
     0
281
     0
  0
CLASS
  1
LWPOLYLINE
  2
AcDbPolyline
  3
AutoCAD 2000
 90
        0
280
     0
281
     1
  0
CLASS
  1
IMAGE
  2
AcDbRasterImage
  3
ISM
 90
      127
280
     0
281
     1
  0
CLASS
  1
OLE2FRAME
  2
AcDbOle2Frame
  3
AutoCAD 2000
 90
        0
280
     0
281
     1
  0
CLASS
  1
HATCH
  2
AcDbHatch
  3
AutoCAD 2000
 90
        0
280
     0
281
     1
  0
CLASS
  1
DICTIONARYVAR
  2
AcDbDictionaryVar
  3
AutoCAD 2000
 90
        0
280
     0
281
     0
  0
CLASS
  1
RASTERVARIABLES
  2
AcDbRasterVariables
  3
ISM
 90
        0
280
     0
281
     0
  0
CLASS
  1
IMAGEDEF
  2
AcDbRasterImageDef
  3
ISM
 90
        0
280
     0
281
     0
  0
CLASS
  1
IMAGEDEF_REACTOR
  2
AcDbRasterImageDefReactor
  3
ISM
 90
        1
280
     0
281
     0
  0
CLASS
  1
IDBUFFER
  2
AcDbIdBuffer
  3
AutoCAD 2000
 90
        0
280
     0
281
     0
  0
CLASS
  1
SPATIAL_FILTER
  2
AcDbSpatialFilter
  3
AutoCAD 2000
 90
        0
280
     0
281
     0
  0
CLASS
  1
XRECORD
  2
AcDbXrecord
  3
AutoCAD 2000
 90
        0
280
     0
281
     0
  0
CLASS
  1
SORTENTSTABLE
  2
AcDbSortentsTable
  3
AutoCAD 2000
 90
        0
280
     0
281
     0
  0
CLASS
  1
LAYER_INDEX
  2
AcDbLayerIndex
  3
AutoCAD 2000
 90
        0
280
     0
281
     0
  0
CLASS
  1
SPATIAL_INDEX
  2
AcDbSpatialIndex
  3
AutoCAD 2000
 90
        0
280
     0
281
     0
  0
CLASS
  1
OBJECT_PTR
  2
CAseDLPNTableRecord
  3
ASE-LPNTableRecord
 90
        1
280
     0
281
     0
  0
CLASS
  1
PLOTSETTINGS
  2
AcDbPlotSettings
  3
AutoCAD 2000
 90
        0
280
     0
281
     0
  0
CLASS
  1
VBA_PROJECT
  2
AcDbVbaProject
  3
acadvba
 90
        0
280
     0
281
     0
  0
CLASS
  1
WIPEOUT
  2
AcDbWipeout
  3
WipeOut|AutoCAD Express Tool|expresstools@autodesk.com
 90
      127
280
     0
281
     1
  0
CLASS
  1
WIPEOUTVARIABLES
  2
AcDbWipeoutVariables
  3
WipeOut|AutoCAD Express Tool|expresstools@autodesk.com
 90
        0
280
     0
281
     0
  0
CLASS
  1
RTEXT
  2
RText
  3
RText|AutoCAD Express Tool|expresstools@autodesk.com
 90
        0
280
     0
281
     1
  0
CLASS
  1
ARCALIGNEDTEXT
  2
AcDbArcAlignedText
  3
ATEXT|AutoCAD Express Tool|expresstools@autodesk.com
 90
        0
280
     0
281
     1
  0
CLASS
  1
LONG_TRANSACTION
  2
AcDbLongTransaction
  3
AutoCAD 2000
 90
        0
280
     0
281
     0
  0
CLASS
  1
LWPOLYLINE
  2
AcDbPolyline
  3
AutoCAD 2000
 90
        0
280
     0
281
     1
  0
CLASS
  1
HATCH
  2
AcDbHatch
  3
AutoCAD 2000
 90
        0
280
     0
281
     1
  0
CLASS
  1
XRECORD
  2
AcDbXrecord
  3
AutoCAD 2000
 90
        0
280
     0
281
     0
  0
CLASS
  1
LONG_TRANSACTION
  2
AcDbLongTransaction
  3
AutoCAD 2000
 90
        0
280
     0
281
     0
  0
CLASS
  1
LWPOLYLINE
  2
AcDbPolyline
  3
AutoCAD 2000
 90
        0
280
     0
281
     1
  0
CLASS
  1
HATCH
  2
AcDbHatch
  3
AutoCAD 2000
 90
        0
280
     0
281
     1
  0
CLASS
  1
XRECORD
  2
AcDbXrecord
  3
AutoCAD 2000
 90
        0
280
     0
281
     0
  0
CLASS
  1
LONG_TRANSACTION
  2
AcDbLongTransaction
  3
AutoCAD 2000
 90
        0
280
     0
281
     0
  0
CLASS
  1
LWPOLYLINE
  2
AcDbPolyline
  3
AutoCAD 2000
 90
        0
280
     0
281
     1
  0
CLASS
  1
HATCH
  2
AcDbHatch
  3
AutoCAD 2000
 90
        0
280
     0
281
     1
  0
CLASS
  1
XRECORD
  2
AcDbXrecord
  3
AutoCAD 2000
 90
        0
280
     0
281
     0
  0
CLASS
  1
LONG_TRANSACTION
  2
AcDbLongTransaction
  3
AutoCAD 2000
 90
        0
280
     0
281
     0
  0
CLASS
  1
LWPOLYLINE
  2
AcDbPolyline
  3
AutoCAD 2000
 90
        0
280
     0
281
     1
  0
CLASS
  1
HATCH
  2
AcDbHatch
  3
AutoCAD 2000
 90
        0
280
     0
281
     1
  0
CLASS
  1
XRECORD
  2
AcDbXrecord
  3
AutoCAD 2000
 90
        0
280
     0
281
     0
  0
ENDSEC
  0
SECTION
  2
TABLES
  0
TABLE
  2
VPORT
  5
8
330
0
100
AcDbSymbolTable
 70
     2
  0
VPORT
  5
1EED
330
8
100
AcDbSymbolTableRecord
100
AcDbViewportTableRecord
  2
*ACTIVE
 70
     0
 10
0.0
 20
0.0
 11
1.0
 21
1.0
 12
20.95981137407082
 22
11.7409320426885
 13
0.0
 23
0.0
 14
1.0
 24
1.0
 15
0.0
 25
0.0
 16
0.0
 26
0.0
 36
1.0
 17
0.0
 27
0.0
 37
0.0
 40
26.46654158715092
 41
1.745424292845257
 42
50.0
 43
0.0
 44
0.0
 50
0.0
 51
0.0
 71
     0
 72
   100
 73
     1
 74
     1
 75
     0
 76
     0
 77
     0
 78
     0
  0
ENDTAB
  0
TABLE
  2
LTYPE
  5
5
330
0
100
AcDbSymbolTable
 70
     3
  0
LTYPE
  5
14
330
5
100
AcDbSymbolTableRecord
100
AcDbLinetypeTableRecord
  2
BYBLOCK
 70
     0
  3

 72
    65
 73
     0
 40
0.0
  0
LTYPE
  5
15
330
5
100
AcDbSymbolTableRecord
100
AcDbLinetypeTableRecord
  2
BYLAYER
 70
     0
  3

 72
    65
 73
     0
 40
0.0
  0
LTYPE
  5
16
330
5
100
AcDbSymbolTableRecord
100
AcDbLinetypeTableRecord
  2
CONTINUOUS
 70
     0
  3
Solid line
 72
    65
 73
     0
 40
0.0
  0
LTYPE
  5
1F6
330
5
100
AcDbSymbolTableRecord
100
AcDbLinetypeTableRecord
  2
HIDDEN
 70
     0
  3
Hidden __ __ __ __ __ __ __ __ __ __ __ __ __ _
 72
    65
 73
     2
 40
0.375
 49
0.25
 74
     0
 49
-0.125
 74
     0
  0
LTYPE
  5
1295
330
5
100
AcDbSymbolTableRecord
100
AcDbLinetypeTableRecord
  2
CENTERX2
 70
     0
  3
Center (2x) ________  __  ________  __  _____
 72
    65
 73
     4
 40
4.0
 49
2.5
 74
     0
 49
-0.5
 74
     0
 49
0.5
 74
     0
 49
-0.5
 74
     0
  0
ENDTAB
  0
TABLE
  2
LAYER
  5
2
330
0
100
AcDbSymbolTable
 70
     2
  0
LAYER
  5
10
330
2
100
AcDbSymbolTableRecord
100
AcDbLayerTableRecord
  2
0
 70
     0
 62
     7
  6
CONTINUOUS
  0
LAYER
  5
B09
330
2
100
AcDbSymbolTableRecord
100
AcDbLayerTableRecord
  2
CENTER
 70
     0
 62
     1
  6
CENTERX2
  0
ENDTAB
  0
TABLE
  2
STYLE
  5
3
330
0
100
AcDbSymbolTable
 70
     2
  0
STYLE
  5
11
330
3
100
AcDbSymbolTableRecord
100
AcDbTextStyleTableRecord
  2
STANDARD
 70
     0
 40
0.0
 41
0.8
 50
0.0
 71
     0
 42
0.2
  3
txt
  4

  0
STYLE
  5
21B
330
3
100
AcDbSymbolTableRecord
100
AcDbTextStyleTableRecord
  2
TEXTSTYLE_1
 70
     0
 40
0.0
 41
0.8
 50
0.0
 71
     0
 42
0.2
  3
txt
  4

  0
ENDTAB
  0
TABLE
  2
VIEW
  5
6
330
0
100
AcDbSymbolTable
 70
     0
  0
ENDTAB
  0
TABLE
  2
UCS
  5
7
330
0
100
AcDbSymbolTable
 70
     0
  0
ENDTAB
  0
TABLE
  2
APPID
  5
9
330
0
100
AcDbSymbolTable
 70
     2
  0
APPID
  5
21F
330
9
100
AcDbSymbolTableRecord
100
AcDbRegAppTableRecord
  2
ACAD
 70
     0
  0
APPID
  5
AFF
330
9
100
AcDbSymbolTableRecord
100
AcDbRegAppTableRecord
  2
DCO15
 70
     0
  0
ENDTAB
  0
TABLE
  2
DIMSTYLE
  5
A
330
0
100
AcDbSymbolTable
 70
     1
  0
DIMSTYLE
105
240
330
A
100
AcDbSymbolTableRecord
100
AcDbDimStyleTableRecord
  2
STANDARD
 70
     0
  3

  4

  5
_FILLED
  6
_FILLED
  7
_FILLED
 40
1.0
 41
0.1875
 42
0.0625
 43
0.38
 44
0.18
 45
0.0
 46
0.0
 47
0.00001
 48
0.00001
140
0.125
141
0.09
142
0.0
143
25.4
144
1.0
145
0.0
146
1.0
147
0.09
 71
     0
 72
     0
 73
     1
 74
     1
 75
     0
 76
     0
 77
     0
 78
     4
170
     0
171
     2
172
     0
173
     0
174
     0
175
     0
176
     0
177
     0
178
     0
270
     2
271
     5
272
     5
273
     2
274
     2
340
11
275
     0
280
     0
281
     0
282
     0
283
     1
284
     4
285
     0
286
     0
287
     3
288
     0
  0
ENDTAB
  0
TABLE
  2
BLOCK_RECORD
  5
1
330
0
100
AcDbSymbolTable
 70
     1
  0
BLOCK_RECORD
  5
1F
102
{ACAD_XDICTIONARY
360
1C78
102
}
330
1
100
AcDbSymbolTableRecord
100
AcDbBlockTableRecord
  2
*MODEL_SPACE
  0
BLOCK_RECORD
  5
1B
102
{ACAD_XDICTIONARY
360
1C76
102
}
330
1
100
AcDbSymbolTableRecord
100
AcDbBlockTableRecord
  2
*PAPER_SPACE
  0
BLOCK_RECORD
  5
220
330
1
100
AcDbSymbolTableRecord
100
AcDbBlockTableRecord
  2
_FILLED
  0
ENDTAB
  0
ENDSEC
  0
SECTION
  2
BLOCKS
  0
BLOCK
  5
20
330
1F
100
AcDbEntity
  8
0
100
AcDbBlockBegin
  2
*MODEL_SPACE
 70
     0
 10
0.0
 20
0.0
 30
0.0
  3
*MODEL_SPACE
  1

  0
ENDBLK
  5
21
330
1F
100
AcDbEntity
  8
0
100
AcDbBlockEnd
  0
BLOCK
  5
1C
330
1B
100
AcDbEntity
 67
     1
  8
0
100
AcDbBlockBegin
  2
*PAPER_SPACE
 70
     0
 10
0.0
 20
0.0
 30
0.0
  3
*PAPER_SPACE
  1

  0
ENDBLK
  5
1D
330
1B
100
AcDbEntity
 67
     1
  8
0
100
AcDbBlockEnd
  0
BLOCK
  5
442
330
220
100
AcDbEntity
  8
0
100
AcDbBlockBegin
  2
_FILLED
 70
     0
 10
0.0
 20
0.0
 30
0.0
  3
_FILLED
  1

  0
SOLID
  5
443
330
220
100
AcDbEntity
  8
0
  6
BYBLOCK
 62
     0
100
AcDbTrace
 10
0.0
 20
0.0
 30
0.0
 11
-1.0
 21
0.1666666667
 31
0.0
 12
-1.0
 22
-0.1666666667
 32
0.0
 13
-1.0
 23
-0.1666666667
 33
0.0
  0
ENDBLK
  5
444
330
220
100
AcDbEntity
  8
0
  6
BYBLOCK
 62
     0
100
AcDbBlockEnd
  0
ENDSEC
  0
SECTION
  2
ENTITIES
  0
MTEXT
  5
4BB
330
1F
100
AcDbEntity
  8
0
  6
CONTINUOUS
 62
     2
100
AcDbMText
 10
15.84375
 20
2.3125
 30
0.0
 40
0.09375
 41
0.075
 71
     2
 72
     1
  1
 \P \P 
  7
TEXTSTYLE_1
1001
ACAD
1000
MTEXTBEGIN
1070
    73
1070
     1
1070
    44
1040
1.0
1070
    74
1070
     0
1000
MTEXTEND
1000
MTEXTBEGIN
1070
    73
1070
     1
1070
    44
1040
1.0
1070
    74
1070
     0
1000
MTEXTEND
1000
MTEXTBEGIN
1070
    73
1070
     1
1070
    44
1040
1.0
1070
    74
1070
     0
1000
MTEXTEND
1000
MTEXTBEGIN
1070
    73
1070
     1
1070
    44
1040
1.0
1070
    74
1070
     0
1000
MTEXTEND
  0
LINE
  5
1DCE
330
1F
100
AcDbEntity
  8
0
100
AcDbLine
 10
1.030877939199854
 20
20.46738996320005
 30
0.0
 11
40.71817763268382
 21
20.46738996320005
 31
0.0
  0
LINE
  5
1DCF
330
1F
100
AcDbEntity
  8
0
100
AcDbLine
 10
0.4962518719999025
 20
20.10000000000002
 30
0.0
 11
41.25280369988376
 21
20.10000000000002
 31
0.0
  0
LINE
  5
1DD0
330
1F
100
AcDbEntity
  8
0
100
AcDbLine
 10
0.125
 20
18.47500000000002
 30
0.0
 11
41.6240555718839
 21
18.47500000000002
 31
0.0
  0
LINE
  5
1DD2
330
1F
100
AcDbEntity
  8
0
100
AcDbLine
 10
33.4981009571419
 20
3.629079211200007
 30
0.0
 11
33.72944195234186
 21
5.240015040000002
 31
0.0
  0
LINE
  5
1DD3
330
1F
100
AcDbEntity
  8
0
100
AcDbLine
 10
7.43723225359713
 20
9.377693275812646
 30
0.0
 11
8.311928606741844
 21
3.153905313599977
 31
0.0
  0
LWPOLYLINE
  5
1DD4
330
1F
100
AcDbEntity
  8
0
100
AcDbPolyline
 90
        3
 70
     0
 43
0.0
 10
22.11319221954198
 20
1.586485697599968
 10
23.27273580674187
 20
1.623708937599971
 10
25.29876148034196
 20
1.689036582399964
  0
LWPOLYLINE
  5
1DD5
330
1F
100
AcDbEntity
  8
0
100
AcDbPolyline
 90
       26
 70
     0
 43
0.0
 10
19.65961292834191
 20
1.513752297599964
 10
19.11458891074192
 20
1.496549524799988
 10
18.84606354434191
 20
1.488115430399986
 10
18.58045021794197
 20
1.479803510400003
 10
18.31793963714193
 20
1.471621747199989
 10
18.058722509142
 20
1.463578126400008
 10
17.80298954114192
 20
1.45568063040001
 10
17.55093144194194
 20
1.447937243199973
 10
17.30273891714188
 20
1.440355948799989
 10
17.10268077954191
 20
1.434279214400007
 10
16.90544245634197
 20
1.4283207056
 10
16.71112840034192
 20
1.422484796799992
 10
16.51984306274192
 20
1.416775857599972
 10
16.33169089634196
 20
1.411198263999992
 10
16.14677635234198
 20
1.405756385599985
 10
15.96520388354196
 20
1.400454598400003
 10
15.78707794274197
 20
1.395297273600007
 10
15.61250297954194
 20
1.390288782399963
 10
15.44158344834187
 20
1.385433500799976
 10
15.2744237987419
 20
1.38073580000001
 10
15.11779138914192
 20
1.376384028800018
 10
14.96480223234192
 20
1.372184977599985
 10
14.81554769794189
 20
1.368142507199976
 10
14.67011916034192
 20
1.364260478399998
 10
14.5286079891419
 20
1.360542753599972
 10
14.39110555714188
 20
1.35699319199999
  0
LINE
  5
1DD6
330
1F
100
AcDbEntity
  8
0
100
AcDbLine
 10
15.14770467074185
 20
0.3997720912000204
 30
0.0
 11
15.83954418274186
 21
1.396562593599981
 31
0.0
  0
LINE
  5
1DD7
330
1F
100
AcDbEntity
  8
CENTER
100
AcDbLine
 10
12.37452778594183
 20
3.196209248000002
 30
0.0
 11
12.37452778594183
 21
-0.7537907519999863
 31
0.0
  0
LWPOLYLINE
  5
1DD8
330
1F
100
AcDbEntity
  8
0
100
AcDbPolyline
 90
       17
 70
     0
 43
0.0
 10
10.59076393474191
 20
1.383882419199991
 10
10.64505449954191
 20
1.38132706719999
 10
10.70559524514197
 20
1.378562387200005
 10
10.7730617651419
 20
1.375597558399974
 10
10.84815544194196
 20
1.372447958400002
 10
10.93179000994194
 20
1.369128542399991
 10
11.02509420834195
 20
1.365656463999968
 10
11.129101840342
 20
1.362064363199962
 10
11.24394915874194
 20
1.358423281599968
 10
11.36840736994196
 20
1.354841515199993
 10
11.50119631394187
 20
1.351411150399982
 10
11.63965445634193
 20
1.348235705600004
 10
11.78178981634192
 20
1.345373740799956
 10
11.92711001474191
 20
1.342837854399974
 10
12.07459609794187
 20
1.340644249600003
 10
12.22375512514196
 20
1.338795734399965
 10
12.3742558627419
 20
1.337292561599994
  0
LINE
  5
1DD9
330
1F
100
AcDbEntity
  8
0
100
AcDbLine
 10
11.1030811763419
 20
0.8149592479999796
 30
0.0
 11
13.65119623874193
 21
0.8187500000000227
 31
0.0
  0
ARC
  5
1DDA
330
1F
100
AcDbEntity
  8
0
100
AcDbCircle
 10
10.31451542274192
 20
1.177668222399972
 30
0.0
 40
0.21875
100
AcDbArc
 50
45.00000023180002
 51
84.93683204110002
  0
ARC
  5
1DDB
330
1F
100
AcDbEntity
  8
0
100
AcDbCircle
 10
11.1030811763419
 20
1.096209247999979
 30
0.0
 40
0.28125
100
AcDbArc
 50
225.0
 51
270.0
  0
LWPOLYLINE
  5
1DDC
330
1F
100
AcDbEntity
  8
0
100
AcDbPolyline
 90
        4
 70
     0
 43
0.0
 10
10.3338140147419
 20
1.395566630400011
 10
10.26468117794189
 20
1.401805076800016
 10
10.19533034274201
 20
1.414134402205817
 10
10.15347234114193
 20
1.424477199999998
  0
LWPOLYLINE
  5
1DDD
330
1F
100
AcDbEntity
  8
0
100
AcDbPolyline
 90
        3
 70
     0
 43
0.0
 10
10.42632822594197
 20
1.391846595199965
 10
10.49858832674198
 20
1.388342510399965
 10
10.59076393474191
 20
1.383882419199991
  0
LWPOLYLINE
  5
1DDE
330
1F
100
AcDbEntity
  8
0
100
AcDbPolyline
 90
        7
 70
     0
 43
0.0
 10
10.3338140147419
 20
1.395566630400011
 10
10.33621925154199
 20
1.395536331199977
 10
10.34361890114195
 20
1.395355999999978
 10
10.35625605154194
 20
1.394932364799998
 10
10.37430117954187
 20
1.394213556800011
 10
10.39772092194192
 20
1.393182153599966
 10
10.42632822594197
 20
1.391846595199965
  0
LWPOLYLINE
  5
1DDF
330
1F
100
AcDbEntity
  8
0
100
AcDbPolyline
 90
       22
 70
     0
 43
0.0
 10
8.318650829141972
 20
3.157724217599977
 10
8.341276521941892
 20
3.030024151999995
 10
8.372001216341971
 20
2.904036996800002
 10
8.41070305794193
 20
2.780261526399996
 10
8.457222389141918
 20
2.659209971200013
 10
8.51136997154191
 20
2.541374387199979
 10
8.572925083541974
 20
2.42723510559999
 10
8.641636809941985
 20
2.317257387200001
 10
8.717225065941931
 20
2.211889532799986
 10
8.799381731541927
 20
2.111561051199984
 10
8.88777191394189
 20
2.016680905600011
 10
8.982035313941935
 20
1.927635857600009
 10
9.081787685141932
 20
1.844788875199967
 10
9.186622413141947
 20
1.768477667199974
 10
9.296112161941948
 20
1.699013299199961
 10
9.409810624341901
 20
1.636678926399994
 10
9.527254331541882
 20
1.581728641600008
 10
9.647964555541932
 20
1.534386435200005
 10
9.771449246741951
 20
1.494845291200007
 10
9.897205048341959
 20
1.463266385599965
 10
10.02471934754197
 20
1.439778446399984
 10
10.15347234114193
 20
1.424477199999998
  0
LINE
  5
1DE0
330
1F
100
AcDbEntity
  8
0
100
AcDbLine
 10
10.90420739394187
 20
0.8973354656000083
 30
0.0
 11
10.46919503074195
 21
1.33234783040001
 31
0.0
  0
ARC
  5
1DE1
330
1F
100
AcDbEntity
  8
0
100
AcDbCircle
 10
14.37974962914188
 20
0.9375
 30
0.0
 40
0.9375
100
AcDbArc
 50
200.0
 51
324.9999999999999
  0
ARC
  5
1DE2
330
1F
100
AcDbEntity
  8
0
100
AcDbCircle
 10
14.39661997474195
 20
1.138316975999998
 30
0.0
 40
0.2187499984
100
AcDbArc
 50
91.47072121659995
 51
134.9999966718999
  0
ARC
  5
1DE3
330
1F
100
AcDbEntity
  8
0
100
AcDbCircle
 10
13.65119623874193
 20
1.100000000000022
 30
0.0
 40
0.28125
100
AcDbArc
 50
270.0
 51
314.9999999999999
  0
LINE
  5
1DE4
330
1F
100
AcDbEntity
  8
0
100
AcDbLine
 10
12.37425586274184
 20
1.337292561600008
 30
0.0
 11
14.39110555714182
 21
1.356993192000004
 31
0.0
  0
LINE
  5
1DE5
330
1F
100
AcDbEntity
  8
0
100
AcDbLine
 10
13.85007001954181
 20
0.9011262175999945
 30
0.0
 11
14.24194038594191
 21
1.292996583999979
 31
0.0
  0
LINE
  5
1DE6
330
1F
100
AcDbEntity
  8
0
100
AcDbLine
 10
13.49878779714186
 20
0.6168561168000224
 30
0.0
 11
13.44980087394185
 21
0.8187500000000227
 31
0.0
  0
LINE
  5
1DE7
330
1F
100
AcDbEntity
  8
0
100
AcDbLine
 10
19.65961292834185
 20
1.513752297599978
 30
0.0
 11
22.11910307394191
 21
1.589688108799975
 31
0.0
  0
LWPOLYLINE
  5
1DE8
330
1F
100
AcDbEntity
  8
0
100
AcDbPolyline
 90
        3
 70
     0
 43
0.0
 10
29.50403909474193
 20
1.824049529600003
 10
29.80450914434192
 20
1.833580620799963
 10
30.72743564354192
 20
1.862684633599982
  0
LINE
  5
1DE9
330
1F
100
AcDbEntity
  8
0
100
AcDbLine
 10
25.43722439794191
 20
1.68861306399998
 30
0.0
 11
29.05538520354184
 21
1.809759411199991
 31
0.0
  0
LINE
  5
1DEA
330
1F
100
AcDbEntity
  8
0
100
AcDbLine
 10
25.83481696674187
 20
1.49816281599999
 30
0.0
 11
26.60657274434186
 21
0.3959813391999773
 31
0.0
  0
LWPOLYLINE
  5
1DEB
330
1F
100
AcDbEntity
  8
0
100
AcDbPolyline
 90
        4
 70
     0
 43
0.0
 10
25.83482057794191
 20
1.498166505599996
 10
25.7209387299419
 20
1.614564899199976
 10
25.57568731554198
 20
1.688189545599968
 10
25.29876148034196
 20
1.689036582399964
  0
ARC
  5
1DEC
330
1F
100
AcDbEntity
  8
0
100
AcDbCircle
 10
27.37452778594184
 20
0.9337092480000137
 30
0.0
 40
0.9375
100
AcDbArc
 50
215.0
 51
339.9999999999999
  0
LWPOLYLINE
  5
1DED
330
1F
100
AcDbEntity
  8
0
100
AcDbPolyline
 90
        4
 70
     0
 43
0.0
 10
28.63562077954196
 20
1.592206084799997
 10
28.74268345794195
 20
1.696401783999974
 10
28.87575291074194
 20
1.764314768000005
 10
29.0553852035419
 20
1.809759411199976
  0
LINE
  5
1DEE
330
1F
100
AcDbEntity
  8
0
100
AcDbLine
 10
28.56412369474185
 20
1.461030518399979
 30
0.0
 11
28.6356207795419
 21
1.592206084800011
 31
0.0
  0
LINE
  5
1DEF
330
1F
100
AcDbEntity
  8
0
100
AcDbLine
 10
28.25548961794186
 20
0.6130653647999793
 30
0.0
 11
28.56412351714186
 21
1.461030033600025
 31
0.0
  0
LINE
  5
1DF0
330
1F
100
AcDbEntity
  8
0
100
AcDbLine
 10
29.05538520354184
 20
1.809759411199991
 30
0.0
 11
29.50403883714193
 21
1.824049521599988
 31
0.0
  0
LWPOLYLINE
  5
1DF1
330
1F
100
AcDbEntity
  8
0
100
AcDbPolyline
 90
       19
 70
     0
 43
0.0
 10
33.49808253634188
 20
3.628986347199983
 10
33.46955442274196
 20
3.474036195199957
 10
33.4291046211419
 20
3.321763763199996
 10
33.37697649154193
 20
3.173085191999959
 10
33.31348366434196
 20
3.028894999999963
 10
33.23900813794199
 20
2.890060699199963
 10
33.15399799234188
 20
2.75741758079998
 10
33.05896468674194
 20
2.631763684799963
 10
32.95447998434196
 20
2.513855003199964
 10
32.84117251234198
 20
2.404400924799958
 10
32.71972397954192
 20
2.304059977599976
 10
32.5908650755419
 20
2.213435857600003
 10
32.45537107394198
 20
2.133073799999962
 10
32.31405716674197
 20
2.06345729920001
 10
32.16777356354197
 20
2.005005199999956
 10
32.01740037154201
 20
1.958069175999966
 10
31.86384230434197
 20
1.922931615999956
 10
31.70802323714196
 20
1.899803921599968
 10
31.55088064514194
 20
1.888825243200003
  0
LINE
  5
1DF2
330
1F
100
AcDbEntity
  8
0
100
AcDbLine
 10
30.72743564354186
 20
1.862684633599997
 30
0.0
 11
31.55088064514188
 21
1.888825243200017
 31
0.0
  0
LWPOLYLINE
  5
1DF3
330
1F
100
AcDbEntity
  8
0
100
AcDbPolyline
 90
       11
 70
     0
 43
0.0
 10
7.230962443541955
 20
9.433901187199964
 10
7.459669608341926
 20
9.371579163199996
 10
7.71039986754198
 20
9.3166967728
 10
7.984417808341902
 20
9.267673148799971
 10
8.285321651541892
 20
9.222953574399966
 10
8.617219443541955
 20
9.18141074719999
 10
8.984498171541929
 20
9.142422678399995
 10
9.388961824341947
 20
9.105838713599993
 10
9.832045195541979
 20
9.071613924800018
 10
10.3150068387419
 20
9.039711667199966
 10
10.81973454434188
 20
9.011121796799997
  0
LINE
  5
1DF4
330
1F
100
AcDbEntity
  8
0
  6
HIDDEN
 62
     8
100
AcDbLine
 10
6.109100273941862
 20
17.5496271664
 30
0.0
 11
8.869858896877531
 21
16.59902173854959
 31
0.0
  0
LINE
  5
1DF5
330
1F
100
AcDbEntity
  8
0
  6
HIDDEN
 62
     8
100
AcDbLine
 10
6.331924088341907
 20
16.15087692319997
 30
0.0
 11
8.462898678047963
 21
15.41712352791967
 31
0.0
  0
LINE
  5
1DF6
330
1F
100
AcDbEntity
  8
0
100
AcDbLine
 10
5.653438430741857
 20
14.12015320799997
 30
0.0
 11
5.970183859541862
 21
11.67860216479999
 31
0.0
  0
LINE
  5
1DF7
330
1F
100
AcDbEntity
  8
0
  6
CONTINUOUS
 62
     7
100
AcDbLine
 10
6.835389685141876
 20
9.587935656000013
 30
0.0
 11
7.023515355541917
 21
9.505304150399979
 31
0.0
  0
LWPOLYLINE
  5
1DF8
330
1F
100
AcDbEntity
  8
0
  6
CONTINUOUS
 62
     7
100
AcDbPolyline
 90
        3
 70
     0
 43
0.0
 10
6.83528842914194
 20
9.587986003199986
 10
7.023392198741987
 20
9.505351955199998
 10
7.231090254742014
 20
9.433862136000001
  0
LWPOLYLINE
  5
1DF9
330
1F
100
AcDbEntity
  8
0
100
AcDbPolyline
 90
        6
 70
     0
 43
0.0
 10
6.166041337941976
 20
10.29842223359996
 10
6.224250462741963
 20
10.1588701744
 10
6.301843128341999
 20
10.02799942400001
 10
6.400335541141942
 20
9.904686023999985
 10
6.52123312354189
 20
9.789563844799985
 10
6.666944760342005
 20
9.683044883199997
  0
LWPOLYLINE
  5
1DFA
330
1F
100
AcDbEntity
  8
0
100
AcDbPolyline
 90
        6
 70
     0
 43
0.0
 10
6.224249741141932
 20
10.15887161120001
 10
6.301817926741989
 20
10.02803591359996
 10
6.400280584341942
 20
9.904745979200001
 10
6.521169153941912
 20
9.789617236799969
 10
6.666871150741883
 20
9.683092140799985
 10
6.835389685141933
 20
9.587935655999999
  0
LINE
  5
1DFB
330
1F
100
AcDbEntity
  8
0
100
AcDbLine
 10
6.06160442914188
 20
10.95067461119998
 30
0.0
 11
6.113729077141897
 21
10.53047866240001
 31
0.0
  0
LWPOLYLINE
  5
1DFC
330
1F
100
AcDbEntity
  8
0
100
AcDbPolyline
 90
        3
 70
     0
 43
0.0
 10
5.970183886741949
 20
11.67860215519998
 10
6.010671957141937
 20
11.35765308479999
 10
6.061604429141937
 20
10.95067461119997
  0
LINE
  5
1DFD
330
1F
100
AcDbEntity
  8
0
100
AcDbLine
 10
6.113559649941862
 20
10.53149987519998
 30
0.0
 11
6.11493277794193
 21
10.52075211039999
 31
0.0
  0
LINE
  5
1DFE
330
1F
100
AcDbEntity
  8
0
100
AcDbLine
 10
6.11493277794193
 20
10.52075211039999
 30
0.0
 11
6.121232777941941
 21
10.47852292480001
 31
0.0
  0
LINE
  5
1DFF
330
1F
100
AcDbEntity
  8
0
100
AcDbLine
 10
6.121232777941941
 20
10.47852292480001
 30
0.0
 11
6.128039579541905
 21
10.44121518719998
 31
0.0
  0
LINE
  5
1E00
330
1F
100
AcDbEntity
  8
0
100
AcDbLine
 10
6.128052913941928
 20
10.44114800799997
 30
0.0
 11
6.128039573141904
 21
10.44121518399998
 31
0.0
  0
LINE
  5
1E01
330
1F
100
AcDbEntity
  8
0
100
AcDbLine
 10
6.128052913941928
 20
10.44114800799997
 30
0.0
 11
6.166047803541914
 21
10.29840309759998
 31
0.0
  0
LINE
  5
1E02
330
1F
100
AcDbEntity
  8
0
100
AcDbLine
 10
0.9357761599999321
 20
20.46725256320007
 30
0.0
 11
0.92805154079997
 21
20.46737059200006
 31
0.0
  0
LINE
  5
1E03
330
1F
100
AcDbEntity
  8
0
100
AcDbLine
 10
1.030877939199854
 20
20.46738996320005
 30
0.0
 11
0.92805154079997
 21
20.46737059200006
 31
0.0
  0
ARC
  5
1E04
330
1F
100
AcDbEntity
  8
0
100
AcDbCircle
 10
0.4962518719999025
 20
20.28750000000002
 30
0.0
 40
0.1875
100
AcDbArc
 50
270.0
 51
350.7759351963999
  0
LINE
  5
1E05
330
1F
100
AcDbEntity
  8
0
100
AcDbLine
 10
0.125
 20
18.47500000000002
 30
0.0
 11
0.247203196800001
 21
19.87178893600002
 31
0.0
  0
ARC
  5
1E06
330
1F
100
AcDbEntity
  8
0
100
AcDbCircle
 10
0.4962518719999025
 20
19.85000000000002
 30
0.0
 40
0.25
100
AcDbArc
 50
90.0
 51
175.0
  0
ARC
  5
1E07
330
1F
100
AcDbEntity
  8
0
100
AcDbCircle
 10
0.9280948608000016
 20
20.21737059680003
 30
0.0
 40
0.25
100
AcDbArc
 50
90.00995300509989
 51
170.7759458403
  0
LWPOLYLINE
  5
1E08
330
1F
100
AcDbEntity
  8
0
100
AcDbPolyline
 90
        3
 70
     0
 43
0.0
 10
5.050492570338576
 20
18.47500000000002
 10
5.278566534741969
 20
16.87566058240001
 10
5.653438430741914
 20
14.12015320799996
  0
LWPOLYLINE
  5
1E09
330
1F
100
AcDbEntity
  8
0
  6
HIDDEN
 62
     8
100
AcDbPolyline
 90
       39
 70
     0
 43
0.0
 10
6.102688451541951
 20
17.46454368
 10
6.103142705941934
 20
17.45285510399996
 10
6.104255853141978
 20
17.43288292480001
 10
6.105719397141967
 20
17.41331561919996
 10
6.107429593941958
 20
17.39397545439997
 10
6.109282701141921
 20
17.37468469439998
 10
6.113987645141889
 20
17.3276323072
 10
6.119025643541874
 20
17.28032469119999
 10
6.125350197141926
 20
17.22581486719995
 10
6.132117763541884
 20
17.17145331519996
 10
6.140035344341924
 20
17.11091197119996
 10
6.148311641941916
 20
17.05038866879998
 10
6.158102920341946
 20
16.98187139999997
 10
6.168306873941958
 20
16.91342461919997
 10
6.180006259541926
 20
16.83805279519997
 10
6.192181984341971
 20
16.7627500656
 10
6.204881022741972
 20
16.68734049279997
 10
6.218120211541929
 20
16.6120377312
 10
6.230143693141883
 20
16.54651635359998
 10
6.24267624674195
 20
16.48105002079999
 10
6.253616109141887
 20
16.42633958239996
 10
6.265130760341946
 20
16.37186313119995
 10
6.275061888342008
 20
16.32763861279998
 10
6.285503761941924
 20
16.283212664
 10
6.289700569941999
 20
16.26588954719998
 10
6.294070686741918
 20
16.24865051359999
 10
6.298709470741925
 20
16.23168649439996
 10
6.303712286741927
 20
16.2151884208
 10
6.307374293142004
 20
16.2042305904
 10
6.31122574274201
 20
16.19323701759997
 10
6.315242240341888
 20
16.18186619199995
 10
6.319399381141977
 20
16.16977659839999
 10
6.320554102741937
 20
16.16636984799997
 10
6.321793422741905
 20
16.16300325759998
 10
6.323193485141985
 20
16.15979409119999
 10
6.324830438741912
 20
16.1568596128
 10
6.32678042594199
 20
16.15431708160001
 10
6.329119593941925
 20
16.1522837648
 10
6.331924088341963
 20
16.15087692319995
  0
LWPOLYLINE
  5
1E0A
330
1F
100
AcDbEntity
  8
0
  6
HIDDEN
 62
     8
100
AcDbPolyline
 90
       15
 70
     0
 43
0.0
 10
6.109100273941919
 20
17.54962716639998
 10
6.107614827541908
 20
17.54969927199998
 10
6.106384960341927
 20
17.54892233439998
 10
6.105373552341973
 20
17.54748569759998
 10
6.104184848341958
 20
17.54450799839996
 10
6.103278870741917
 20
17.54111104320001
 10
6.102208051541936
 20
17.53609231519997
 10
6.101467093141934
 20
17.531524368
 10
6.101006081941989
 20
17.52732784480001
 10
6.100775104341948
 20
17.52342338399999
 10
6.100803603541919
 20
17.51617321439998
 10
6.101153286741975
 20
17.50913898399999
 10
6.101616555541966
 20
17.49872226719996
 10
6.101986254741916
 20
17.48768139039997
 10
6.102688451541951
 20
17.46454368
  0
LWPOLYLINE
  5
1E0B
330
1F
100
AcDbEntity
  8
0
100
AcDbPolyline
 90
        5
 70
     0
 43
0.0
 10
11.63970404034199
 20
8.957234307199982
 10
11.89537547234198
 20
8.939152571199983
 10
12.12539681314189
 20
8.922341556799992
 10
12.33509766594198
 20
8.907226462399975
 10
12.52822884674191
 20
8.894304631999986
  0
LINE
  5
1E0C
330
1F
100
AcDbEntity
  8
0
100
AcDbLine
 10
11.11935685154185
 20
8.993743752
 30
0.0
 11
11.30507062914193
 21
8.980506316800017
 31
0.0
  0
LWPOLYLINE
  5
1E0D
330
1F
100
AcDbEntity
  8
0
100
AcDbPolyline
 90
        4
 70
     0
 43
0.0
 10
11.30507062914199
 20
8.980506316800003
 10
11.42181168194196
 20
8.972308078399962
 10
11.533123907542
 20
8.964588614399971
 10
11.63970404034199
 20
8.957234307199982
  0
LWPOLYLINE
  5
1E0E
330
1F
100
AcDbEntity
  8
0
100
AcDbPolyline
 90
        5
 70
     0
 43
0.0
 10
10.81971332674191
 20
9.011085555199983
 10
10.90397884194197
 20
9.006610312000006
 10
10.993160177942
 20
9.001705329599971
 10
11.07901715714189
 20
8.996504055999977
 10
11.11935423874189
 20
8.993744017600008
  0
LWPOLYLINE
  5
1E0F
330
1F
100
AcDbEntity
  8
0
100
AcDbPolyline
 90
       11
 70
     0
 43
0.0
 10
12.52822884674191
 20
8.894304631999986
 10
12.73380827714191
 20
8.882193382399961
 10
12.91496860034198
 20
8.8728281936
 10
13.07511046914197
 20
8.865427227199958
 10
13.22392445474196
 20
8.859219292799977
 10
13.37139013954191
 20
8.853637083199984
 10
13.52113429954198
 20
8.848480692800009
 10
13.67182726914194
 20
8.843737401599966
 10
13.82403509794193
 20
8.839308123199984
 10
13.97953196514191
 20
8.83504598559999
 10
14.140285664342
 20
8.830767947199987
  0
LINE
  5
1E10
330
1F
100
AcDbEntity
  8
0
100
AcDbLine
 10
14.14028566434194
 20
8.830767947200001
 30
0.0
 11
14.27656839714188
 21
8.827138054399995
 31
0.0
  0
ARC
  5
1E11
330
1F
100
AcDbEntity
  8
0
  6
HIDDEN
 62
     8
100
AcDbCircle
 10
8.666378800341817
 20
16.00807262879999
 30
0.0
 40
0.625
100
AcDbArc
 50
250.9999999999998
 51
70.99999999999987
  0
LWPOLYLINE
  5
1E13
330
1F
100
AcDbEntity
  8
0
100
AcDbPolyline
 90
        5
 70
     0
 43
0.0
 10
30.10935153314193
 20
8.957234307199982
 10
29.85368010114195
 20
8.939152571199983
 10
29.62365876034192
 20
8.922341556799992
 10
29.41395790594191
 20
8.907226462399975
 10
29.22082672514198
 20
8.894304631999986
  0
LINE
  5
1E14
330
1F
100
AcDbEntity
  8
0
100
AcDbLine
 10
27.60876990754195
 20
8.830767947200001
 30
0.0
 11
27.4724871747419
 21
8.827138054399995
 31
0.0
  0
LWPOLYLINE
  5
1E15
330
1F
100
AcDbEntity
  8
0
100
AcDbPolyline
 90
       11
 70
     0
 43
0.0
 10
29.22082672514198
 20
8.894304631999986
 10
29.01524729474198
 20
8.882193382399961
 10
28.83408697154192
 20
8.8728281936
 10
28.67394510274192
 20
8.865427227199958
 10
28.52513111714193
 20
8.859219292799977
 10
28.37766543234198
 20
8.853637083199984
 10
28.22792127234191
 20
8.848480692800009
 10
28.07722830274196
 20
8.843737401599966
 10
27.92502047394197
 20
8.839308123199984
 10
27.76952360674198
 20
8.83504598559999
 10
27.60876990754201
 20
8.830767947199987
  0
LINE
  5
1E16
330
1F
100
AcDbEntity
  8
0
100
AcDbLine
 10
33.72944195234186
 20
5.240015040000002
 30
0.0
 11
34.32452523234189
 21
9.381156815999986
 31
0.0
  0
LWPOLYLINE
  5
1E17
330
1F
100
AcDbEntity
  8
0
100
AcDbPolyline
 90
       17
 70
     0
 43
0.0
 10
30.9293210275419
 20
9.011121796799997
 10
31.43402346114197
 20
9.039710123199981
 10
31.91696224194191
 20
9.07161048639999
 10
32.36002629474188
 20
9.105833075199981
 10
32.76447511874192
 20
9.14241462080001
 10
33.13174435234197
 20
9.181400174399968
 10
33.46363729794194
 20
9.222940419200014
 10
33.76453684354197
 20
9.267656734400006
 10
34.03854727714195
 20
9.316675383999992
 10
34.28926575874192
 20
9.371549903999991
 10
34.517965317142
 20
9.433862136000001
 10
34.72554021634192
 20
9.505304150399965
 10
34.91366588674196
 20
9.587935655999999
 10
35.08211081314192
 20
9.683044883199997
 10
35.22782244834189
 20
9.789563844799985
 10
35.34872003074196
 20
9.904686023999985
 10
35.44723764514191
 20
10.02803591359996
  0
LWPOLYLINE
  5
1E18
330
1F
100
AcDbEntity
  8
0
100
AcDbPolyline
 90
        5
 70
     0
 43
0.0
 10
30.62970133314189
 20
8.993744017600008
 10
30.67003841474189
 20
8.996504055999977
 10
30.75589539394201
 20
9.001705329599971
 10
30.84507672994192
 20
9.006610312000006
 10
30.92934224514198
 20
9.011085555199983
  0
LWPOLYLINE
  5
1E19
330
1F
100
AcDbEntity
  8
0
100
AcDbPolyline
 90
        4
 70
     0
 43
0.0
 10
30.4439849427419
 20
8.980506316800003
 10
30.32724388994194
 20
8.972308078399962
 10
30.215931664342
 20
8.964588614399971
 10
30.10935153314193
 20
8.957234307199982
  0
LINE
  5
1E1A
330
1F
100
AcDbEntity
  8
0
100
AcDbLine
 10
30.62969872034182
 20
8.993743752
 30
0.0
 11
30.44398494274185
 21
8.980506316800017
 31
0.0
  0
LINE
  5
1E1B
330
1F
100
AcDbEntity
  8
0
100
AcDbLine
 10
35.62100267074185
 20
10.44114806559997
 30
0.0
 11
35.62101595714193
 21
10.44121497280002
 31
0.0
  0
LINE
  5
1E1C
330
1F
100
AcDbEntity
  8
0
100
AcDbLine
 10
35.62101595074182
 20
10.44121497600002
 30
0.0
 11
35.62767978594183
 21
10.477666408
 31
0.0
  0
LINE
  5
1E1D
330
1F
100
AcDbEntity
  8
0
100
AcDbLine
 10
35.62767978594183
 20
10.477666408
 30
0.0
 11
35.63388744194185
 21
10.51897916640001
 31
0.0
  0
LINE
  5
1E1E
330
1F
100
AcDbEntity
  8
0
100
AcDbLine
 10
35.63388744194185
 20
10.51897916640001
 30
0.0
 11
35.63549603074193
 21
10.5315007552
 31
0.0
  0
LINE
  5
1E1F
330
1F
100
AcDbEntity
  8
0
100
AcDbLine
 10
35.77899498114186
 20
11.67957581119998
 30
0.0
 11
35.7383836147419
 21
11.3576530848
 31
0.0
  0
LWPOLYLINE
  5
1E20
330
1F
100
AcDbEntity
  8
0
100
AcDbPolyline
 90
        3
 70
     0
 43
0.0
 10
35.63532649474194
 20
10.5304786624
 10
35.68745114274196
 20
10.95067461119997
 10
35.73838361474196
 20
11.35765308479999
  0
LINE
  5
1E21
330
1F
100
AcDbEntity
  8
0
100
AcDbLine
 10
35.44721244354195
 20
10.02799942400002
 30
0.0
 11
35.52480510914188
 21
10.15887017440002
 31
0.0
  0
LINE
  5
1E22
330
1F
100
AcDbEntity
  8
0
  6
CONTINUOUS
 62
     7
100
AcDbLine
 10
35.52480583074191
 20
10.15887161120002
 30
0.0
 11
35.5830077699419
 21
10.29840309759998
 31
0.0
  0
LINE
  5
1E23
330
1F
100
AcDbEntity
  8
0
100
AcDbLine
 10
35.5830077699419
 20
10.29840309759998
 30
0.0
 11
35.62100267074185
 21
10.44114806559997
 31
0.0
  0
LWPOLYLINE
  5
1E24
330
1F
100
AcDbEntity
  8
0
100
AcDbPolyline
 90
        7
 70
     0
 43
0.0
 10
34.32452488674192
 20
9.381154414399972
 10
34.51809312834194
 20
9.433901187199964
 10
34.72566337314191
 20
9.505351955199998
 10
34.91376714274196
 20
9.587986003199986
 10
35.0821844211419
 20
9.683092140799985
 10
35.22788641794187
 20
9.789617236799969
 10
35.34877498754195
 20
9.904745979200001
  0
LINE
  5
1E25
330
1F
100
AcDbEntity
  8
0
  6
HIDDEN
 62
     8
100
AcDbLine
 10
32.89510742072025
 20
16.60429220207794
 30
0.0
 11
35.65586573474183
 21
17.55489852639999
 31
0.0
  0
LWPOLYLINE
  5
1E26
330
1F
100
AcDbEntity
  8
0
  6
HIDDEN
 62
     8
100
AcDbPolyline
 90
       40
 70
     0
 43
0.0
 10
35.66297977474192
 20
17.49295275199999
 10
35.66227758434189
 20
17.46981504159997
 10
35.66182333474199
 20
17.45812646559999
 10
35.66071019234192
 20
17.43815428639997
 10
35.65924665634196
 20
17.41858698079998
 10
35.65753646594197
 20
17.39924681439997
 10
35.65568336354198
 20
17.37995605280001
 10
35.65097843554196
 20
17.33290366559997
 10
35.64594045314191
 20
17.28559604799998
 10
35.63961591714195
 20
17.2310862208
 10
35.63284836834196
 20
17.17672466719999
 10
35.62493080674193
 20
17.11618332159996
 10
35.61665452834194
 20
17.05566001599997
 10
35.60686327394188
 20
16.98714274399996
 10
35.5966593411419
 20
16.91869595999996
 10
35.58495997954191
 20
16.84332413279996
 10
35.57278427874194
 20
16.76802139839996
 10
35.56008526594195
 20
16.69261182239999
 10
35.54684610114196
 20
16.61730905439996
 10
35.53482264034192
 20
16.5517876736
 10
35.52229010914192
 20
16.48632133760001
 10
35.51135026434195
 20
16.43161089440001
 10
35.49983563074198
 20
16.37713444
 10
35.48990451714195
 20
16.33290992
 10
35.47946265794195
 20
16.28848396639999
 10
35.47526585474196
 20
16.271160848
 10
35.47089574434193
 20
16.25392181279998
 10
35.46625696514189
 20
16.23695779360001
 10
35.46125415554189
 20
16.22045971839996
 10
35.45759215234198
 20
16.20950188479996
 10
35.45374070594192
 20
16.19850831199998
 10
35.4497242131419
 20
16.1871374848
 10
35.44556707554198
 20
16.1750478896
 10
35.44441235554194
 20
16.17164113919999
 10
35.44317303714189
 20
16.1682745488
 10
35.44177297474192
 20
16.16506538239995
 10
35.44013602274191
 20
16.16213090239999
 10
35.43818603554194
 20
16.1595883712
 10
35.4358468675419
 20
16.15755505279996
 10
35.433042374742
 20
16.15614821119997
  0
ARC
  5
1E27
330
1F
100
AcDbEntity
  8
0
  6
HIDDEN
 62
     8
100
AcDbCircle
 10
33.09858770914184
 20
16.0133431584
 30
0.0
 40
0.625
100
AcDbArc
 50
109.0000186043999
 51
289.0000186043998
  0
LINE
  5
1E28
330
1F
100
AcDbEntity
  8
0
  6
HIDDEN
 62
     8
100
AcDbLine
 10
33.30206799756354
 20
15.42239411472206
 30
0.0
 11
35.43304237474194
 21
16.15614821119999
 31
0.0
  0
LWPOLYLINE
  5
1E29
330
1F
100
AcDbEntity
  8
0
  6
HIDDEN
 62
     8
100
AcDbPolyline
 90
       14
 70
     0
 43
0.0
 10
35.65586573474189
 20
17.55489852639998
 10
35.6573511811419
 20
17.55497063199998
 10
35.65858104834188
 20
17.55419369439998
 10
35.65959245634195
 20
17.5527570592
 10
35.660781161942
 20
17.54977935999998
 10
35.66168714114195
 20
17.54638240479998
 10
35.66275796194196
 20
17.5413636768
 10
35.66349892194199
 20
17.5367957312
 10
35.66395993474197
 20
17.53259920639997
 10
35.66419091234189
 20
17.52869474559996
 10
35.66416241634198
 20
17.52144457759998
 10
35.66381273474195
 20
17.51441034719998
 10
35.6633494691419
 20
17.50399362879998
 10
35.66297977474192
 20
17.49295275199999
  0
ARC
  5
1E2A
330
1F
100
AcDbEntity
  8
0
100
AcDbCircle
 10
41.25280369988376
 20
19.85000000000002
 30
0.0
 40
0.25
100
AcDbArc
 50
4.999999999999981
 51
90.0
  0
LINE
  5
1E2B
330
1F
100
AcDbEntity
  8
0
100
AcDbLine
 10
41.6240555718839
 20
18.47500000000002
 30
0.0
 11
41.5018523750839
 21
19.87178893600002
 31
0.0
  0
LINE
  5
1E2C
330
1F
100
AcDbEntity
  8
0
100
AcDbLine
 10
40.71817763268382
 20
20.46738996320005
 30
0.0
 11
40.82100403108393
 21
20.46737059200006
 31
0.0
  0
LINE
  5
1E2D
330
1F
100
AcDbEntity
  8
0
100
AcDbLine
 10
40.81327941188397
 20
20.46725256320007
 30
0.0
 11
40.82100403108393
 21
20.46737059200006
 31
0.0
  0
ARC
  5
1E2E
330
1F
100
AcDbEntity
  8
0
100
AcDbCircle
 10
40.8209607110839
 20
20.21737059680003
 30
0.0
 40
0.25
100
AcDbArc
 50
9.224054159699985
 51
89.9900469949001
  0
ARC
  5
1E2F
330
1F
100
AcDbEntity
  8
0
100
AcDbCircle
 10
41.25280369988376
 20
20.28750000000002
 30
0.0
 40
0.1875
100
AcDbArc
 50
189.2240648035999
 51
270.0
  0
ARC
  5
1EB6
330
1F
100
AcDbEntity
  8
0
  6
HIDDEN
 62
     8
100
AcDbCircle
 10
37.58999686063319
 20
20.10648483020294
 30
0.0
 40
0.25
100
AcDbArc
 50
91.76074600029997
 51
173.9568727945999
  0
ARC
  5
1EB7
330
1F
100
AcDbEntity
  8
0
  6
HIDDEN
 62
     8
100
AcDbCircle
 10
37.16487259823319
 20
20.15149073900293
 30
0.0
 40
0.1775
100
AcDbArc
 50
270.0
 51
353.9568762733
  0
LINE
  5
1EB8
330
1F
100
AcDbEntity
  8
0
  6
HIDDEN
 62
     8
100
AcDbLine
 10
37.16487259823319
 20
19.97399073900294
 30
0.0
 11
37.07645128781257
 21
19.97399073900176
 31
0.0
  0
LINE
  5
1EBA
330
1F
100
AcDbEntity
  8
0
  6
HIDDEN
 62
     8
100
AcDbLine
 10
40.81327941188385
 20
20.46725255520001
 30
0.0
 11
36.50283314843989
 21
20.32197999290539
 31
0.0
  0
ARC
  5
1EBC
330
1F
100
AcDbEntity
  8
0
  6
HIDDEN
 62
     8
100
AcDbCircle
 10
36.09244407103494
 20
20.11452867919014
 30
0.0
 40
0.1775
100
AcDbArc
 50
270.0
 51
354.9317444691999
  0
ARC
  5
1EBD
330
1F
100
AcDbEntity
  8
0
  6
HIDDEN
 62
     8
100
AcDbCircle
 10
36.00402209983494
 20
19.74952867919013
 30
0.0
 40
0.1875
100
AcDbArc
 50
89.99979808069994
 51
171.8225605675592
  0
LINE
  5
1EBE
330
1F
100
AcDbEntity
  8
0
  6
HIDDEN
 62
     8
100
AcDbLine
 10
36.0040227606143
 20
19.93702867918896
 30
0.0
 11
36.09244407103494
 21
19.93702867919014
 31
0.0
  0
ARC
  5
1EBF
330
1F
100
AcDbEntity
  8
0
  6
HIDDEN
 62
     8
100
AcDbCircle
 10
37.07645062703321
 20
19.78649073900292
 30
0.0
 40
0.1875
100
AcDbArc
 50
89.99979808069994
 51
171.8225605675592
  0
ARC
  5
1EC1
330
1F
100
AcDbEntity
  8
0
  6
HIDDEN
 62
     8
100
AcDbCircle
 10
36.51329197503494
 20
20.07720333519013
 30
0.0
 40
0.2449999984
100
AcDbArc
 50
92.44664809350004
 51
174.9317103238999
  0
LINE
  5
1EC3
330
1F
100
AcDbEntity
  8
0
  6
HIDDEN
 62
     8
100
AcDbLine
 10
36.69856300154535
 20
18.47500000000002
 30
0.0
 11
36.89085706793288
 21
19.8131605875303
 31
0.0
  0
LINE
  5
1EC4
330
1F
100
AcDbEntity
  8
0
  6
HIDDEN
 62
     8
100
AcDbLine
 10
34.30723518234535
 20
9.259912558400024
 30
0.0
 11
35.8184285407346
 21
19.77619852771751
 31
0.0
  0
LINE
  5
1EC6
330
1F
100
AcDbEntity
  8
0
100
AcDbLine
 10
36.69856300154532
 20
18.47500000000002
 30
0.0
 11
35.77899498114186
 21
11.67957581119998
 31
0.0
  0
LINE
  5
1ED1
330
1F
100
AcDbEntity
  8
CENTER
100
AcDbLine
 10
9.579287199618669
 20
17.29033645897549
 30
0.0
 11
1.303418573798985
 21
16.12723897480153
 31
0.0
  0
LINE
  5
1ED4
330
1F
100
AcDbEntity
  8
0
  6
HIDDEN
 62
     8
100
AcDbLine
 10
7.441820389538548
 20
9.259912558400024
 30
0.0
 11
5.930627031149299
 21
19.77619852771751
 31
0.0
  0
ARC
  5
1ED5
330
1F
100
AcDbEntity
  8
0
  6
HIDDEN
 62
     8
100
AcDbCircle
 10
5.745033472048959
 20
19.74952867919013
 30
0.0
 40
0.1875
100
AcDbArc
 50
8.177439432440715
 51
90.00020191930007
  0
LINE
  5
1ED6
330
1F
100
AcDbEntity
  8
0
  6
HIDDEN
 62
     8
100
AcDbLine
 10
5.745032811269595
 20
19.93702867918896
 30
0.0
 11
5.656611500848953
 21
19.93702867919014
 31
0.0
  0
ARC
  5
1ED7
330
1F
100
AcDbEntity
  8
0
  6
HIDDEN
 62
     8
100
AcDbCircle
 10
5.656611500848953
 20
20.11452867919014
 30
0.0
 40
0.1775
100
AcDbArc
 50
185.0682555308
 51
270.0
  0
LINE
  5
1ED8
330
1F
100
AcDbEntity
  8
0
  6
HIDDEN
 62
     8
100
AcDbLine
 10
0.9357761600000458
 20
20.46725255520001
 30
0.0
 11
5.24622242344401
 21
20.32197999290539
 31
0.0
  0
ARC
  5
1ED9
330
1F
100
AcDbEntity
  8
0
  6
HIDDEN
 62
     8
100
AcDbCircle
 10
5.235763596848954
 20
20.07720333519013
 30
0.0
 40
0.2449999984
100
AcDbArc
 50
5.068289676100024
 51
87.55335190649999
  0
LINE
  5
1EDA
330
1F
100
AcDbEntity
  8
0
  6
HIDDEN
 62
     8
100
AcDbLine
 10
5.050492570338548
 20
18.47500000000002
 30
0.0
 11
4.858198503951015
 21
19.8131605875303
 31
0.0
  0
ARC
  5
1EDB
330
1F
100
AcDbEntity
  8
0
  6
HIDDEN
 62
     8
100
AcDbCircle
 10
4.672604944850689
 20
19.78649073900292
 30
0.0
 40
0.1875
100
AcDbArc
 50
8.177439432440715
 51
90.00020191930007
  0
LINE
  5
1EDC
330
1F
100
AcDbEntity
  8
0
  6
HIDDEN
 62
     8
100
AcDbLine
 10
4.584182973650712
 20
19.97399073900294
 30
0.0
 11
4.672604284071326
 21
19.97399073900176
 31
0.0
  0
ARC
  5
1EDD
330
1F
100
AcDbEntity
  8
0
  6
HIDDEN
 62
     8
100
AcDbCircle
 10
4.584182973650712
 20
20.15149073900293
 30
0.0
 40
0.1775
100
AcDbArc
 50
186.0431237266999
 51
270.0
  0
ARC
  5
1EDE
330
1F
100
AcDbEntity
  8
0
  6
HIDDEN
 62
     8
100
AcDbCircle
 10
4.159058711250708
 20
20.10648483020294
 30
0.0
 40
0.25
100
AcDbArc
 50
6.043127205400028
 51
88.23925399970004
  0
ENDSEC
  0
SECTION
  2
OBJECTS
  0
DICTIONARY
  5
C
330
0
100
AcDbDictionary
  3
ACAD_GROUP
350
D
  3
ACAD_LAYOUT
350
1A
  3
ACAD_MLINESTYLE
350
17
  3
ACAD_PLOTSETTINGS
350
19
  3
ACAD_PLOTSTYLENAME
350
E
  3
ACDBHEADERROUNDTRIPXREC
350
1EEE
  0
DICTIONARY
  5
1C78
330
1F
100
AcDbDictionary
280
     1
  3
ACAD_LAYOUTSELFREF
360
1F10
  0
DICTIONARY
  5
1C76
330
1B
100
AcDbDictionary
280
     1
  3
ACAD_LAYOUTSELFREF
360
1F0F
  0
DICTIONARY
  5
D
102
{ACAD_REACTORS
330
C
102
}
330
C
100
AcDbDictionary
  0
DICTIONARY
  5
1A
102
{ACAD_REACTORS
330
C
102
}
330
C
100
AcDbDictionary
  0
DICTIONARY
  5
17
102
{ACAD_REACTORS
330
C
102
}
330
C
100
AcDbDictionary
  3
STANDARD
350
18
  0
DICTIONARY
  5
19
102
{ACAD_REACTORS
330
C
102
}
330
C
100
AcDbDictionary
  0
ACDBDICTIONARYWDFLT
  5
E
102
{ACAD_REACTORS
330
C
102
}
330
C
100
AcDbDictionary
281
     1
  3
Normal
350
F
100
AcDbDictionaryWithDefault
340
F
  0
DICTIONARY
  5
1EEE
102
{ACAD_REACTORS
330
C
102
}
330
C
100
AcDbDictionary
  3
CEPSNTYPE
350
1EF8
  3
DIMSTYLEDATA
350
1EFC
  3
FINGERPRINTGUID
350
1EF9
  3
HYPERLINKBASE
350
1EF1
  3
INSUNITS
350
1EF7
  3
LAYOUTDICT
350
1EF3
  3
LWETCUNION
350
1EF6
  3
PLOTSETDICT
350
1EF4
  3
PLOTSTYLNAMDICT
350
1EF5
  3
PSVPSCALE
350
1EFB
  3
PUCSBASE
350
1EFF
  3
PUCSORGBACK
350
1F05
  3
PUCSORGBOTTOM
350
1F01
  3
PUCSORGFRONT
350
1F04
  3
PUCSORGLEFT
350
1F02
  3
PUCSORGRIGHT
350
1F03
  3
PUCSORGTOP
350
1F00
  3
PUCSORTHOREF
350
1EFD
  3
PUCSORTHOVIEW
350
1EFE
  3
STYLESHEET
350
1EF2
  3
TSTACKALIGN
350
1EEF
  3
TSTACKSIZE
350
1EF0
  3
UCSBASE
350
1F08
  3
UCSORGBACK
350
1F0E
  3
UCSORGBOTTOM
350
1F0A
  3
UCSORGFRONT
350
1F0D
  3
UCSORGLEFT
350
1F0B
  3
UCSORGRIGHT
350
1F0C
  3
UCSORGTOP
350
1F09
  3
UCSORTHOREF
350
1F06
  3
UCSORTHOVIEW
350
1F07
  3
VERSIONGUID
350
1EFA
  0
XRECORD
  5
1F10
102
{ACAD_REACTORS
330
1C78
102
}
330
1C78
100
AcDbXrecord
340
1F
  0
XRECORD
  5
1F0F
102
{ACAD_REACTORS
330
1C76
102
}
330
1C76
100
AcDbXrecord
340
1B
  0
MLINESTYLE
  5
18
102
{ACAD_REACTORS
330
17
102
}
330
17
100
AcDbMlineStyle
  2
STANDARD
 70
     0
  3

 62
   256
 51
90.0
 52
90.0
 71
     2
 49
0.5
 62
   256
  6
BYLAYER
 49
-0.5
 62
   256
  6
BYLAYER
  0
ACDBPLACEHOLDER
  5
F
102
{ACAD_REACTORS
330
E
102
}
330
0
100
AcDbPlaceHolder
280
     0
  0
XRECORD
  5
1EF8
102
{ACAD_REACTORS
330
1EEE
102
}
330
1EEE
100
AcDbXrecord
 90
        0
  0
XRECORD
  5
1EFC
102
{ACAD_REACTORS
330
1EEE
102
}
330
1EEE
100
AcDbXrecord
1000
DSTYLE
1002
{
1070
   278
 70
     0
1070
   342
340
220
1070
   371
 70
     0
1070
   372
 70
     0
1002
}
  0
XRECORD
  5
1EF9
102
{ACAD_REACTORS
330
1EEE
102
}
330
1EEE
100
AcDbXrecord
  1

  0
XRECORD
  5
1EF1
102
{ACAD_REACTORS
330
1EEE
102
}
330
1EEE
100
AcDbXrecord
  1

  0
XRECORD
  5
1EF7
102
{ACAD_REACTORS
330
1EEE
102
}
330
1EEE
100
AcDbXrecord
 90
        1
  0
XRECORD
  5
1EF3
102
{ACAD_REACTORS
330
1EEE
102
}
330
1EEE
100
AcDbXrecord
340
1A
  0
XRECORD
  5
1EF6
102
{ACAD_REACTORS
330
1EEE
102
}
330
1EEE
100
AcDbXrecord
 90
    10781
  0
XRECORD
  5
1EF4
102
{ACAD_REACTORS
330
1EEE
102
}
330
1EEE
100
AcDbXrecord
340
19
  0
XRECORD
  5
1EF5
102
{ACAD_REACTORS
330
1EEE
102
}
330
1EEE
100
AcDbXrecord
340
E
  0
XRECORD
  5
1EFB
102
{ACAD_REACTORS
330
1EEE
102
}
330
1EEE
100
AcDbXrecord
 40
0.0
  0
XRECORD
  5
1EFF
102
{ACAD_REACTORS
330
1EEE
102
}
330
1EEE
100
AcDbXrecord
340
0
  0
XRECORD
  5
1F05
102
{ACAD_REACTORS
330
1EEE
102
}
330
1EEE
100
AcDbXrecord
 10
0.0
 20
0.0
 30
0.0
  0
XRECORD
  5
1F01
102
{ACAD_REACTORS
330
1EEE
102
}
330
1EEE
100
AcDbXrecord
 10
0.0
 20
0.0
 30
0.0
  0
XRECORD
  5
1F04
102
{ACAD_REACTORS
330
1EEE
102
}
330
1EEE
100
AcDbXrecord
 10
0.0
 20
0.0
 30
0.0
  0
XRECORD
  5
1F02
102
{ACAD_REACTORS
330
1EEE
102
}
330
1EEE
100
AcDbXrecord
 10
0.0
 20
0.0
 30
0.0
  0
XRECORD
  5
1F03
102
{ACAD_REACTORS
330
1EEE
102
}
330
1EEE
100
AcDbXrecord
 10
0.0
 20
0.0
 30
0.0
  0
XRECORD
  5
1F00
102
{ACAD_REACTORS
330
1EEE
102
}
330
1EEE
100
AcDbXrecord
 10
0.0
 20
0.0
 30
0.0
  0
XRECORD
  5
1EFD
102
{ACAD_REACTORS
330
1EEE
102
}
330
1EEE
100
AcDbXrecord
340
0
  0
XRECORD
  5
1EFE
102
{ACAD_REACTORS
330
1EEE
102
}
330
1EEE
100
AcDbXrecord
 70
     0
  0
XRECORD
  5
1EF2
102
{ACAD_REACTORS
330
1EEE
102
}
330
1EEE
100
AcDbXrecord
  1

  0
XRECORD
  5
1EEF
102
{ACAD_REACTORS
330
1EEE
102
}
330
1EEE
100
AcDbXrecord
 90
        1
  0
XRECORD
  5
1EF0
102
{ACAD_REACTORS
330
1EEE
102
}
330
1EEE
100
AcDbXrecord
 90
       70
  0
XRECORD
  5
1F08
102
{ACAD_REACTORS
330
1EEE
102
}
330
1EEE
100
AcDbXrecord
340
0
  0
XRECORD
  5
1F0E
102
{ACAD_REACTORS
330
1EEE
102
}
330
1EEE
100
AcDbXrecord
 10
0.0
 20
0.0
 30
0.0
  0
XRECORD
  5
1F0A
102
{ACAD_REACTORS
330
1EEE
102
}
330
1EEE
100
AcDbXrecord
 10
0.0
 20
0.0
 30
0.0
  0
XRECORD
  5
1F0D
102
{ACAD_REACTORS
330
1EEE
102
}
330
1EEE
100
AcDbXrecord
 10
0.0
 20
0.0
 30
0.0
  0
XRECORD
  5
1F0B
102
{ACAD_REACTORS
330
1EEE
102
}
330
1EEE
100
AcDbXrecord
 10
0.0
 20
0.0
 30
0.0
  0
XRECORD
  5
1F0C
102
{ACAD_REACTORS
330
1EEE
102
}
330
1EEE
100
AcDbXrecord
 10
0.0
 20
0.0
 30
0.0
  0
XRECORD
  5
1F09
102
{ACAD_REACTORS
330
1EEE
102
}
330
1EEE
100
AcDbXrecord
 10
0.0
 20
0.0
 30
0.0
  0
XRECORD
  5
1F06
102
{ACAD_REACTORS
330
1EEE
102
}
330
1EEE
100
AcDbXrecord
340
0
  0
XRECORD
  5
1F07
102
{ACAD_REACTORS
330
1EEE
102
}
330
1EEE
100
AcDbXrecord
 70
     0
  0
XRECORD
  5
1EFA
102
{ACAD_REACTORS
330
1EEE
102
}
330
1EEE
100
AcDbXrecord
  1
{6FA00565-0A15-40EF-99F2-1408300835B9}
  0
ENDSEC
  0
EOF
