  0
SECTION
  2
HEADER
  9
$ACADVER
  1
AC1014
  9
$ACADMAINTVER
 70
     9
  9
$DWGCODEPAGE
  3
ANSI_1252
  9
$INSBASE
 10
0.0
 20
0.0
 30
0.0
  9
$EXTMIN
 10
-35.87500000000003
 20
0.0
 30
0.0
  9
$EXTMAX
 10
35.87499999999994
 20
41.75000000000008
 30
0.0
  9
$LIMMIN
 10
0.0
 20
0.0
  9
$LIMMAX
 10
17.0
 20
11.0
  9
$ORTHOMODE
 70
     1
  9
$REGENMODE
 70
     1
  9
$FILLMODE
 70
     1
  9
$QTEXTMODE
 70
     0
  9
$MIRRTEXT
 70
     1
  9
$DRAGMODE
 70
     2
  9
$LTSCALE
 40
0.9350000000000001
  9
$OSMODE
 70
    37
  9
$ATTMODE
 70
     1
  9
$TEXTSIZE
 40
0.2
  9
$TRACEWID
 40
0.05
  9
$TEXTSTYLE
  7
STANDARD
  9
$CLAYER
  8
0
  9
$CELTYPE
  6
BYLAYER
  9
$CECOLOR
 62
   256
  9
$CELTSCALE
 40
1.0
  9
$DELOBJ
 70
     1
  9
$DISPSILH
 70
     0
  9
$DIMSCALE
 40
1.0
  9
$DIMASZ
 40
0.1875
  9
$DIMEXO
 40
0.0625
  9
$DIMDLI
 40
0.38
  9
$DIMRND
 40
0.0
  9
$DIMDLE
 40
0.0
  9
$DIMEXE
 40
0.18
  9
$DIMTP
 40
0.00001
  9
$DIMTM
 40
0.00001
  9
$DIMTXT
 40
0.125
  9
$DIMCEN
 40
0.09
  9
$DIMTSZ
 40
0.0
  9
$DIMTOL
 70
     0
  9
$DIMLIM
 70
     0
  9
$DIMTIH
 70
     1
  9
$DIMTOH
 70
     1
  9
$DIMSE1
 70
     0
  9
$DIMSE2
 70
     0
  9
$DIMTAD
 70
     0
  9
$DIMZIN
 70
     4
  9
$DIMBLK
  1
_FILLED
  9
$DIMASO
 70
     1
  9
$DIMSHO
 70
     1
  9
$DIMPOST
  1

  9
$DIMAPOST
  1

  9
$DIMALT
 70
     0
  9
$DIMALTD
 70
     2
  9
$DIMALTF
 40
25.4
  9
$DIMLFAC
 40
1.0
  9
$DIMTOFL
 70
     0
  9
$DIMTVP
 40
0.0
  9
$DIMTIX
 70
     0
  9
$DIMSOXD
 70
     0
  9
$DIMSAH
 70
     0
  9
$DIMBLK1
  1
_FILLED
  9
$DIMBLK2
  1
_FILLED
  9
$DIMSTYLE
  2
STANDARD
  9
$DIMCLRD
 70
     0
  9
$DIMCLRE
 70
     0
  9
$DIMCLRT
 70
     0
  9
$DIMTFAC
 40
1.0
  9
$DIMGAP
 40
0.09
  9
$DIMJUST
 70
     0
  9
$DIMSD1
 70
     0
  9
$DIMSD2
 70
     0
  9
$DIMTOLJ
 70
     1
  9
$DIMTZIN
 70
     4
  9
$DIMALTZ
 70
     0
  9
$DIMALTTZ
 70
     0
  9
$DIMFIT
 70
     3
  9
$DIMUPT
 70
     0
  9
$DIMUNIT
 70
     2
  9
$DIMDEC
 70
     5
  9
$DIMTDEC
 70
     5
  9
$DIMALTU
 70
     2
  9
$DIMALTTD
 70
     2
  9
$DIMTXSTY
  7
STANDARD
  9
$DIMAUNIT
 70
     0
  9
$LUNITS
 70
     2
  9
$LUPREC
 70
     4
  9
$SKETCHINC
 40
0.1
  9
$FILLETRAD
 40
0.0
  9
$AUNITS
 70
     0
  9
$AUPREC
 70
     0
  9
$MENU
  1
acad
  9
$ELEVATION
 40
0.0
  9
$PELEVATION
 40
0.0
  9
$THICKNESS
 40
0.0
  9
$LIMCHECK
 70
     0
  9
$BLIPMODE
 70
     0
  9
$CHAMFERA
 40
0.0
  9
$CHAMFERB
 40
0.0
  9
$CHAMFERC
 40
0.0
  9
$CHAMFERD
 40
0.0
  9
$SKPOLY
 70
     0
  9
$TDCREATE
 40
2454026.433579861
  9
$TDUPDATE
 40
2454085.379557222
  9
$TDINDWG
 40
0.0719219907
  9
$TDUSRTIMER
 40
0.0719219907
  9
$USRTIMER
 70
     1
  9
$ANGBASE
 50
0.0
  9
$ANGDIR
 70
     0
  9
$PDMODE
 70
     3
  9
$PDSIZE
 40
0.03125
  9
$PLINEWID
 40
0.0
  9
$COORDS
 70
     2
  9
$SPLFRAME
 70
     0
  9
$SPLINETYPE
 70
     6
  9
$SPLINESEGS
 70
     8
  9
$ATTDIA
 70
     0
  9
$ATTREQ
 70
     1
  9
$HANDLING
 70
-16383
  9
$HANDSEED
  5
217D
  9
$SURFTAB1
 70
     6
  9
$SURFTAB2
 70
     6
  9
$SURFTYPE
 70
     6
  9
$SURFU
 70
     6
  9
$SURFV
 70
     6
  9
$UCSNAME
  2

  9
$UCSORG
 10
0.0
 20
0.0
 30
0.0
  9
$UCSXDIR
 10
1.0
 20
0.0
 30
0.0
  9
$UCSYDIR
 10
0.0
 20
1.0
 30
0.0
  9
$PUCSNAME
  2

  9
$PUCSORG
 10
0.0
 20
0.0
 30
0.0
  9
$PUCSXDIR
 10
1.0
 20
0.0
 30
0.0
  9
$PUCSYDIR
 10
0.0
 20
1.0
 30
0.0
  9
$USERI1
 70
     0
  9
$USERI2
 70
     0
  9
$USERI3
 70
     0
  9
$USERI4
 70
     0
  9
$USERI5
 70
     0
  9
$USERR1
 40
0.0
  9
$USERR2
 40
0.0
  9
$USERR3
 40
0.0
  9
$USERR4
 40
0.0
  9
$USERR5
 40
0.0
  9
$WORLDVIEW
 70
     1
  9
$SHADEDGE
 70
     3
  9
$SHADEDIF
 70
    70
  9
$TILEMODE
 70
     1
  9
$MAXACTVP
 70
    16
  9
$PINSBASE
 10
0.0
 20
0.0
 30
0.0
  9
$PLIMCHECK
 70
     0
  9
$PEXTMIN
 10
1.000000000000000E+20
 20
1.000000000000000E+20
 30
1.000000000000000E+20
  9
$PEXTMAX
 10
-1.000000000000000E+20
 20
-1.000000000000000E+20
 30
-1.000000000000000E+20
  9
$PLIMMIN
 10
0.0
 20
0.0
  9
$PLIMMAX
 10
12.0
 20
9.0
  9
$UNITMODE
 70
     0
  9
$VISRETAIN
 70
     0
  9
$PLINEGEN
 70
     1
  9
$PSLTSCALE
 70
     0
  9
$TREEDEPTH
 70
  3020
  9
$PICKSTYLE
 70
     1
  9
$CMLSTYLE
  2
STANDARD
  9
$CMLJUST
 70
     0
  9
$CMLSCALE
 40
1.0
  9
$PROXYGRAPHICS
 70
     0
  9
$MEASUREMENT
 70
     0
  0
ENDSEC
  0
SECTION
  2
CLASSES
  0
CLASS
  1
ACDBDICTIONARYWDFLT
  2
AcDbDictionaryWithDefault
  3
AutoCAD 2000
 90
        0
280
     0
281
     0
  0
CLASS
  1
ACDBPLACEHOLDER
  2
AcDbPlaceHolder
  3
AutoCAD 2000
 90
        0
280
     0
281
     0
  0
CLASS
  1
LAYOUT
  2
AcDbLayout
  3
AutoCAD 2000
 90
        0
280
     0
281
     0
  0
CLASS
  1
LWPOLYLINE
  2
AcDbPolyline
  3
AutoCAD 2000
 90
        0
280
     0
281
     1
  0
CLASS
  1
IMAGE
  2
AcDbRasterImage
  3
ISM
 90
      127
280
     0
281
     1
  0
CLASS
  1
OLE2FRAME
  2
AcDbOle2Frame
  3
AutoCAD 2000
 90
        0
280
     0
281
     1
  0
CLASS
  1
HATCH
  2
AcDbHatch
  3
AutoCAD 2000
 90
        0
280
     0
281
     1
  0
CLASS
  1
DICTIONARYVAR
  2
AcDbDictionaryVar
  3
AutoCAD 2000
 90
        0
280
     0
281
     0
  0
CLASS
  1
RASTERVARIABLES
  2
AcDbRasterVariables
  3
ISM
 90
        0
280
     0
281
     0
  0
CLASS
  1
IMAGEDEF
  2
AcDbRasterImageDef
  3
ISM
 90
        0
280
     0
281
     0
  0
CLASS
  1
IMAGEDEF_REACTOR
  2
AcDbRasterImageDefReactor
  3
ISM
 90
        1
280
     0
281
     0
  0
CLASS
  1
IDBUFFER
  2
AcDbIdBuffer
  3
AutoCAD 2000
 90
        0
280
     0
281
     0
  0
CLASS
  1
SPATIAL_FILTER
  2
AcDbSpatialFilter
  3
AutoCAD 2000
 90
        0
280
     0
281
     0
  0
CLASS
  1
XRECORD
  2
AcDbXrecord
  3
AutoCAD 2000
 90
        0
280
     0
281
     0
  0
CLASS
  1
SORTENTSTABLE
  2
AcDbSortentsTable
  3
AutoCAD 2000
 90
        0
280
     0
281
     0
  0
CLASS
  1
LAYER_INDEX
  2
AcDbLayerIndex
  3
AutoCAD 2000
 90
        0
280
     0
281
     0
  0
CLASS
  1
SPATIAL_INDEX
  2
AcDbSpatialIndex
  3
AutoCAD 2000
 90
        0
280
     0
281
     0
  0
CLASS
  1
OBJECT_PTR
  2
CAseDLPNTableRecord
  3
ASE-LPNTableRecord
 90
        1
280
     0
281
     0
  0
CLASS
  1
PLOTSETTINGS
  2
AcDbPlotSettings
  3
AutoCAD 2000
 90
        0
280
     0
281
     0
  0
CLASS
  1
VBA_PROJECT
  2
AcDbVbaProject
  3
acadvba
 90
        0
280
     0
281
     0
  0
CLASS
  1
WIPEOUT
  2
AcDbWipeout
  3
WipeOut|AutoCAD Express Tool|expresstools@autodesk.com
 90
      127
280
     0
281
     1
  0
CLASS
  1
WIPEOUTVARIABLES
  2
AcDbWipeoutVariables
  3
WipeOut|AutoCAD Express Tool|expresstools@autodesk.com
 90
        0
280
     0
281
     0
  0
CLASS
  1
RTEXT
  2
RText
  3
RText|AutoCAD Express Tool|expresstools@autodesk.com
 90
        0
280
     0
281
     1
  0
CLASS
  1
ARCALIGNEDTEXT
  2
AcDbArcAlignedText
  3
ATEXT|AutoCAD Express Tool|expresstools@autodesk.com
 90
        0
280
     0
281
     1
  0
CLASS
  1
LONG_TRANSACTION
  2
AcDbLongTransaction
  3
AutoCAD 2000
 90
        0
280
     0
281
     0
  0
CLASS
  1
LWPOLYLINE
  2
AcDbPolyline
  3
AutoCAD 2000
 90
        0
280
     0
281
     1
  0
CLASS
  1
HATCH
  2
AcDbHatch
  3
AutoCAD 2000
 90
        0
280
     0
281
     1
  0
CLASS
  1
XRECORD
  2
AcDbXrecord
  3
AutoCAD 2000
 90
        0
280
     0
281
     0
  0
CLASS
  1
LONG_TRANSACTION
  2
AcDbLongTransaction
  3
AutoCAD 2000
 90
        0
280
     0
281
     0
  0
CLASS
  1
LWPOLYLINE
  2
AcDbPolyline
  3
AutoCAD 2000
 90
        0
280
     0
281
     1
  0
CLASS
  1
HATCH
  2
AcDbHatch
  3
AutoCAD 2000
 90
        0
280
     0
281
     1
  0
CLASS
  1
XRECORD
  2
AcDbXrecord
  3
AutoCAD 2000
 90
        0
280
     0
281
     0
  0
CLASS
  1
LONG_TRANSACTION
  2
AcDbLongTransaction
  3
AutoCAD 2000
 90
        0
280
     0
281
     0
  0
CLASS
  1
LWPOLYLINE
  2
AcDbPolyline
  3
AutoCAD 2000
 90
        0
280
     0
281
     1
  0
CLASS
  1
HATCH
  2
AcDbHatch
  3
AutoCAD 2000
 90
        0
280
     0
281
     1
  0
CLASS
  1
XRECORD
  2
AcDbXrecord
  3
AutoCAD 2000
 90
        0
280
     0
281
     0
  0
CLASS
  1
LONG_TRANSACTION
  2
AcDbLongTransaction
  3
AutoCAD 2000
 90
        0
280
     0
281
     0
  0
CLASS
  1
LWPOLYLINE
  2
AcDbPolyline
  3
AutoCAD 2000
 90
        0
280
     0
281
     1
  0
CLASS
  1
HATCH
  2
AcDbHatch
  3
AutoCAD 2000
 90
        0
280
     0
281
     1
  0
CLASS
  1
XRECORD
  2
AcDbXrecord
  3
AutoCAD 2000
 90
        0
280
     0
281
     0
  0
ENDSEC
  0
SECTION
  2
TABLES
  0
TABLE
  2
VPORT
  5
8
330
0
100
AcDbSymbolTable
 70
     3
  0
VPORT
  5
2159
330
8
100
AcDbSymbolTableRecord
100
AcDbViewportTableRecord
  2
*ACTIVE
 70
     0
 10
0.0
 20
0.0
 11
1.0
 21
1.0
 12
-0.4544311575597107
 22
19.81123213551387
 13
0.0
 23
0.0
 14
1.0
 24
1.0
 15
0.0
 25
0.0
 16
0.0
 26
0.0
 36
1.0
 17
0.0
 27
0.0
 37
0.0
 40
46.9692679659644
 41
1.745424292845257
 42
50.0
 43
0.0
 44
0.0
 50
0.0
 51
0.0
 71
     0
 72
   100
 73
     1
 74
     1
 75
     0
 76
     0
 77
     0
 78
     0
  0
ENDTAB
  0
TABLE
  2
LTYPE
  5
5
330
0
100
AcDbSymbolTable
 70
     2
  0
LTYPE
  5
14
330
5
100
AcDbSymbolTableRecord
100
AcDbLinetypeTableRecord
  2
BYBLOCK
 70
     0
  3

 72
    65
 73
     0
 40
0.0
  0
LTYPE
  5
15
330
5
100
AcDbSymbolTableRecord
100
AcDbLinetypeTableRecord
  2
BYLAYER
 70
     0
  3

 72
    65
 73
     0
 40
0.0
  0
LTYPE
  5
16
330
5
100
AcDbSymbolTableRecord
100
AcDbLinetypeTableRecord
  2
CONTINUOUS
 70
     0
  3
Solid line
 72
    65
 73
     0
 40
0.0
  0
LTYPE
  5
1295
330
5
100
AcDbSymbolTableRecord
100
AcDbLinetypeTableRecord
  2
CENTERX2
 70
     0
  3
Center (2x) ________  __  ________  __  _____
 72
    65
 73
     4
 40
4.0
 49
2.5
 74
     0
 49
-0.5
 74
     0
 49
0.5
 74
     0
 49
-0.5
 74
     0
  0
ENDTAB
  0
TABLE
  2
LAYER
  5
2
330
0
100
AcDbSymbolTable
 70
     2
  0
LAYER
  5
10
330
2
100
AcDbSymbolTableRecord
100
AcDbLayerTableRecord
  2
0
 70
     0
 62
     7
  6
CONTINUOUS
  0
LAYER
  5
B09
330
2
100
AcDbSymbolTableRecord
100
AcDbLayerTableRecord
  2
CENTER
 70
     0
 62
     1
  6
CENTERX2
  0
ENDTAB
  0
TABLE
  2
STYLE
  5
3
330
0
100
AcDbSymbolTable
 70
     2
  0
STYLE
  5
11
330
3
100
AcDbSymbolTableRecord
100
AcDbTextStyleTableRecord
  2
STANDARD
 70
     0
 40
0.0
 41
0.8
 50
0.0
 71
     0
 42
0.2
  3
txt
  4

  0
STYLE
  5
21B
330
3
100
AcDbSymbolTableRecord
100
AcDbTextStyleTableRecord
  2
TEXTSTYLE_1
 70
     0
 40
0.0
 41
0.8
 50
0.0
 71
     0
 42
0.2
  3
txt
  4

  0
ENDTAB
  0
TABLE
  2
VIEW
  5
6
330
0
100
AcDbSymbolTable
 70
     0
  0
ENDTAB
  0
TABLE
  2
UCS
  5
7
330
0
100
AcDbSymbolTable
 70
     0
  0
ENDTAB
  0
TABLE
  2
APPID
  5
9
330
0
100
AcDbSymbolTable
 70
     2
  0
APPID
  5
21F
330
9
100
AcDbSymbolTableRecord
100
AcDbRegAppTableRecord
  2
ACAD
 70
     0
  0
APPID
  5
AFF
330
9
100
AcDbSymbolTableRecord
100
AcDbRegAppTableRecord
  2
DCO15
 70
     0
  0
ENDTAB
  0
TABLE
  2
DIMSTYLE
  5
A
330
0
100
AcDbSymbolTable
 70
     1
  0
DIMSTYLE
105
240
330
A
100
AcDbSymbolTableRecord
100
AcDbDimStyleTableRecord
  2
STANDARD
 70
     0
  3

  4

  5
_FILLED
  6
_FILLED
  7
_FILLED
 40
1.0
 41
0.1875
 42
0.0625
 43
0.38
 44
0.18
 45
0.0
 46
0.0
 47
0.00001
 48
0.00001
140
0.125
141
0.09
142
0.0
143
25.4
144
1.0
145
0.0
146
1.0
147
0.09
 71
     0
 72
     0
 73
     1
 74
     1
 75
     0
 76
     0
 77
     0
 78
     4
170
     0
171
     2
172
     0
173
     0
174
     0
175
     0
176
     0
177
     0
178
     0
270
     2
271
     5
272
     5
273
     2
274
     2
340
11
275
     0
280
     0
281
     0
282
     0
283
     1
284
     4
285
     0
286
     0
287
     3
288
     0
  0
ENDTAB
  0
TABLE
  2
BLOCK_RECORD
  5
1
330
0
100
AcDbSymbolTable
 70
     1
  0
BLOCK_RECORD
  5
1F
102
{ACAD_XDICTIONARY
360
1C43
102
}
330
1
100
AcDbSymbolTableRecord
100
AcDbBlockTableRecord
  2
*MODEL_SPACE
  0
BLOCK_RECORD
  5
1B
102
{ACAD_XDICTIONARY
360
1C41
102
}
330
1
100
AcDbSymbolTableRecord
100
AcDbBlockTableRecord
  2
*PAPER_SPACE
  0
BLOCK_RECORD
  5
220
330
1
100
AcDbSymbolTableRecord
100
AcDbBlockTableRecord
  2
_FILLED
  0
ENDTAB
  0
ENDSEC
  0
SECTION
  2
BLOCKS
  0
BLOCK
  5
20
330
1F
100
AcDbEntity
  8
0
100
AcDbBlockBegin
  2
*MODEL_SPACE
 70
     0
 10
0.0
 20
0.0
 30
0.0
  3
*MODEL_SPACE
  1

  0
ENDBLK
  5
21
330
1F
100
AcDbEntity
  8
0
100
AcDbBlockEnd
  0
BLOCK
  5
1C
330
1B
100
AcDbEntity
 67
     1
  8
0
100
AcDbBlockBegin
  2
*PAPER_SPACE
 70
     0
 10
0.0
 20
0.0
 30
0.0
  3
*PAPER_SPACE
  1

  0
ENDBLK
  5
1D
330
1B
100
AcDbEntity
 67
     1
  8
0
100
AcDbBlockEnd
  0
BLOCK
  5
442
330
220
100
AcDbEntity
  8
0
100
AcDbBlockBegin
  2
_FILLED
 70
     0
 10
0.0
 20
0.0
 30
0.0
  3
_FILLED
  1

  0
SOLID
  5
443
330
220
100
AcDbEntity
  8
0
  6
BYBLOCK
 62
     0
100
AcDbTrace
 10
0.0
 20
0.0
 30
0.0
 11
-1.0
 21
0.1666666667
 31
0.0
 12
-1.0
 22
-0.1666666667
 32
0.0
 13
-1.0
 23
-0.1666666667
 33
0.0
  0
ENDBLK
  5
444
330
220
100
AcDbEntity
  8
0
  6
BYBLOCK
 62
     0
100
AcDbBlockEnd
  0
ENDSEC
  0
SECTION
  2
ENTITIES
  0
MTEXT
  5
4BB
330
1F
100
AcDbEntity
  8
0
  6
CONTINUOUS
 62
     2
100
AcDbMText
 10
15.84375
 20
2.3125
 30
0.0
 40
0.09375
 41
0.075
 71
     2
 72
     1
  1
 \P \P 
  7
TEXTSTYLE_1
1001
ACAD
1000
MTEXTBEGIN
1070
    73
1070
     1
1070
    44
1040
1.0
1070
    74
1070
     0
1000
MTEXTEND
1000
MTEXTBEGIN
1070
    73
1070
     1
1070
    44
1040
1.0
1070
    74
1070
     0
1000
MTEXTEND
1000
MTEXTBEGIN
1070
    73
1070
     1
1070
    44
1040
1.0
1070
    74
1070
     0
1000
MTEXTEND
1000
MTEXTBEGIN
1070
    73
1070
     1
1070
    44
1040
1.0
1070
    74
1070
     0
1000
MTEXTEND
  0
LWPOLYLINE
  5
1FA8
330
1F
100
AcDbEntity
  8
0
100
AcDbPolyline
 90
       10
 70
     0
 43
0.0
 10
28.65568837439998
 20
11.17226048320006
 10
28.49904995200002
 20
10.9399989504001
 10
28.33728536960002
 20
10.70966920160006
 10
28.1703789632
 20
10.48136245120011
 10
27.99831109760005
 20
10.25517014400011
 10
27.82105635680007
 20
10.0311808736001
 10
27.63858879519996
 20
9.809488428800051
 10
27.45088219040003
 20
9.590193273600021
 10
27.25790980000006
 20
9.373401363200088
 10
27.05961601280007
 20
9.159193670400128
  0
LWPOLYLINE
  5
1FA9
330
1F
100
AcDbEntity
  8
0
100
AcDbPolyline
 90
       24
 70
     0
 43
0.0
 10
28.30666837280007
 20
11.4179651392001
 10
27.91499779359999
 20
10.85320177120004
 10
27.49491156799997
 20
10.30518373280008
 10
27.04803877280001
 20
9.776417268800088
 10
26.57624623520003
 20
9.269271844800101
 10
26.08163784000005
 20
8.785967219200102
 10
25.56532157440001
 20
8.327509211200123
 10
25.02705464160006
 20
7.893697627200054
 10
24.46718792960003
 20
7.484856172800078
 10
23.88746174240004
 20
7.102394534400133
 10
23.29123593280003
 20
6.748498108800077
 10
22.68077944960005
 20
6.424302656000037
 10
22.05726820800005
 20
6.13026243520008
 10
21.4210933312
 20
5.866406214400086
 10
20.77374269759998
 20
5.633217736000148
 10
20.11741583359999
 20
5.431394006400097
 10
19.45449165120005
 20
5.261497116800143
 10
18.78564144640002
 20
5.123544851200136
 10
18.11079913919998
 20
5.017510516800058
 10
17.43065568000004
 20
4.943555008000117
 10
16.74621290720001
 20
4.901909404800022
 10
16.05868999680008
 20
4.892854459200094
 10
15.36966077920006
 20
4.916554638400072
 10
14.68081283040005
 20
4.973091003200039
  0
LWPOLYLINE
  5
1FAA
330
1F
100
AcDbEntity
  8
0
100
AcDbPolyline
 90
       19
 70
     0
 43
0.0
 10
14.47629348959999
 20
6.153919172800129
 10
15.12013025440008
 20
6.195120881600047
 10
15.68558913919999
 20
6.258217776000066
 10
16.18908196479999
 20
6.340101569600079
 10
16.64284438559998
 20
6.43852076160013
 10
17.05544712160004
 20
6.55176554240009
 10
17.43522939040003
 20
6.67919731200007
 10
17.78878527360002
 20
6.82074922240011
 10
18.12128957279999
 20
6.976805283200093
 10
18.44345260480004
 20
7.151769945600022
 10
18.76369758879998
 20
7.350630395200056
 10
19.08479101439998
 20
7.576649364800147
 10
19.41768597280004
 20
7.840288630400124
 10
19.76465633280004
 20
8.147422788800128
 10
20.12432640000004
 20
8.501581110400053
 10
20.49636418239999
 20
8.907775052800076
 10
20.88050114720006
 20
9.371793875200097
 10
21.27653581760007
 20
9.900460948800088
 10
21.68398468480002
 20
10.5012966784001
  0
LWPOLYLINE
  5
1FAB
330
1F
100
AcDbEntity
  8
0
100
AcDbPolyline
 90
       12
 70
     0
 43
0.0
 10
14.25892180000001
 20
8.696316448000089
 10
14.85707044160001
 20
8.781795640000069
 10
15.41324356640002
 20
8.888625104000112
 10
15.96511101920005
 20
9.022583040000114
 10
16.53956691200001
 20
9.191282609600108
 10
17.13927833120006
 20
9.397775556800098
 10
17.74821459840002
 20
9.638790483200097
 10
18.35208594080002
 20
9.909903395200132
 10
18.93836884960008
 20
10.20577109120009
 10
19.49693241280006
 20
10.52064716960003
 10
20.0195917424
 20
10.84842470560002
 10
20.50164576160007
 20
11.18391375040008
  0
LWPOLYLINE
  5
1FAC
330
1F
100
AcDbEntity
  8
0
100
AcDbPolyline
 90
       25
 70
     0
 43
0.0
 10
14.30002958560005
 20
9.808059348800071
 10
14.40735860479999
 20
9.829012187200106
 10
14.51009611360002
 20
9.850065187200044
 10
14.60968753120001
 20
9.871413035200049
 10
14.70876048480006
 20
9.893574968000081
 10
14.80831814239998
 20
9.916782067200102
 10
14.90725362400003
 20
9.940782476800137
 10
15.00622778400004
 20
9.965735513600094
 10
15.10705051359998
 20
9.992132550400043
 10
15.20683379359998
 20
10.01923696000008
 10
15.30638797920001
 20
10.04725686400004
 10
15.4065720544
 20
10.07644721600004
 10
15.50795187199999
 20
10.10700767520009
 10
15.61069334719998
 20
10.13903374880013
 10
15.71462155199999
 20
10.17251700960005
 10
15.81969213600002
 20
10.20748670560013
 10
15.92634437120007
 20
10.24413997600007
 10
16.03504712640001
 20
10.28270547360003
 10
16.14602148959995
 20
10.32334349920009
 10
16.25942244640005
 20
10.36620228960012
 10
16.37524476160008
 20
10.41137812320008
 10
16.49351672640007
 20
10.45898640480007
 10
16.61445751520007
 20
10.50922962560005
 10
16.73848091999998
 20
10.56240980480007
 10
16.86614815039997
 20
10.6189246992001
  0
LWPOLYLINE
  5
1FAD
330
1F
100
AcDbEntity
  8
0
100
AcDbPolyline
 90
       25
 70
     0
 43
0.0
 10
-16.86649089120002
 20
10.61907957920007
 10
-16.74056780639993
 20
10.56331898560009
 10
-16.61571060479995
 20
10.50975808640012
 10
-16.49430580159996
 20
10.45930888960006
 10
-16.3759444816
 20
10.41165536800011
 10
-16.2602366048
 20
10.36651481280014
 10
-16.14698523839995
 20
10.32370214400012
 10
-16.03600226719997
 20
10.28305004960012
 10
-15.92708023679999
 20
10.24439705760008
 10
-15.82003076799996
 20
10.20760112000007
 10
-15.71460674559993
 20
10.17251195520012
 10
-15.61053115039992
 20
10.13898223840013
 10
-15.50772960639999
 20
10.10693964160012
 10
-15.40624222399996
 20
10.07634968000004
 10
-15.30581395519998
 20
10.04709255040009
 10
-15.20570313599994
 20
10.01892417600007
 10
-15.10518419999998
 20
9.991634832000073
 10
-15.00508445119992
 20
9.965441950400105
 10
-14.90610355519997
 20
9.940498108800085
 10
-14.80698284320003
 20
9.916464555200064
 10
-14.70746191200002
 20
9.893278448000074
 10
-14.60794908479992
 20
9.871032393600131
 10
-14.50768688959992
 20
9.849560304000107
 10
-14.40522100000002
 20
9.82858453120005
 10
-14.300029584
 20
9.808059348800071
  0
LWPOLYLINE
  5
1FAE
330
1F
100
AcDbEntity
  8
0
100
AcDbPolyline
 90
       10
 70
     0
 43
0.0
 10
-27.05961601120002
 20
9.159193670400128
 10
-27.25795217440001
 20
9.373448048000142
 10
-27.45095470879998
 20
9.590276356800046
 10
-27.63867991839997
 20
9.809597000000081
 10
-27.82115524959992
 20
10.03130341280009
 10
-27.99840762559999
 20
10.25529455680012
 10
-28.17046369919994
 20
10.48147608000013
 10
-28.33734960639997
 20
10.70975884800012
 10
-28.49908569760002
 20
10.94005088960003
 10
-28.65568837279992
 20
11.17226048320006
  0
LWPOLYLINE
  5
1FAF
330
1F
100
AcDbEntity
  8
0
100
AcDbPolyline
 90
       12
 70
     0
 43
0.0
 10
-14.25892179839995
 20
8.696316448000089
 10
-14.85707043999996
 20
8.781795640000069
 10
-15.41324356479996
 20
8.888625104000112
 10
-15.96511101759999
 20
9.022583040000114
 10
-16.53956691199998
 20
9.191282609600108
 10
-17.1392783296
 20
9.397775556800098
 10
-17.74821459679996
 20
9.638790483200097
 10
-18.35208593919996
 20
9.909903395200132
 10
-18.93836884800002
 20
10.20577109120009
 10
-19.4969324112
 20
10.52064716960003
 10
-20.01959174079995
 20
10.84842470560002
 10
-20.50164576000001
 20
11.18391375040008
  0
LWPOLYLINE
  5
1FB0
330
1F
100
AcDbEntity
  8
0
100
AcDbPolyline
 90
       19
 70
     0
 43
0.0
 10
-14.47629348799994
 20
6.153919172800129
 10
-15.12013025280002
 20
6.195120881600047
 10
-15.68558913759993
 20
6.258217776000066
 10
-16.18908196319994
 20
6.340101569600079
 10
-16.64284438399993
 20
6.43852076160013
 10
-17.05544711999998
 20
6.55176554240009
 10
-17.43522938879998
 20
6.67919731200007
 10
-17.78878527199997
 20
6.82074922240011
 10
-18.12128957119993
 20
6.976805283200093
 10
-18.44345260319998
 20
7.151769945600022
 10
-18.76369758719993
 20
7.350630395200056
 10
-19.08479101279992
 20
7.576649364800147
 10
-19.41768597280001
 20
7.840288630400124
 10
-19.76465633280001
 20
8.147422788800128
 10
-20.12432639839998
 20
8.501581110400053
 10
-20.49636418239997
 20
8.907775052800076
 10
-20.88050114560001
 20
9.371793875200097
 10
-21.27653581600001
 20
9.900460948800088
 10
-21.68398468319996
 20
10.5012966784001
  0
LWPOLYLINE
  5
1FB1
330
1F
100
AcDbEntity
  8
0
100
AcDbPolyline
 90
       24
 70
     0
 43
0.0
 10
-28.30666837120002
 20
11.4179651392001
 10
-27.91499779199993
 20
10.85320177120004
 10
-27.49491156799995
 20
10.30518373280008
 10
-27.04803877279998
 20
9.776417268800088
 10
-26.5762462352
 20
9.269271844800101
 10
-26.0816378384
 20
8.785967219200102
 10
-25.56532157279995
 20
8.327509211200123
 10
-25.02705464
 20
7.893697627200054
 10
-24.46718792799997
 20
7.484856172800078
 10
-23.88746174240002
 20
7.102394534400133
 10
-23.29123593119998
 20
6.748498108800077
 10
-22.68077944799999
 20
6.424302656000037
 10
-22.05726820639999
 20
6.13026243520008
 10
-21.42109332959994
 20
5.866406214400086
 10
-20.77374269599992
 20
5.633217736000148
 10
-20.11741583199993
 20
5.431394006400097
 10
-19.4544916496
 20
5.261497116800143
 10
-18.78564144479996
 20
5.123544851200136
 10
-18.11079913759992
 20
5.017510516800058
 10
-17.43065567839998
 20
4.943555008000117
 10
-16.74621290559996
 20
4.901909404800022
 10
-16.05868999520002
 20
4.892854459200094
 10
-15.3696607776
 20
4.916554638400072
 10
-14.6808128288
 20
4.973091003200039
  0
LINE
  5
1FB2
330
1F
100
AcDbEntity
  8
CENTER
100
AcDbLine
 10
0.0000000000000142
 20
3.092053474080188
 30
0.0
 11
0.0000000000000142
 21
16.31578623647907
 31
0.0
  0
LWPOLYLINE
  5
1FB6
330
1F
100
AcDbEntity
  8
0
100
AcDbPolyline
 90
        6
 70
     0
 43
0.0
 10
-2.817583607999992
 20
7.614677446400065
 10
-3.253744004799997
 20
7.431202593600033
 10
-3.663723807999915
 20
7.200008086400117
 10
-4.041655884800022
 20
6.924311966400097
 10
-4.382118638399944
 20
6.607949041600051
 10
-4.612564364799979
 20
6.343258372800079
  0
LWPOLYLINE
  5
1FB7
330
1F
100
AcDbEntity
  8
0
100
AcDbPolyline
 90
       21
 70
     0
 43
0.0
 10
-2.677905887999983
 20
6.44677305760004
 10
-2.710576692799961
 20
6.452791830400116
 10
-2.743446537599922
 20
6.459683902400144
 10
-2.776509003200018
 20
6.467383502400053
 10
-2.809730846399972
 20
6.475824398400078
 10
-2.843285903999955
 20
6.48500197920012
 10
-2.878168155199929
 20
6.495175120000027
 10
-2.915330977600021
 20
6.506658528000031
 10
-2.955800534399983
 20
6.519848680000137
 10
-3.0007854336
 20
6.535263667200098
 10
-3.051491129600023
 20
6.553484566400044
 10
-3.10937184959998
 20
6.575244392000087
 10
-3.175857654399962
 20
6.601328299200105
 10
-3.248771825599916
 20
6.631064972800146
 10
-3.323808300799939
 20
6.66269126080013
 10
-3.397533580800015
 20
6.694592633600137
 10
-3.469634476799953
 20
6.726433182400029
 10
-3.539951086399966
 20
6.757975796800025
 10
-3.608768566399973
 20
6.789213446400054
 10
-3.677003227200017
 20
6.820460755200116
 10
-3.745637491199929
 20
6.852091227200077
  0
LWPOLYLINE
  5
1FB8
330
1F
100
AcDbEntity
  8
0
100
AcDbPolyline
 90
       13
 70
     0
 43
0.0
 10
-3.81559899839992
 20
6.522774392000115
 10
-3.715172582400029
 20
6.515724870400077
 10
-3.617006875200033
 20
6.508249043200095
 10
-3.520049734399933
 20
6.500276113600108
 10
-3.423408267200031
 20
6.49172449120013
 10
-3.32836156799992
 20
6.482702588800094
 10
-3.234612286400007
 20
6.473186902400044
 10
-3.14197912959996
 20
6.463159227200122
 10
-3.051406622399937
 20
6.452730012800117
 10
-2.962723233599987
 20
6.441896387200046
 10
-2.875215756799931
 20
6.430579331200107
 10
-2.788675985600022
 20
6.418750382400077
 10
-2.703347228800041
 20
6.406441734400146
  0
LWPOLYLINE
  5
1FB9
330
1F
100
AcDbEntity
  8
0
100
AcDbPolyline
 90
       10
 70
     0
 43
0.0
 10
4.331180668799973
 20
8.25994476800011
 10
3.424178814400036
 20
8.664811579200119
 10
2.475667795199981
 20
8.972867571200055
 10
1.497275328000071
 20
9.180308358400139
 10
0.5008560048000419
 20
9.284631761600081
 10
-0.5015656495999537
 20
9.284594712000085
 10
-1.497881251199984
 20
9.180212683200039
 10
-2.476065865599977
 20
8.97276106880011
 10
-3.424313443199977
 20
8.664759849600073
 10
-4.331180667199916
 20
8.25994476800011
  0
LWPOLYLINE
  5
1FBA
330
1F
100
AcDbEntity
  8
0
100
AcDbPolyline
 90
        5
 70
     0
 43
0.0
 10
0.0000000000000711
 20
5.606240444800079
 10
-0.7668124111999504
 20
5.603334796800055
 10
-1.476968275200007
 20
5.595463993600134
 10
-2.203445857599987
 20
5.582259977600102
 10
-2.988957603200034
 20
5.562118118400036
  0
LWPOLYLINE
  5
1FBB
330
1F
100
AcDbEntity
  8
0
100
AcDbPolyline
 90
        4
 70
     0
 43
0.0
 10
-2.985384379199942
 20
5.959337507200103
 10
-1.990406657599962
 20
5.983662587200029
 10
-0.9952683839999707
 20
5.998258244800041
 10
0.0000000000000711
 20
6.003124000000099
  0
LWPOLYLINE
  5
1FC9
330
1F
100
AcDbEntity
  8
0
100
AcDbPolyline
 90
       13
 70
     0
 43
0.0
 10
-14.66690170079998
 20
4.577702356800074
 10
-15.51602779519991
 20
4.511934603200103
 10
-16.45656540320003
 20
4.495869758400118
 10
-17.49537337759993
 20
4.547357787200127
 10
-18.64182577440003
 20
4.689423115200071
 10
-19.87603142079994
 20
4.945393374400083
 10
-21.11072521919997
 20
5.314070576000091
 10
-22.33015054399997
 20
5.797682595200086
 10
-23.49976344799999
 20
6.385678876800085
 10
-24.51133003039994
 20
7.005325768000062
 10
-25.36793586239996
 20
7.623010883200123
 10
-26.09459627840003
 20
8.225176755200124
 10
-26.71589710560003
 20
8.806923782400104
  0
LWPOLYLINE
  5
1FCE
330
1F
100
AcDbEntity
  8
0
100
AcDbPolyline
 90
        4
 70
     0
 43
0.0
 10
-26.71589710560003
 20
8.806923782400104
 10
-26.83167286400002
 20
8.922994257600095
 10
-26.94626318239993
 20
9.040434084800068
 10
-27.05961601120002
 20
9.159193670400128
  0
LWPOLYLINE
  5
1FD0
330
1F
100
AcDbEntity
  8
0
100
AcDbPolyline
 90
       21
 70
     0
 43
0.0
 10
-14.25892179839995
 20
9.800325560000061
 10
-13.74657218399993
 20
9.707013483200086
 10
-13.21021246239995
 20
9.614313633600119
 10
-12.65253465120001
 20
9.523003049600134
 10
-12.07686957280002
 20
9.433756705600131
 10
-11.49037955839996
 20
9.347574120000132
 10
-10.90323691040002
 20
9.265559792000118
 10
-10.32715098079999
 20
9.188718908800098
 10
-9.776775033600003
 20
9.118214516800122
 10
-9.243900246399945
 20
9.052287968000115
 10
-8.706631225599991
 20
8.987774233600049
 10
-8.154056305600008
 20
8.923125977600108
 10
-7.579512902400026
 20
8.857476340800104
 10
-6.979862324799952
 20
8.790513708800091
 10
-6.375865059199938
 20
8.724657105600073
 10
-5.769704531200019
 20
8.6602575072001
 10
-5.162743942400012
 20
8.597562889600027
 10
-4.625941425600032
 20
8.544149616000055
 10
-4.201298219199927
 20
8.503980940800062
 10
-3.863928361600002
 20
8.474101280000041
 10
-3.853371824000006
 20
8.473233131200146
  0
LWPOLYLINE
  5
1FD1
330
1F
100
AcDbEntity
  8
0
100
AcDbPolyline
 90
       16
 70
     0
 43
0.0
 10
-5.400264124799988
 20
7.56170464480013
 10
-5.700764441600014
 20
7.668791958400134
 10
-6.218450347199947
 20
7.826245012800114
 10
-6.78309784799994
 20
7.970290512000048
 10
-7.39695627199994
 20
8.100165412800066
 10
-8.060780900799997
 20
8.214588078400112
 10
-8.764268254399937
 20
8.311137518400101
 10
-9.408624108799969
 20
8.380883483200051
 10
-9.983115878400028
 20
8.430465136000094
 10
-10.51229261600001
 20
8.467361417600073
 10
-11.0471173376
 20
8.497757604800113
 10
-11.59566531679995
 20
8.523882878400087
 10
-12.17020804320002
 20
8.548898947200115
 10
-12.79983847839996
 20
8.578655054400115
 10
-13.52329275039998
 20
8.624736177600112
 10
-14.25892179839995
 20
8.69631645440009
  0
LWPOLYLINE
  5
1FD2
330
1F
100
AcDbEntity
  8
0
100
AcDbPolyline
 90
       10
 70
     0
 43
0.0
 10
-6.384875956799916
 20
6.548679579200125
 10
-6.469156977599979
 20
6.546392582400045
 10
-7.128057499199982
 20
6.518368524800081
 10
-7.84225303839996
 20
6.478595819200023
 10
-8.620415756799999
 20
6.427132048000117
 10
-9.465811631999983
 20
6.365488222400045
 10
-10.30243472959993
 20
6.302799984000131
 10
-11.11042079839994
 20
6.244951891200031
 10
-11.8926165536
 20
6.195970819200084
 10
-12.64630848159997
 20
6.159941662400029
  0
LWPOLYLINE
  5
1FD3
330
1F
100
AcDbEntity
  8
0
100
AcDbPolyline
 90
        5
 70
     0
 43
0.0
 10
-2.988957603200034
 20
5.562118118400036
 10
-5.078196214399937
 20
5.478848723200059
 10
-7.372885118399992
 20
5.337530676800071
 10
-9.886380612799982
 20
5.122577216000109
 10
-12.64726860479997
 20
4.81350033440006
  0
LWPOLYLINE
  5
1FD4
330
1F
100
AcDbEntity
  8
0
100
AcDbPolyline
 90
       14
 70
     0
 43
0.0
 10
-12.69311663839998
 20
5.202904017600104
 10
-11.44384905759993
 20
5.351523276800122
 10
-10.31842896799996
 20
5.472629310400094
 10
-9.301327308799997
 20
5.571603412800101
 10
-8.379550671999979
 20
5.652665315200039
 10
-7.542171131199935
 20
5.719149033600075
 10
-6.779757511999989
 20
5.773724696000073
 10
-6.084151235199939
 20
5.818540648000094
 10
-5.448634252799976
 20
5.855308929600056
 10
-4.867152623999956
 20
5.885431900800114
 10
-4.333947180799938
 20
5.910072316800125
 10
-3.843686654399945
 20
5.930179614400145
 10
-3.394279719999914
 20
5.946425872000105
 10
-2.985384379199942
 20
5.959337507200103
  0
LWPOLYLINE
  5
1FD5
330
1F
100
AcDbEntity
  8
0
100
AcDbPolyline
 90
        4
 70
     0
 43
0.0
 10
-14.6808128288
 20
4.973091003200039
 10
-14.01011164159994
 20
5.046399836800134
 10
-13.34756203039994
 20
5.123101267200041
 10
-12.69311663839998
 20
5.202904017600104
  0
LWPOLYLINE
  5
1FD6
330
1F
100
AcDbEntity
  8
0
100
AcDbPolyline
 90
        4
 70
     0
 43
0.0
 10
-12.67420943199992
 20
4.810112888000077
 10
-13.33039243039995
 20
4.729628923200067
 10
-13.98706912159995
 20
4.652967580800037
 10
-14.6442766288
 20
4.58012571680004
  0
LINE
  5
1FD7
330
1F
100
AcDbEntity
  8
0
100
AcDbLine
 10
-14.64427662880005
 20
4.580125716799997
 30
0.0
 11
-14.66690170080004
 21
4.577702356800031
 31
0.0
  0
LINE
  5
1FD8
330
1F
100
AcDbEntity
  8
0
100
AcDbLine
 10
-12.64726860480003
 20
4.813500334400018
 30
0.0
 11
-12.67420943199998
 21
4.810112888000034
 31
0.0
  0
LWPOLYLINE
  5
1FD9
330
1F
100
AcDbEntity
  8
0
100
AcDbPolyline
 90
        4
 70
     0
 43
0.0
 10
-12.64630848159997
 20
6.159941662400029
 10
-13.26763100959992
 20
6.142201910400132
 10
-13.87899015679993
 20
6.139119172800093
 10
-14.47629348799994
 20
6.153919174400044
  0
LINE
  5
1FDA
330
1F
100
AcDbEntity
  8
0
100
AcDbLine
 10
-14.30002958400005
 20
9.808059348800028
 30
0.0
 11
-14.25892179840001
 21
9.800325603199993
 31
0.0
  0
LWPOLYLINE
  5
1FDB
330
1F
100
AcDbEntity
  8
0
100
AcDbPolyline
 90
        6
 70
     0
 43
0.0
 10
-4.331180667199916
 20
8.25994476800011
 10
-4.906616139200011
 20
7.925304596800089
 10
-5.439565471999955
 20
7.532756955200085
 10
-5.923649415999918
 20
7.087152928000051
 10
-6.353074734399953
 20
6.594006254400056
 10
-6.681076944000025
 20
6.126500648000074
  0
LWPOLYLINE
  5
1FDC
330
1F
100
AcDbEntity
  8
0
100
AcDbPolyline
 90
        9
 70
     0
 43
0.0
 10
-6.086246384000034
 20
6.098854008000131
 10
-6.22029184160003
 20
6.090149494400094
 10
-6.347919990399915
 20
6.084914190400041
 10
-6.462524244800007
 20
6.083768475200059
 10
-6.556055988799968
 20
6.086934337600069
 10
-6.623740937599947
 20
6.093971220800113
 10
-6.666567974400024
 20
6.104653664000039
 10
-6.683018078400024
 20
6.118930750400096
 10
-6.681019145600018
 20
6.126504160000109
  0
LWPOLYLINE
  5
1FDD
330
1F
100
AcDbEntity
  8
0
100
AcDbPolyline
 90
        8
 70
     0
 43
0.0
 10
-4.807294852799984
 20
6.247804691200059
 10
-4.842348724800032
 20
6.234138076800064
 10
-4.898740513599975
 20
6.21877649600006
 10
-4.973615286399919
 20
6.202912134400122
 10
-5.06174190559993
 20
6.187733828800134
 10
-5.160558798400003
 20
6.173769545600094
 10
-5.262441966399975
 20
6.162151476800119
 10
-5.358094913600027
 20
6.153705144000042
  0
LWPOLYLINE
  5
1FDE
330
1F
100
AcDbEntity
  8
0
100
AcDbPolyline
 90
        3
 70
     0
 43
0.0
 10
-4.631749447999979
 20
6.331172625600089
 10
-4.721588102399934
 20
6.290077190400126
 10
-4.807294852799984
 20
6.247804691200059
  0
LWPOLYLINE
  5
1FDF
330
1F
100
AcDbEntity
  8
0
100
AcDbPolyline
 90
        3
 70
     0
 43
0.0
 10
-4.612549564799948
 20
6.343259222400121
 10
-4.613817596799933
 20
6.341864296000068
 10
-4.631749447999979
 20
6.331172625600089
  0
LINE
  5
1FE0
330
1F
100
AcDbEntity
  8
0
100
AcDbLine
 10
-3.745637491199985
 20
6.852091227200034
 30
0.0
 11
-3.987313259200035
 21
6.963954145600027
 31
0.0
  0
LWPOLYLINE
  5
1FE1
330
1F
100
AcDbEntity
  8
0
100
AcDbPolyline
 90
        3
 70
     0
 43
0.0
 10
-3.81559899839992
 20
6.522774392000115
 10
-4.27505137919995
 20
6.547888476800068
 10
-4.430191296000018
 20
6.552732640000073
  0
LINE
  5
1FE2
330
1F
100
AcDbEntity
  8
0
100
AcDbLine
 10
-6.086246384000091
 20
6.098854008000088
 30
0.0
 11
-5.358094913600083
 21
6.153705143999999
 31
0.0
  0
LWPOLYLINE
  5
1FE6
330
1F
100
AcDbEntity
  8
0
100
AcDbPolyline
 90
       13
 70
     0
 43
0.0
 10
26.71589710880001
 20
8.806923784000133
 10
26.09563459840008
 20
8.226094600000038
 10
25.3777833072
 20
7.630662964800109
 10
24.53917789600002
 20
7.023990014400084
 10
23.55602137119997
 20
6.417296459200116
 10
22.41690155520002
 20
5.836937459200072
 10
21.1974024672
 20
5.344395843200032
 10
19.93995361440006
 20
4.961653172800112
 10
18.67462472960001
 20
4.694824830400108
 10
17.50726315200002
 20
4.548369484800133
 10
16.45930196959996
 20
4.495909792000048
 10
15.51602207360004
 20
4.511934883200098
 10
14.66690170080001
 20
4.577702356800074
  0
LWPOLYLINE
  5
1FE8
330
1F
100
AcDbEntity
  8
0
100
AcDbPolyline
 90
       16
 70
     0
 43
0.0
 10
5.400264019200065
 20
7.561704606400127
 10
5.700764443200071
 20
7.668791958400134
 10
6.218450348800004
 20
7.826245012800114
 10
6.783097849599997
 20
7.970290512000048
 10
7.396956273599997
 20
8.100165412800066
 10
8.060780902400054
 20
8.214588078400112
 10
8.764268255999994
 20
8.311137518400101
 10
9.408624108799997
 20
8.380883483200051
 10
9.983115878400056
 20
8.430465136000094
 10
10.51229261760006
 20
8.467361417600073
 10
11.04711733920005
 20
8.497757604800113
 10
11.59566531840001
 20
8.523882878400087
 10
12.17020804479996
 20
8.548898947200115
 10
12.79983848000002
 20
8.578655054400115
 10
13.52329275040001
 20
8.624736177600112
 10
14.25892180000001
 20
8.69631645440009
  0
LWPOLYLINE
  5
1FE9
330
1F
100
AcDbEntity
  8
0
100
AcDbPolyline
 90
       21
 70
     0
 43
0.0
 10
3.85331676159997
 20
8.473253302400081
 10
3.872834580799988
 20
8.474861971200112
 10
4.208326720000016
 20
8.504624921600139
 10
4.618345998400016
 20
8.543411883200093
 10
5.135201169599966
 20
8.594767784000083
 10
5.73949170240003
 20
8.657093059200093
 10
6.348042828800046
 20
8.721663364800093
 10
6.956226635200053
 20
8.787906206400094
 10
7.5568928016
 20
8.854922027200046
 10
8.134311174400025
 20
8.920844462400083
 10
8.689252663999994
 20
8.985716268800075
 10
9.229311724799984
 20
9.050511968000051
 10
9.764138254400066
 20
9.116625888000072
 10
10.31594573440004
 20
9.187256595200125
 10
10.89115767840003
 20
9.263913504000043
 10
11.47803321440001
 20
9.345807508800049
 10
12.0671911376
 20
9.432297070400096
 10
12.64554858239996
 20
9.521890387200102
 10
13.20599257279998
 20
9.613603728000072
 10
13.74476122560004
 20
9.706692072000038
 10
14.25892180000001
 20
9.800325560000061
  0
LWPOLYLINE
  5
1FEA
330
1F
100
AcDbEntity
  8
0
100
AcDbPolyline
 90
       14
 70
     0
 43
0.0
 10
12.69311664000004
 20
5.202904017600104
 10
11.44384905759996
 20
5.351523276800122
 10
10.31842896960002
 20
5.472629310400094
 10
9.301327310400054
 20
5.571603412800101
 10
8.379550673600036
 20
5.652665315200039
 10
7.542171131199964
 20
5.719149033600075
 10
6.779757513600046
 20
5.773724696000073
 10
6.084151236799996
 20
5.818540648000094
 10
5.448634254400033
 20
5.855308929600056
 10
4.867152625600013
 20
5.885431900800114
 10
4.333947182399995
 20
5.910072316800125
 10
3.843686656000002
 20
5.930179614400145
 10
3.394279721600085
 20
5.946425872000105
 10
2.985384380799999
 20
5.959337507200103
  0
LWPOLYLINE
  5
1FEB
330
1F
100
AcDbEntity
  8
0
100
AcDbPolyline
 90
        5
 70
     0
 43
0.0
 10
12.6472686048
 20
4.81350033440006
 10
9.851208627200051
 20
5.126020694400068
 10
7.334364148800048
 20
5.34033480480005
 10
5.057362646400022
 20
5.479892403200125
 10
2.988957604799978
 20
5.562118118400036
  0
LWPOLYLINE
  5
1FEC
330
1F
100
AcDbEntity
  8
0
100
AcDbPolyline
 90
       10
 70
     0
 43
0.0
 10
6.384876166400047
 20
6.548679572800125
 10
6.469156979200036
 20
6.546392582400045
 10
7.128057500800039
 20
6.518368524800081
 10
7.842253040000016
 20
6.478595819200023
 10
8.620415758400056
 20
6.427132048000117
 10
9.46581163360004
 20
6.365488222400045
 10
10.30243473119999
 20
6.302799984000131
 10
11.11042079839997
 20
6.244951891200031
 10
11.89261655520006
 20
6.195970819200084
 10
12.64630848320003
 20
6.159941662400029
  0
LWPOLYLINE
  5
1FEE
330
1F
100
AcDbEntity
  8
0
100
AcDbPolyline
 90
        6
 70
     0
 43
0.0
 10
4.612564369599979
 20
6.343258369600022
 10
4.382105308800035
 20
6.607963008000098
 10
4.04166631360006
 20
6.924303372800096
 10
3.66375550879998
 20
7.199987694400107
 10
3.253786401600066
 20
7.431181817600105
 10
2.817583609600049
 20
7.614677446400065
  0
LWPOLYLINE
  5
1FEF
330
1F
100
AcDbEntity
  8
0
100
AcDbPolyline
 90
        3
 70
     0
 43
0.0
 10
3.815598999999977
 20
6.522774392000115
 10
4.275051380800007
 20
6.547888476800068
 10
4.430190393600085
 20
6.552732612800042
  0
LWPOLYLINE
  5
1FF0
330
1F
100
AcDbEntity
  8
0
100
AcDbPolyline
 90
        4
 70
     0
 43
0.0
 10
2.985384380799999
 20
5.959337507200103
 10
1.990406675199963
 20
5.983662585600114
 10
0.9952684192000589
 20
5.998258244800041
 10
0.0000000000000711
 20
6.003124000000099
  0
LWPOLYLINE
  5
1FF1
330
1F
100
AcDbEntity
  8
0
100
AcDbPolyline
 90
        5
 70
     0
 43
0.0
 10
2.988957604799978
 20
5.562118118400036
 10
2.19528985760003
 20
5.582437142400095
 10
1.468516696000008
 20
5.595586940800131
 10
0.762184448000042
 20
5.603369758400077
 10
0.0000000000000711
 20
5.606240444800079
  0
LWPOLYLINE
  5
1FF2
330
1F
100
AcDbEntity
  8
0
100
AcDbPolyline
 90
       17
 70
     0
 43
0.0
 10
1.172181449600046
 20
6.386813081600081
 10
1.150808835200066
 20
6.372725171200073
 10
1.120425955200019
 20
6.359041065600109
 10
1.081341564799984
 20
6.34588598080009
 10
1.033749315200068
 20
6.333315756800089
 10
0.978115678400016
 20
6.321445595200117
 10
0.9148053391999866
 20
6.310340361600111
 10
0.844359367999985
 20
6.300082766400038
 10
0.7673599663999795
 20
6.290741547200042
 10
0.6842837072000095
 20
6.28236174560007
 10
0.5958776992000168
 20
6.275006931200124
 10
0.5027387887999595
 20
6.268715112000023
 10
0.4060638384000442
 20
6.26354881920011
 10
0.3065402912000792
 20
6.259521017600064
 10
0.2052214144000146
 20
6.256650384000096
 10
0.1027326351999847
 20
6.254931958400135
 10
0.0000000000000711
 20
6.254362051200047
  0
LWPOLYLINE
  5
1FF3
330
1F
100
AcDbEntity
  8
0
100
AcDbPolyline
 90
       18
 70
     0
 43
0.0
 10
1.181118607999977
 20
6.39938122240008
 10
1.165965838400055
 20
6.413779536000134
 10
1.142289590400039
 20
6.427881160000112
 10
1.110451216000072
 20
6.441614980800096
 10
1.070866332800008
 20
6.454887230400032
 10
1.023746780799982
 20
6.46766687520008
 10
0.9694973423999755
 20
6.479856280000063
 10
0.9082479583999685
 20
6.491418848000108
 10
0.840347455999975
 20
6.502264072000031
 10
0.766018267199982
 20
6.512323361600039
 10
0.6854737696000513
 20
6.521522275200055
 10
0.5991522144000357
 20
6.529760065600072
 10
0.5074135727999903
 20
6.536949185600093
 10
0.4112818928000053
 20
6.542965003200066
 10
0.3113979120000323
 20
6.547734366400078
 10
0.208950561600048
 20
6.551178232000125
 10
0.1047619343999742
 20
6.553258784000064
 10
0.0000000000000711
 20
6.553952289600061
  0
LWPOLYLINE
  5
1FF4
330
1F
100
AcDbEntity
  8
0
100
AcDbPolyline
 90
       20
 70
     0
 43
0.0
 10
0.0000000000000711
 20
6.584898166400108
 10
0.10476212639999
 20
6.584204673600112
 10
0.2089510688000047
 20
6.582124158400034
 10
0.3113987935999631
 20
6.578680347200048
 10
0.4112831360000229
 20
6.573911054400042
 10
0.5074151007999746
 20
6.567895324800048
 10
0.5991538671999735
 20
6.560706313600036
 10
0.6854753024000076
 20
6.552468665600059
 10
0.7660194575999669
 20
6.543269931200057
 10
0.8403481776000063
 20
6.533210857600039
 10
0.9082481936000732
 20
6.522365868800108
 10
0.9694971312000717
 20
6.510803548800055
 10
1.023746219199964
 20
6.498614395200121
 10
1.070865555200001
 20
6.485834987200092
 10
1.110450372800031
 20
6.472562945600117
 10
1.142288824000004
 20
6.458829292800061
 10
1.165965262400007
 20
6.444727785600122
 10
1.181118289599979
 20
6.430329531200101
 10
1.18734891039999
 20
6.415772411200038
 10
1.187500000000071
 20
6.413137017600121
  0
LWPOLYLINE
  5
1FF5
330
1F
100
AcDbEntity
  8
0
100
AcDbPolyline
 90
        7
 70
     0
 43
0.0
 10
2.817583609600049
 20
7.614677446400065
 10
2.03409278559998
 20
7.850147988800046
 10
1.229156665600001
 20
8.00851877760013
 10
0.411220769600007
 20
8.088130891200108
 10
-0.4110740015999426
 20
8.088138012800101
 10
-1.229043809599986
 20
8.008535326400107
 10
-2.034048073599976
 20
7.850159073600053
  0
LINE
  5
1FF6
330
1F
100
AcDbEntity
  8
0
100
AcDbLine
 10
-1.165973916799984
 20
6.4137736192
 30
0.0
 11
-1.18112578240003
 21
6.399371537600003
 31
0.0
  0
LINE
  5
1FF7
330
1F
100
AcDbEntity
  8
0
100
AcDbLine
 10
-1.18112578240003
 20
6.399371537600003
 30
0.0
 11
-1.181698254400075
 21
6.398032552000003
 31
0.0
  0
LWPOLYLINE
  5
1FF8
330
1F
100
AcDbEntity
  8
0
100
AcDbPolyline
 90
       20
 70
     0
 43
0.0
 10
-1.187499998400014
 20
6.413137041600094
 10
-1.187350198399983
 20
6.415761115200126
 10
-1.181125467199919
 20
6.430319841600095
 10
-1.165973347199994
 20
6.444721864000058
 10
-1.142297759999948
 20
6.458824817600117
 10
-1.110458216000026
 20
6.472559982400099
 10
-1.070873439999942
 20
6.485832617600095
 10
-1.023752812799941
 20
6.4986127696001
 10
-0.9694995023999553
 20
6.5108030608001
 10
-0.9082516256000161
 20
6.52236527200003
 10
-0.840345079999949
 20
6.533211312000076
 10
-0.7660224191999277
 20
6.543269563200084
 10
-0.6854795088000146
 20
6.552468225600051
 10
-0.5991650847999353
 20
6.560705340800069
 10
-0.5074252943999653
 20
6.567894606400074
 10
-0.4112859423999425
 20
6.573910899200114
 10
-0.3114023263999996
 20
6.578680203200093
 10
-0.2089480351999526
 20
6.582124240000126
 10
-0.1047614416000187
 20
6.584204683200056
 10
0.0000000000000711
 20
6.584898166400108
  0
LWPOLYLINE
  5
1FF9
330
1F
100
AcDbEntity
  8
0
100
AcDbPolyline
 90
        3
 70
     0
 43
0.0
 10
-1.172164555200012
 20
6.386798758400033
 10
-1.184394684799983
 20
6.401209820800119
 10
-1.187499998400014
 20
6.413137041600094
  0
LWPOLYLINE
  5
1FFA
330
1F
100
AcDbEntity
  8
0
100
AcDbPolyline
 90
       17
 70
     0
 43
0.0
 10
0.0000000000000711
 20
6.254362051200047
 10
-0.1027137743999873
 20
6.254931748800032
 10
-0.2051929679999347
 20
6.256649745600071
 10
-0.3064961632000376
 20
6.25951950400011
 10
-0.4060107327999703
 20
6.263546332800075
 10
-0.5026701519999932
 20
6.26871097280005
 10
-0.5958034864000155
 20
6.275001355200089
 10
-0.6842139695999521
 20
6.282355348800052
 10
-0.7672934815999924
 20
6.290734190400058
 10
-0.8443006624000162
 20
6.300074966400103
 10
-0.9147463247999638
 20
6.310330939200099
 10
-0.9780649792000275
 20
6.321435803200103
 10
-1.033701927999956
 20
6.333304540800128
 10
-1.081302817600018
 20
6.345874483200105
 10
-1.120393446399972
 20
6.359028512000037
 10
-1.150783515199961
 20
6.372711588800058
 10
-1.172164555200012
 20
6.386798758400033
  0
LWPOLYLINE
  5
1FFB
330
1F
100
AcDbEntity
  8
0
100
AcDbPolyline
 90
       17
 70
     0
 43
0.0
 10
0.0000000000000711
 20
6.553952289600061
 10
-0.1047612463999457
 20
6.553258793600122
 10
-0.2089475199999669
 20
6.551178313600104
 10
-0.3114014319999541
 20
6.547734224000038
 10
-0.4112846815999518
 20
6.542964849600053
 10
-0.5074237424000075
 20
6.536948470400062
 10
-0.5991634080000239
 20
6.529759094400134
 10
-0.6854779503999425
 20
6.521521836800076
 10
-0.7660212095999413
 20
6.512322995200094
 10
-0.8403443392000298
 20
6.50226453120004
 10
-0.9082513759999955
 20
6.491418254400088
 10
-0.9694996991999431
 20
6.479855795200052
 10
-1.023753359999929
 20
6.467665254400031
 10
-1.070874206399977
 20
6.454884864000092
 10
-1.110459049600009
 20
6.441612020800135
 10
-1.142298518399954
 20
6.427876688000111
 10
-1.165973916799927
 20
6.413773619200043
  0
LINE
  5
1FFC
330
1F
100
AcDbEntity
  8
0
100
AcDbLine
 10
-2.703347228800097
 20
6.406441736000019
 30
0.0
 11
-2.67790588800004
 21
6.446773056000083
 31
0.0
  0
LINE
  5
1FFD
330
1F
100
AcDbEntity
  8
0
100
AcDbLine
 10
-2.034048073600033
 20
7.850159073600011
 30
0.0
 11
-2.817583608000049
 21
7.614677446400023
 31
0.0
  0
LINE
  5
1FFE
330
1F
100
AcDbEntity
  8
0
100
AcDbLine
 10
3.815599003199977
 20
6.884471804799986
 30
0.0
 11
3.815586614400004
 21
6.883982691199989
 31
0.0
  0
LINE
  5
1FFF
330
1F
100
AcDbEntity
  8
0
100
AcDbLine
 10
2.703347230399927
 20
6.406441736000019
 30
0.0
 11
2.677905889599983
 21
6.446773056000083
 31
0.0
  0
LWPOLYLINE
  5
2000
330
1F
100
AcDbEntity
  8
0
100
AcDbPolyline
 90
       13
 70
     0
 43
0.0
 10
3.815598999999977
 20
6.522774392000115
 10
3.715172583999972
 20
6.515724870400077
 10
3.617006876799976
 20
6.508249043200095
 10
3.52004973599999
 20
6.500276113600108
 10
3.423408268799974
 20
6.49172449120013
 10
3.328361569599977
 20
6.482702588800094
 10
3.234612288000064
 20
6.473186902400044
 10
3.141979129599988
 20
6.463159227200122
 10
3.051406623999994
 20
6.452730012800117
 10
2.962723235200044
 20
6.441896387200046
 10
2.87521575679996
 20
6.430579331200107
 10
2.788675987199965
 20
6.418750382400077
 10
2.703347230399984
 20
6.406441734400146
  0
LWPOLYLINE
  5
2001
330
1F
100
AcDbEntity
  8
0
100
AcDbPolyline
 90
       22
 70
     0
 43
0.0
 10
2.67790588960004
 20
6.44677305760004
 10
2.710576694400018
 20
6.452791830400116
 10
2.743446539199979
 20
6.459683902400144
 10
2.776509003200047
 20
6.467383502400053
 10
2.809730848000029
 20
6.475824398400078
 10
2.843285905600012
 20
6.48500197920012
 10
2.878168155200071
 20
6.495175120000027
 10
2.915330979200078
 20
6.506658528000031
 10
2.95580053600004
 20
6.519848680000137
 10
3.000785435200057
 20
6.535263667200098
 10
3.05149113120008
 20
6.553484566400044
 10
3.109371849600009
 20
6.575244392000087
 10
3.175857656000019
 20
6.601328299200105
 10
3.248771827199973
 20
6.631064972800146
 10
3.323808302399996
 20
6.66269126080013
 10
3.397533582400072
 20
6.694592633600137
 10
3.46963447840001
 20
6.726433182400029
 10
3.539951086399995
 20
6.757975796800025
 10
3.60876856800003
 20
6.789213446400054
 10
3.677003227200046
 20
6.820460755200116
 10
3.745637492799986
 20
6.852091227200077
 10
3.987312881599976
 20
6.96395397120014
  0
LINE
  5
2002
330
1F
100
AcDbEntity
  8
0
100
AcDbLine
 10
1.184401961599988
 20
6.401223737600034
 30
0.0
 11
1.172181449599989
 21
6.386813081600038
 31
0.0
  0
LINE
  5
2003
330
1F
100
AcDbEntity
  8
0
100
AcDbLine
 10
1.187500000000014
 20
6.413137017600078
 30
0.0
 11
1.184401961599988
 21
6.401223737600034
 31
0.0
  0
LINE
  5
2004
330
1F
100
AcDbEntity
  8
0
100
AcDbLine
 10
1.181695811199929
 20
6.398032595200092
 30
0.0
 11
1.18111860799992
 21
6.399381222400037
 31
0.0
  0
LWPOLYLINE
  5
2005
330
1F
100
AcDbEntity
  8
0
100
AcDbPolyline
 90
        3
 70
     0
 43
0.0
 10
4.631749448000007
 20
6.331172625600089
 10
4.613819764799998
 20
6.341862136000059
 10
4.612549711999989
 20
6.343259211200034
  0
LWPOLYLINE
  5
2006
330
1F
100
AcDbEntity
  8
0
100
AcDbPolyline
 90
        3
 70
     0
 43
0.0
 10
4.807294852800012
 20
6.247804691200059
 10
4.721595892800067
 20
6.290073492800075
 10
4.631749448000007
 20
6.331172625600089
  0
LWPOLYLINE
  5
2007
330
1F
100
AcDbEntity
  8
0
100
AcDbPolyline
 90
        8
 70
     0
 43
0.0
 10
5.35809491519997
 20
6.153705144000042
 10
5.262441968000032
 20
6.162151476800119
 10
5.160558798400032
 20
6.173769545600094
 10
5.061741905600072
 20
6.187733828800134
 10
4.973615287999976
 20
6.202912134400122
 10
4.898740515200032
 20
6.21877649600006
 10
4.842348724800061
 20
6.234138076800064
 10
4.807294852800012
 20
6.247804691200059
  0
LINE
  5
2008
330
1F
100
AcDbEntity
  8
0
100
AcDbLine
 10
6.086246384000006
 20
6.098854008000088
 30
0.0
 11
5.358094915199913
 21
6.153705143999999
 31
0.0
  0
LWPOLYLINE
  5
2009
330
1F
100
AcDbEntity
  8
0
100
AcDbPolyline
 90
        6
 70
     0
 43
0.0
 10
4.331180668799973
 20
8.25994476800011
 10
4.906616947200021
 20
7.925304068800102
 10
5.439566952000021
 20
7.532755736000041
 10
5.923651411199969
 20
7.08715087840008
 10
6.353077060800004
 20
6.594003264000122
 10
6.681076945599969
 20
6.126500648000074
  0
LWPOLYLINE
  5
200A
330
1F
100
AcDbEntity
  8
0
100
AcDbPolyline
 90
        9
 70
     0
 43
0.0
 10
6.086246384000062
 20
6.098854008000131
 10
6.220717945600043
 20
6.090126601600132
 10
6.348378929599974
 20
6.08490192800005
 10
6.462846094400063
 20
6.083771651200123
 10
6.556234433599982
 20
6.086945851200113
 10
6.623834116799983
 20
6.093986174400043
 10
6.666613339200083
 20
6.104672534400066
 10
6.683020753600047
 20
6.118949064000076
 10
6.681019086400013
 20
6.126504163200053
  0
LINE
  5
200C
330
1F
100
AcDbEntity
  8
0
100
AcDbLine
 10
12.67420943519995
 20
4.810112888000034
 30
0.0
 11
12.64726860479994
 21
4.813500334400018
 31
0.0
  0
LWPOLYLINE
  5
200D
330
1F
100
AcDbEntity
  8
0
100
AcDbPolyline
 90
        4
 70
     0
 43
0.0
 10
14.64427663040005
 20
4.58012571680004
 10
13.98706912320001
 20
4.652967580800037
 10
13.33039243200001
 20
4.729628923200067
 10
12.67420943520001
 20
4.810112888000077
  0
LWPOLYLINE
  5
200E
330
1F
100
AcDbEntity
  8
0
100
AcDbPolyline
 90
        4
 70
     0
 43
0.0
 10
14.68081283040005
 20
4.973091003200039
 10
14.0101116432
 20
5.046399836800134
 10
13.34756203199999
 20
5.123101267200041
 10
12.69311664000004
 20
5.202904017600104
  0
LINE
  5
200F
330
1F
100
AcDbEntity
  8
0
100
AcDbLine
 10
14.66690170079995
 20
4.577702356800031
 30
0.0
 11
14.6442766304
 21
4.580125716799997
 31
0.0
  0
LWPOLYLINE
  5
2010
330
1F
100
AcDbEntity
  8
0
100
AcDbPolyline
 90
        4
 70
     0
 43
0.0
 10
12.64630848320003
 20
6.159941662400029
 10
13.26763101119998
 20
6.142201910400132
 10
13.87899015839998
 20
6.139119172800093
 10
14.47629348800008
 20
6.153919174400044
  0
LINE
  5
2011
330
1F
100
AcDbEntity
  8
0
100
AcDbLine
 10
14.25892179999995
 20
9.800325603199993
 30
0.0
 11
14.3000295856
 21
9.808059348800028
 31
0.0
  0
LWPOLYLINE
  5
2020
330
1F
100
AcDbEntity
  8
0
100
AcDbPolyline
 90
        4
 70
     0
 43
0.0
 10
27.05961601280007
 20
9.159193670400128
 10
26.94626318399999
 20
9.040434084800068
 10
26.83167286560008
 20
8.922994257600095
 10
26.71589710880001
 20
8.806923784000133
  0
LWPOLYLINE
  5
2025
330
1F
100
AcDbEntity
  8
0
100
AcDbPolyline
 90
       13
 70
     0
 43
0.0
 10
-3.81559899839992
 20
35.22722560960008
 10
-3.715172582400029
 20
35.23427512960009
 10
-3.617006875200033
 20
35.2417509584001
 10
-3.520049734399933
 20
35.24972388800009
 10
-3.423408267200031
 20
35.25827551040007
 10
-3.32836156799992
 20
35.26729741120007
 10
-3.234612286400007
 20
35.27681309760012
 10
-3.14197912959996
 20
35.28684077440007
 10
-3.051406622399937
 20
35.29726998880008
 10
-2.962723233599987
 20
35.30810361280012
 10
-2.875215756799931
 20
35.31942067040009
 10
-2.788675985600022
 20
35.33124961920012
 10
-2.703347228800041
 20
35.34355826560013
  0
LWPOLYLINE
  5
2026
330
1F
100
AcDbEntity
  8
0
100
AcDbPolyline
 90
       22
 70
     0
 43
0.0
 10
-2.677905887999983
 20
35.30322694400004
 10
-2.710576692799961
 20
35.29720816960005
 10
-2.743446537599922
 20
35.29031609760014
 10
-2.776509003200018
 20
35.28261649760011
 10
-2.809730846399972
 20
35.27417560320012
 10
-2.843285903999955
 20
35.26499802080005
 10
-2.878168155199929
 20
35.25482488160005
 10
-2.915330977600021
 20
35.24334147200002
 10
-2.955800534399983
 20
35.23015132160006
 10
-3.0007854336
 20
35.21473633280007
 10
-3.051491129600023
 20
35.19651543520004
 10
-3.10937184959998
 20
35.17475560800008
 10
-3.175857654399962
 20
35.14867170080006
 10
-3.248771825599916
 20
35.11893502880005
 10
-3.323808300799939
 20
35.08730874080006
 10
-3.397533580800015
 20
35.05540736800006
 10
-3.469634476799953
 20
35.02356681760002
 10
-3.539951086399966
 20
34.99202420320003
 10
-3.608768566399973
 20
34.96078655360011
 10
-3.677003227200017
 20
34.92953924640008
 10
-3.745637491199929
 20
34.89790877440012
 10
-3.987312879999919
 20
34.78604603040006
  0
LWPOLYLINE
  5
2027
330
1F
100
AcDbEntity
  8
0
100
AcDbPolyline
 90
        6
 70
     0
 43
0.0
 10
-4.612564367999922
 20
35.40674163200006
 10
-4.382105307199978
 20
35.1420369936001
 10
-4.041666312000003
 20
34.82569662720007
 10
-3.663755507199923
 20
34.55001230720009
 10
-3.253786401600038
 20
34.31881818240006
 10
-2.817583607999992
 20
34.1353225536001
  0
LWPOLYLINE
  5
2028
330
1F
100
AcDbEntity
  8
0
100
AcDbPolyline
 90
        5
 70
     0
 43
0.0
 10
-2.988957603200034
 20
36.18788188160002
 10
-2.195289855999973
 20
36.1675628592001
 10
-1.468516694399951
 20
36.15441305920004
 10
-0.762184446399985
 20
36.14663024320012
 10
0.0000000000000711
 20
36.14375955520009
  0
LWPOLYLINE
  5
2029
330
1F
100
AcDbEntity
  8
0
100
AcDbPolyline
 90
        4
 70
     0
 43
0.0
 10
-2.985384379199942
 20
35.79066249440009
 10
-1.990406657599962
 20
35.76633741440005
 10
-0.9952683839999707
 20
35.75174175520001
 10
0.0000000000000711
 20
35.7468760016001
  0
LWPOLYLINE
  5
202A
330
1F
100
AcDbEntity
  8
0
100
AcDbPolyline
 90
       10
 70
     0
 43
0.0
 10
-4.331180667199916
 20
33.49005523360009
 10
-3.424178814400008
 20
33.08518842080005
 10
-2.475667793599924
 20
32.77713242880011
 10
-1.497275327999929
 20
32.56969164160014
 10
-0.5008560048000135
 20
32.46536823840008
 10
0.5015656512000107
 20
32.46540528800008
 10
1.497881252800041
 20
32.56978731840004
 10
2.476065865600006
 20
32.77723893280009
 10
3.424313443200006
 20
33.08524015040009
 10
4.331180668799973
 20
33.49005523360009
  0
LINE
  5
202C
330
1F
100
AcDbEntity
  8
CENTER
100
AcDbLine
 10
3.940786236478984
 20
12.3750000000001
 30
0.0
 11
-3.94078623647907
 21
12.3750000000001
 31
0.0
  0
LWPOLYLINE
  5
2038
330
1F
100
AcDbEntity
  8
0
100
AcDbPolyline
 90
       19
 70
     0
 43
0.0
 10
-23.20897326399999
 20
27.38887921920005
 10
-23.06501603839994
 20
27.69660048960011
 10
-22.89746160960003
 20
28.00683678400005
 10
-22.70440575519994
 20
28.32027926240007
 10
-22.48943757119995
 20
28.62962908160003
 10
-22.27465593280002
 20
28.90756901760008
 10
-22.07444969119994
 20
29.14473715200008
 10
-21.89040274879998
 20
29.34748899360002
 10
-21.71982890719998
 20
29.52428516000011
 10
-21.56174069279999
 20
29.67978704960015
 10
-21.41608460319996
 20
29.8167023056001
 10
-21.28363605759993
 20
29.93638952800009
 10
-21.16372264319993
 20
30.04110209120009
 10
-21.05228135359998
 20
30.13551710240008
 10
-20.94447916159997
 20
30.22434844800014
 10
-20.83576873600001
 20
30.31157356000008
 10
-20.7252640464
 20
30.39794023680011
 10
-20.61364718880001
 20
30.48294141440001
 10
-20.50164576000001
 20
30.56608624960009
  0
LWPOLYLINE
  5
2039
330
1F
100
AcDbEntity
  8
0
100
AcDbPolyline
 90
       37
 70
     0
 43
0.0
 10
-23.54735727680001
 20
27.58424532000006
 10
-23.52106748319993
 20
27.64568518880006
 10
-23.49478493119993
 20
27.70836826560005
 10
-23.46881737760001
 20
27.77068547680008
 10
-23.4430588352
 20
27.83252718560007
 10
-23.41727785760001
 20
27.89427088480002
 10
-23.39098551199997
 20
27.95697885760015
 10
-23.36366326239992
 20
28.02179655360012
 10
-23.33554927359994
 20
28.08807923520012
 10
-23.30669266080001
 20
28.1556466512001
 10
-23.27629913920002
 20
28.22628206400011
 10
-23.24342065759997
 20
28.30206648640015
 10
-23.20697994399999
 20
28.38529353600009
 10
-23.16582891519992
 20
28.47830658080002
 10
-23.11884103679999
 20
28.58325907360009
 10
-23.0649078288
 20
28.70209817440004
 10
-23.00517113919993
 20
28.8317316416001
 10
-22.94344173919994
 20
28.96353655040005
 10
-22.88382453439992
 20
29.08880419200014
 10
-22.8266601408
 20
29.20708968640011
 10
-22.77130253119996
 20
29.31997517920004
 10
-22.71711180480001
 20
29.42892703520001
 10
-22.66291651839996
 20
29.53638508000008
 10
-22.60765145279997
 20
29.64445176800009
 10
-22.55233487360003
 20
29.75111987040012
 10
-22.4979515552
 20
29.85455621920007
 10
-22.44274563359992
 20
29.95813433280014
 10
-22.38422380319995
 20
30.06639765920013
 10
-22.31977726719996
 20
30.18382850240007
 10
-22.24757763999996
 20
30.31319935040008
 10
-22.17076849280003
 20
30.44834804160009
 10
-22.09392390880002
 20
30.58105368000011
 10
-22.01711311360001
 20
30.71125035200012
 10
-21.93909006400001
 20
30.84104373760002
 10
-21.85863349439994
 20
30.9723426144001
 10
-21.77420885119992
 20
31.10739479040003
 10
-21.68398468319996
 20
31.24870332160006
  0
LWPOLYLINE
  5
203A
330
1F
100
AcDbEntity
  8
0
100
AcDbPolyline
 90
       10
 70
     0
 43
0.0
 10
-31.37430597919994
 20
20.87500000000014
 10
-31.34737541439999
 20
21.90228798560011
 10
-31.25585596
 20
23.02326599200014
 10
-31.07945355679992
 20
24.2503966784001
 10
-30.81067697279995
 20
25.51574629120014
 10
-30.46427280480001
 20
26.73070007200013
 10
-30.04811404159993
 20
27.88331441120013
 10
-29.59961477279994
 20
28.90280639040011
 10
-29.13614724639994
 20
29.79124299040009
 10
-28.66460397119992
 20
30.56422982400013
  0
LWPOLYLINE
  5
203B
330
1F
100
AcDbEntity
  8
0
100
AcDbPolyline
 90
       23
 70
     0
 43
0.0
 10
-30.94608432959994
 20
20.87500001600008
 10
-30.9295817568
 20
21.67088922240012
 10
-30.88026238239995
 20
22.46146414720013
 10
-30.79842609439997
 20
23.24567682080012
 10
-30.68430160799998
 20
24.02293150400012
 10
-30.54112692159996
 20
24.77792863040011
 10
-30.3787619312
 20
25.47875455680005
 10
-30.20767041280002
 20
26.10860869120009
 10
-30.03618625599999
 20
26.66389157600011
 10
-29.86902705279992
 20
27.15106658720006
 10
-29.70757900799997
 20
27.58175290080012
 10
-29.55215567679992
 20
27.96594354080005
 10
-29.40334911999995
 20
28.30997049600014
 10
-29.2616326688
 20
28.61867455680012
 10
-29.12717807999995
 20
28.89630679200005
 10
-29.00022808479995
 20
29.14604750880008
 10
-28.88092949119998
 20
29.37060981600009
 10
-28.76918208639999
 20
29.57264206720006
 10
-28.66467607839995
 20
29.75470840480003
 10
-28.56691405759993
 20
29.91929521920011
 10
-28.47523115680001
 20
30.06881581280007
 10
-28.3888104224
 20
30.20561846240005
 10
-28.30666837120002
 20
30.33203486080006
  0
LWPOLYLINE
  5
203C
330
1F
100
AcDbEntity
  8
0
100
AcDbPolyline
 90
       60
 70
     0
 43
0.0
 10
-14.31317545919994
 20
31.99656190720011
 10
-14.48287447679994
 20
31.9633794800001
 10
-14.6503501504
 20
31.92801911040001
 10
-14.81638662559991
 20
31.89036093760015
 10
-14.98162396319996
 20
31.85027474720007
 10
-15.14606579360001
 20
31.80776142080006
 10
-15.30983093119998
 20
31.76279055360012
 10
-15.47318784960002
 20
31.71528224480008
 10
-15.63607685920003
 20
31.66524736320005
 10
-15.79865568479992
 20
31.61263189120009
 10
-15.96107638560003
 20
31.55737328800015
 10
-16.12324639679995
 20
31.49948872000007
 10
-16.28503743679998
 20
31.43901313120014
 10
-16.44635867039998
 20
31.37597040160008
 10
-16.60706498079996
 20
31.31040820640012
 10
-16.76697470719993
 20
31.24239804640015
 10
-16.92604240320001
 20
31.17196012640002
 10
-17.08437117600003
 20
31.09904361760007
 10
-17.24190424319992
 20
31.02366342720009
 10
-17.39842087840001
 20
30.94591651680005
 10
-17.55380925759998
 20
30.86585419200005
 10
-17.70803594240003
 20
30.78348899200014
 10
-17.86097506879996
 20
30.69888338720002
 10
-18.01248345439994
 20
30.61211495680007
 10
-18.16234836799996
 20
30.52331012000005
 10
-18.31038913599995
 20
30.43258845440007
 10
-18.45646481119995
 20
30.3400551504001
 10
-18.60053299680002
 20
30.24575838240005
 10
-18.7425877328
 20
30.1497222400001
 10
-18.88262230399998
 20
30.05197204000015
 10
-19.02059920319997
 20
29.95255538240011
 10
-19.1564529184
 20
29.85154163360007
 10
-19.29008573439993
 20
29.74902874080012
 10
-19.42142372639993
 20
29.64510252480014
 10
-19.55043284159994
 20
29.53982114560009
 10
-19.67707399039993
 20
29.43324884640006
 10
-19.80129237119994
 20
29.32546622880014
 10
-19.92303663520003
 20
29.21655534400011
 10
-20.04228060960001
 20
29.10657948960002
 10
-20.159007904
 20
28.99559489760011
 10
-20.2731823728
 20
28.88367895200011
 10
-20.38478044319997
 20
28.77090037600012
 10
-20.49381140639995
 20
28.6572961904001
 10
-20.6003084544
 20
28.5428768272001
 10
-20.70427365599998
 20
28.42768747360006
 10
-20.80570762239999
 20
28.31177739040006
 10
-20.90461416479995
 20
28.19519246400014
 10
-21.00099168959995
 20
28.07798531040012
 10
-21.09478584640002
 20
27.96027674240011
 10
-21.18586912480002
 20
27.84229371200004
 10
-21.27421613439996
 20
27.72414783680008
 10
-21.35984214720001
 20
27.6059013664001
 10
-21.44276105279998
 20
27.48761957600007
 10
-21.5229882112
 20
27.36936700160006
 10
-21.60056046399999
 20
27.25117637120004
 10
-21.67551387680002
 20
27.13307889120008
 10
-21.74788328639992
 20
27.01510484960013
 10
-21.81771203039993
 20
26.89726698080008
 10
-21.88505028319995
 20
26.77956049600007
 10
-21.94994497759994
 20
26.66197889920013
  0
LWPOLYLINE
  5
203D
330
1F
100
AcDbEntity
  8
0
100
AcDbPolyline
 90
       18
 70
     0
 43
0.0
 10
-19.26853176000001
 20
12.06619334240011
 10
-19.14013330560003
 20
11.96723635360004
 10
-19.00976947680003
 20
11.86971246560008
 10
-18.87749568960002
 20
11.77368364000008
 10
-18.7434303232
 20
11.67925291680003
 10
-18.60761845599999
 20
11.58646644160003
 10
-18.47004017440001
 20
11.49532601760009
 10
-18.33076895359992
 20
11.40589262560004
 10
-18.18999046719993
 20
11.31829111680011
 10
-18.04817732159999
 20
11.23280556160003
 10
-17.90448713439995
 20
11.14893315840006
 10
-17.75878373599998
 20
11.06663051040007
 10
-17.61187845759995
 20
10.98637449440005
 10
-17.46438089120003
 20
10.90847842400003
 10
-17.31643745759997
 20
10.83298528640003
 10
-17.16781359999997
 20
10.75975099840005
 10
-17.01797231999994
 20
10.68850817120008
 10
-16.86649089120002
 20
10.61907957920007
  0
LWPOLYLINE
  5
203E
330
1F
100
AcDbEntity
  8
0
100
AcDbPolyline
 90
       36
 70
     0
 43
0.0
 10
-23.39702989279992
 20
20.84345802720011
 10
-23.39482117599998
 20
20.67177093280011
 10
-23.39019422400001
 20
20.50020428480004
 10
-23.38315056159995
 20
20.32876444800004
 10
-23.37369132960002
 20
20.15746520640007
 10
-23.36181969919998
 20
19.98634815840014
 10
-23.34754007680003
 20
19.81545764800003
 10
-23.3308515552
 20
19.64478977600006
 10
-23.31175524960001
 20
19.47438355520003
 10
-23.29025628959997
 20
19.30430030560003
 10
-23.26636571039994
 20
19.13461912000005
 10
-23.24009108479997
 20
18.9653828976001
 10
-23.2114345616
 20
18.79660242560012
 10
-23.18039800000001
 20
18.62829078880011
 10
-23.14698426239992
 20
18.4604680432001
 10
-23.11119826399992
 20
18.29316755200002
 10
-23.07304415519995
 20
18.12641944800012
 10
-23.03252448159996
 20
17.96024433760013
 10
-22.98964404960001
 20
17.79467316320008
 10
-22.94441264319998
 20
17.62975755840002
 10
-22.89684170719992
 20
17.46555208800012
 10
-22.846945208
 20
17.30210943680006
 10
-22.79473567999996
 20
17.13947233280012
 10
-22.74022551679995
 20
16.97768296800009
 10
-22.68342070240002
 20
16.81676430240011
 10
-22.62431151679997
 20
16.65669486080005
 10
-22.56290061919996
 20
16.4974920000001
 10
-22.49919771839999
 20
16.33919267200011
 10
-22.43322161759992
 20
16.18185369440007
 10
-22.36499365759998
 20
16.0255319088001
 10
-22.29451941120002
 20
15.8702471728001
 10
-22.22179959999998
 20
15.71601213600004
 10
-22.14688012959997
 20
15.56293152960009
 10
-22.06980777279993
 20
15.41109760160011
 10
-21.99062286399991
 20
15.26058268640011
 10
-21.90936385920001
 20
15.11145062240009
  0
LWPOLYLINE
  5
203F
330
1F
100
AcDbEntity
  8
0
100
AcDbPolyline
 90
       10
 70
     0
 43
0.0
 10
-24.55907471999994
 20
20.87500168800002
 10
-24.54197972959995
 20
20.13166552800012
 10
-24.49024341279998
 20
19.38187522720014
 10
-24.40353259999999
 20
18.63020590240003
 10
-24.28219880800002
 20
17.88217989280011
 10
-24.12740930080001
 20
17.14380465920013
 10
-23.94060806559996
 20
16.41899466400005
 10
-23.72363064319999
 20
15.71129374400007
 10
-23.47889075519997
 20
15.02443265920013
 10
-23.20897326399999
 20
14.36112078240003
  0
LWPOLYLINE
  5
2040
330
1F
100
AcDbEntity
  8
0
100
AcDbPolyline
 90
       10
 70
     0
 43
0.0
 10
-28.66460397119992
 20
11.18577017600014
 10
-29.13257885759996
 20
11.95244840480009
 10
-29.59062716479995
 20
12.82854142880003
 10
-30.02998070719995
 20
13.8216504768001
 10
-30.43777459039999
 20
14.93785568000012
 10
-30.78786766239993
 20
16.1434721904001
 10
-31.06852172320002
 20
17.43841583520011
 10
-31.25387212159994
 20
18.70893196480008
 10
-31.34728916160002
 20
19.8460719760001
 10
-31.37430597919994
 20
20.87500000000014
  0
LWPOLYLINE
  5
2041
330
1F
100
AcDbEntity
  8
0
100
AcDbPolyline
 90
       22
 70
     0
 43
0.0
 10
-30.94608432959994
 20
20.87500001600008
 10
-30.92797451519997
 20
20.0413228048001
 10
-30.87386280959997
 20
19.21353816480009
 10
-30.78410142879993
 20
18.3928941216001
 10
-30.65919589280001
 20
17.58144701440008
 10
-30.5038282272
 20
16.79953595040004
 10
-30.33035388959994
 20
16.08369132320004
 10
-30.15016832479993
 20
15.44792712480003
 10
-29.9718009136
 20
14.89288536640006
 10
-29.7991327376
 20
14.40814915520005
 10
-29.63281164480001
 20
13.98001710720009
 10
-29.47333895360002
 20
13.59914797920012
 10
-29.32150872319998
 20
13.25964238400004
 10
-29.17753853439994
 20
12.95603616480005
 10
-29.0417027824
 20
12.68428143040014
 10
-28.91424508319998
 20
12.44115507200004
 10
-28.79512895679992
 20
12.22357671200009
 10
-28.68405841919996
 20
12.02857241280006
 10
-28.58050536159991
 20
11.85326368960014
 10
-28.48373518719999
 20
11.69486071040003
 10
-28.39283059680001
 20
11.55065816960009
 10
-28.30666837120002
 20
11.4179651392001
  0
LINE
  5
2042
330
1F
100
AcDbEntity
  8
0
100
AcDbLine
 10
-28.65568837279998
 20
11.17226048320002
 30
0.0
 11
-28.66460397119998
 21
11.1857701760001
 31
0.0
  0
LWPOLYLINE
  5
2043
330
1F
100
AcDbEntity
  8
0
100
AcDbPolyline
 90
       27
 70
     0
 43
0.0
 10
-21.89755346559995
 20
15.09020080320013
 10
-21.82985555679992
 20
14.97096569440012
 10
-21.75954753119996
 20
14.85145186560012
 10
-21.68658917119994
 20
14.73168050560005
 10
-21.61093861759995
 20
14.61167442080014
 10
-21.53256159200002
 20
14.4914720208001
 10
-21.45142906079995
 20
14.3711216720001
 10
-21.36750046239994
 20
14.2506566320001
 10
-21.28076397759996
 20
14.1301527712001
 10
-21.19121993119999
 20
14.00970014880013
 10
-21.09887897920002
 20
13.88939837920011
 10
-21.00376846399994
 20
13.76936299200011
 10
-20.9060057088
 20
13.64981100960008
 10
-20.80563404479998
 20
13.53085363040011
 10
-20.70269116000001
 20
13.41258856000004
 10
-20.59719733440003
 20
13.29508880800008
 10
-20.48914547680003
 20
13.17839540800005
 10
-20.37851950719998
 20
13.06254053600005
 10
-20.26528032159994
 20
12.94753099520008
 10
-20.149427568
 20
12.83341421440005
 10
-20.03100892799993
 20
12.72028280320014
 10
-19.91005422079995
 20
12.60820792480004
 10
-19.78658466559993
 20
12.49725043200013
 10
-19.66063690399998
 20
12.38748292000005
 10
-19.53225997279996
 20
12.27898539520006
 10
-19.40152960959999
 20
12.17185561600004
 10
-19.26853176000001
 20
12.06619334240011
  0
LWPOLYLINE
  5
2044
330
1F
100
AcDbEntity
  8
0
100
AcDbPolyline
 90
       19
 70
     0
 43
0.0
 10
-23.20897326399999
 20
14.36112078240003
 10
-23.06501603839994
 20
14.05339951200008
 10
-22.89746160960003
 20
13.74316321600011
 10
-22.70440575519994
 20
13.42972073920012
 10
-22.48943757119995
 20
13.12037092000005
 10
-22.27465593280002
 20
12.84243098240009
 10
-22.07444969119994
 20
12.6052628496001
 10
-21.89040274879998
 20
12.40251100640003
 10
-21.71982890719998
 20
12.22571484000005
 10
-21.56174069279999
 20
12.07021295040013
 10
-21.41608460319996
 20
11.93329769600009
 10
-21.28363605759993
 20
11.8136104736001
 10
-21.16372264319993
 20
11.70889791040011
 10
-21.05228135359998
 20
11.61448289760008
 10
-20.94447916159997
 20
11.52565155200014
 10
-20.83576873600001
 20
11.43842644000008
 10
-20.7252640464
 20
11.35205976480008
 10
-20.61364718880001
 20
11.26705858560004
 10
-20.50164576000001
 20
11.18391375040008
  0
LWPOLYLINE
  5
2045
330
1F
100
AcDbEntity
  8
0
100
AcDbPolyline
 90
       34
 70
     0
 43
0.0
 10
-23.49478493119993
 20
14.04163173440011
 10
-23.4430588352
 20
13.9174728144001
 10
-23.41727785760001
 20
13.85572911520003
 10
-23.39098551199997
 20
13.79302114400005
 10
-23.36366326239992
 20
13.72820344800007
 10
-23.33554927359994
 20
13.66192076640007
 10
-23.30669266080001
 20
13.59435335040009
 10
-23.27629913920002
 20
13.52371793760008
 10
-23.24342065759997
 20
13.44793351520005
 10
-23.20697994399999
 20
13.3647064656001
 10
-23.16582891519992
 20
13.27169342080006
 10
-23.11884103679999
 20
13.16674092640008
 10
-23.0649078288
 20
13.04790182560012
 10
-23.00517113919993
 20
12.9182683600001
 10
-22.94344173919994
 20
12.78646345120014
 10
-22.88382453439992
 20
12.66119580960006
 10
-22.8266601408
 20
12.54291031360006
 10
-22.77130253119996
 20
12.43002482080012
 10
-22.71711180480001
 20
12.32107296480003
 10
-22.66291651839996
 20
12.21361492000008
 10
-22.60765145279997
 20
12.1055482336001
 10
-22.55233487360003
 20
11.99888012960005
 10
-22.4979515552
 20
11.89544378080009
 10
-22.44274563359992
 20
11.79186566880005
 10
-22.38422380319995
 20
11.68360234240006
 10
-22.31977726719996
 20
11.56617149760009
 10
-22.24757763999996
 20
11.43680065120011
 10
-22.17076849280003
 20
11.3016519600001
 10
-22.09392390880002
 20
11.16894632000006
 10
-22.01711311360001
 20
11.03874964800005
 10
-21.93909006400001
 20
10.90895626240004
 10
-21.85863349439994
 20
10.77765738720009
 10
-21.77420885119992
 20
10.64260520960013
 10
-21.68398468319996
 20
10.5012966784001
  0
LWPOLYLINE
  5
2046
330
1F
100
AcDbEntity
  8
0
100
AcDbPolyline
 90
        3
 70
     0
 43
0.0
 10
-23.54735727680001
 20
14.16575468160013
 10
-23.52106748319993
 20
14.10431481120011
 10
-23.49478493119993
 20
14.04163173440011
  0
LINE
  5
2047
330
1F
100
AcDbEntity
  8
0
100
AcDbLine
 10
-21.90936389440001
 20
15.11145060160002
 30
0.0
 11
-21.89755346560001
 21
15.09020080320009
 31
0.0
  0
LWPOLYLINE
  5
2048
330
1F
100
AcDbEntity
  8
0
100
AcDbPolyline
 90
       11
 70
     0
 43
0.0
 10
-24.55907471679999
 20
20.87500168800002
 10
-24.54523076000002
 20
21.54368060480013
 10
-24.50337598239995
 20
22.21784966560008
 10
-24.43319625919996
 20
22.89448452320007
 10
-24.33482538719992
 20
23.56944729440013
 10
-24.20891018879995
 20
24.23843689760011
 10
-24.05643165439999
 20
24.89798340640007
 10
-23.87859901760002
 20
25.54526341440012
 10
-23.67683638399994
 20
26.17782307040002
 10
-23.45298512799995
 20
26.79302016320005
 10
-23.20897326399999
 20
27.38887921920005
  0
LWPOLYLINE
  5
2049
330
1F
100
AcDbEntity
  8
0
100
AcDbPolyline
 90
       35
 70
     0
 43
0.0
 10
-21.95926993279992
 20
26.64472607360008
 10
-22.04161695520001
 20
26.48928225120008
 10
-22.12176071519995
 20
26.33238484160008
 10
-22.19966658560001
 20
26.17408907680001
 10
-22.27529977599992
 20
26.01445298080003
 10
-22.34862862719994
 20
25.85353130720014
 10
-22.41962606399992
 20
25.69137758720003
 10
-22.4882218224
 20
25.5281545920001
 10
-22.55439034399994
 20
25.36393242560009
 10
-22.61811999199998
 20
25.19875018400003
 10
-22.67939850240002
 20
25.03265163360007
 10
-22.73821373759999
 20
24.86568206400002
 10
-22.79455678399999
 20
24.69787884000007
 10
-22.84841951359992
 20
24.52928174720014
 10
-22.89979592640001
 20
24.35992732960008
 10
-22.94868023199994
 20
24.18984906080007
 10
-22.99506618239995
 20
24.01907963360011
 10
-23.03894740159994
 20
23.84765929440007
 10
-23.08031296480002
 20
23.67565098720004
 10
-23.11915835359995
 20
23.50309163680006
 10
-23.15547942879998
 20
23.33001434880011
 10
-23.18927187839999
 20
23.15645828320012
 10
-23.22053083199993
 20
22.98246776800013
 10
-23.24925124960002
 20
22.80808988800007
 10
-23.27543101119992
 20
22.63335906400007
 10
-23.29906848959994
 20
22.45831144960007
 10
-23.32016143360003
 20
22.28298563680007
 10
-23.33870761439997
 20
22.10741738560014
 10
-23.35470636479992
 20
21.93164225120008
 10
-23.36815750719999
 20
21.75570304160012
 10
-23.37905974559991
 20
21.57965065760007
 10
-23.38741218879992
 20
21.40352184320013
 10
-23.39321452480003
 20
21.2273525648001
 10
-23.396467608
 20
21.05117087840008
 10
-23.39717256160001
 20
20.87500041280012
  0
LINE
  5
204A
330
1F
100
AcDbEntity
  8
0
100
AcDbLine
 10
-23.39717256000004
 20
20.87500041280007
 30
0.0
 11
-23.39702989279997
 21
20.84345802720007
 31
0.0
  0
LINE
  5
204B
330
1F
100
AcDbEntity
  8
0
100
AcDbLine
 10
-21.94994501120003
 20
26.66197891839998
 30
0.0
 11
-21.95926993279998
 21
26.64472607360004
 31
0.0
  0
LWPOLYLINE
  5
204F
330
1F
100
AcDbEntity
  8
0
100
AcDbPolyline
 90
       12
 70
     0
 43
0.0
 10
-14.25892179839995
 20
33.05368355200008
 10
-14.85707043999996
 20
32.96820436160001
 10
-15.41324356479996
 20
32.86137489600005
 10
-15.96511101759999
 20
32.72741696160008
 10
-16.53956691199998
 20
32.55871739040006
 10
-17.1392783296
 20
32.35222444320007
 10
-17.74821459679996
 20
32.11120951680007
 10
-18.35208593919996
 20
31.84009660640006
 10
-18.93836884800002
 20
31.54422890880008
 10
-19.4969324112
 20
31.22935283200004
 10
-20.01959174079995
 20
30.90157529440003
 10
-20.50164576000001
 20
30.56608624960009
  0
LWPOLYLINE
  5
2050
330
1F
100
AcDbEntity
  8
0
100
AcDbPolyline
 90
       19
 70
     0
 43
0.0
 10
-14.47629348799994
 20
35.59608082880007
 10
-15.12013025280002
 20
35.55487912000003
 10
-15.68558913759993
 20
35.49178222560013
 10
-16.18908196319994
 20
35.40989843040009
 10
-16.64284438399993
 20
35.31147923840004
 10
-17.05544711999998
 20
35.1982344592001
 10
-17.43522938879998
 20
35.07080268960013
 10
-17.78878527199997
 20
34.92925077760006
 10
-18.12128957119993
 20
34.7731947184001
 10
-18.44345260319998
 20
34.59823005600006
 10
-18.76369758719993
 20
34.39936960480011
 10
-19.08479101279992
 20
34.17335063520013
 10
-19.41768597280001
 20
33.90971137120007
 10
-19.76465633280001
 20
33.60257721280007
 10
-20.12432639839998
 20
33.24841888960011
 10
-20.49636418239997
 20
32.84222494720009
 10
-20.88050114560001
 20
32.3782061264001
 10
-21.27653581600001
 20
31.84953905120008
 10
-21.68398468319996
 20
31.24870332160006
  0
LWPOLYLINE
  5
2051
330
1F
100
AcDbEntity
  8
0
100
AcDbPolyline
 90
       13
 70
     0
 43
0.0
 10
-26.71589710719995
 20
32.94307621600015
 10
-26.09563459680002
 20
33.52390540000001
 10
-25.37778330559994
 20
34.11933703680009
 10
-24.53917789439997
 20
34.72600998560008
 10
-23.55602137119994
 20
35.33270354080005
 10
-22.41690155359997
 20
35.91306254080009
 10
-21.19740246559995
 20
36.40560415680002
 10
-19.93995361280001
 20
36.78834682720006
 10
-18.67462472799995
 20
37.05517516960006
 10
-17.50726315199999
 20
37.20163051680006
 10
-16.45930196800001
 20
37.25409020800012
 10
-15.51602207199998
 20
37.2380651184001
 10
-14.66690170079998
 20
37.17229764480012
  0
LWPOLYLINE
  5
2052
330
1F
100
AcDbEntity
  8
0
100
AcDbPolyline
 90
       24
 70
     0
 43
0.0
 10
-28.30666837120002
 20
30.33203486080006
 10
-27.91499779199993
 20
30.89679823040015
 10
-27.49491156799995
 20
31.44481626720008
 10
-27.04803877279998
 20
31.97358273280011
 10
-26.5762462352
 20
32.48072815520007
 10
-26.0816378384
 20
32.96403278080006
 10
-25.56532157279995
 20
33.42249079040007
 10
-25.02705464
 20
33.85630237280011
 10
-24.46718792799997
 20
34.26514382720009
 10
-23.88746174240002
 20
34.64760546560015
 10
-23.29123593119998
 20
35.00150189280012
 10
-22.68077944799999
 20
35.32569734400013
 10
-22.05726820639999
 20
35.61973756640012
 10
-21.42109332959994
 20
35.88359378560008
 10
-20.77374269599992
 20
36.11678226560005
 10
-20.11741583199993
 20
36.31860599360007
 10
-19.4544916496
 20
36.48850288320014
 10
-18.78564144479996
 20
36.62645515040006
 10
-18.11079913759992
 20
36.73248948320011
 10
-17.43065567839998
 20
36.80644499360008
 10
-16.74621290559996
 20
36.84809059520003
 10
-16.05868999520002
 20
36.85714554080007
 10
-15.3696607776
 20
36.8334453616001
 10
-14.6808128288
 20
36.77690899840004
  0
LWPOLYLINE
  5
2053
330
1F
100
AcDbEntity
  8
0
100
AcDbPolyline
 90
        4
 70
     0
 43
0.0
 10
-27.05961601120002
 20
32.59080633120007
 10
-26.94626318239993
 20
32.70956591680001
 10
-26.83167286400002
 20
32.82700574240007
 10
-26.71589710719995
 20
32.94307621600015
  0
LWPOLYLINE
  5
2054
330
1F
100
AcDbEntity
  8
0
100
AcDbPolyline
 90
       10
 70
     0
 43
0.0
 10
-28.65568837439996
 20
30.5777395168001
 10
-28.49904995039996
 20
30.81000105120009
 10
-28.33728536959999
 20
31.0403307984001
 10
-28.17037896159995
 20
31.26863755040008
 10
-27.99831109599999
 20
31.49482985600005
 10
-27.82105635520001
 20
31.71881912800009
 10
-27.63858879360002
 20
31.94051157120012
 10
-27.45088218879998
 20
32.15980672640003
 10
-27.25790979840001
 20
32.37659863840011
 10
-27.05961601120002
 20
32.59080633120007
  0
LINE
  5
2055
330
1F
100
AcDbEntity
  8
0
100
AcDbLine
 10
-28.66460397119998
 20
30.56422982400009
 30
0.0
 11
-28.65568837440001
 21
30.57773951680006
 31
0.0
  0
LWPOLYLINE
  5
205A
330
1F
100
AcDbEntity
  8
0
100
AcDbPolyline
 90
        5
 70
     0
 43
0.0
 10
-12.64726860479997
 20
36.93649966720013
 10
-9.851208627200023
 20
36.62397930720013
 10
-7.334364147199991
 20
36.40966519680015
 10
-5.057362646399994
 20
36.27010759840007
 10
-2.988957603200034
 20
36.18788188160002
  0
LWPOLYLINE
  5
205B
330
1F
100
AcDbEntity
  8
0
100
AcDbPolyline
 90
       14
 70
     0
 43
0.0
 10
-12.69311663839998
 20
36.54709598240006
 10
-11.44384905759993
 20
36.39847672480007
 10
-10.31842896799996
 20
36.2773706912001
 10
-9.301327308799997
 20
36.1783965888001
 10
-8.379550671999979
 20
36.09733468640004
 10
-7.542171131199935
 20
36.03085096800012
 10
-6.779757511999989
 20
35.97627530400009
 10
-6.084151235199939
 20
35.9314593536001
 10
-5.448634252799976
 20
35.89469107200002
 10
-4.867152623999956
 20
35.86456809920005
 10
-4.333947180799938
 20
35.83992768320004
 10
-3.843686654399945
 20
35.81982038720005
 10
-3.394279719999914
 20
35.80357412960009
 10
-2.985384379199942
 20
35.79066249440009
  0
LWPOLYLINE
  5
205C
330
1F
100
AcDbEntity
  8
0
100
AcDbPolyline
 90
       10
 70
     0
 43
0.0
 10
-6.38487616479999
 20
35.20132042720004
 10
-6.469156977599979
 20
35.20360741920004
 10
-7.128057499199982
 20
35.23163147680012
 10
-7.84225303839996
 20
35.27140418080003
 10
-8.620415756799999
 20
35.32286795200005
 10
-9.465811631999983
 20
35.38451177920015
 10
-10.30243472959993
 20
35.44720001760007
 10
-11.11042079839994
 20
35.50504810880002
 10
-11.8926165536
 20
35.55402918080008
 10
-12.64630848159997
 20
35.59005833760002
  0
LWPOLYLINE
  5
205D
330
1F
100
AcDbEntity
  8
0
100
AcDbPolyline
 90
       27
 70
     0
 43
0.0
 10
-3.95822103359994
 20
33.32357379040004
 10
-4.338311590399982
 20
33.28573922240005
 10
-4.819781681599963
 20
33.23492520000005
 10
-5.3117303856
 20
33.18139397920006
 10
-5.77793808799997
 20
33.12992625440009
 10
-6.231206369599973
 20
33.07949276160005
 10
-6.670772827199968
 20
33.03020751680006
 10
-7.095133308800015
 20
32.98229040480012
 10
-7.505296094399952
 20
32.93567032000012
 10
-7.903590953600016
 20
32.89008885760009
 10
-8.292775567999953
 20
32.84520452160009
 10
-8.676028827199999
 20
32.80058907520006
 10
-9.055985014399922
 20
32.7558418688001
 10
-9.433195404799946
 20
32.71077623360011
 10
-9.808683230399921
 20
32.66512313600006
 10
-10.18158132479997
 20
32.61884818400008
 10
-10.55174865759993
 20
32.57184505120008
 10
-10.92074563039993
 20
32.52377891360007
 10
-11.28918301439993
 20
32.47441735520002
 10
-11.65788147999994
 20
32.42348560320002
 10
-12.02787570719992
 20
32.37066168640004
 10
-12.39897139999998
 20
32.31578674880009
 10
-12.77064909760001
 20
32.2587575424001
 10
-13.14325655679992
 20
32.19934692960012
 10
-13.51627743839996
 20
32.13747399360014
 10
-13.88838628319994
 20
32.07322348480002
 10
-14.25892179839995
 20
32.00660761920008
  0
LWPOLYLINE
  5
205E
330
1F
100
AcDbEntity
  8
0
100
AcDbPolyline
 90
       16
 70
     0
 43
0.0
 10
-5.400264019199923
 20
34.18829539360004
 10
-5.700764441600014
 20
34.08120804160003
 10
-6.218450347199947
 20
33.92375498720005
 10
-6.78309784799994
 20
33.77970948800012
 10
-7.39695627199994
 20
33.6498345872001
 10
-8.060780900799997
 20
33.53541192320008
 10
-8.764268254399937
 20
33.43886248320009
 10
-9.408624108799969
 20
33.36911651680011
 10
-9.983115878400028
 20
33.3195348656001
 10
-10.51229261600001
 20
33.28263858400012
 10
-11.0471173376
 20
33.25224239680008
 10
-11.59566531679995
 20
33.22611712320011
 10
-12.17020804320002
 20
33.20110105280005
 10
-12.79983847839996
 20
33.17134494560005
 10
-13.52329275039998
 20
33.12526382240005
 10
-14.25892179839995
 20
33.05368354560008
  0
LWPOLYLINE
  5
205F
330
1F
100
AcDbEntity
  8
0
100
AcDbPolyline
 90
        4
 70
     0
 43
0.0
 10
-14.25892179839995
 20
32.00660754720004
 10
-14.27702254879993
 20
32.00328576320012
 10
-14.295107136
 20
31.99993721280012
 10
-14.31317545919994
 20
31.99656190720011
  0
LWPOLYLINE
  5
2060
330
1F
100
AcDbEntity
  8
0
100
AcDbPolyline
 90
        4
 70
     0
 43
0.0
 10
-14.6442766288
 20
37.16987428480004
 10
-13.98706912159995
 20
37.09703242080005
 10
-13.33039243039995
 20
37.0203710768001
 10
-12.67420943359995
 20
36.93988711360012
  0
LWPOLYLINE
  5
2061
330
1F
100
AcDbEntity
  8
0
100
AcDbPolyline
 90
        4
 70
     0
 43
0.0
 10
-12.64630848159997
 20
35.59005833760002
 10
-13.26763100959992
 20
35.60779808960015
 10
-13.87899015679993
 20
35.6108808288001
 10
-14.47629348799994
 20
35.59608082560012
  0
LWPOLYLINE
  5
2062
330
1F
100
AcDbEntity
  8
0
100
AcDbPolyline
 90
        4
 70
     0
 43
0.0
 10
-14.6808128288
 20
36.77690899840004
 10
-14.01011164159994
 20
36.70360016480006
 10
-13.34756203039994
 20
36.62689873280001
 10
-12.69311663839998
 20
36.54709598240006
  0
LINE
  5
2063
330
1F
100
AcDbEntity
  8
0
100
AcDbLine
 10
-14.66690170080004
 20
37.17229764480008
 30
0.0
 11
-14.64427662880005
 21
37.1698742848
 31
0.0
  0
LINE
  5
2064
330
1F
100
AcDbEntity
  8
0
100
AcDbLine
 10
-12.67420943360001
 20
36.93988711360008
 30
0.0
 11
-12.64726860480003
 21
36.93649966720009
 31
0.0
  0
LWPOLYLINE
  5
2065
330
1F
100
AcDbEntity
  8
0
100
AcDbPolyline
 90
        9
 70
     0
 43
0.0
 10
-6.086246384000034
 20
35.65114599200015
 10
-6.220717945600014
 20
35.65987340000006
 10
-6.348378929599945
 20
35.66509807200012
 10
-6.462846092800006
 20
35.66622835040007
 10
-6.556234432000039
 20
35.66305415040008
 10
-6.623834115199926
 20
35.65601382720015
 10
-6.666613337600026
 20
35.64532746720002
 10
-6.68302075199999
 20
35.63105093600009
 10
-6.681019086399984
 20
35.62349583680012
  0
LWPOLYLINE
  5
2066
330
1F
100
AcDbEntity
  8
0
100
AcDbPolyline
 90
        6
 70
     0
 43
0.0
 10
-4.331180667199916
 20
33.49005523360009
 10
-4.906616945599964
 20
33.82469593280009
 10
-5.439566951999992
 20
34.21724426560004
 10
-5.923651409600026
 20
34.66284912160009
 10
-6.353077059199947
 20
35.15599673760007
 10
-6.681076944000025
 20
35.62349935200009
  0
LINE
  5
2067
330
1F
100
AcDbEntity
  8
0
100
AcDbLine
 10
-6.086246384000091
 20
35.65114599200011
 30
0.0
 11
-5.358094913600083
 21
35.5962948576
 31
0.0
  0
LWPOLYLINE
  5
2068
330
1F
100
AcDbEntity
  8
0
100
AcDbPolyline
 90
        3
 70
     0
 43
0.0
 10
-3.81559899839992
 20
35.22722560960008
 10
-4.27505137919995
 20
35.2021115232001
 10
-4.430190391999914
 20
35.19726738880004
  0
LWPOLYLINE
  5
2069
330
1F
100
AcDbEntity
  8
0
100
AcDbPolyline
 90
        8
 70
     0
 43
0.0
 10
-5.358094913600027
 20
35.59629485760004
 10
-5.262441966399975
 20
35.58784852480008
 10
-5.160558798400003
 20
35.5762304560001
 10
-5.06174190559993
 20
35.56226617280006
 10
-4.973615286399919
 20
35.54708786720008
 10
-4.898740513599975
 20
35.53122350400011
 10
-4.842348724800032
 20
35.51586192480013
 10
-4.807294852799984
 20
35.50219531040002
  0
LWPOLYLINE
  5
206A
330
1F
100
AcDbEntity
  8
0
100
AcDbPolyline
 90
        3
 70
     0
 43
0.0
 10
-4.631749447999979
 20
35.41882737440008
 10
-4.613819763199941
 20
35.40813786560002
 10
-4.612549710399932
 20
35.40674079040005
  0
LWPOLYLINE
  5
206B
330
1F
100
AcDbEntity
  8
0
100
AcDbPolyline
 90
        3
 70
     0
 43
0.0
 10
-4.807294852799984
 20
35.50219531040002
 10
-4.72159589120001
 20
35.45992650720009
 10
-4.631749447999979
 20
35.41882737440008
  0
LWPOLYLINE
  5
206F
330
1F
100
AcDbEntity
  8
0
100
AcDbPolyline
 90
       24
 70
     0
 43
0.0
 10
28.30666837280007
 20
30.33203486080006
 10
27.91499779359999
 20
30.89679823040015
 10
27.49491156799997
 20
31.44481626720008
 10
27.04803877280001
 20
31.97358273280011
 10
26.57624623520003
 20
32.48072815520007
 10
26.08163784000005
 20
32.96403278080006
 10
25.56532157440001
 20
33.42249079040007
 10
25.02705464160006
 20
33.85630237280011
 10
24.46718792960003
 20
34.26514382720009
 10
23.88746174240004
 20
34.64760546560015
 10
23.29123593280003
 20
35.00150189280012
 10
22.68077944960005
 20
35.32569734400013
 10
22.05726820800005
 20
35.61973756640012
 10
21.4210933312
 20
35.88359378560008
 10
20.77374269759998
 20
36.11678226560005
 10
20.11741583359999
 20
36.31860599360007
 10
19.45449165120005
 20
36.48850288320014
 10
18.78564144640002
 20
36.62645515040006
 10
18.11079913919998
 20
36.73248948320011
 10
17.43065568000004
 20
36.80644499360008
 10
16.74621290720001
 20
36.84809059520003
 10
16.05868999680008
 20
36.85714554080007
 10
15.36966077920006
 20
36.8334453616001
 10
14.68081283040005
 20
36.77690899840004
  0
LWPOLYLINE
  5
2070
330
1F
100
AcDbEntity
  8
0
100
AcDbPolyline
 90
       13
 70
     0
 43
0.0
 10
14.66690170080001
 20
37.17229764480012
 10
15.51602779679997
 20
37.23806539680007
 10
16.45656540479997
 20
37.25413024320008
 10
17.49537337919998
 20
37.20264221440007
 10
18.64182577599997
 20
37.0605768848001
 10
19.8760314224
 20
36.80460662720011
 10
21.11072522080003
 20
36.43592942400008
 10
22.33015054560003
 20
35.95231740480008
 10
23.49976344800002
 20
35.36432112320008
 10
24.511330032
 20
34.7446742320001
 10
25.36793586400001
 20
34.12698911680005
 10
26.09459627840006
 20
33.52482324640007
 10
26.71589710719997
 20
32.94307621920009
  0
LWPOLYLINE
  5
2071
330
1F
100
AcDbEntity
  8
0
100
AcDbPolyline
 90
       19
 70
     0
 43
0.0
 10
23.20897326400002
 20
27.38887921920005
 10
23.06501604
 20
27.69660048960011
 10
22.89746161120008
 20
28.00683678400005
 10
22.70440575679999
 20
28.32027926240007
 10
22.48943757280001
 20
28.62962908160003
 10
22.27465593280006
 20
28.90756901760008
 10
22.0744496928
 20
29.14473715200008
 10
21.89040275040004
 20
29.34748899360002
 10
21.71982890720001
 20
29.52428516000011
 10
21.56174069440005
 20
29.67978704960015
 10
21.41608460480001
 20
29.8167023056001
 10
21.28363605919999
 20
29.93638952800009
 10
21.16372264479998
 20
30.04110209120009
 10
21.05228135520003
 20
30.13551710240008
 10
20.94447916320003
 20
30.22434844800014
 10
20.83576873600005
 20
30.31157356000008
 10
20.72526404800005
 20
30.39794023680011
 10
20.61364719039996
 20
30.48294141440001
 10
20.50164576160007
 20
30.56608624960009
  0
LWPOLYLINE
  5
2072
330
1F
100
AcDbEntity
  8
0
100
AcDbPolyline
 90
       34
 70
     0
 43
0.0
 10
23.49478493279999
 20
27.70836826560005
 10
23.44305883680006
 20
27.83252718560007
 10
23.41727785920006
 20
27.89427088480002
 10
23.39098551360002
 20
27.95697885760015
 10
23.36366326399998
 20
28.02179655360012
 10
23.33554927360008
 20
28.08807923520012
 10
23.30669266240006
 20
28.1556466512001
 10
23.27629914079996
 20
28.22628206400011
 10
23.24342065920002
 20
28.30206648640015
 10
23.20697994560005
 20
28.38529353600009
 10
23.16582891679998
 20
28.47830658080002
 10
23.11884103840005
 20
28.58325907360009
 10
23.06490783040005
 20
28.70209817440004
 10
23.00517114079998
 20
28.8317316416001
 10
22.94344174079999
 20
28.96353655040005
 10
22.88382453599997
 20
29.08880419200014
 10
22.82666014080003
 20
29.20708968640011
 10
22.77130253280002
 20
29.31997517920004
 10
22.71711180640007
 20
29.42892703520001
 10
22.66291651839999
 20
29.53638508000008
 10
22.60765145440002
 20
29.64445176800009
 10
22.55233487360006
 20
29.75111987040012
 10
22.49795155520003
 20
29.85455621920007
 10
22.44274563519998
 20
29.95813433280014
 10
22.38422380480001
 20
30.06639765920013
 10
22.31977726880002
 20
30.18382850240007
 10
22.24757764160001
 20
30.31319935040008
 10
22.17076849439997
 20
30.44834804160009
 10
22.09392391040008
 20
30.58105368000011
 10
22.01711311519996
 20
30.71125035200012
 10
21.93909006560006
 20
30.84104373760002
 10
21.85863349440008
 20
30.9723426144001
 10
21.77420885120007
 20
31.10739479040003
 10
21.68398468480002
 20
31.24870332160006
  0
LWPOLYLINE
  5
2073
330
1F
100
AcDbEntity
  8
0
100
AcDbPolyline
 90
       60
 70
     0
 43
0.0
 10
21.94994497919999
 20
26.66197889920013
 10
21.88505856800004
 20
26.7795457568001
 10
21.81772218400006
 20
26.89724954720011
 10
21.74788989760004
 20
27.0150938848001
 10
21.67551452160008
 20
27.13307785920008
 10
21.60055445600001
 20
27.25118568480004
 10
21.52297543039999
 20
27.36938615680006
 10
21.44274026880005
 20
27.48764971360006
 10
21.35980960479999
 20
27.60594704320002
 10
21.27417899040001
 20
27.72419831520008
 10
21.18583567039998
 20
27.84233774560007
 10
21.09477031360002
 20
27.96029655040004
 10
21.00101104000005
 20
28.07796140480005
 10
20.90462470080008
 20
28.19517985280006
 10
20.80571433920006
 20
28.3117695952001
 10
20.70429681119999
 20
28.42766142080009
 10
20.60035772160002
 20
28.54282307520012
 10
20.49389175360006
 20
28.65721118080014
 10
20.38487750240001
 20
28.77080077760004
 10
20.27327471359997
 20
28.88358704640009
 10
20.15909251199998
 20
28.99551321600009
 10
20.04237240799996
 20
29.1064935264001
 10
19.92313752959996
 20
29.21646369600003
 10
19.80139028640003
 20
29.3253799600001
 10
19.6771603232
 20
29.43317507200006
 10
19.5505091472
 20
29.53975790880011
 10
19.42147647680003
 20
29.64506013600012
 10
19.29010811840005
 20
29.74901130080004
 10
19.1564607584
 20
29.85153571200013
 10
19.02060240639998
 20
29.95255303680008
 10
18.8826264
 20
30.05196913440014
 10
18.74260885760004
 20
30.14970772640007
 10
18.60055363199997
 20
30.24574465600008
 10
18.45646684319997
 20
30.34005384320008
 10
18.31037436160007
 20
30.43259765920007
 10
18.1623224032
 20
30.52332576800009
 10
18.01250132959997
 20
30.61210454400011
 10
17.86109735040004
 20
30.6988145536001
 10
17.70825188639999
 20
30.78337160640003
 10
17.55410269760007
 20
30.86570024640005
 10
17.39872113120005
 20
30.9457646000001
 10
17.24218473759999
 20
31.02352665760011
 10
17.08460542400003
 20
31.09893363840015
 10
16.92622114720002
 20
31.17187939520013
 10
16.76712739520003
 20
31.2423317728001
 10
16.60722656959997
 20
31.31034088640004
 10
16.44660190719999
 20
31.37587326080009
 10
16.28534154079996
 20
31.43889687840001
 10
16.12354157440002
 20
31.49938087360002
 10
15.96132269120001
 20
31.55728743360012
 10
15.79885349119997
 20
31.61256623680006
 10
15.63628194400003
 20
31.66518268000007
 10
15.47326637760007
 20
31.71525876800015
 10
15.30972954559997
 20
31.76281921760008
 10
15.14593516639997
 20
31.8077962368001
 10
14.98152150400001
 20
31.85030041760015
 10
14.81621947840001
 20
31.89040016480012
 10
14.65011763679997
 20
31.92807002080011
 10
14.48266895839999
 20
31.96342127040011
 10
14.31317546079999
 20
31.99656190720011
  0
CIRCLE
  5
2074
330
1F
100
AcDbEntity
  8
0
100
AcDbCircle
 10
0.0000000000000142
 20
12.3750000000001
 30
0.0
 40
1.2714466064
  0
LWPOLYLINE
  5
2075
330
1F
100
AcDbEntity
  8
0
100
AcDbPolyline
 90
       23
 70
     0
 43
0.0
 10
1.824121806400015
 20
12.37500000000014
 10
1.821407691200036
 20
12.46137017440005
 10
1.814061460800033
 20
12.55735632480005
 10
1.800106512000027
 20
12.66523556960012
 10
1.777044443200068
 20
12.78578183520008
 10
1.743334328000017
 20
12.91418132320009
 10
1.698383617599986
 20
13.04560115680013
 10
1.642841516800061
 20
13.17509996480012
 10
1.578136747200076
 20
13.29895250400014
 10
1.504309257600041
 20
13.41733135040013
 10
1.421787329600036
 20
13.52957895200009
 10
1.331105857600007
 20
13.63501296160009
 10
1.232831192000006
 20
13.73303680160009
 10
1.127376300800008
 20
13.82326438240002
 10
1.015486719999969
 20
13.90507431680012
 10
0.8984571184000316
 20
13.9776635328001
 10
0.7774294287999766
 20
14.04061199520006
 10
0.653462678400004
 20
14.09372915520012
 10
0.5271129824000838
 20
14.13712131520006
 10
0.398603536000067
 20
14.17094780160008
 10
0.2679833279999713
 20
14.19528569600007
 10
0.1351444111999882
 20
14.21008004000012
 10
0.0000000000000711
 20
14.21509367040008
  0
LWPOLYLINE
  5
2076
330
1F
100
AcDbEntity
  8
0
100
AcDbPolyline
 90
       26
 70
     0
 43
0.0
 10
0.0000000000000711
 20
10.49176433120013
 10
0.0947206912000667
 20
10.49418389120003
 10
0.1903489632000657
 20
10.50165647200006
 10
0.2865176096000397
 20
10.51442956320002
 10
0.3827943760000636
 20
10.53266302240004
 10
0.4781693568000521
 20
10.55628626400007
 10
0.5718053584000274
 20
10.58508527040012
 10
0.6634712783999959
 20
10.61892356000012
 10
0.7530581392000642
 20
10.65770372000011
 10
0.8406018592000492
 20
10.70142106400012
 10
0.9266318816000449
 20
10.7504302880001
 10
1.011641057600016
 20
10.80528644800008
 10
1.095926923200025
 20
10.86666044640006
 10
1.179504398400084
 20
10.93525124000009
 10
1.262194495999963
 20
11.01182317600015
 10
1.34388326720007
 20
11.09749493760014
 10
1.424048054399989
 20
11.19335872320007
 10
1.501594676800053
 20
11.3001746432001
 10
1.574090239999989
 20
11.41672769600009
 10
1.639734404799995
 20
11.54201987200011
 10
1.696429953600002
 20
11.67341277920004
 10
1.743000073600072
 20
11.80858910560007
 10
1.779250852799989
 20
11.94695403520009
 10
1.80492316800003
 20
12.08747040960011
 10
1.819925875200013
 20
12.22960327520004
 10
1.824143820799989
 20
12.37287973760013
  0
LINE
  5
2077
330
1F
100
AcDbEntity
  8
0
100
AcDbLine
 10
-1.824121806400043
 20
12.3750000000001
 30
0.0
 11
-1.824143820800017
 21
12.37287973760008
 31
0.0
  0
LINE
  5
2078
330
1F
100
AcDbEntity
  8
0
100
AcDbLine
 10
-1.997090886400073
 20
12.37743180640005
 30
0.0
 11
-1.997111623999998
 21
12.3750000000001
 31
0.0
  0
LWPOLYLINE
  5
2079
330
1F
100
AcDbEntity
  8
0
100
AcDbPolyline
 90
       26
 70
     0
 43
0.0
 10
-1.82414382079996
 20
12.37287973760013
 10
-1.819926641600019
 20
12.22961466560005
 10
-1.804924918399976
 20
12.08748257760012
 10
-1.779253028799914
 20
11.94696383680005
 10
-1.743002814399957
 20
11.80859816160014
 10
-1.696432663999914
 20
11.67341978240008
 10
-1.639737451199991
 20
11.54202625920007
 10
-1.574101539199929
 20
11.41674743040008
 10
-1.501612870400023
 20
11.30020165280009
 10
-1.424065129600009
 20
11.19338058720009
 10
-1.343900740800037
 20
11.09751447040005
 10
-1.262213255999924
 20
11.01184164000008
 10
-1.179524977599996
 20
10.9352691664001
 10
-1.095951593599963
 20
10.8666795088001
 10
-1.011667924799937
 20
10.80530486400007
 10
-0.9266557535999453
 20
10.7504447680001
 10
-0.8406236832000075
 20
10.70143271680004
 10
-0.7530799007999321
 20
10.65771385600012
 10
-0.6634901471999655
 20
10.61893112160012
 10
-0.5718210496000183
 20
10.58509057600011
 10
-0.4781821871999199
 20
10.55628982400006
 10
-0.3828075887999347
 20
10.53266590720014
 10
-0.2865341375999577
 20
10.51443222080004
 10
-0.1903647871999254
 20
10.50165813440006
 10
-0.0947307343999882
 20
10.49418440800005
 10
0.0000000000000711
 20
10.49176433120013
  0
LWPOLYLINE
  5
207A
330
1F
100
AcDbEntity
  8
0
100
AcDbPolyline
 90
       23
 70
     0
 43
0.0
 10
0.0000000000000711
 20
14.21509367040008
 10
-0.1353081648000369
 20
14.21006786080002
 10
-0.2683058895999437
 20
14.19523768960007
 10
-0.3990796656000128
 20
14.17084087040009
 10
-0.5277368687999769
 20
14.13693230240008
 10
-0.6542276335999731
 20
14.09343434080008
 10
-0.778330847999925
 20
14.04018512000007
 10
-0.8994820127999645
 20
13.97708004960011
 10
-1.01661606719999
 20
13.90431238240003
 10
-1.128583895999938
 20
13.82230776000008
 10
-1.234085017599952
 20
13.73187712000006
 10
-1.332384838399931
 20
13.63363454080004
 10
-1.423065716799939
 20
13.52797056000011
 10
-1.50555982400003
 20
13.4154843296001
 10
-1.579328281599984
 20
13.29686594240004
 10
-1.643951470399926
 20
13.17275867520007
 10
-1.699383755200003
 20
13.04299366080013
 10
-1.744124480000024
 20
12.91154771040012
 10
-1.777563486399955
 20
12.78346920320009
 10
-1.800373409599998
 20
12.66354273600009
 10
-1.814166131199996
 20
12.55631741120012
 10
-1.821433128000009
 20
12.46088373120008
 10
-1.824121806399986
 20
12.37500000000014
  0
LWPOLYLINE
  5
207B
330
1F
100
AcDbEntity
  8
0
100
AcDbPolyline
 90
        7
 70
     0
 43
0.0
 10
-1.824143801599959
 20
12.37287973760013
 10
-1.848226526399955
 20
12.37326252800008
 10
-1.874821819199993
 20
12.3736361424001
 10
-1.903492054400018
 20
12.37399466720003
 10
-1.933765460799961
 20
12.3743324320001
 10
-1.965143889600014
 20
12.37464409920008
 10
-1.997111006399947
 20
12.37492476000002
  0
LINE
  5
207C
330
1F
100
AcDbEntity
  8
0
100
AcDbLine
 10
0.0000000000000142
 20
14.2150936624
 30
0.0
 11
0.0000000000000142
 21
14.38545381920003
 31
0.0
  0
LWPOLYLINE
  5
207D
330
1F
100
AcDbEntity
  8
0
100
AcDbPolyline
 90
       10
 70
     0
 43
0.0
 10
24.55907471999997
 20
20.87500168800002
 10
24.54197972959998
 20
20.13166552800012
 10
24.49024341440004
 20
19.38187522720014
 10
24.40353260000001
 20
18.63020590240003
 10
24.28219880800004
 20
17.88217989280011
 10
24.12740930240007
 20
17.14380465920013
 10
23.94060806720001
 20
16.41899466400005
 10
23.72363064480005
 20
15.71129374400007
 10
23.47889075680002
 20
15.02443265920013
 10
23.20897326400002
 20
14.36112078240003
  0
LWPOLYLINE
  5
207E
330
1F
100
AcDbEntity
  8
0
100
AcDbPolyline
 90
       36
 70
     0
 43
0.0
 10
21.90936385920004
 20
15.11145062240009
 10
21.99062885280007
 20
15.26059386720012
 10
22.06982010400004
 20
15.41112145920013
 10
22.14689778719999
 20
15.56296695360006
 10
22.22182067520005
 20
15.71605600160003
 10
22.294541176
 20
15.87029421920013
 10
22.36501573599999
 20
16.02558150880011
 10
22.43324584480008
 20
16.18191031680012
 10
22.4992221472
 20
16.33925213440002
 10
22.56292329600007
 20
16.49754954560003
 10
22.624331112
 20
16.65674676960011
 10
22.68343711519999
 20
16.81680975040004
 10
22.74024003040001
 20
16.97772503680008
 10
22.79474948160005
 20
17.13951428800013
 10
22.84695942720004
 20
17.3021548400001
 10
22.8968567312
 20
17.46560259040009
 10
22.94442809280003
 20
17.62981234400004
 10
22.98965896800003
 20
17.79472911680014
 10
23.03253774240006
 20
17.96029708160008
 10
23.07305597919999
 20
18.12646947840008
 10
23.11120867680001
 20
18.29321459040002
 10
23.14699318080006
 20
18.4605112272001
 10
23.18040571520005
 20
18.62833101440006
 10
23.21144188000001
 20
18.7966437488001
 10
23.24009844799998
 20
18.96542818880007
 10
23.26637195359997
 20
19.13466128960013
 10
23.29026119840007
 20
19.30433703520012
 10
23.31175925120005
 20
19.47441711200011
 10
23.33085441760006
 20
19.64481705280005
 10
23.34754174079996
 20
19.81547599520004
 10
23.36182059039999
 20
19.98635980000008
 10
23.37369188480006
 20
20.1574741008001
 10
23.38315094080003
 20
20.32877228960003
 10
23.39019445920003
 20
20.50021116480004
 10
23.39482127360004
 20
20.67177579040006
 10
23.39702989439997
 20
20.84345802720011
  0
LWPOLYLINE
  5
207F
330
1F
100
AcDbEntity
  8
0
100
AcDbPolyline
 90
       18
 70
     0
 43
0.0
 10
16.86614815039997
 20
10.6189246992001
 10
17.01723861760008
 20
10.68816478560009
 10
17.16709276319996
 20
10.75940231840004
 10
17.31651005919998
 20
10.83302355360004
 10
17.46567992640002
 20
10.90915375680006
 10
17.61417513600004
 20
10.98760738240005
 10
17.76136108960004
 20
11.06806143680003
 10
17.90636531520006
 20
11.15001156480005
 10
18.04896779360008
 20
11.23327491200009
 10
18.19024835520004
 20
11.31844970400007
 10
18.33109540959999
 20
11.40609925920003
 10
18.47046035039996
 20
11.49560006240008
 10
18.60801234720004
 20
11.58673133120012
 10
18.74372895840004
 20
11.67945997280006
 10
18.8777001808
 20
11.7738298336001
 10
19.00990377759997
 20
11.86981146240012
 10
19.14020014240004
 20
11.96728713920006
 10
19.26853176159996
 20
12.06619334240011
  0
LWPOLYLINE
  5
2080
330
1F
100
AcDbEntity
  8
0
100
AcDbPolyline
 90
       27
 70
     0
 43
0.0
 10
19.26853176159996
 20
12.06619334240011
 10
19.40152960960001
 20
12.17185561600004
 10
19.53225997279999
 20
12.27898539520006
 10
19.66063690400001
 20
12.38748292000005
 10
19.78658466719998
 20
12.49725043200013
 10
19.91005422079997
 20
12.60820792480004
 10
20.03100892799996
 20
12.72028280320014
 10
20.14942756960006
 20
12.83341421440005
 10
20.2652803232
 20
12.94753099520008
 10
20.37851950880003
 20
13.06254053600005
 10
20.48914547839997
 20
13.17839540800005
 10
20.59719733440006
 20
13.29508880800008
 10
20.70269116160007
 20
13.41258856000004
 10
20.80563404640004
 20
13.53085363040011
 10
20.90600571040006
 20
13.64981100960008
 10
21.0037684656
 20
13.76936299200011
 10
21.09887897920005
 20
13.88939837920011
 10
21.19121993280005
 20
14.00970014880013
 10
21.28076397920001
 20
14.1301527712001
 10
21.367500464
 20
14.2506566320001
 10
21.45142906240001
 20
14.3711216720001
 10
21.53256159359996
 20
14.4914720208001
 10
21.61093861920001
 20
14.61167442080014
 10
21.68658917279999
 20
14.73168050560005
 10
21.75954753280002
 20
14.85145186560012
 10
21.82985555839998
 20
14.97096569440012
 10
21.89755346720001
 20
15.09020080320013
  0
LWPOLYLINE
  5
2081
330
1F
100
AcDbEntity
  8
0
100
AcDbPolyline
 90
       19
 70
     0
 43
0.0
 10
23.20897326400002
 20
14.36112078240003
 10
23.06501604
 20
14.05339951200008
 10
22.89746161120008
 20
13.74316321600011
 10
22.70440575679999
 20
13.42972073920012
 10
22.48943757280001
 20
13.12037092000005
 10
22.27465593280006
 20
12.84243098240009
 10
22.0744496928
 20
12.6052628496001
 10
21.89040275040004
 20
12.40251100640003
 10
21.71982890720001
 20
12.22571484000005
 10
21.56174069440005
 20
12.07021295040013
 10
21.41608460480001
 20
11.93329769600009
 10
21.28363605919999
 20
11.8136104736001
 10
21.16372264479998
 20
11.70889791040011
 10
21.05228135520003
 20
11.61448289760008
 10
20.94447916320003
 20
11.52565155200014
 10
20.83576873600005
 20
11.43842644000008
 10
20.72526404800005
 20
11.35205976480008
 10
20.61364719039996
 20
11.26705858560004
 10
20.50164576160007
 20
11.18391375040008
  0
LWPOLYLINE
  5
2082
330
1F
100
AcDbEntity
  8
0
100
AcDbPolyline
 90
       37
 70
     0
 43
0.0
 10
23.54735727840007
 20
14.16575468160013
 10
23.52106748479998
 20
14.10431481120011
 10
23.49478493279999
 20
14.04163173440011
 10
23.46881737919996
 20
13.97931452480011
 10
23.44305883680006
 20
13.9174728144001
 10
23.41727785920006
 20
13.85572911520003
 10
23.39098551360002
 20
13.79302114400005
 10
23.36366326399998
 20
13.72820344800007
 10
23.33554927360008
 20
13.66192076640007
 10
23.30669266240006
 20
13.59435335040009
 10
23.27629914079996
 20
13.52371793760008
 10
23.24342065920002
 20
13.44793351520005
 10
23.20697994560005
 20
13.3647064656001
 10
23.16582891679998
 20
13.27169342080006
 10
23.11884103840005
 20
13.16674092640008
 10
23.06490783040005
 20
13.04790182560012
 10
23.00517114079998
 20
12.9182683600001
 10
22.94344174079999
 20
12.78646345120014
 10
22.88382453599997
 20
12.66119580960006
 10
22.82666014080003
 20
12.54291031360006
 10
22.77130253280002
 20
12.43002482080012
 10
22.71711180640007
 20
12.32107296480003
 10
22.66291651839999
 20
12.21361492000008
 10
22.60765145440002
 20
12.1055482336001
 10
22.55233487360006
 20
11.99888012960005
 10
22.49795155520003
 20
11.89544378080009
 10
22.44274563519998
 20
11.79186566880005
 10
22.38422380480001
 20
11.68360234240006
 10
22.31977726880002
 20
11.56617149760009
 10
22.24757764160001
 20
11.43680065120011
 10
22.17076849439997
 20
11.3016519600001
 10
22.09392391040008
 20
11.16894632000006
 10
22.01711311519996
 20
11.03874964800005
 10
21.93909006560006
 20
10.90895626240004
 10
21.85863349440008
 20
10.77765738720009
 10
21.77420885120007
 20
10.64260520960013
 10
21.68398468480002
 20
10.5012966784001
  0
LINE
  5
2083
330
1F
100
AcDbEntity
  8
0
100
AcDbLine
 10
21.89755346719995
 20
15.09020080320009
 30
0.0
 11
21.90936389599996
 21
15.11145060160002
 31
0.0
  0
LWPOLYLINE
  5
2084
330
1F
100
AcDbEntity
  8
0
100
AcDbPolyline
 90
       35
 70
     0
 43
0.0
 10
23.39717256160004
 20
20.87500041280012
 10
23.39646766879998
 20
21.0511656368001
 10
23.3932145344
 20
21.22735228960007
 10
23.38741172320006
 20
21.40353347520013
 10
23.37905826399999
 20
21.57967779520006
 10
23.368154544
 20
21.75574589920009
 10
23.35470202239999
 20
21.93169413280011
 10
23.33870268319999
 20
22.10746755200003
 10
23.32015576960004
 20
22.28303578880005
 10
23.29906136480003
 20
22.45836727200006
 10
23.27542204640003
 20
22.63342201440005
 10
23.24924059999996
 20
22.80815761440013
 10
23.22051947519999
 20
22.98253374080005
 10
23.18926188159998
 20
23.15651170080005
 10
23.15547202080002
 20
23.33005097440005
 10
23.11915397920002
 20
23.5031117504001
 10
23.08031207040001
 20
23.6756548384001
 10
23.0389471232
 20
23.8476604240001
 10
22.99506996960003
 20
24.01906527840006
 10
22.94868924320003
 20
24.18981682560005
 10
22.89981026560004
 20
24.35987878560004
 10
22.84843784640004
 20
24.5292228768001
 10
22.79457689279998
 20
24.69781745920013
 10
22.73823523200003
 20
24.86561958240011
 10
22.67942238560006
 20
25.03258540000004
 10
22.6181441792
 20
25.19868608640004
 10
22.55441231360005
 20
25.36387671680009
 10
22.48824046240004
 20
25.52810930240005
 10
22.41964176480003
 20
25.69134099200008
 10
22.34863644319996
 20
25.85351381440014
 10
22.27530112799998
 20
26.0144500736001
 10
22.19966768160004
 20
26.17408680960002
 10
22.12176369599997
 20
26.33237889760008
 10
22.04162076799998
 20
26.4892749264001
 10
21.95926993439998
 20
26.64472607360008
  0
LWPOLYLINE
  5
2085
330
1F
100
AcDbEntity
  8
0
100
AcDbPolyline
 90
       11
 70
     0
 43
0.0
 10
24.55907471680002
 20
20.87500168800002
 10
24.54523076000005
 20
21.54368060480013
 10
24.50337598400001
 20
22.21784966560008
 10
24.43319625919999
 20
22.89448452320007
 10
24.33482538879998
 20
23.56944729440013
 10
24.2089101904
 20
24.23843689760011
 10
24.05643165600004
 20
24.89798340640007
 10
23.87859901920008
 20
25.54526341440012
 10
23.67683638559999
 20
26.17782307040002
 10
23.4529851296
 20
26.79302016320005
 10
23.20897326400002
 20
27.38887921920005
  0
LINE
  5
2086
330
1F
100
AcDbEntity
  8
0
100
AcDbLine
 10
23.39702989439992
 20
20.84345802720007
 30
0.0
 11
23.39717256159998
 21
20.87500041280007
 31
0.0
  0
LINE
  5
2087
330
1F
100
AcDbEntity
  8
0
100
AcDbLine
 10
21.95926993439992
 20
26.64472607360004
 30
0.0
 11
21.94994501119994
 21
26.66197891839998
 31
0.0
  0
LWPOLYLINE
  5
2088
330
1F
100
AcDbEntity
  8
0
100
AcDbPolyline
 90
        3
 70
     0
 43
0.0
 10
23.54735727840007
 20
27.58424532000006
 10
23.52106748479998
 20
27.64568518880006
 10
23.49478493279999
 20
27.70836826560005
  0
LWPOLYLINE
  5
208A
330
1F
100
AcDbEntity
  8
0
100
AcDbPolyline
 90
        5
 70
     0
 43
0.0
 10
2.988957604799978
 20
36.18788188160002
 10
5.078196215999994
 20
36.27115127840002
 10
7.37288511840002
 20
36.4124693232001
 10
9.88638061280001
 20
36.62742278400006
 10
12.6472686048
 20
36.93649966720013
  0
LWPOLYLINE
  5
208B
330
1F
100
AcDbEntity
  8
0
100
AcDbPolyline
 90
       10
 70
     0
 43
0.0
 10
6.384875958399973
 20
35.20132042240007
 10
6.469156979200036
 20
35.20360741920004
 10
7.128057500800039
 20
35.23163147680012
 10
7.842253040000016
 20
35.27140418080003
 10
8.620415758400056
 20
35.32286795200005
 10
9.46581163360004
 20
35.38451177920015
 10
10.30243473119999
 20
35.44720001760007
 10
11.11042079839997
 20
35.50504810880002
 10
11.89261655520006
 20
35.55402918080008
 10
12.64630848320003
 20
35.59005833760002
  0
LWPOLYLINE
  5
208C
330
1F
100
AcDbEntity
  8
0
100
AcDbPolyline
 90
       14
 70
     0
 43
0.0
 10
12.69311664000004
 20
36.54709598240006
 10
11.44384905759996
 20
36.39847672480007
 10
10.31842896960002
 20
36.2773706912001
 10
9.301327310400054
 20
36.1783965888001
 10
8.379550673600036
 20
36.09733468640004
 10
7.542171131199964
 20
36.03085096800012
 10
6.779757513600046
 20
35.97627530400009
 10
6.084151236799996
 20
35.9314593536001
 10
5.448634254400033
 20
35.89469107200002
 10
4.867152625600013
 20
35.86456809920005
 10
4.333947182399995
 20
35.83992768320004
 10
3.843686656000002
 20
35.81982038720005
 10
3.394279721600085
 20
35.80357412960009
 10
2.985384380799999
 20
35.79066249440009
  0
LWPOLYLINE
  5
208D
330
1F
100
AcDbEntity
  8
0
100
AcDbPolyline
 90
       16
 70
     0
 43
0.0
 10
5.400264124800017
 20
34.18829535680007
 10
5.700764443200071
 20
34.08120804160003
 10
6.218450348800004
 20
33.92375498720005
 10
6.783097849599997
 20
33.77970948800012
 10
7.396956273599997
 20
33.6498345872001
 10
8.060780902400054
 20
33.53541192320008
 10
8.764268255999994
 20
33.43886248320009
 10
9.408624108799997
 20
33.36911651680011
 10
9.983115878400056
 20
33.3195348656001
 10
10.51229261760006
 20
33.28263858400012
 10
11.04711733920005
 20
33.25224239680008
 10
11.59566531840001
 20
33.22611712320011
 10
12.17020804479996
 20
33.20110105280005
 10
12.79983848000002
 20
33.17134494560005
 10
13.52329275040001
 20
33.12526382240005
 10
14.25892180000001
 20
33.05368354560008
  0
LWPOLYLINE
  5
208E
330
1F
100
AcDbEntity
  8
0
100
AcDbPolyline
 90
       27
 70
     0
 43
0.0
 10
14.25892180000001
 20
32.00660761920008
 10
13.88750361280001
 20
32.07337898400001
 10
13.51438750879999
 20
32.13779376000005
 10
13.14039140640007
 20
32.19981270720009
 10
12.76685621120005
 20
32.25935051200011
 10
12.39422470079996
 20
32.31650133280007
 10
12.02222800960005
 20
32.3714817488001
 10
11.65143605760006
 20
32.42439011200011
 10
11.28186813920008
 20
32.47541173760012
 10
10.91254026560007
 20
32.5248620560001
 10
10.54264628640005
 20
32.57301480160006
 10
10.17157627040008
 20
32.6201031776001
 10
9.797664216000001
 20
32.66647565280007
 10
9.421194841599984
 20
32.71222135520011
 10
9.042877974400042
 20
32.75739542880015
 10
8.661911451200083
 20
32.80224102400009
 10
8.277284390399998
 20
32.84699856960006
 10
7.886325036799988
 20
32.89207172800004
 10
7.486601044800025
 20
32.93780200800009
 10
7.074958174400038
 20
32.98457573280009
 10
6.649043395199967
 20
33.03265244000013
 10
6.207821436799989
 20
33.08210419840011
 10
5.752514657600002
 20
33.13274376640007
 10
5.283742608000082
 20
33.1844674352001
 10
4.78809667679998
 20
33.23832809280011
 10
4.315648345599996
 20
33.28806879840013
 10
3.958150259200081
 20
33.32353875520007
  0
LWPOLYLINE
  5
208F
330
1F
100
AcDbEntity
  8
0
100
AcDbPolyline
 90
        3
 70
     0
 43
0.0
 10
3.815598999999977
 20
35.22722560960008
 10
4.275051380800007
 20
35.2021115232001
 10
4.430191297600075
 20
35.19726736000009
  0
LWPOLYLINE
  5
2090
330
1F
100
AcDbEntity
  8
0
100
AcDbPolyline
 90
        6
 70
     0
 43
0.0
 10
2.817583609600049
 20
34.1353225536001
 10
3.253744006400054
 20
34.31879740640002
 10
3.663723809600085
 20
34.54999191520008
 10
4.041655886399965
 20
34.82568803360007
 10
4.382118640000001
 20
35.14205095840011
 10
4.612564366400036
 20
35.40674162880012
  0
LWPOLYLINE
  5
2091
330
1F
100
AcDbEntity
  8
0
100
AcDbPolyline
 90
        5
 70
     0
 43
0.0
 10
0.0000000000000711
 20
36.14375955520009
 10
0.7668124128000074
 20
36.14666520320011
 10
1.476968276800064
 20
36.15453600640003
 10
2.203445857600016
 20
36.16774002240006
 10
2.988957604799978
 20
36.18788188160002
  0
LWPOLYLINE
  5
2092
330
1F
100
AcDbEntity
  8
0
100
AcDbPolyline
 90
        4
 70
     0
 43
0.0
 10
2.985384380799999
 20
35.79066249440009
 10
1.990406675199963
 20
35.76633741440005
 10
0.9952684192000589
 20
35.75174175680004
 10
0.0000000000000711
 20
35.7468760016001
  0
LWPOLYLINE
  5
2093
330
1F
100
AcDbEntity
  8
0
100
AcDbPolyline
 90
        7
 70
     0
 43
0.0
 10
-2.817583607999992
 20
34.1353225536001
 10
-2.034092783999923
 20
33.89985201280015
 10
-1.229156663999944
 20
33.74148122400006
 10
-0.41122076799995
 20
33.66186911040009
 10
0.4110740031999996
 20
33.66186198720007
 10
1.229043811200043
 20
33.74146467520009
 10
2.034048075200033
 20
33.89984092640011
  0
LINE
  5
2094
330
1F
100
AcDbEntity
  8
0
100
AcDbLine
 10
-2.703347228800097
 20
35.34355826560009
 30
0.0
 11
-2.67790588800004
 21
35.303226944
 31
0.0
  0
LWPOLYLINE
  5
2095
330
1F
100
AcDbEntity
  8
0
100
AcDbPolyline
 90
       13
 70
     0
 43
0.0
 10
3.815598999999977
 20
35.22722560960008
 10
3.715172583999972
 20
35.23427512960009
 10
3.617006876799976
 20
35.2417509584001
 10
3.52004973599999
 20
35.24972388800009
 10
3.423408268799974
 20
35.25827551040007
 10
3.328361569599977
 20
35.26729741120007
 10
3.234612288000064
 20
35.27681309760012
 10
3.141979129599988
 20
35.28684077440007
 10
3.051406623999994
 20
35.29726998880008
 10
2.962723235200044
 20
35.30810361280012
 10
2.87521575679996
 20
35.31942067040009
 10
2.788675987199965
 20
35.33124961920012
 10
2.703347230399984
 20
35.34355826560013
  0
LINE
  5
2096
330
1F
100
AcDbEntity
  8
0
100
AcDbLine
 10
2.703347230399927
 20
35.34355826560009
 30
0.0
 11
2.677905889599983
 21
35.303226944
 31
0.0
  0
LINE
  5
2097
330
1F
100
AcDbEntity
  8
0
100
AcDbLine
 10
3.815599003199977
 20
34.86552819519998
 30
0.0
 11
3.815586614400004
 21
34.86601731040001
 31
0.0
  0
LINE
  5
2098
330
1F
100
AcDbEntity
  8
0
100
AcDbLine
 10
2.034048075199976
 20
33.89984092640007
 30
0.0
 11
2.817583609599992
 21
34.13532255360006
 31
0.0
  0
LWPOLYLINE
  5
2099
330
1F
100
AcDbEntity
  8
0
100
AcDbPolyline
 90
       22
 70
     0
 43
0.0
 10
2.67790588960004
 20
35.30322694400004
 10
2.710576694400018
 20
35.29720816960005
 10
2.743446539199979
 20
35.29031609760014
 10
2.776509003200047
 20
35.28261649760011
 10
2.809730848000029
 20
35.27417560320012
 10
2.843285905600012
 20
35.26499802080005
 10
2.878168155200071
 20
35.25482488160005
 10
2.915330979200078
 20
35.24334147200002
 10
2.95580053600004
 20
35.23015132160006
 10
3.000785435200057
 20
35.21473633280007
 10
3.05149113120008
 20
35.19651543520004
 10
3.109371849600009
 20
35.17475560800008
 10
3.175857656000019
 20
35.14867170080006
 10
3.248771827199973
 20
35.11893502880005
 10
3.323808302399996
 20
35.08730874080006
 10
3.397533582400072
 20
35.05540736800006
 10
3.46963447840001
 20
35.02356681760002
 10
3.539951086399995
 20
34.99202420320003
 10
3.60876856800003
 20
34.96078655360011
 10
3.677003227200046
 20
34.92953924640008
 10
3.745637492799986
 20
34.89790877440012
 10
3.987313260800036
 20
34.7860458544001
  0
LINE
  5
209A
330
1F
100
AcDbEntity
  8
0
100
AcDbLine
 10
6.086246384000006
 20
35.65114599200011
 30
0.0
 11
5.358094915199913
 21
35.5962948576
 31
0.0
  0
LWPOLYLINE
  5
209B
330
1F
100
AcDbEntity
  8
0
100
AcDbPolyline
 90
        3
 70
     0
 43
0.0
 10
4.612549566400005
 20
35.40674077760005
 10
4.613817596799961
 20
35.40813570560013
 10
4.631749448000007
 20
35.41882737440008
  0
LWPOLYLINE
  5
209C
330
1F
100
AcDbEntity
  8
0
100
AcDbPolyline
 90
        8
 70
     0
 43
0.0
 10
4.807294852800012
 20
35.50219531040002
 10
4.842348724800061
 20
35.51586192480013
 10
4.898740515200032
 20
35.53122350400011
 10
4.973615287999976
 20
35.54708786720008
 10
5.061741905600072
 20
35.56226617280006
 10
5.160558798400032
 20
35.5762304560001
 10
5.262441968000032
 20
35.58784852480008
 10
5.35809491519997
 20
35.59629485760004
  0
LWPOLYLINE
  5
209D
330
1F
100
AcDbEntity
  8
0
100
AcDbPolyline
 90
        3
 70
     0
 43
0.0
 10
4.631749448000007
 20
35.41882737440008
 10
4.721588103999991
 20
35.45992280960004
 10
4.807294852800012
 20
35.50219531040002
  0
LWPOLYLINE
  5
209E
330
1F
100
AcDbEntity
  8
0
100
AcDbPolyline
 90
        9
 70
     0
 43
0.0
 10
6.086246384000062
 20
35.65114599200015
 10
6.220291843199973
 20
35.6598505072001
 10
6.347919992000086
 20
35.66508580960013
 10
6.462524244800036
 20
35.66623152480011
 10
6.556055990400025
 20
35.6630656624001
 10
6.623740937599976
 20
35.65602877920005
 10
6.666567975999967
 20
35.64534633600001
 10
6.683018080000081
 20
35.6310692512001
 10
6.681019147200075
 20
35.62349584000006
  0
LWPOLYLINE
  5
209F
330
1F
100
AcDbEntity
  8
0
100
AcDbPolyline
 90
        6
 70
     0
 43
0.0
 10
4.331180668799973
 20
33.49005523360009
 10
4.906616140800068
 20
33.82469540320008
 10
5.439565473600012
 20
34.21724304480008
 10
5.923649417599975
 20
34.66284707360014
 10
6.35307473600001
 20
35.15599374720014
 10
6.681076945599969
 20
35.62349935200009
  0
LWPOLYLINE
  5
20A1
330
1F
100
AcDbEntity
  8
0
100
AcDbPolyline
 90
       12
 70
     0
 43
0.0
 10
14.25892180000001
 20
33.05368355200008
 10
14.85707044160001
 20
32.96820436160001
 10
15.41324356640002
 20
32.86137489600005
 10
15.96511101920005
 20
32.72741696160008
 10
16.53956691200001
 20
32.55871739040006
 10
17.13927833120006
 20
32.35222444320007
 10
17.74821459840002
 20
32.11120951680007
 10
18.35208594080002
 20
31.84009660640006
 10
18.93836884960008
 20
31.54422890880008
 10
19.49693241280006
 20
31.22935283200004
 10
20.0195917424
 20
30.90157529440003
 10
20.50164576160007
 20
30.56608624960009
  0
LWPOLYLINE
  5
20A2
330
1F
100
AcDbEntity
  8
0
100
AcDbPolyline
 90
       19
 70
     0
 43
0.0
 10
14.47629348959999
 20
35.59608082880007
 10
15.12013025440008
 20
35.55487912000003
 10
15.68558913919999
 20
35.49178222560013
 10
16.18908196479999
 20
35.40989843040009
 10
16.64284438559998
 20
35.31147923840004
 10
17.05544712160004
 20
35.1982344592001
 10
17.43522939040003
 20
35.07080268960013
 10
17.78878527360002
 20
34.92925077760006
 10
18.12128957279999
 20
34.7731947184001
 10
18.44345260480004
 20
34.59823005600006
 10
18.76369758879998
 20
34.39936960480011
 10
19.08479101439998
 20
34.17335063520013
 10
19.41768597280004
 20
33.90971137120007
 10
19.76465633280004
 20
33.60257721280007
 10
20.12432640000004
 20
33.24841888960011
 10
20.49636418239999
 20
32.84222494720009
 10
20.88050114720006
 20
32.3782061264001
 10
21.27653581760007
 20
31.84953905120008
 10
21.68398468480002
 20
31.24870332160006
  0
LWPOLYLINE
  5
20A3
330
1F
100
AcDbEntity
  8
0
100
AcDbPolyline
 90
        4
 70
     0
 43
0.0
 10
14.31317546079999
 20
31.99656190720011
 10
14.2951071728
 20
31.99993720640012
 10
14.27702258879999
 20
32.00328575520009
 10
14.25892180000001
 20
32.00660754720004
  0
LWPOLYLINE
  5
20A4
330
1F
100
AcDbEntity
  8
0
100
AcDbPolyline
 90
        4
 70
     0
 43
0.0
 10
12.64630848320003
 20
35.59005833760002
 10
13.26763101119998
 20
35.60779808960015
 10
13.87899015839998
 20
35.6108808288001
 10
14.47629348800008
 20
35.59608082560012
  0
LINE
  5
20A5
330
1F
100
AcDbEntity
  8
0
100
AcDbLine
 10
14.6442766304
 20
37.1698742848
 30
0.0
 11
14.66690170079995
 21
37.17229764480008
 31
0.0
  0
LWPOLYLINE
  5
20A6
330
1F
100
AcDbEntity
  8
0
100
AcDbPolyline
 90
        4
 70
     0
 43
0.0
 10
12.67420943359998
 20
36.93988711360012
 10
13.33039243200001
 20
37.0203710768001
 10
13.98706912320001
 20
37.09703242080005
 10
14.64427663040005
 20
37.16987428480004
  0
LINE
  5
20A7
330
1F
100
AcDbEntity
  8
0
100
AcDbLine
 10
12.64726860479994
 20
36.93649966720009
 30
0.0
 11
12.67420943359992
 21
36.93988711360008
 31
0.0
  0
LWPOLYLINE
  5
20A8
330
1F
100
AcDbEntity
  8
0
100
AcDbPolyline
 90
        4
 70
     0
 43
0.0
 10
14.68081283040005
 20
36.77690899840004
 10
14.0101116432
 20
36.70360016480006
 10
13.34756203199999
 20
36.62689873280001
 10
12.69311664000004
 20
36.54709598240006
  0
LWPOLYLINE
  5
20AA
330
1F
100
AcDbEntity
  8
0
100
AcDbPolyline
 90
       23
 70
     0
 43
0.0
 10
30.94608433119999
 20
20.87500001600008
 10
30.92958175840006
 20
21.67088922240012
 10
30.880262384
 20
22.46146414720013
 10
30.79842609600003
 20
23.24567682080012
 10
30.68430160960004
 20
24.02293150400012
 10
30.54112692320002
 20
24.77792863040011
 10
30.37876193120003
 20
25.47875455680005
 10
30.20767041439997
 20
26.10860869120009
 10
30.03618625760005
 20
26.66389157600011
 10
29.86902705280006
 20
27.15106658720006
 10
29.70757900799999
 20
27.58175290080012
 10
29.55215567839998
 20
27.96594354080005
 10
29.40334912160001
 20
28.30997049600014
 10
29.26163267040006
 20
28.61867455680012
 10
29.1271780816
 20
28.89630679200005
 10
29.00022808640001
 20
29.14604750880008
 10
28.88092949280003
 20
29.37060981600009
 10
28.76918208800005
 20
29.57264206720006
 10
28.66467608
 20
29.75470840480003
 10
28.56691405919999
 20
29.91929521920011
 10
28.47523115840006
 20
30.06881581280007
 10
28.38881042400005
 20
30.20561846240005
 10
28.30666837120004
 20
30.33203486080006
  0
LWPOLYLINE
  5
20AB
330
1F
100
AcDbEntity
  8
0
100
AcDbPolyline
 90
       10
 70
     0
 43
0.0
 10
28.66460397279998
 20
30.56422982400013
 10
29.13257885759999
 20
29.79755159520007
 10
29.59062716479998
 20
28.92145857120013
 10
30.02998070880001
 20
27.92834952320006
 10
30.43777459200005
 20
26.81214432160007
 10
30.78786766399999
 20
25.60652780960007
 10
31.06852172479996
 20
24.31158416640008
 10
31.25387212319999
 20
23.04106803680011
 10
31.34728916320007
 20
21.90392802400006
 10
31.3743059808
 20
20.87500000000014
  0
LWPOLYLINE
  5
20AC
330
1F
100
AcDbEntity
  8
0
100
AcDbPolyline
 90
       10
 70
     0
 43
0.0
 10
31.3743059808
 20
20.87500000000014
 10
31.34737541440002
 20
19.84771201440006
 10
31.25585596160006
 20
18.72673400800013
 10
31.07945355680006
 20
17.49960332320009
 10
30.81067697279998
 20
16.23425371040005
 10
30.46427280480004
 20
15.01929992800003
 10
30.04811404319998
 20
13.86668559040006
 10
29.59961477439999
 20
12.84719361120008
 10
29.13614724640008
 20
11.9587570112001
 10
28.66460397279998
 20
11.18577017600014
  0
LWPOLYLINE
  5
20AD
330
1F
100
AcDbEntity
  8
0
100
AcDbPolyline
 90
       22
 70
     0
 43
0.0
 10
30.94608433119999
 20
20.87500001600008
 10
30.9279745152
 20
20.0413228048001
 10
30.87386281120002
 20
19.21353816480009
 10
30.78410143039998
 20
18.3928941216001
 10
30.65919589440007
 20
17.58144701440008
 10
30.50382822880006
 20
16.79953595040004
 10
30.3303538912
 20
16.08369132320004
 10
30.15016832639999
 20
15.44792712480003
 10
29.97180091520006
 20
14.89288536640006
 10
29.79913273760003
 20
14.40814915520005
 10
29.63281164640007
 20
13.98001710720009
 10
29.47333895520007
 20
13.59914797920012
 10
29.32150872480004
 20
13.25964238400004
 10
29.177538536
 20
12.95603616480005
 10
29.04170278400006
 20
12.68428143040014
 10
28.91424508480004
 20
12.44115507200004
 10
28.79512895839998
 20
12.22357671200009
 10
28.68405842080001
 20
12.02857241280006
 10
28.58050536319997
 20
11.85326368960014
 10
28.48373518880005
 20
11.69486071040003
 10
28.39283059680004
 20
11.55065816960009
 10
28.30666837120004
 20
11.4179651392001
  0
LINE
  5
20AE
330
1F
100
AcDbEntity
  8
0
100
AcDbLine
 10
28.66460397279992
 20
11.1857701760001
 30
0.0
 11
28.65568837439992
 21
11.17226048320002
 31
0.0
  0
LWPOLYLINE
  5
20B5
330
1F
100
AcDbEntity
  8
0
100
AcDbPolyline
 90
        4
 70
     0
 43
0.0
 10
26.71589710719997
 20
32.94307621920009
 10
26.83167286560008
 20
32.82700574240007
 10
26.94626318399999
 20
32.70956591680001
 10
27.05961601280007
 20
32.59080633120007
  0
LINE
  5
20B6
330
1F
100
AcDbEntity
  8
0
100
AcDbLine
 10
28.65568837439992
 20
30.57773951680006
 30
0.0
 11
28.66460397279992
 21
30.56422982400009
 31
0.0
  0
LWPOLYLINE
  5
20B7
330
1F
100
AcDbEntity
  8
0
100
AcDbPolyline
 90
       10
 70
     0
 43
0.0
 10
27.05961601280007
 20
32.59080633120007
 10
27.25795217599996
 20
32.37655195360005
 10
27.45095471040004
 20
32.15972364320012
 10
27.63867992000003
 20
31.94040300160011
 10
27.82115525119998
 20
31.71869658720007
 10
27.99840762560002
 20
31.49470544480007
 10
28.17046370079999
 20
31.26852392160006
 10
28.33734960800002
 20
31.04024115200004
 10
28.49908569919996
 20
30.80994911040003
 10
28.65568837439998
 20
30.5777395168001
  0
ARC
  5
20F5
330
1F
100
AcDbEntity
  8
0
100
AcDbCircle
 10
26.32776934719994
 20
-119.8234492703999
 30
0.0
 40
121.4484492704
100
AcDbArc
 50
90.0
 51
96.52169627620001
  0
ARC
  5
20F6
330
1F
100
AcDbEntity
  8
0
100
AcDbCircle
 10
26.32776934719994
 20
-119.8234492703999
 30
0.0
 40
121.5706524688
100
AcDbArc
 50
90.0
 51
96.52169627620001
  0
ARC
  5
20F7
330
1F
100
AcDbEntity
  8
0
100
AcDbCircle
 10
26.32776934719994
 20
-119.8234492703999
 30
0.0
 40
122.0046645744
100
AcDbArc
 50
90.0777948850999
 51
96.50239997759992
  0
ARC
  5
20F9
330
1F
100
AcDbEntity
  8
0
100
AcDbCircle
 10
0.0000000000000142
 20
110.4770303375999
 30
0.0
 40
110.3520303375999
100
AcDbArc
 50
263.4783037237999
 51
276.5216962762
  0
ARC
  5
20FA
330
1F
100
AcDbEntity
  8
0
100
AcDbCircle
 10
0.0000000000000142
 20
110.4770303375999
 30
0.0
 40
110.2298271408
100
AcDbArc
 50
263.4783037237999
 51
276.5216962762
  0
ARC
  5
20FB
330
1F
100
AcDbEntity
  8
0
100
AcDbCircle
 10
0.0000000000000142
 20
110.4770303375999
 30
0.0
 40
109.7956555968
100
AcDbArc
 50
271.1505516154
 51
276.5216962762
  0
ARC
  5
20FC
330
1F
100
AcDbEntity
  8
0
100
AcDbCircle
 10
0.0000000000000142
 20
110.4770303375999
 30
0.0
 40
109.795592208
100
AcDbArc
 50
268.8494483844998
 51
271.1505516154
  0
ARC
  5
20FD
330
1F
100
AcDbEntity
  8
0
100
AcDbCircle
 10
26.32776934719994
 20
-119.8234492703999
 30
0.0
 40
122.0047115344
100
AcDbArc
 50
96.50239997759992
 51
96.52169627620001
  0
LINE
  5
20FE
330
1F
100
AcDbEntity
  8
0
100
AcDbLine
 10
32.04913540639997
 20
5.161899924800067
 30
0.0
 11
32.04913540639997
 21
3.598214286400079
 31
0.0
  0
LINE
  5
20FF
330
1F
100
AcDbEntity
  8
0
100
AcDbLine
 10
32.17133860319997
 20
5.161899924800067
 30
0.0
 11
32.17133860319997
 21
3.598214286400079
 31
0.0
  0
LWPOLYLINE
  5
2100
330
1F
100
AcDbEntity
  8
0
100
AcDbPolyline
 90
       10
 70
     0
 43
0.0
 10
30.19812431840007
 20
2.181500740800089
 10
30.44343266080007
 20
2.202937952000098
 10
30.68174131200005
 20
2.266666456000081
 10
30.9060785888001
 20
2.371157936000059
 10
31.1084520048001
 20
2.512786412800124
 10
31.28373443200003
 20
2.688102227200175
 10
31.42523683359998
 20
2.890349184000029
 10
31.52963411039998
 20
3.11446851680003
 10
31.59338035360004
 20
3.352715846400116
 10
31.6148568416
 20
3.598214286400121
  0
ARC
  5
2101
330
1F
100
AcDbEntity
  8
0
100
AcDbCircle
 10
30.19812431840001
 20
3.598214286400079
 30
0.0
 40
1.9732142864
100
AcDbArc
 50
270.0
 51
0.0
  0
ARC
  5
2102
330
1F
100
AcDbEntity
  8
0
100
AcDbCircle
 10
30.19812431840001
 20
3.598214286400079
 30
0.0
 40
1.851011087999999
100
AcDbArc
 50
270.0
 51
0.0
  0
LINE
  5
2103
330
1F
100
AcDbEntity
  8
0
100
AcDbLine
 10
26.32776934719994
 20
2.181372900800042
 30
0.0
 11
30.19812431840001
 21
2.181500740800046
 31
0.0
  0
LINE
  5
2104
330
1F
100
AcDbEntity
  8
0
100
AcDbLine
 10
30.19812431840001
 20
1.625000000000099
 30
0.0
 11
26.32776934719994
 21
1.625000000000099
 31
0.0
  0
LINE
  5
2105
330
1F
100
AcDbEntity
  8
0
100
AcDbLine
 10
30.19812431840001
 20
1.7472031968001
 30
0.0
 11
26.32776934719994
 21
1.7472031968001
 31
0.0
  0
ARC
  5
2106
330
1F
100
AcDbEntity
  8
0
100
AcDbCircle
 10
26.32776934719994
 20
-119.8234492703999
 30
0.0
 40
122.0048199951999
100
AcDbArc
 50
90.0
 51
90.0777948850999
  0
LINE
  5
2107
330
1F
100
AcDbEntity
  8
0
100
AcDbLine
 10
31.61485684159994
 20
3.598214286400079
 30
0.0
 11
31.61490021119995
 21
3.863618259200038
 31
0.0
  0
LINE
  5
2108
330
1F
100
AcDbEntity
  8
0
100
AcDbLine
 10
-30.19812431839999
 20
2.181500740800046
 30
0.0
 11
-26.32776934720003
 21
2.181372900800042
 31
0.0
  0
LINE
  5
2109
330
1F
100
AcDbEntity
  8
0
100
AcDbLine
 10
-30.19812431839999
 20
1.625000000000099
 30
0.0
 11
-26.32776934720003
 21
1.625000000000099
 31
0.0
  0
LINE
  5
210A
330
1F
100
AcDbEntity
  8
0
100
AcDbLine
 10
-30.19812431839999
 20
1.7472031968001
 30
0.0
 11
-26.32776934720003
 21
1.7472031968001
 31
0.0
  0
ARC
  5
210B
330
1F
100
AcDbEntity
  8
0
100
AcDbCircle
 10
-30.19812431839999
 20
3.598214286400079
 30
0.0
 40
1.9732142864
100
AcDbArc
 50
180.0
 51
270.0
  0
ARC
  5
210C
330
1F
100
AcDbEntity
  8
0
100
AcDbCircle
 10
-30.19812431839999
 20
3.598214286400079
 30
0.0
 40
1.851011087999999
100
AcDbArc
 50
180.0
 51
270.0
  0
LWPOLYLINE
  5
210D
330
1F
100
AcDbEntity
  8
0
100
AcDbPolyline
 90
       10
 70
     0
 43
0.0
 10
-31.61485684159997
 20
3.598214286400121
 10
-31.5933803535999
 20
3.352715846400116
 10
-31.52963411039995
 20
3.11446851680003
 10
-31.42523683519998
 20
2.890349184000029
 10
-31.283734432
 20
2.688102227200175
 10
-31.10845200479996
 20
2.512786412800124
 10
-30.90607858879995
 20
2.371157936000059
 10
-30.68174131199991
 20
2.266666456000081
 10
-30.44343266079993
 20
2.202937952000098
 10
-30.19812431839993
 20
2.181500740800089
  0
ARC
  5
210E
330
1F
100
AcDbEntity
  8
0
100
AcDbCircle
 10
0.0000000000000142
 20
110.4770303375999
 30
0.0
 40
109.7956555216
100
AcDbArc
 50
263.4783037237999
 51
268.8494483844998
  0
ARC
  5
210F
330
1F
100
AcDbEntity
  8
0
100
AcDbCircle
 10
-26.32776934720003
 20
-119.8234492703999
 30
0.0
 40
121.4484492704
100
AcDbArc
 50
83.47830372379998
 51
90.0
  0
ARC
  5
2110
330
1F
100
AcDbEntity
  8
0
100
AcDbCircle
 10
-26.32776934720003
 20
-119.8234492703999
 30
0.0
 40
121.5706524688
100
AcDbArc
 50
83.47830372379998
 51
90.0
  0
ARC
  5
2111
330
1F
100
AcDbEntity
  8
0
100
AcDbCircle
 10
-26.32776934720003
 20
-119.8234492703999
 30
0.0
 40
122.0046676768
100
AcDbArc
 50
83.49760002240008
 51
89.92220511509998
  0
ARC
  5
2112
330
1F
100
AcDbEntity
  8
0
100
AcDbCircle
 10
-26.32776934720003
 20
-119.8234492703999
 30
0.0
 40
122.0048199951999
100
AcDbArc
 50
89.92220511509998
 51
90.0
  0
ARC
  5
2113
330
1F
100
AcDbEntity
  8
0
100
AcDbCircle
 10
-26.32776934720003
 20
-119.8234492703999
 30
0.0
 40
122.0047115344
100
AcDbArc
 50
83.47830372379998
 51
83.49760002240008
  0
LINE
  5
2114
330
1F
100
AcDbEntity
  8
0
100
AcDbLine
 10
-26.32776934720003
 20
39.56862709920004
 30
0.0
 11
-30.19812431839999
 21
39.56849925920003
 31
0.0
  0
LINE
  5
2115
330
1F
100
AcDbEntity
  8
0
100
AcDbLine
 10
-30.19812431839999
 20
40.0027968032001
 30
0.0
 11
-26.32776934720003
 21
40.0027968032001
 31
0.0
  0
LINE
  5
2116
330
1F
100
AcDbEntity
  8
0
100
AcDbLine
 10
-30.19812431839999
 20
40.12500000000009
 30
0.0
 11
-26.32776934720003
 21
40.12500000000009
 31
0.0
  0
ARC
  5
2117
330
1F
100
AcDbEntity
  8
0
100
AcDbCircle
 10
-9.539277156800025
 20
20.8750000000001
 30
0.0
 40
26.2107228432
100
AcDbArc
 50
154.3394482422
 51
205.6605517577999
  0
ARC
  5
2118
330
1F
100
AcDbEntity
  8
0
100
AcDbCircle
 10
-9.539277156800025
 20
20.8750000000001
 30
0.0
 40
26.0885196464
100
AcDbArc
 50
154.3394482422
 51
205.6605517577999
  0
ARC
  5
2119
330
1F
100
AcDbEntity
  8
0
100
AcDbCircle
 10
-9.539277156800025
 20
20.8750000000001
 30
0.0
 40
25.6543840512
100
AcDbArc
 50
154.3394482422
 51
205.6605517577999
  0
ARC
  5
211A
330
1F
100
AcDbEntity
  8
0
100
AcDbCircle
 10
-42.24629672000001
 20
36.58810007520001
 30
0.0
 40
10.1971613136
100
AcDbArc
 50
334.3394482422
 51
0.0
  0
ARC
  5
211B
330
1F
100
AcDbEntity
  8
0
100
AcDbCircle
 10
-42.24629672000001
 20
36.58810007520001
 30
0.0
 40
10.63136698079999
100
AcDbArc
 50
334.5066867800998
 51
0.0
  0
ARC
  5
211C
330
1F
100
AcDbEntity
  8
0
100
AcDbCircle
 10
-42.24629672000001
 20
36.58810007520001
 30
0.0
 40
10.07495811519999
100
AcDbArc
 50
334.3394482422
 51
0.0
  0
ARC
  5
211D
330
1F
100
AcDbEntity
  8
0
100
AcDbCircle
 10
-42.24629672000001
 20
36.58810007520001
 30
0.0
 40
10.6313303264
100
AcDbArc
 50
334.3394482422
 51
334.5066867800998
  0
LWPOLYLINE
  5
211E
330
1F
100
AcDbEntity
  8
0
100
AcDbPolyline
 90
       10
 70
     0
 43
0.0
 10
-30.19812431839993
 20
39.56849925920008
 10
-30.44343266079993
 20
39.54706204800007
 10
-30.68174131199991
 20
39.48333354560011
 10
-30.90607858879995
 20
39.37884206560013
 10
-31.10845200479996
 20
39.23721358720004
 10
-31.283734432
 20
39.0618977728001
 10
-31.42523683519998
 20
38.85965081600014
 10
-31.52963411039995
 20
38.63553148320013
 10
-31.5933803535999
 20
38.39728415520008
 10
-31.61485684159997
 20
38.15178571520007
  0
ARC
  5
211F
330
1F
100
AcDbEntity
  8
0
100
AcDbCircle
 10
-30.19812431839999
 20
38.15178571520003
 30
0.0
 40
1.851011087999999
100
AcDbArc
 50
90.0
 51
180.0
  0
ARC
  5
2120
330
1F
100
AcDbEntity
  8
0
100
AcDbCircle
 10
-30.19812431839999
 20
38.15178571520003
 30
0.0
 40
1.9732142864
100
AcDbArc
 50
90.0
 51
180.0
  0
LINE
  5
2121
330
1F
100
AcDbEntity
  8
0
100
AcDbLine
 10
-32.17133860320005
 20
36.58810007520001
 30
0.0
 11
-32.17133860320005
 21
38.15178571520003
 31
0.0
  0
LINE
  5
2122
330
1F
100
AcDbEntity
  8
0
100
AcDbLine
 10
-32.04913540640005
 20
36.58810007520001
 30
0.0
 11
-32.04913540640005
 21
38.15178571520003
 31
0.0
  0
LINE
  5
2123
330
1F
100
AcDbEntity
  8
0
100
AcDbLine
 10
-31.61490021120004
 20
37.88638174080004
 30
0.0
 11
-31.61492736960006
 21
36.58810007520001
 31
0.0
  0
LINE
  5
2124
330
1F
100
AcDbEntity
  8
0
100
AcDbLine
 10
-31.61485684160003
 20
38.15178571520003
 30
0.0
 11
-31.61490021120004
 21
37.88638174080004
 31
0.0
  0
ARC
  5
2125
330
1F
100
AcDbEntity
  8
0
100
AcDbCircle
 10
-42.24629672000001
 20
5.161899924800067
 30
0.0
 40
10.07495811519999
100
AcDbArc
 50
0.0
 51
25.66055175779997
  0
ARC
  5
2126
330
1F
100
AcDbEntity
  8
0
100
AcDbCircle
 10
-42.24629672000001
 20
5.161899924800067
 30
0.0
 40
10.1971613136
100
AcDbArc
 50
0.0
 51
25.66055175779997
  0
ARC
  5
2127
330
1F
100
AcDbEntity
  8
0
100
AcDbCircle
 10
-42.24629672000001
 20
5.161899924800067
 30
0.0
 40
10.631368944
100
AcDbArc
 50
0.0
 51
25.49331322029988
  0
LINE
  5
2128
330
1F
100
AcDbEntity
  8
0
100
AcDbLine
 10
-32.17133860320005
 20
5.161899924800067
 30
0.0
 11
-32.17133860320005
 21
3.598214286400079
 31
0.0
  0
LINE
  5
2129
330
1F
100
AcDbEntity
  8
0
100
AcDbLine
 10
-32.04913540640005
 20
5.161899924800067
 30
0.0
 11
-32.04913540640005
 21
3.598214286400079
 31
0.0
  0
LINE
  5
212A
330
1F
100
AcDbEntity
  8
0
100
AcDbLine
 10
-31.61492736960006
 20
5.161899924800067
 30
0.0
 11
-31.61490021120004
 21
3.863618259200038
 31
0.0
  0
LINE
  5
212B
330
1F
100
AcDbEntity
  8
0
100
AcDbLine
 10
-31.61490021120004
 20
3.863618259200038
 30
0.0
 11
-31.61485684160003
 21
3.598214286400079
 31
0.0
  0
ARC
  5
212C
330
1F
100
AcDbEntity
  8
0
100
AcDbCircle
 10
26.32776934719994
 20
161.5734492704001
 30
0.0
 40
122.0046676768
100
AcDbArc
 50
263.4976000224
 51
269.9222051151
  0
ARC
  5
212D
330
1F
100
AcDbEntity
  8
0
100
AcDbCircle
 10
26.32776934719994
 20
161.5734492704001
 30
0.0
 40
121.4484492704
100
AcDbArc
 50
263.4783037237999
 51
270.0
  0
ARC
  5
212E
330
1F
100
AcDbEntity
  8
0
100
AcDbCircle
 10
26.32776934719994
 20
161.5734492704001
 30
0.0
 40
121.5706524688
100
AcDbArc
 50
263.4783037237999
 51
270.0
  0
ARC
  5
212F
330
1F
100
AcDbEntity
  8
0
100
AcDbCircle
 10
0.0000000000000142
 20
-68.72703033759991
 30
0.0
 40
109.7956555216
100
AcDbArc
 50
91.1505516157001
 51
96.52169627620001
  0
ARC
  5
2130
330
1F
100
AcDbEntity
  8
0
100
AcDbCircle
 10
0.0000000000000142
 20
-68.72703033759991
 30
0.0
 40
110.3520303375999
100
AcDbArc
 50
83.47830372379998
 51
96.52169627620001
  0
ARC
  5
2131
330
1F
100
AcDbEntity
  8
0
100
AcDbCircle
 10
0.0000000000000142
 20
-68.72703033759991
 30
0.0
 40
110.2298271408
100
AcDbArc
 50
83.47830372379998
 51
96.52169627620001
  0
ARC
  5
2132
330
1F
100
AcDbEntity
  8
0
100
AcDbCircle
 10
-26.32776934720003
 20
161.5734492704001
 30
0.0
 40
121.4484492704
100
AcDbArc
 50
270.0
 51
276.5216962762
  0
ARC
  5
2133
330
1F
100
AcDbEntity
  8
0
100
AcDbCircle
 10
-26.32776934720003
 20
161.5734492704001
 30
0.0
 40
122.0046645744
100
AcDbArc
 50
270.0777948850998
 51
276.5023999775999
  0
ARC
  5
2134
330
1F
100
AcDbEntity
  8
0
100
AcDbCircle
 10
-26.32776934720003
 20
161.5734492704001
 30
0.0
 40
121.5706524688
100
AcDbArc
 50
270.0
 51
276.5216962762
  0
ARC
  5
2135
330
1F
100
AcDbEntity
  8
0
100
AcDbCircle
 10
-26.32776934720003
 20
161.5734492704001
 30
0.0
 40
122.0048199951999
100
AcDbArc
 50
270.0
 51
270.0777948850998
  0
ARC
  5
2136
330
1F
100
AcDbEntity
  8
0
100
AcDbCircle
 10
0.0000000000000142
 20
-68.72703033759991
 30
0.0
 40
109.7956555968
100
AcDbArc
 50
83.47830372379998
 51
88.84944838459999
  0
ARC
  5
2137
330
1F
100
AcDbEntity
  8
0
100
AcDbCircle
 10
26.32776934719994
 20
161.5734492704001
 30
0.0
 40
122.0047115344
100
AcDbArc
 50
263.4783037237999
 51
263.4976000224
  0
ARC
  5
2138
330
1F
100
AcDbEntity
  8
0
100
AcDbCircle
 10
0.0000000000000142
 20
-68.72703033759991
 30
0.0
 40
109.795592208
100
AcDbArc
 50
88.84944838459999
 51
91.1505516157001
  0
LWPOLYLINE
  5
2139
330
1F
100
AcDbEntity
  8
0
100
AcDbPolyline
 90
       10
 70
     0
 43
0.0
 10
31.6148568416
 20
38.15178571520007
 10
31.59338035360004
 20
38.39728415520008
 10
31.52963411039998
 20
38.63553148320013
 10
31.42523683359998
 20
38.85965081600014
 10
31.28373443200003
 20
39.0618977728001
 10
31.1084520048001
 20
39.23721358720004
 10
30.9060785888001
 20
39.37884206560013
 10
30.68174131200005
 20
39.48333354560011
 10
30.44343266080007
 20
39.54706204800007
 10
30.19812431840007
 20
39.56849925920008
  0
ARC
  5
213A
330
1F
100
AcDbEntity
  8
0
100
AcDbCircle
 10
30.19812431840001
 20
38.15178571520003
 30
0.0
 40
1.851011087999999
100
AcDbArc
 50
0.0
 51
90.0
  0
ARC
  5
213B
330
1F
100
AcDbEntity
  8
0
100
AcDbCircle
 10
30.19812431840001
 20
38.15178571520003
 30
0.0
 40
1.9732142864
100
AcDbArc
 50
0.0
 51
90.0
  0
LINE
  5
213C
330
1F
100
AcDbEntity
  8
0
100
AcDbLine
 10
30.19812431840001
 20
40.0027968032001
 30
0.0
 11
26.32776934719994
 21
40.0027968032001
 31
0.0
  0
LINE
  5
213D
330
1F
100
AcDbEntity
  8
0
100
AcDbLine
 10
30.19812431840001
 20
40.12500000000009
 30
0.0
 11
26.32776934719994
 21
40.12500000000009
 31
0.0
  0
LINE
  5
213E
330
1F
100
AcDbEntity
  8
0
100
AcDbLine
 10
30.19812431840001
 20
39.56849925920003
 30
0.0
 11
26.32776934719994
 21
39.56862709920004
 31
0.0
  0
ARC
  5
213F
330
1F
100
AcDbEntity
  8
0
100
AcDbCircle
 10
26.32776934719994
 20
161.5734492704001
 30
0.0
 40
122.0048199951999
100
AcDbArc
 50
269.9222051151
 51
270.0
  0
LINE
  5
2140
330
1F
100
AcDbEntity
  8
0
100
AcDbLine
 10
31.61492736959998
 20
36.58810007520001
 30
0.0
 11
31.61490021119995
 21
37.88638174080004
 31
0.0
  0
LINE
  5
2141
330
1F
100
AcDbEntity
  8
0
100
AcDbLine
 10
32.04913540639997
 20
36.58810007520001
 30
0.0
 11
32.04913540639997
 21
38.15178571520003
 31
0.0
  0
LINE
  5
2142
330
1F
100
AcDbEntity
  8
0
100
AcDbLine
 10
32.17133860319997
 20
36.58810007520001
 30
0.0
 11
32.17133860319997
 21
38.15178571520003
 31
0.0
  0
LINE
  5
2143
330
1F
100
AcDbEntity
  8
0
100
AcDbLine
 10
31.61490021119995
 20
37.88638174080004
 30
0.0
 11
31.61485684159994
 21
38.15178571520003
 31
0.0
  0
ARC
  5
2144
330
1F
100
AcDbEntity
  8
0
100
AcDbCircle
 10
9.53927715679994
 20
20.8750000000001
 30
0.0
 40
26.2107228432
100
AcDbArc
 50
334.3394482422
 51
25.66055175779997
  0
ARC
  5
2145
330
1F
100
AcDbEntity
  8
0
100
AcDbCircle
 10
9.53927715679994
 20
20.8750000000001
 30
0.0
 40
26.0885196464
100
AcDbArc
 50
334.3394482422
 51
25.66055175779997
  0
ARC
  5
2146
330
1F
100
AcDbEntity
  8
0
100
AcDbCircle
 10
9.53927715679994
 20
20.8750000000001
 30
0.0
 40
25.6543840512
100
AcDbArc
 50
334.3394482422
 51
25.66055175779997
  0
ARC
  5
2147
330
1F
100
AcDbEntity
  8
0
100
AcDbCircle
 10
42.24629671999993
 20
5.161899924800067
 30
0.0
 40
10.63136698079999
100
AcDbArc
 50
154.5066867801999
 51
180.0
  0
ARC
  5
2148
330
1F
100
AcDbEntity
  8
0
100
AcDbCircle
 10
42.24629671999993
 20
5.161899924800067
 30
0.0
 40
10.07495811519999
100
AcDbArc
 50
154.3394482422
 51
180.0
  0
ARC
  5
2149
330
1F
100
AcDbEntity
  8
0
100
AcDbCircle
 10
42.24629671999993
 20
5.161899924800067
 30
0.0
 40
10.1971613136
100
AcDbArc
 50
154.3394482422
 51
180.0
  0
LINE
  5
214A
330
1F
100
AcDbEntity
  8
0
100
AcDbLine
 10
31.61490021119995
 20
3.863618259200038
 30
0.0
 11
31.61492736959998
 21
5.161899924800067
 31
0.0
  0
ARC
  5
214B
330
1F
100
AcDbEntity
  8
0
100
AcDbCircle
 10
42.24629671999993
 20
5.161899924800067
 30
0.0
 40
10.6313303264
100
AcDbArc
 50
154.3394482422
 51
154.5066867801999
  0
ARC
  5
214C
330
1F
100
AcDbEntity
  8
0
100
AcDbCircle
 10
42.24629671999993
 20
36.58810007520001
 30
0.0
 40
10.631368944
100
AcDbArc
 50
180.0
 51
205.4933132200999
  0
ARC
  5
214D
330
1F
100
AcDbEntity
  8
0
100
AcDbCircle
 10
42.24629671999993
 20
36.58810007520001
 30
0.0
 40
10.1971613136
100
AcDbArc
 50
180.0
 51
205.6605517577999
  0
ARC
  5
214E
330
1F
100
AcDbEntity
  8
0
100
AcDbCircle
 10
42.24629671999993
 20
36.58810007520001
 30
0.0
 40
10.07495811519999
100
AcDbArc
 50
180.0
 51
205.6605517577999
  0
ARC
  5
214F
330
1F
100
AcDbEntity
  8
0
100
AcDbCircle
 10
42.24629671999993
 20
36.58810007520001
 30
0.0
 40
10.6313303264
100
AcDbArc
 50
205.4933132200999
 51
205.6605517577999
  0
ENDSEC
  0
SECTION
  2
OBJECTS
  0
DICTIONARY
  5
C
330
0
100
AcDbDictionary
  3
ACAD_GROUP
350
D
  3
ACAD_LAYOUT
350
1A
  3
ACAD_MLINESTYLE
350
17
  3
ACAD_PLOTSETTINGS
350
19
  3
ACAD_PLOTSTYLENAME
350
E
  3
ACDBHEADERROUNDTRIPXREC
350
215A
  0
DICTIONARY
  5
1C43
330
1F
100
AcDbDictionary
280
     1
  3
ACAD_LAYOUTSELFREF
360
217C
  0
DICTIONARY
  5
1C41
330
1B
100
AcDbDictionary
280
     1
  3
ACAD_LAYOUTSELFREF
360
217B
  0
DICTIONARY
  5
D
102
{ACAD_REACTORS
330
C
102
}
330
C
100
AcDbDictionary
  0
DICTIONARY
  5
1A
102
{ACAD_REACTORS
330
C
102
}
330
C
100
AcDbDictionary
  0
DICTIONARY
  5
17
102
{ACAD_REACTORS
330
C
102
}
330
C
100
AcDbDictionary
  3
STANDARD
350
18
  0
DICTIONARY
  5
19
102
{ACAD_REACTORS
330
C
102
}
330
C
100
AcDbDictionary
  0
ACDBDICTIONARYWDFLT
  5
E
102
{ACAD_REACTORS
330
C
102
}
330
C
100
AcDbDictionary
281
     1
  3
Normal
350
F
100
AcDbDictionaryWithDefault
340
F
  0
DICTIONARY
  5
215A
102
{ACAD_REACTORS
330
C
102
}
330
C
100
AcDbDictionary
  3
CEPSNTYPE
350
2164
  3
DIMSTYLEDATA
350
2168
  3
FINGERPRINTGUID
350
2165
  3
HYPERLINKBASE
350
215D
  3
INSUNITS
350
2163
  3
LAYOUTDICT
350
215F
  3
LWETCUNION
350
2162
  3
PLOTSETDICT
350
2160
  3
PLOTSTYLNAMDICT
350
2161
  3
PSVPSCALE
350
2167
  3
PUCSBASE
350
216B
  3
PUCSORGBACK
350
2171
  3
PUCSORGBOTTOM
350
216D
  3
PUCSORGFRONT
350
2170
  3
PUCSORGLEFT
350
216E
  3
PUCSORGRIGHT
350
216F
  3
PUCSORGTOP
350
216C
  3
PUCSORTHOREF
350
2169
  3
PUCSORTHOVIEW
350
216A
  3
STYLESHEET
350
215E
  3
TSTACKALIGN
350
215B
  3
TSTACKSIZE
350
215C
  3
UCSBASE
350
2174
  3
UCSORGBACK
350
217A
  3
UCSORGBOTTOM
350
2176
  3
UCSORGFRONT
350
2179
  3
UCSORGLEFT
350
2177
  3
UCSORGRIGHT
350
2178
  3
UCSORGTOP
350
2175
  3
UCSORTHOREF
350
2172
  3
UCSORTHOVIEW
350
2173
  3
VERSIONGUID
350
2166
  0
XRECORD
  5
217C
102
{ACAD_REACTORS
330
1C43
102
}
330
1C43
100
AcDbXrecord
340
1F
  0
XRECORD
  5
217B
102
{ACAD_REACTORS
330
1C41
102
}
330
1C41
100
AcDbXrecord
340
1B
  0
MLINESTYLE
  5
18
102
{ACAD_REACTORS
330
17
102
}
330
17
100
AcDbMlineStyle
  2
STANDARD
 70
     0
  3

 62
   256
 51
90.0
 52
90.0
 71
     2
 49
0.5
 62
   256
  6
BYLAYER
 49
-0.5
 62
   256
  6
BYLAYER
  0
ACDBPLACEHOLDER
  5
F
102
{ACAD_REACTORS
330
E
102
}
330
0
100
AcDbPlaceHolder
280
     0
  0
XRECORD
  5
2164
102
{ACAD_REACTORS
330
215A
102
}
330
215A
100
AcDbXrecord
 90
        0
  0
XRECORD
  5
2168
102
{ACAD_REACTORS
330
215A
102
}
330
215A
100
AcDbXrecord
1000
DSTYLE
1002
{
1070
   341
340
220
1070
   342
340
220
1070
   343
340
220
1070
   344
340
220
1002
}
  0
XRECORD
  5
2165
102
{ACAD_REACTORS
330
215A
102
}
330
215A
100
AcDbXrecord
  1

  0
XRECORD
  5
215D
102
{ACAD_REACTORS
330
215A
102
}
330
215A
100
AcDbXrecord
  1

  0
XRECORD
  5
2163
102
{ACAD_REACTORS
330
215A
102
}
330
215A
100
AcDbXrecord
 90
        1
  0
XRECORD
  5
215F
102
{ACAD_REACTORS
330
215A
102
}
330
215A
100
AcDbXrecord
340
1A
  0
XRECORD
  5
2162
102
{ACAD_REACTORS
330
215A
102
}
330
215A
100
AcDbXrecord
 90
    10781
  0
XRECORD
  5
2160
102
{ACAD_REACTORS
330
215A
102
}
330
215A
100
AcDbXrecord
340
19
  0
XRECORD
  5
2161
102
{ACAD_REACTORS
330
215A
102
}
330
215A
100
AcDbXrecord
340
E
  0
XRECORD
  5
2167
102
{ACAD_REACTORS
330
215A
102
}
330
215A
100
AcDbXrecord
 40
0.0
  0
XRECORD
  5
216B
102
{ACAD_REACTORS
330
215A
102
}
330
215A
100
AcDbXrecord
340
0
  0
XRECORD
  5
2171
102
{ACAD_REACTORS
330
215A
102
}
330
215A
100
AcDbXrecord
 10
0.0
 20
0.0
 30
0.0
  0
XRECORD
  5
216D
102
{ACAD_REACTORS
330
215A
102
}
330
215A
100
AcDbXrecord
 10
0.0
 20
0.0
 30
0.0
  0
XRECORD
  5
2170
102
{ACAD_REACTORS
330
215A
102
}
330
215A
100
AcDbXrecord
 10
0.0
 20
0.0
 30
0.0
  0
XRECORD
  5
216E
102
{ACAD_REACTORS
330
215A
102
}
330
215A
100
AcDbXrecord
 10
0.0
 20
0.0
 30
0.0
  0
XRECORD
  5
216F
102
{ACAD_REACTORS
330
215A
102
}
330
215A
100
AcDbXrecord
 10
0.0
 20
0.0
 30
0.0
  0
XRECORD
  5
216C
102
{ACAD_REACTORS
330
215A
102
}
330
215A
100
AcDbXrecord
 10
0.0
 20
0.0
 30
0.0
  0
XRECORD
  5
2169
102
{ACAD_REACTORS
330
215A
102
}
330
215A
100
AcDbXrecord
340
0
  0
XRECORD
  5
216A
102
{ACAD_REACTORS
330
215A
102
}
330
215A
100
AcDbXrecord
 70
     0
  0
XRECORD
  5
215E
102
{ACAD_REACTORS
330
215A
102
}
330
215A
100
AcDbXrecord
  1

  0
XRECORD
  5
215B
102
{ACAD_REACTORS
330
215A
102
}
330
215A
100
AcDbXrecord
 90
        1
  0
XRECORD
  5
215C
102
{ACAD_REACTORS
330
215A
102
}
330
215A
100
AcDbXrecord
 90
       70
  0
XRECORD
  5
2174
102
{ACAD_REACTORS
330
215A
102
}
330
215A
100
AcDbXrecord
340
0
  0
XRECORD
  5
217A
102
{ACAD_REACTORS
330
215A
102
}
330
215A
100
AcDbXrecord
 10
0.0
 20
0.0
 30
0.0
  0
XRECORD
  5
2176
102
{ACAD_REACTORS
330
215A
102
}
330
215A
100
AcDbXrecord
 10
0.0
 20
0.0
 30
0.0
  0
XRECORD
  5
2179
102
{ACAD_REACTORS
330
215A
102
}
330
215A
100
AcDbXrecord
 10
0.0
 20
0.0
 30
0.0
  0
XRECORD
  5
2177
102
{ACAD_REACTORS
330
215A
102
}
330
215A
100
AcDbXrecord
 10
0.0
 20
0.0
 30
0.0
  0
XRECORD
  5
2178
102
{ACAD_REACTORS
330
215A
102
}
330
215A
100
AcDbXrecord
 10
0.0
 20
0.0
 30
0.0
  0
XRECORD
  5
2175
102
{ACAD_REACTORS
330
215A
102
}
330
215A
100
AcDbXrecord
 10
0.0
 20
0.0
 30
0.0
  0
XRECORD
  5
2172
102
{ACAD_REACTORS
330
215A
102
}
330
215A
100
AcDbXrecord
340
0
  0
XRECORD
  5
2173
102
{ACAD_REACTORS
330
215A
102
}
330
215A
100
AcDbXrecord
 70
     0
  0
XRECORD
  5
2166
102
{ACAD_REACTORS
330
215A
102
}
330
215A
100
AcDbXrecord
  1
{AD0C2997-D9F6-475D-87F1-02A99FCC4A2C}
  0
ENDSEC
  0
EOF
