  0
SECTION
  2
HEADER
  9
$ACADVER
  1
AC1014
  9
$ACADMAINTVER
 70
     9
  9
$DWGCODEPAGE
  3
ANSI_1252
  9
$INSBASE
 10
0.0
 20
0.0
 30
0.0
  9
$EXTMIN
 10
0.0
 20
-0.7537907519999863
 30
0.0
  9
$EXTMAX
 10
41.7490555718839
 20
20.66303184803244
 30
0.0
  9
$LIMMIN
 10
0.0
 20
0.0
  9
$LIMMAX
 10
17.0
 20
11.0
  9
$ORTHOMODE
 70
     1
  9
$REGENMODE
 70
     1
  9
$FILLMODE
 70
     1
  9
$QTEXTMODE
 70
     0
  9
$MIRRTEXT
 70
     1
  9
$DRAGMODE
 70
     2
  9
$LTSCALE
 40
0.9350000000000001
  9
$OSMODE
 70
    37
  9
$ATTMODE
 70
     1
  9
$TEXTSIZE
 40
0.2
  9
$TRACEWID
 40
0.05
  9
$TEXTSTYLE
  7
STANDARD
  9
$CLAYER
  8
0
  9
$CELTYPE
  6
BYLAYER
  9
$CECOLOR
 62
   256
  9
$CELTSCALE
 40
1.0
  9
$DELOBJ
 70
     1
  9
$DISPSILH
 70
     0
  9
$DIMSCALE
 40
1.0
  9
$DIMASZ
 40
0.1875
  9
$DIMEXO
 40
0.10625
  9
$DIMDLI
 40
0.646
  9
$DIMRND
 40
0.0
  9
$DIMDLE
 40
0.0
  9
$DIMEXE
 40
0.306
  9
$DIMTP
 40
0.0
  9
$DIMTM
 40
0.0
  9
$DIMTXT
 40
0.125
  9
$DIMCEN
 40
0.153
  9
$DIMTSZ
 40
0.0
  9
$DIMTOL
 70
     0
  9
$DIMLIM
 70
     0
  9
$DIMTIH
 70
     1
  9
$DIMTOH
 70
     1
  9
$DIMSE1
 70
     0
  9
$DIMSE2
 70
     0
  9
$DIMTAD
 70
     0
  9
$DIMZIN
 70
     0
  9
$DIMBLK
  1
_FILLED
  9
$DIMASO
 70
     1
  9
$DIMSHO
 70
     1
  9
$DIMPOST
  1

  9
$DIMAPOST
  1

  9
$DIMALT
 70
     0
  9
$DIMALTD
 70
     2
  9
$DIMALTF
 40
25.4
  9
$DIMLFAC
 40
1.0
  9
$DIMTOFL
 70
     0
  9
$DIMTVP
 40
0.0
  9
$DIMTIX
 70
     0
  9
$DIMSOXD
 70
     0
  9
$DIMSAH
 70
     0
  9
$DIMBLK1
  1

  9
$DIMBLK2
  1

  9
$DIMSTYLE
  2
STANDARD
  9
$DIMCLRD
 70
     0
  9
$DIMCLRE
 70
     0
  9
$DIMCLRT
 70
     0
  9
$DIMTFAC
 40
1.0
  9
$DIMGAP
 40
0.09
  9
$DIMJUST
 70
     0
  9
$DIMSD1
 70
     0
  9
$DIMSD2
 70
     0
  9
$DIMTOLJ
 70
     1
  9
$DIMTZIN
 70
     0
  9
$DIMALTZ
 70
     0
  9
$DIMALTTZ
 70
     0
  9
$DIMFIT
 70
     3
  9
$DIMUPT
 70
     0
  9
$DIMUNIT
 70
     2
  9
$DIMDEC
 70
     4
  9
$DIMTDEC
 70
     4
  9
$DIMALTU
 70
     2
  9
$DIMALTTD
 70
     2
  9
$DIMTXSTY
  7
STANDARD
  9
$DIMAUNIT
 70
     0
  9
$LUNITS
 70
     2
  9
$LUPREC
 70
     4
  9
$SKETCHINC
 40
0.1
  9
$FILLETRAD
 40
0.0
  9
$AUNITS
 70
     0
  9
$AUPREC
 70
     0
  9
$MENU
  1
acad
  9
$ELEVATION
 40
0.0
  9
$PELEVATION
 40
0.0
  9
$THICKNESS
 40
0.0
  9
$LIMCHECK
 70
     0
  9
$BLIPMODE
 70
     0
  9
$CHAMFERA
 40
0.0
  9
$CHAMFERB
 40
0.0
  9
$CHAMFERC
 40
0.0
  9
$CHAMFERD
 40
0.0
  9
$SKPOLY
 70
     0
  9
$TDCREATE
 40
2454026.433579861
  9
$TDUPDATE
 40
2454085.380403426
  9
$TDINDWG
 40
0.0772358333
  9
$TDUSRTIMER
 40
0.0772358333
  9
$USRTIMER
 70
     1
  9
$ANGBASE
 50
0.0
  9
$ANGDIR
 70
     0
  9
$PDMODE
 70
     3
  9
$PDSIZE
 40
0.03125
  9
$PLINEWID
 40
0.0
  9
$COORDS
 70
     2
  9
$SPLFRAME
 70
     0
  9
$SPLINETYPE
 70
     6
  9
$SPLINESEGS
 70
     8
  9
$ATTDIA
 70
     0
  9
$ATTREQ
 70
     1
  9
$HANDLING
 70
-16383
  9
$HANDSEED
  5
202A
  9
$SURFTAB1
 70
     6
  9
$SURFTAB2
 70
     6
  9
$SURFTYPE
 70
     6
  9
$SURFU
 70
     6
  9
$SURFV
 70
     6
  9
$UCSNAME
  2

  9
$UCSORG
 10
0.0
 20
0.0
 30
0.0
  9
$UCSXDIR
 10
1.0
 20
0.0
 30
0.0
  9
$UCSYDIR
 10
0.0
 20
1.0
 30
0.0
  9
$PUCSNAME
  2

  9
$PUCSORG
 10
0.0
 20
0.0
 30
0.0
  9
$PUCSXDIR
 10
1.0
 20
0.0
 30
0.0
  9
$PUCSYDIR
 10
0.0
 20
1.0
 30
0.0
  9
$USERI1
 70
     0
  9
$USERI2
 70
     0
  9
$USERI3
 70
     0
  9
$USERI4
 70
     0
  9
$USERI5
 70
     0
  9
$USERR1
 40
0.0
  9
$USERR2
 40
0.0
  9
$USERR3
 40
0.0
  9
$USERR4
 40
0.0
  9
$USERR5
 40
0.0
  9
$WORLDVIEW
 70
     1
  9
$SHADEDGE
 70
     3
  9
$SHADEDIF
 70
    70
  9
$TILEMODE
 70
     1
  9
$MAXACTVP
 70
    16
  9
$PINSBASE
 10
0.0
 20
0.0
 30
0.0
  9
$PLIMCHECK
 70
     0
  9
$PEXTMIN
 10
1.000000000000000E+20
 20
1.000000000000000E+20
 30
1.000000000000000E+20
  9
$PEXTMAX
 10
-1.000000000000000E+20
 20
-1.000000000000000E+20
 30
-1.000000000000000E+20
  9
$PLIMMIN
 10
0.0
 20
0.0
  9
$PLIMMAX
 10
12.0
 20
9.0
  9
$UNITMODE
 70
     0
  9
$VISRETAIN
 70
     0
  9
$PLINEGEN
 70
     1
  9
$PSLTSCALE
 70
     0
  9
$TREEDEPTH
 70
  3020
  9
$PICKSTYLE
 70
     1
  9
$CMLSTYLE
  2
STANDARD
  9
$CMLJUST
 70
     0
  9
$CMLSCALE
 40
1.0
  9
$PROXYGRAPHICS
 70
     0
  9
$MEASUREMENT
 70
     0
  0
ENDSEC
  0
SECTION
  2
CLASSES
  0
CLASS
  1
ACDBDICTIONARYWDFLT
  2
AcDbDictionaryWithDefault
  3
AutoCAD 2000
 90
        0
280
     0
281
     0
  0
CLASS
  1
ACDBPLACEHOLDER
  2
AcDbPlaceHolder
  3
AutoCAD 2000
 90
        0
280
     0
281
     0
  0
CLASS
  1
LAYOUT
  2
AcDbLayout
  3
AutoCAD 2000
 90
        0
280
     0
281
     0
  0
CLASS
  1
LWPOLYLINE
  2
AcDbPolyline
  3
AutoCAD 2000
 90
        0
280
     0
281
     1
  0
CLASS
  1
IMAGE
  2
AcDbRasterImage
  3
ISM
 90
      127
280
     0
281
     1
  0
CLASS
  1
OLE2FRAME
  2
AcDbOle2Frame
  3
AutoCAD 2000
 90
        0
280
     0
281
     1
  0
CLASS
  1
HATCH
  2
AcDbHatch
  3
AutoCAD 2000
 90
        0
280
     0
281
     1
  0
CLASS
  1
DICTIONARYVAR
  2
AcDbDictionaryVar
  3
AutoCAD 2000
 90
        0
280
     0
281
     0
  0
CLASS
  1
RASTERVARIABLES
  2
AcDbRasterVariables
  3
ISM
 90
        0
280
     0
281
     0
  0
CLASS
  1
IMAGEDEF
  2
AcDbRasterImageDef
  3
ISM
 90
        0
280
     0
281
     0
  0
CLASS
  1
IMAGEDEF_REACTOR
  2
AcDbRasterImageDefReactor
  3
ISM
 90
        1
280
     0
281
     0
  0
CLASS
  1
IDBUFFER
  2
AcDbIdBuffer
  3
AutoCAD 2000
 90
        0
280
     0
281
     0
  0
CLASS
  1
SPATIAL_FILTER
  2
AcDbSpatialFilter
  3
AutoCAD 2000
 90
        0
280
     0
281
     0
  0
CLASS
  1
XRECORD
  2
AcDbXrecord
  3
AutoCAD 2000
 90
        0
280
     0
281
     0
  0
CLASS
  1
SORTENTSTABLE
  2
AcDbSortentsTable
  3
AutoCAD 2000
 90
        0
280
     0
281
     0
  0
CLASS
  1
LAYER_INDEX
  2
AcDbLayerIndex
  3
AutoCAD 2000
 90
        0
280
     0
281
     0
  0
CLASS
  1
SPATIAL_INDEX
  2
AcDbSpatialIndex
  3
AutoCAD 2000
 90
        0
280
     0
281
     0
  0
CLASS
  1
OBJECT_PTR
  2
CAseDLPNTableRecord
  3
ASE-LPNTableRecord
 90
        1
280
     0
281
     0
  0
CLASS
  1
PLOTSETTINGS
  2
AcDbPlotSettings
  3
AutoCAD 2000
 90
        0
280
     0
281
     0
  0
CLASS
  1
VBA_PROJECT
  2
AcDbVbaProject
  3
acadvba
 90
        0
280
     0
281
     0
  0
CLASS
  1
WIPEOUT
  2
AcDbWipeout
  3
WipeOut|AutoCAD Express Tool|expresstools@autodesk.com
 90
      127
280
     0
281
     1
  0
CLASS
  1
WIPEOUTVARIABLES
  2
AcDbWipeoutVariables
  3
WipeOut|AutoCAD Express Tool|expresstools@autodesk.com
 90
        0
280
     0
281
     0
  0
CLASS
  1
RTEXT
  2
RText
  3
RText|AutoCAD Express Tool|expresstools@autodesk.com
 90
        0
280
     0
281
     1
  0
CLASS
  1
ARCALIGNEDTEXT
  2
AcDbArcAlignedText
  3
ATEXT|AutoCAD Express Tool|expresstools@autodesk.com
 90
        0
280
     0
281
     1
  0
CLASS
  1
LONG_TRANSACTION
  2
AcDbLongTransaction
  3
AutoCAD 2000
 90
        0
280
     0
281
     0
  0
CLASS
  1
LWPOLYLINE
  2
AcDbPolyline
  3
AutoCAD 2000
 90
        0
280
     0
281
     1
  0
CLASS
  1
HATCH
  2
AcDbHatch
  3
AutoCAD 2000
 90
        0
280
     0
281
     1
  0
CLASS
  1
XRECORD
  2
AcDbXrecord
  3
AutoCAD 2000
 90
        0
280
     0
281
     0
  0
CLASS
  1
LONG_TRANSACTION
  2
AcDbLongTransaction
  3
AutoCAD 2000
 90
        0
280
     0
281
     0
  0
CLASS
  1
LWPOLYLINE
  2
AcDbPolyline
  3
AutoCAD 2000
 90
        0
280
     0
281
     1
  0
CLASS
  1
HATCH
  2
AcDbHatch
  3
AutoCAD 2000
 90
        0
280
     0
281
     1
  0
CLASS
  1
XRECORD
  2
AcDbXrecord
  3
AutoCAD 2000
 90
        0
280
     0
281
     0
  0
CLASS
  1
LONG_TRANSACTION
  2
AcDbLongTransaction
  3
AutoCAD 2000
 90
        0
280
     0
281
     0
  0
CLASS
  1
LWPOLYLINE
  2
AcDbPolyline
  3
AutoCAD 2000
 90
        0
280
     0
281
     1
  0
CLASS
  1
HATCH
  2
AcDbHatch
  3
AutoCAD 2000
 90
        0
280
     0
281
     1
  0
CLASS
  1
XRECORD
  2
AcDbXrecord
  3
AutoCAD 2000
 90
        0
280
     0
281
     0
  0
CLASS
  1
LONG_TRANSACTION
  2
AcDbLongTransaction
  3
AutoCAD 2000
 90
        0
280
     0
281
     0
  0
CLASS
  1
LWPOLYLINE
  2
AcDbPolyline
  3
AutoCAD 2000
 90
        0
280
     0
281
     1
  0
CLASS
  1
HATCH
  2
AcDbHatch
  3
AutoCAD 2000
 90
        0
280
     0
281
     1
  0
CLASS
  1
XRECORD
  2
AcDbXrecord
  3
AutoCAD 2000
 90
        0
280
     0
281
     0
  0
CLASS
  1
LONG_TRANSACTION
  2
AcDbLongTransaction
  3
AutoCAD 2000
 90
        0
280
     0
281
     0
  0
CLASS
  1
LWPOLYLINE
  2
AcDbPolyline
  3
AutoCAD 2000
 90
        0
280
     0
281
     1
  0
CLASS
  1
HATCH
  2
AcDbHatch
  3
AutoCAD 2000
 90
        0
280
     0
281
     1
  0
CLASS
  1
XRECORD
  2
AcDbXrecord
  3
AutoCAD 2000
 90
        0
280
     0
281
     0
  0
ENDSEC
  0
SECTION
  2
TABLES
  0
TABLE
  2
VPORT
  5
8
330
0
100
AcDbSymbolTable
 70
     4
  0
VPORT
  5
2006
330
8
100
AcDbSymbolTableRecord
100
AcDbViewportTableRecord
  2
*ACTIVE
 70
     0
 10
0.0
 20
0.0
 11
1.0
 21
1.0
 12
20.91587539424191
 22
11.41740149866264
 13
0.0
 23
0.0
 14
1.0
 24
1.0
 15
0.0
 25
0.0
 16
0.0
 26
0.0
 36
1.0
 17
0.0
 27
0.0
 37
0.0
 40
30.35545292859021
 41
1.745424292845257
 42
50.0
 43
0.0
 44
0.0
 50
0.0
 51
0.0
 71
     0
 72
   100
 73
     1
 74
     1
 75
     0
 76
     0
 77
     0
 78
     0
  0
ENDTAB
  0
TABLE
  2
LTYPE
  5
5
330
0
100
AcDbSymbolTable
 70
     3
  0
LTYPE
  5
14
330
5
100
AcDbSymbolTableRecord
100
AcDbLinetypeTableRecord
  2
BYBLOCK
 70
     0
  3

 72
    65
 73
     0
 40
0.0
  0
LTYPE
  5
15
330
5
100
AcDbSymbolTableRecord
100
AcDbLinetypeTableRecord
  2
BYLAYER
 70
     0
  3

 72
    65
 73
     0
 40
0.0
  0
LTYPE
  5
16
330
5
100
AcDbSymbolTableRecord
100
AcDbLinetypeTableRecord
  2
CONTINUOUS
 70
     0
  3
Solid line
 72
    65
 73
     0
 40
0.0
  0
LTYPE
  5
1F6
330
5
100
AcDbSymbolTableRecord
100
AcDbLinetypeTableRecord
  2
HIDDEN
 70
     0
  3
Hidden __ __ __ __ __ __ __ __ __ __ __ __ __ _
 72
    65
 73
     2
 40
0.375
 49
0.25
 74
     0
 49
-0.125
 74
     0
  0
LTYPE
  5
1295
330
5
100
AcDbSymbolTableRecord
100
AcDbLinetypeTableRecord
  2
CENTERX2
 70
     0
  3
Center (2x) ________  __  ________  __  _____
 72
    65
 73
     4
 40
4.0
 49
2.5
 74
     0
 49
-0.5
 74
     0
 49
0.5
 74
     0
 49
-0.5
 74
     0
  0
ENDTAB
  0
TABLE
  2
LAYER
  5
2
330
0
100
AcDbSymbolTable
 70
     2
  0
LAYER
  5
10
330
2
100
AcDbSymbolTableRecord
100
AcDbLayerTableRecord
  2
0
 70
     0
 62
     7
  6
CONTINUOUS
  0
LAYER
  5
B09
330
2
100
AcDbSymbolTableRecord
100
AcDbLayerTableRecord
  2
CENTER
 70
     0
 62
     1
  6
CENTERX2
  0
ENDTAB
  0
TABLE
  2
STYLE
  5
3
330
0
100
AcDbSymbolTable
 70
     2
  0
STYLE
  5
11
330
3
100
AcDbSymbolTableRecord
100
AcDbTextStyleTableRecord
  2
STANDARD
 70
     0
 40
0.0
 41
0.8
 50
0.0
 71
     0
 42
0.2
  3
txt
  4

  0
STYLE
  5
21B
330
3
100
AcDbSymbolTableRecord
100
AcDbTextStyleTableRecord
  2
TEXTSTYLE_1
 70
     0
 40
0.0
 41
0.8
 50
0.0
 71
     0
 42
0.2
  3
txt
  4

  0
ENDTAB
  0
TABLE
  2
VIEW
  5
6
330
0
100
AcDbSymbolTable
 70
     0
  0
ENDTAB
  0
TABLE
  2
UCS
  5
7
330
0
100
AcDbSymbolTable
 70
     0
  0
ENDTAB
  0
TABLE
  2
APPID
  5
9
330
0
100
AcDbSymbolTable
 70
     2
  0
APPID
  5
21F
330
9
100
AcDbSymbolTableRecord
100
AcDbRegAppTableRecord
  2
ACAD
 70
     0
  0
APPID
  5
AFF
330
9
100
AcDbSymbolTableRecord
100
AcDbRegAppTableRecord
  2
DCO15
 70
     0
  0
ENDTAB
  0
TABLE
  2
DIMSTYLE
  5
A
330
0
100
AcDbSymbolTable
 70
     1
  0
DIMSTYLE
105
240
330
A
100
AcDbSymbolTableRecord
100
AcDbDimStyleTableRecord
  2
STANDARD
 70
     0
  3

  4

  5
_FILLED
  6
_FILLED
  7
_FILLED
 40
1.0
 41
0.1875
 42
0.0625
 43
0.38
 44
0.18
 45
0.0
 46
0.0
 47
0.00001
 48
0.00001
140
0.125
141
0.09
142
0.0
143
25.4
144
1.0
145
0.0
146
1.0
147
0.09
 71
     0
 72
     0
 73
     1
 74
     1
 75
     0
 76
     0
 77
     0
 78
     4
170
     0
171
     2
172
     0
173
     0
174
     0
175
     0
176
     0
177
     0
178
     0
270
     2
271
     5
272
     5
273
     2
274
     2
340
11
275
     0
280
     0
281
     0
282
     0
283
     1
284
     4
285
     0
286
     0
287
     3
288
     0
  0
ENDTAB
  0
TABLE
  2
BLOCK_RECORD
  5
1
330
0
100
AcDbSymbolTable
 70
     1
  0
BLOCK_RECORD
  5
1F
102
{ACAD_XDICTIONARY
360
1C78
102
}
330
1
100
AcDbSymbolTableRecord
100
AcDbBlockTableRecord
  2
*MODEL_SPACE
  0
BLOCK_RECORD
  5
1B
102
{ACAD_XDICTIONARY
360
1C76
102
}
330
1
100
AcDbSymbolTableRecord
100
AcDbBlockTableRecord
  2
*PAPER_SPACE
  0
BLOCK_RECORD
  5
220
330
1
100
AcDbSymbolTableRecord
100
AcDbBlockTableRecord
  2
_FILLED
  0
ENDTAB
  0
ENDSEC
  0
SECTION
  2
BLOCKS
  0
BLOCK
  5
20
330
1F
100
AcDbEntity
  8
0
100
AcDbBlockBegin
  2
*MODEL_SPACE
 70
     0
 10
0.0
 20
0.0
 30
0.0
  3
*MODEL_SPACE
  1

  0
ENDBLK
  5
21
330
1F
100
AcDbEntity
  8
0
100
AcDbBlockEnd
  0
BLOCK
  5
1C
330
1B
100
AcDbEntity
 67
     1
  8
0
100
AcDbBlockBegin
  2
*PAPER_SPACE
 70
     0
 10
0.0
 20
0.0
 30
0.0
  3
*PAPER_SPACE
  1

  0
ENDBLK
  5
1D
330
1B
100
AcDbEntity
 67
     1
  8
0
100
AcDbBlockEnd
  0
BLOCK
  5
442
330
220
100
AcDbEntity
  8
0
100
AcDbBlockBegin
  2
_FILLED
 70
     0
 10
0.0
 20
0.0
 30
0.0
  3
_FILLED
  1

  0
SOLID
  5
443
330
220
100
AcDbEntity
  8
0
  6
BYBLOCK
 62
     0
100
AcDbTrace
 10
0.0
 20
0.0
 30
0.0
 11
-1.0
 21
0.1666666667
 31
0.0
 12
-1.0
 22
-0.1666666667
 32
0.0
 13
-1.0
 23
-0.1666666667
 33
0.0
  0
ENDBLK
  5
444
330
220
100
AcDbEntity
  8
0
  6
BYBLOCK
 62
     0
100
AcDbBlockEnd
  0
ENDSEC
  0
SECTION
  2
ENTITIES
  0
MTEXT
  5
4BB
330
1F
100
AcDbEntity
  8
0
  6
CONTINUOUS
 62
     2
100
AcDbMText
 10
15.84375
 20
2.3125
 30
0.0
 40
0.09375
 41
0.075
 71
     2
 72
     1
  1
 \P \P 
  7
TEXTSTYLE_1
1001
ACAD
1000
MTEXTBEGIN
1070
    73
1070
     1
1070
    44
1040
1.0
1070
    74
1070
     0
1000
MTEXTEND
1000
MTEXTBEGIN
1070
    73
1070
     1
1070
    44
1040
1.0
1070
    74
1070
     0
1000
MTEXTEND
1000
MTEXTBEGIN
1070
    73
1070
     1
1070
    44
1040
1.0
1070
    74
1070
     0
1000
MTEXTEND
1000
MTEXTBEGIN
1070
    73
1070
     1
1070
    44
1040
1.0
1070
    74
1070
     0
1000
MTEXTEND
1000
MTEXTBEGIN
1070
    73
1070
     1
1070
    44
1040
1.0
1070
    74
1070
     0
1000
MTEXTEND
  0
LINE
  5
1ECA
330
1F
100
AcDbEntity
  8
0
100
AcDbLine
 10
41.3726272246838
 20
19.40747282239999
 30
0.0
 11
0.3764283472000898
 21
19.40747282239999
 31
0.0
  0
LINE
  5
1ECB
330
1F
100
AcDbEntity
  8
0
100
AcDbLine
 10
1.548440000000027
 20
20.60003500959999
 30
0.0
 11
40.20061557188387
 21
20.60003500959999
 31
0.0
  0
LINE
  5
1ECC
330
1F
100
AcDbEntity
  8
0
100
AcDbLine
 10
0.125
 20
18.60003500959999
 30
0.0
 11
41.6240555718839
 21
18.60003500959999
 31
0.0
  0
LINE
  5
1ECD
330
1F
100
AcDbEntity
  8
0
100
AcDbLine
 10
1.102687314036074
 20
20.21984690194278
 30
0.0
 11
40.64636826228138
 21
20.21984690207762
 31
0.0
  0
LINE
  5
1ECE
330
1F
100
AcDbEntity
  8
0
100
AcDbLine
 10
33.49810095714201
 20
3.629079211200007
 30
0.0
 11
33.72944195234197
 21
5.240015040000002
 31
0.0
  0
LINE
  5
1ECF
330
1F
100
AcDbEntity
  8
0
100
AcDbLine
 10
7.43723225359713
 20
9.377693275812646
 30
0.0
 11
8.311928606741957
 21
3.153905313599977
 31
0.0
  0
LWPOLYLINE
  5
1ED1
330
1F
100
AcDbEntity
  8
0
100
AcDbPolyline
 90
        3
 70
     0
 43
0.0
 10
22.11319221954201
 20
1.586485697599997
 10
23.27273580674201
 20
1.6237089376
 10
25.29876148034199
 20
1.689036582399992
  0
LWPOLYLINE
  5
1ED2
330
1F
100
AcDbEntity
  8
0
100
AcDbPolyline
 90
       26
 70
     0
 43
0.0
 10
19.65961292834194
 20
1.513752297599992
 10
19.11458891074195
 20
1.496549524800016
 10
18.84606354434194
 20
1.488115430400014
 10
18.580450217942
 20
1.479803510400031
 10
18.31793963714196
 20
1.471621747200018
 10
18.05872250914191
 20
1.463578126400037
 10
17.80298954114195
 20
1.455680630400038
 10
17.55093144194197
 20
1.447937243200001
 10
17.30273891714202
 20
1.440355948800018
 10
17.10268077954194
 20
1.434279214400035
 10
16.905442456342
 20
1.428320705600029
 10
16.71112840034195
 20
1.42248479680002
 10
16.51984306274195
 20
1.416775857600001
 10
16.33169089634199
 20
1.41119826400002
 10
16.1467763523419
 20
1.405756385600014
 10
15.96520388354198
 20
1.400454598400031
 10
15.787077942742
 20
1.395297273600036
 10
15.61250297954197
 20
1.390288782399991
 10
15.44158344834201
 20
1.385433500800004
 10
15.27442379874193
 20
1.380735800000039
 10
15.11779138914195
 20
1.376384028799989
 10
14.96480223234195
 20
1.372184977600014
 10
14.81554769794203
 20
1.368142507200005
 10
14.67011916034195
 20
1.364260478400026
 10
14.52860798914193
 20
1.3605427536
 10
14.39110555714202
 20
1.356993192000018
  0
LINE
  5
1ED3
330
1F
100
AcDbEntity
  8
0
100
AcDbLine
 10
15.14770467074197
 20
0.3997720912000204
 30
0.0
 11
15.83954418274197
 21
1.396562593599981
 31
0.0
  0
LINE
  5
1ED4
330
1F
100
AcDbEntity
  8
CENTER
100
AcDbLine
 10
12.37452778594206
 20
3.196209248000002
 30
0.0
 11
12.37452778594206
 21
-0.7537907519999863
 31
0.0
  0
LWPOLYLINE
  5
1ED5
330
1F
100
AcDbEntity
  8
0
100
AcDbPolyline
 90
       17
 70
     0
 43
0.0
 10
10.59076393474194
 20
1.38388241920002
 10
10.64505449954194
 20
1.381327067200018
 10
10.705595245142
 20
1.378562387200034
 10
10.77306176514193
 20
1.375597558400002
 10
10.84815544194199
 20
1.37244795840003
 10
10.93179000994197
 20
1.369128542400019
 10
11.02509420834198
 20
1.365656463999997
 10
11.12910184034191
 20
1.362064363200047
 10
11.24394915874197
 20
1.358423281599996
 10
11.36840736994199
 20
1.354841515200021
 10
11.50119631394201
 20
1.351411150400011
 10
11.63965445634195
 20
1.348235705600032
 10
11.78178981634195
 20
1.345373740800042
 10
11.92711001474194
 20
1.342837854400002
 10
12.07459609794202
 20
1.340644249600032
 10
12.22375512514199
 20
1.338795734399994
 10
12.37425586274193
 20
1.337292561600023
  0
LINE
  5
1ED6
330
1F
100
AcDbEntity
  8
0
100
AcDbLine
 10
11.10308117634201
 20
0.8149592479999796
 30
0.0
 11
13.65119623874193
 21
0.8187500000000227
 31
0.0
  0
ARC
  5
1ED7
330
1F
100
AcDbEntity
  8
0
100
AcDbCircle
 10
10.31451542274203
 20
1.177668222400029
 30
0.0
 40
0.21875
100
AcDbArc
 50
45.00000023180002
 51
84.93683204110002
  0
ARC
  5
1ED8
330
1F
100
AcDbEntity
  8
0
100
AcDbCircle
 10
11.10308117634201
 20
1.096209247999979
 30
0.0
 40
0.28125
100
AcDbArc
 50
225.0
 51
270.0
  0
LWPOLYLINE
  5
1ED9
330
1F
100
AcDbEntity
  8
0
100
AcDbPolyline
 90
        4
 70
     0
 43
0.0
 10
10.33381401474193
 20
1.39556663040004
 10
10.26468117794203
 20
1.401805076799988
 10
10.19533034274192
 20
1.414134402205846
 10
10.15347234114196
 20
1.424477200000026
  0
LWPOLYLINE
  5
1EDA
330
1F
100
AcDbEntity
  8
0
100
AcDbPolyline
 90
        3
 70
     0
 43
0.0
 10
10.426328225942
 20
1.391846595199993
 10
10.498588326742
 20
1.388342510399994
 10
10.59076393474194
 20
1.38388241920002
  0
LWPOLYLINE
  5
1EDB
330
1F
100
AcDbEntity
  8
0
100
AcDbPolyline
 90
        7
 70
     0
 43
0.0
 10
10.33381401474193
 20
1.39556663040004
 10
10.3362192515419
 20
1.395536331200005
 10
10.34361890114197
 20
1.395356000000006
 10
10.35625605154197
 20
1.394932364800027
 10
10.37430117954201
 20
1.394213556800039
 10
10.39772092194195
 20
1.393182153599994
 10
10.426328225942
 20
1.391846595199993
  0
LWPOLYLINE
  5
1EDC
330
1F
100
AcDbEntity
  8
0
100
AcDbPolyline
 90
       22
 70
     0
 43
0.0
 10
8.318650829142001
 20
3.157724217600005
 10
8.341276521942035
 20
3.030024152000024
 10
8.372001216341999
 20
2.90403699680003
 10
8.410703057941958
 20
2.780261526400025
 10
8.457222389141946
 20
2.659209971199985
 10
8.511369971541938
 20
2.541374387200008
 10
8.572925083542003
 20
2.427235105600018
 10
8.641636809942013
 20
2.317257387200029
 10
8.71722506594196
 20
2.211889532800014
 10
8.799381731541956
 20
2.111561051200013
 10
8.887771913942032
 20
2.01668090560004
 10
8.982035313941963
 20
1.927635857600037
 10
9.081787685141961
 20
1.844788875199995
 10
9.186622413141975
 20
1.768477667200002
 10
9.296112161941977
 20
1.699013299200046
 10
9.409810624341929
 20
1.636678926400023
 10
9.527254331542025
 20
1.581728641600037
 10
9.64796455554196
 20
1.534386435200033
 10
9.77144924674198
 20
1.494845291200036
 10
9.897205048341987
 20
1.463266385599993
 10
10.024719347542
 20
1.439778446400012
 10
10.15347234114196
 20
1.424477200000026
  0
LINE
  5
1EDD
330
1F
100
AcDbEntity
  8
0
100
AcDbLine
 10
10.90420739394198
 20
0.8973354656000083
 30
0.0
 11
10.46919503074195
 21
1.33234783040001
 31
0.0
  0
ARC
  5
1EDE
330
1F
100
AcDbEntity
  8
0
100
AcDbCircle
 10
14.37974962914199
 20
0.9375
 30
0.0
 40
0.9375
100
AcDbArc
 50
200.0
 51
324.9999999999999
  0
ARC
  5
1EDF
330
1F
100
AcDbEntity
  8
0
100
AcDbCircle
 10
14.39661997474195
 20
1.138316975999998
 30
0.0
 40
0.2187499984
100
AcDbArc
 50
91.47072121659995
 51
134.9999966718999
  0
ARC
  5
1EE0
330
1F
100
AcDbEntity
  8
0
100
AcDbCircle
 10
13.65119623874193
 20
1.100000000000022
 30
0.0
 40
0.28125
100
AcDbArc
 50
270.0
 51
315.0
  0
LINE
  5
1EE1
330
1F
100
AcDbEntity
  8
0
100
AcDbLine
 10
12.37425586274196
 20
1.337292561600008
 30
0.0
 11
14.39110555714205
 21
1.356993192000004
 31
0.0
  0
LINE
  5
1EE2
330
1F
100
AcDbEntity
  8
0
100
AcDbLine
 10
13.85007001954204
 20
0.9011262175999945
 30
0.0
 11
14.24194038594203
 21
1.292996583999979
 31
0.0
  0
LINE
  5
1EE3
330
1F
100
AcDbEntity
  8
0
100
AcDbLine
 10
13.49878779714197
 20
0.6168561168000224
 30
0.0
 11
13.44980087394196
 21
0.8187500000000227
 31
0.0
  0
LINE
  5
1EE4
330
1F
100
AcDbEntity
  8
0
100
AcDbLine
 10
19.65961292834197
 20
1.513752297599978
 30
0.0
 11
22.11910307394203
 21
1.589688108800032
 31
0.0
  0
LWPOLYLINE
  5
1EE5
330
1F
100
AcDbEntity
  8
0
100
AcDbPolyline
 90
        3
 70
     0
 43
0.0
 10
29.50403909474195
 20
1.824049529600031
 10
29.80450914434195
 20
1.833580620799992
 10
30.72743564354195
 20
1.862684633600011
  0
LINE
  5
1EE6
330
1F
100
AcDbEntity
  8
0
100
AcDbLine
 10
25.43722439794203
 20
1.68861306399998
 30
0.0
 11
29.05538520354196
 21
1.809759411199991
 31
0.0
  0
LINE
  5
1EE7
330
1F
100
AcDbEntity
  8
0
100
AcDbLine
 10
25.83481696674198
 20
1.49816281599999
 30
0.0
 11
26.60657274434197
 21
0.3959813391999773
 31
0.0
  0
LWPOLYLINE
  5
1EE8
330
1F
100
AcDbEntity
  8
0
100
AcDbPolyline
 90
        4
 70
     0
 43
0.0
 10
25.83482057794194
 20
1.498166505600025
 10
25.72093872994193
 20
1.614564899200004
 10
25.57568731554201
 20
1.688189545599996
 10
25.29876148034199
 20
1.689036582399992
  0
ARC
  5
1EE9
330
1F
100
AcDbEntity
  8
0
100
AcDbCircle
 10
27.37452778594206
 20
0.9337092480000137
 30
0.0
 40
0.9375
100
AcDbArc
 50
215.0
 51
339.9999999999999
  0
LWPOLYLINE
  5
1EEA
330
1F
100
AcDbEntity
  8
0
100
AcDbPolyline
 90
        4
 70
     0
 43
0.0
 10
28.63562077954199
 20
1.592206084800025
 10
28.74268345794197
 20
1.696401784000002
 10
28.87575291074196
 20
1.764314768000033
 10
29.05538520354193
 20
1.809759411200005
  0
LINE
  5
1EEB
330
1F
100
AcDbEntity
  8
0
100
AcDbLine
 10
28.56412369474196
 20
1.461030518399979
 30
0.0
 11
28.63562077954202
 21
1.592206084800011
 31
0.0
  0
LINE
  5
1EEC
330
1F
100
AcDbEntity
  8
0
100
AcDbLine
 10
28.25548961794197
 20
0.6130653647999793
 30
0.0
 11
28.56412351714197
 21
1.461030033600025
 31
0.0
  0
LINE
  5
1EED
330
1F
100
AcDbEntity
  8
0
100
AcDbLine
 10
29.05538520354196
 20
1.809759411199991
 30
0.0
 11
29.50403883714193
 21
1.824049521599988
 31
0.0
  0
LWPOLYLINE
  5
1EEE
330
1F
100
AcDbEntity
  8
0
100
AcDbPolyline
 90
       19
 70
     0
 43
0.0
 10
33.49808253634202
 20
3.628986347200012
 10
33.46955442274199
 20
3.474036195200042
 10
33.42910462114193
 20
3.321763763200024
 10
33.37697649154196
 20
3.173085192000044
 10
33.31348366434198
 20
3.028894999999991
 10
33.23900813794191
 20
2.890060699199992
 10
33.15399799234203
 20
2.757417580800009
 10
33.05896468674197
 20
2.631763684799992
 10
32.95447998434198
 20
2.513855003199992
 10
32.84117251234201
 20
2.404400924800043
 10
32.71972397954195
 20
2.304059977600005
 10
32.59086507554204
 20
2.213435857600032
 10
32.4553710739419
 20
2.133073800000047
 10
32.314057166742
 20
2.063457299200038
 10
32.16777356354199
 20
2.005005200000042
 10
32.01740037154192
 20
1.958069175999995
 10
31.863842304342
 20
1.922931616000042
 10
31.70802323714198
 20
1.899803921599996
 10
31.55088064514197
 20
1.888825243200031
  0
LINE
  5
1EEF
330
1F
100
AcDbEntity
  8
0
100
AcDbLine
 10
30.72743564354198
 20
1.862684633599997
 30
0.0
 11
31.550880645142
 21
1.888825243200017
 31
0.0
  0
LINE
  5
1EF0
330
1F
100
AcDbEntity
  8
0
  6
HIDDEN
 62
     8
100
AcDbLine
 10
6.109100273941976
 20
17.5496271664
 30
0.0
 11
8.869858896877758
 21
16.59902173854959
 31
0.0
  0
LINE
  5
1EF1
330
1F
100
AcDbEntity
  8
0
  6
HIDDEN
 62
     8
100
AcDbLine
 10
6.33192408834202
 20
16.15087692320003
 30
0.0
 11
8.462898678048077
 21
15.41712352791967
 31
0.0
  0
LWPOLYLINE
  5
1EF2
330
1F
100
AcDbEntity
  8
0
100
AcDbPolyline
 90
       11
 70
     0
 43
0.0
 10
7.230962443541983
 20
9.433901187199992
 10
7.459669608341954
 20
9.371579163200024
 10
7.710399867542008
 20
9.316696772800028
 10
7.98441780834193
 20
9.2676731488
 10
8.285321651542034
 20
9.222953574399994
 10
8.617219443541983
 20
9.181410747200018
 10
8.984498171541957
 20
9.142422678400023
 10
9.388961824341976
 20
9.105838713600022
 10
9.832045195542008
 20
9.07161392479999
 10
10.31500683874193
 20
9.039711667199995
 10
10.81973454434202
 20
9.011121796800026
  0
LINE
  5
1EF3
330
1F
100
AcDbEntity
  8
0
100
AcDbLine
 10
5.653438430741971
 20
14.12015320800003
 30
0.0
 11
5.970183859541975
 21
11.67860216479999
 31
0.0
  0
LINE
  5
1EF4
330
1F
100
AcDbEntity
  8
0
100
AcDbLine
 10
6.83538968514199
 20
9.587935656000013
 30
0.0
 11
7.023515355542031
 21
9.505304150399979
 31
0.0
  0
LWPOLYLINE
  5
1EF5
330
1F
100
AcDbEntity
  8
0
100
AcDbPolyline
 90
        3
 70
     0
 43
0.0
 10
6.835288429141968
 20
9.587986003200015
 10
7.023392198741902
 20
9.505351955200026
 10
7.231090254741928
 20
9.43386213600003
  0
LWPOLYLINE
  5
1EF6
330
1F
100
AcDbEntity
  8
0
100
AcDbPolyline
 90
        6
 70
     0
 43
0.0
 10
6.166041337942004
 20
10.29842223359999
 10
6.224250462741991
 20
10.15887017440003
 10
6.301843128341914
 20
10.02799942399998
 10
6.40033554114197
 20
9.904686024000014
 10
6.521233123542032
 20
9.789563844800014
 10
6.66694476034192
 20
9.683044883200025
  0
LWPOLYLINE
  5
1EF7
330
1F
100
AcDbEntity
  8
0
100
AcDbPolyline
 90
        6
 70
     0
 43
0.0
 10
6.22424974114196
 20
10.15887161119998
 10
6.301817926741904
 20
10.02803591359999
 10
6.40028058434197
 20
9.904745979200029
 10
6.52116915394194
 20
9.789617236799998
 10
6.666871150742025
 20
9.683092140800013
 10
6.835389685141961
 20
9.587935656000027
  0
LINE
  5
1EF8
330
1F
100
AcDbEntity
  8
0
100
AcDbLine
 10
6.061604429141993
 20
10.95067461119998
 30
0.0
 11
6.113729077142011
 21
10.53047866240001
 31
0.0
  0
LWPOLYLINE
  5
1EF9
330
1F
100
AcDbEntity
  8
0
100
AcDbPolyline
 90
        3
 70
     0
 43
0.0
 10
5.970183886741978
 20
11.67860215520001
 10
6.010671957141966
 20
11.35765308480002
 10
6.061604429141965
 20
10.95067461119999
  0
LINE
  5
1EFA
330
1F
100
AcDbEntity
  8
0
100
AcDbLine
 10
6.113559649941976
 20
10.53149987519998
 30
0.0
 11
6.11493277794193
 21
10.52075211039999
 31
0.0
  0
LINE
  5
1EFB
330
1F
100
AcDbEntity
  8
0
100
AcDbLine
 10
6.11493277794193
 20
10.52075211039999
 30
0.0
 11
6.121232777941941
 21
10.47852292480001
 31
0.0
  0
LINE
  5
1EFC
330
1F
100
AcDbEntity
  8
0
100
AcDbLine
 10
6.121232777941941
 20
10.47852292480001
 30
0.0
 11
6.128039579542019
 21
10.44121518719998
 31
0.0
  0
LINE
  5
1EFD
330
1F
100
AcDbEntity
  8
0
100
AcDbLine
 10
6.128052913942042
 20
10.44114800800002
 30
0.0
 11
6.128039573142018
 21
10.44121518399998
 31
0.0
  0
LINE
  5
1EFE
330
1F
100
AcDbEntity
  8
0
100
AcDbLine
 10
6.128052913942042
 20
10.44114800800002
 30
0.0
 11
6.166047803542028
 21
10.29840309759998
 31
0.0
  0
ARC
  5
1EFF
330
1F
100
AcDbEntity
  8
0
100
AcDbCircle
 10
1.548440000000027
 20
20.23243999999999
 30
0.0
 40
0.3675950096
100
AcDbArc
 50
90.0
 51
167.4055148568
  0
ARC
  5
1F00
330
1F
100
AcDbEntity
  8
0
100
AcDbCircle
 10
1.339551755200091
 20
19.40747282239999
 30
0.0
 40
0.8462011632000001
100
AcDbArc
 50
106.2551347121998
 51
172.6051419062
  0
LINE
  5
1F01
330
1F
100
AcDbEntity
  8
0
100
AcDbLine
 10
0.125
 20
18.60003500959999
 30
0.0
 11
0.1806672448001336
 21
19.23631452479997
 31
0.0
  0
ARC
  5
1F02
330
1F
100
AcDbEntity
  8
0
100
AcDbCircle
 10
0.3764283472000898
 20
19.53247282239999
 30
0.0
 40
0.125
100
AcDbArc
 50
270.0
 51
352.6051419062
  0
ARC
  5
1F03
330
1F
100
AcDbEntity
  8
0
100
AcDbCircle
 10
0.3674537504000455
 20
19.21997282239999
 30
0.0
 40
0.1875
100
AcDbArc
 50
90.0
 51
175.0
  0
ARC
  5
1F04
330
1F
100
AcDbEntity
  8
0
100
AcDbCircle
 10
1.067697932800001
 20
20.33985000000001
 30
0.0
 40
0.125
100
AcDbArc
 50
286.2551347122002
 51
347.4055148568
  0
LWPOLYLINE
  5
1F05
330
1F
100
AcDbEntity
  8
0
  6
HIDDEN
 62
     8
100
AcDbPolyline
 90
       39
 70
     0
 43
0.0
 10
6.102688451541979
 20
17.46454368000003
 10
6.103142705941962
 20
17.45285510399999
 10
6.104255853142007
 20
17.43288292480004
 10
6.105719397141996
 20
17.41331561919999
 10
6.107429593941986
 20
17.3939754544
 10
6.10928270114195
 20
17.37468469440001
 10
6.113987645142032
 20
17.32763230720003
 10
6.119025643542016
 20
17.28032469120002
 10
6.125350197141955
 20
17.22581486720004
 10
6.132117763542026
 20
17.17145331519999
 10
6.140035344341953
 20
17.11091197119999
 10
6.148311641941944
 20
17.05038866880001
 10
6.158102920341974
 20
16.9818714
 10
6.168306873941986
 20
16.9134246192
 10
6.180006259541954
 20
16.8380527952
 10
6.192181984341999
 20
16.76275006560003
 10
6.204881022742
 20
16.6873404928
 10
6.218120211541958
 20
16.61203773120003
 10
6.230143693142025
 20
16.54651635360001
 10
6.242676246741979
 20
16.48105002080002
 10
6.253616109142029
 20
16.42633958240004
 10
6.265130760341975
 20
16.37186313120004
 10
6.275061888341923
 20
16.32763861280001
 10
6.285503761941953
 20
16.28321266400003
 10
6.289700569941913
 20
16.26588954720001
 10
6.294070686741946
 20
16.24865051360002
 10
6.298709470741954
 20
16.23168649439999
 10
6.303712286741955
 20
16.21518842080003
 10
6.307374293141918
 20
16.20423059040003
 10
6.311225742741925
 20
16.19323701759999
 10
6.31524224034203
 20
16.18186619200004
 10
6.319399381142005
 20
16.16977659840002
 10
6.320554102741965
 20
16.166369848
 10
6.321793422741933
 20
16.16300325760001
 10
6.323193485142013
 20
16.15979409120002
 10
6.32483043874194
 20
16.15685961280003
 10
6.326780425941905
 20
16.15431708159998
 10
6.329119593941953
 20
16.15228376480003
 10
6.331924088341992
 20
16.15087692320004
  0
LWPOLYLINE
  5
1F06
330
1F
100
AcDbEntity
  8
0
100
AcDbPolyline
 90
        3
 70
     0
 43
0.0
 10
5.03266193975773
 20
18.6000350096
 10
5.278566534741997
 20
16.87566058239998
 10
5.653438430741942
 20
14.12015320800004
  0
LWPOLYLINE
  5
1F07
330
1F
100
AcDbEntity
  8
0
  6
HIDDEN
 62
     8
100
AcDbPolyline
 90
       15
 70
     0
 43
0.0
 10
6.109100273941947
 20
17.54962716640001
 10
6.107614827541937
 20
17.54969927200001
 10
6.106384960341955
 20
17.54892233440001
 10
6.105373552342001
 20
17.54748569760001
 10
6.104184848341986
 20
17.54450799839999
 10
6.103278870741945
 20
17.54111104319999
 10
6.102208051541964
 20
17.5360923152
 10
6.101467093141963
 20
17.53152436800003
 10
6.101006081941903
 20
17.52732784479998
 10
6.100775104341977
 20
17.52342338400002
 10
6.100803603541947
 20
17.51617321440001
 10
6.101153286742004
 20
17.50913898400001
 10
6.101616555541994
 20
17.49872226719999
 10
6.101986254741945
 20
17.4876813904
 10
6.102688451541979
 20
17.46454368000003
  0
LWPOLYLINE
  5
1F08
330
1F
100
AcDbEntity
  8
0
100
AcDbPolyline
 90
        5
 70
     0
 43
0.0
 10
11.63970404034191
 20
8.95723430720001
 10
11.89537547234201
 20
8.939152571200011
 10
12.12539681314203
 20
8.92234155680002
 10
12.3350976659419
 20
8.907226462400004
 10
12.52822884674194
 20
8.894304632000014
  0
LINE
  5
1F09
330
1F
100
AcDbEntity
  8
0
100
AcDbLine
 10
11.11935685154196
 20
8.993743752
 30
0.0
 11
11.30507062914193
 21
8.980506316800017
 31
0.0
  0
LWPOLYLINE
  5
1F0A
330
1F
100
AcDbEntity
  8
0
100
AcDbPolyline
 90
        4
 70
     0
 43
0.0
 10
11.3050706291419
 20
8.980506316800031
 10
11.42181168194198
 20
8.972308078400047
 10
11.53312390754192
 20
8.9645886144
 10
11.63970404034191
 20
8.95723430720001
  0
LWPOLYLINE
  5
1F0B
330
1F
100
AcDbEntity
  8
0
100
AcDbPolyline
 90
        5
 70
     0
 43
0.0
 10
10.81971332674194
 20
9.011085555200011
 10
10.903978841942
 20
9.006610312000034
 10
10.99316017794191
 20
9.0017053296
 10
11.07901715714203
 20
8.996504056000006
 10
11.11935423874203
 20
8.993744017600036
  0
LWPOLYLINE
  5
1F0C
330
1F
100
AcDbEntity
  8
0
100
AcDbPolyline
 90
       11
 70
     0
 43
0.0
 10
12.52822884674194
 20
8.894304632000014
 10
12.73380827714194
 20
8.882193382400046
 10
12.914968600342
 20
8.872828193600028
 10
13.075110469142
 20
8.865427227200044
 10
13.22392445474199
 20
8.859219292800005
 10
13.37139013954194
 20
8.853637083200013
 10
13.52113429954201
 20
8.848480692800038
 10
13.67182726914197
 20
8.843737401599994
 10
13.82403509794196
 20
8.839308123200012
 10
13.97953196514194
 20
8.835045985600018
 10
14.14028566434191
 20
8.830767947200016
  0
LINE
  5
1F0D
330
1F
100
AcDbEntity
  8
0
100
AcDbLine
 10
14.14028566434194
 20
8.830767947200001
 30
0.0
 11
14.276568397142
 21
8.827138054399995
 31
0.0
  0
ARC
  5
1F0E
330
1F
100
AcDbEntity
  8
0
  6
HIDDEN
 62
     8
100
AcDbCircle
 10
8.666378800342044
 20
16.00807262879999
 30
0.0
 40
0.625
100
AcDbArc
 50
250.9999999999998
 51
70.99999999999987
  0
LWPOLYLINE
  5
1F0F
330
1F
100
AcDbEntity
  8
0
100
AcDbPolyline
 90
        4
 70
     0
 43
0.0
 10
35.77899498114195
 20
11.67957581119999
 10
36.09561714114201
 20
14.12015320800004
 10
36.47048903714196
 20
16.87566058239998
 10
36.71639363212622
 20
18.6000350096
  0
LWPOLYLINE
  5
1F10
330
1F
100
AcDbEntity
  8
0
100
AcDbPolyline
 90
        5
 70
     0
 43
0.0
 10
30.10935153314196
 20
8.95723430720001
 10
29.85368010114197
 20
8.939152571200011
 10
29.62365876034195
 20
8.92234155680002
 10
29.41395790594194
 20
8.907226462400004
 10
29.2208267251419
 20
8.894304632000014
  0
LINE
  5
1F11
330
1F
100
AcDbEntity
  8
0
100
AcDbLine
 10
27.60876990754195
 20
8.830767947200001
 30
0.0
 11
27.47248717474201
 21
8.827138054399995
 31
0.0
  0
LWPOLYLINE
  5
1F12
330
1F
100
AcDbEntity
  8
0
100
AcDbPolyline
 90
       11
 70
     0
 43
0.0
 10
29.2208267251419
 20
8.894304632000014
 10
29.01524729474201
 20
8.882193382400046
 10
28.83408697154195
 20
8.872828193600028
 10
28.67394510274195
 20
8.865427227200044
 10
28.52513111714197
 20
8.859219292800005
 10
28.37766543234201
 20
8.853637083200013
 10
28.22792127234194
 20
8.848480692800038
 10
28.07722830274198
 20
8.843737401599994
 10
27.92502047394199
 20
8.839308123200012
 10
27.76952360674201
 20
8.835045985600018
 10
27.60876990754193
 20
8.830767947200016
  0
LINE
  5
1F13
330
1F
100
AcDbEntity
  8
0
100
AcDbLine
 10
33.72944195234197
 20
5.240015040000002
 30
0.0
 11
34.32452523234201
 21
9.381156815999986
 31
0.0
  0
LWPOLYLINE
  5
1F14
330
1F
100
AcDbEntity
  8
0
100
AcDbPolyline
 90
       17
 70
     0
 43
0.0
 10
30.92932102754193
 20
9.011121796800026
 10
31.434023461142
 20
9.039710123200009
 10
31.91696224194194
 20
9.071610486400018
 10
32.36002629474203
 20
9.10583307520001
 10
32.76447511874195
 20
9.142414620800039
 10
33.13174435234199
 20
9.181400174399996
 10
33.46363729794197
 20
9.222940419199986
 10
33.764536843542
 20
9.267656734400034
 10
34.03854727714199
 20
9.316675384000021
 10
34.28926575874195
 20
9.371549904000019
 10
34.51796531714191
 20
9.43386213600003
 10
34.72554021634195
 20
9.505304150399993
 10
34.91366588674199
 20
9.587935656000027
 10
35.08211081314195
 20
9.683044883200025
 10
35.22782244834203
 20
9.789563844800014
 10
35.34872003074198
 20
9.904686024000014
 10
35.44723764514194
 20
10.02803591359999
  0
LWPOLYLINE
  5
1F15
330
1F
100
AcDbEntity
  8
0
100
AcDbPolyline
 90
        5
 70
     0
 43
0.0
 10
30.62970133314204
 20
8.993744017600036
 10
30.67003841474203
 20
8.996504056000006
 10
30.75589539394192
 20
9.0017053296
 10
30.84507672994195
 20
9.006610312000034
 10
30.92934224514201
 20
9.011085555200011
  0
LWPOLYLINE
  5
1F16
330
1F
100
AcDbEntity
  8
0
100
AcDbPolyline
 90
        4
 70
     0
 43
0.0
 10
30.44398494274193
 20
8.980506316800031
 10
30.32724388994196
 20
8.972308078400047
 10
30.21593166434192
 20
8.9645886144
 10
30.10935153314196
 20
8.95723430720001
  0
LINE
  5
1F17
330
1F
100
AcDbEntity
  8
0
100
AcDbLine
 10
30.62969872034205
 20
8.993743752
 30
0.0
 11
30.44398494274196
 21
8.980506316800017
 31
0.0
  0
LINE
  5
1F18
330
1F
100
AcDbEntity
  8
0
100
AcDbLine
 10
35.62100267074197
 20
10.44114806560003
 30
0.0
 11
35.62101595714193
 21
10.44121497280002
 31
0.0
  0
LINE
  5
1F19
330
1F
100
AcDbEntity
  8
0
100
AcDbLine
 10
35.62101595074205
 20
10.44121497600002
 30
0.0
 11
35.62767978594206
 21
10.477666408
 31
0.0
  0
LINE
  5
1F1A
330
1F
100
AcDbEntity
  8
0
100
AcDbLine
 10
35.62767978594206
 20
10.477666408
 30
0.0
 11
35.63388744194196
 21
10.51897916640001
 31
0.0
  0
LINE
  5
1F1B
330
1F
100
AcDbEntity
  8
0
100
AcDbLine
 10
35.63388744194196
 20
10.51897916640001
 30
0.0
 11
35.63549603074193
 21
10.5315007552
 31
0.0
  0
LINE
  5
1F1C
330
1F
100
AcDbEntity
  8
0
100
AcDbLine
 10
35.77899498114197
 20
11.67957581119998
 30
0.0
 11
35.73838361474201
 21
11.3576530848
 31
0.0
  0
LWPOLYLINE
  5
1F1D
330
1F
100
AcDbEntity
  8
0
100
AcDbPolyline
 90
        3
 70
     0
 43
0.0
 10
35.63532649474197
 20
10.53047866240002
 10
35.68745114274199
 20
10.95067461119999
 10
35.73838361474199
 20
11.35765308480002
  0
LINE
  5
1F1E
330
1F
100
AcDbEntity
  8
0
100
AcDbLine
 10
35.44721244354195
 20
10.02799942399997
 30
0.0
 11
35.52480510914199
 21
10.15887017440002
 31
0.0
  0
LINE
  5
1F1F
330
1F
100
AcDbEntity
  8
0
100
AcDbLine
 10
35.52480583074202
 20
10.15887161119997
 30
0.0
 11
35.58300776994201
 21
10.29840309759998
 31
0.0
  0
LINE
  5
1F20
330
1F
100
AcDbEntity
  8
0
100
AcDbLine
 10
35.58300776994201
 20
10.29840309759998
 30
0.0
 11
35.62100267074197
 21
10.44114806560003
 31
0.0
  0
LWPOLYLINE
  5
1F21
330
1F
100
AcDbEntity
  8
0
100
AcDbPolyline
 90
        7
 70
     0
 43
0.0
 10
34.32452488674195
 20
9.3811544144
 10
34.51809312834197
 20
9.433901187199992
 10
34.72566337314194
 20
9.505351955200026
 10
34.91376714274199
 20
9.587986003200015
 10
35.08218442114193
 20
9.683092140800013
 10
35.22788641794202
 20
9.789617236799998
 10
35.34877498754198
 20
9.904745979200029
  0
LINE
  5
1F22
330
1F
100
AcDbEntity
  8
0
  6
HIDDEN
 62
     8
100
AcDbLine
 10
32.89510742072036
 20
16.60429220207794
 30
0.0
 11
35.65586573474206
 21
17.55489852639999
 31
0.0
  0
LWPOLYLINE
  5
1F23
330
1F
100
AcDbEntity
  8
0
  6
HIDDEN
 62
     8
100
AcDbPolyline
 90
       40
 70
     0
 43
0.0
 10
35.66297977474195
 20
17.49295275200002
 10
35.66227758434203
 20
17.4698150416
 10
35.66182333474191
 20
17.45812646560001
 10
35.66071019234195
 20
17.4381542864
 10
35.65924665634199
 20
17.41858698080001
 10
35.657536465942
 20
17.3992468144
 10
35.65568336354201
 20
17.37995605280004
 10
35.65097843554198
 20
17.3329036656
 10
35.64594045314194
 20
17.28559604800001
 10
35.63961591714198
 20
17.23108622080003
 10
35.63284836834199
 20
17.17672466720002
 10
35.62493080674196
 20
17.11618332160004
 10
35.61665452834196
 20
17.055660016
 10
35.60686327394202
 20
16.98714274399999
 10
35.59665934114192
 20
16.91869595999999
 10
35.58495997954193
 20
16.84332413279999
 10
35.57278427874198
 20
16.76802139839999
 10
35.56008526594197
 20
16.69261182240002
 10
35.54684610114199
 20
16.61730905439999
 10
35.53482264034196
 20
16.55178767360003
 10
35.52229010914194
 20
16.48632133759998
 10
35.51135026434198
 20
16.43161089440003
 10
35.49983563074201
 20
16.37713444000003
 10
35.48990451714198
 20
16.33290992000003
 10
35.47946265794198
 20
16.28848396640002
 10
35.47526585474199
 20
16.27116084800003
 10
35.47089574434195
 20
16.25392181280001
 10
35.46625696514203
 20
16.23695779360004
 10
35.46125415554203
 20
16.22045971839999
 10
35.4575921523419
 20
16.20950188480004
 10
35.45374070594195
 20
16.19850831200001
 10
35.44972421314193
 20
16.18713748480003
 10
35.4455670755419
 20
16.17504788960003
 10
35.44441235554197
 20
16.17164113920002
 10
35.44317303714203
 20
16.16827454880002
 10
35.44177297474195
 20
16.16506538240004
 10
35.44013602274194
 20
16.16213090240002
 10
35.43818603554197
 20
16.15958837120003
 10
35.43584686754204
 20
16.15755505279999
 10
35.43304237474191
 20
16.1561482112
  0
ARC
  5
1F24
330
1F
100
AcDbEntity
  8
0
  6
HIDDEN
 62
     8
100
AcDbCircle
 10
33.09858770914206
 20
16.0133431584
 30
0.0
 40
0.625
100
AcDbArc
 50
109.0000186043999
 51
289.0000186043998
  0
LINE
  5
1F25
330
1F
100
AcDbEntity
  8
0
  6
HIDDEN
 62
     8
100
AcDbLine
 10
33.30206799756365
 20
15.42239411472206
 30
0.0
 11
35.43304237474194
 21
16.15614821119999
 31
0.0
  0
LWPOLYLINE
  5
1F26
330
1F
100
AcDbEntity
  8
0
  6
HIDDEN
 62
     8
100
AcDbPolyline
 90
       14
 70
     0
 43
0.0
 10
35.65586573474203
 20
17.55489852640001
 10
35.65735118114193
 20
17.554970632
 10
35.65858104834203
 20
17.55419369440001
 10
35.65959245634198
 20
17.55275705920003
 10
35.66078116194191
 20
17.54977936000001
 10
35.66168714114198
 20
17.54638240480001
 10
35.66275796194199
 20
17.54136367680003
 10
35.66349892194191
 20
17.53679573120002
 10
35.66395993474199
 20
17.5325992064
 10
35.66419091234203
 20
17.52869474559999
 10
35.664162416342
 20
17.5214445776
 10
35.66381273474198
 20
17.51441034720001
 10
35.66334946914193
 20
17.50399362880001
 10
35.66297977474195
 20
17.49295275200002
  0
ARC
  5
1F27
330
1F
100
AcDbEntity
  8
0
100
AcDbCircle
 10
41.38160182148385
 20
19.21997282239999
 30
0.0
 40
0.1875
100
AcDbArc
 50
4.999999999999981
 51
90.0
  0
ARC
  5
1F28
330
1F
100
AcDbEntity
  8
0
100
AcDbCircle
 10
41.3726272246838
 20
19.53247282239999
 30
0.0
 40
0.125
100
AcDbArc
 50
187.3948580937999
 51
270.0
  0
ARC
  5
1F29
330
1F
100
AcDbEntity
  8
0
100
AcDbCircle
 10
40.4095038166838
 20
19.40747282239999
 30
0.0
 40
0.8462011632000001
100
AcDbArc
 50
7.394858093799944
 51
73.74486528780019
  0
ARC
  5
1F2A
330
1F
100
AcDbEntity
  8
0
100
AcDbCircle
 10
40.68135763908389
 20
20.33985000000001
 30
0.0
 40
0.125
100
AcDbArc
 50
192.5944851431999
 51
253.7448652877997
  0
ARC
  5
1F2B
330
1F
100
AcDbEntity
  8
0
100
AcDbCircle
 10
40.20061557188387
 20
20.23243999999999
 30
0.0
 40
0.3675950096
100
AcDbArc
 50
12.5944851432
 51
90.0
  0
LINE
  5
1F2C
330
1F
100
AcDbEntity
  8
0
100
AcDbLine
 10
41.6240555718839
 20
18.60003500959999
 30
0.0
 11
41.56838832708399
 21
19.23631452479997
 31
0.0
  0
LINE
  5
1FC0
330
1F
100
AcDbEntity
  8
0
  6
HIDDEN
 62
     8
100
AcDbLine
 10
39.85378002308403
 20
20.47198208159997
 30
0.0
 11
36.44872848533327
 21
20.31580210443875
 31
0.0
  0
ARC
  5
1FC1
330
1F
100
AcDbEntity
  8
0
  6
HIDDEN
 62
     8
100
AcDbCircle
 10
37.07703530591618
 20
19.79151241022923
 30
0.0
 40
0.1875
100
AcDbArc
 50
89.99979808069985
 51
171.8225605675584
  0
ARC
  5
1FC2
330
1F
100
AcDbEntity
  8
0
  6
HIDDEN
 62
     8
100
AcDbCircle
 10
37.16545727711616
 20
20.15651241022924
 30
0.0
 40
0.1775
100
AcDbArc
 50
270.0
 51
0.0000001113000761
  0
ARC
  5
1FC3
330
1F
100
AcDbEntity
  8
0
  6
HIDDEN
 62
     8
100
AcDbCircle
 10
37.53045727231608
 20
20.17435317022926
 30
0.0
 40
0.1875
100
AcDbArc
 50
92.44675298120005
 51
180.0000002003999
  0
LINE
  5
1FC4
330
1F
100
AcDbEntity
  8
0
  6
HIDDEN
 62
     8
100
AcDbLine
 10
37.34295727711617
 20
20.15651241022924
 30
0.0
 11
37.34295727711617
 21
20.17435317022926
 31
0.0
  0
LINE
  5
1FC5
330
1F
100
AcDbEntity
  8
0
  6
HIDDEN
 62
     8
100
AcDbLine
 10
37.07703596669555
 20
19.97901241022807
 30
0.0
 11
37.16545727711616
 21
19.97901241022924
 31
0.0
  0
ARC
  5
1FC6
330
1F
100
AcDbEntity
  8
0
  6
HIDDEN
 62
     8
100
AcDbCircle
 10
39.845775463084
 20
20.65931114239997
 30
0.0
 40
0.1875
100
AcDbArc
 50
272.4467572821002
 51
309.7353302800998
  0
ARC
  5
1FC7
330
1F
100
AcDbEntity
  8
0
  6
HIDDEN
 62
     8
100
AcDbCircle
 10
40.2006155718841
 20
20.23243999999999
 30
0.0
 40
0.3675950096
100
AcDbArc
 50
90.0
 51
129.7353287426997
  0
LINE
  5
1FC9
330
1F
100
AcDbEntity
  8
0
  6
HIDDEN
 62
     8
100
AcDbLine
 10
36.71639363212624
 20
18.60003500959999
 30
0.0
 11
36.89144174681585
 21
19.81818225875661
 31
0.0
  0
LINE
  5
1FCA
330
1F
100
AcDbEntity
  8
0
  6
HIDDEN
 62
     8
100
AcDbLine
 10
34.32506581292624
 20
9.384947567999994
 30
0.0
 11
35.81773177845356
 21
19.77230274198246
 31
0.0
  0
ARC
  5
1FCD
330
1F
100
AcDbEntity
  8
0
  6
HIDDEN
 62
     8
100
AcDbCircle
 10
36.09174730875388
 20
20.11063289345509
 30
0.0
 40
0.1775
100
AcDbArc
 50
270.0
 51
0.0000001113000761
  0
ARC
  5
1FCE
330
1F
100
AcDbEntity
  8
0
  6
HIDDEN
 62
     8
100
AcDbCircle
 10
36.0033253375539
 20
19.74563289345508
 30
0.0
 40
0.1875
100
AcDbArc
 50
89.99979808069985
 51
171.8225605675605
  0
LINE
  5
1FCF
330
1F
100
AcDbEntity
  8
0
  6
HIDDEN
 62
     8
100
AcDbLine
 10
36.00332599833326
 20
19.93313289345392
 30
0.0
 11
36.09174730875388
 21
19.93313289345509
 31
0.0
  0
ARC
  5
1FD0
330
1F
100
AcDbEntity
  8
0
  6
HIDDEN
 62
     8
100
AcDbCircle
 10
36.4567473039538
 20
20.12847365345511
 30
0.0
 40
0.1875
100
AcDbArc
 50
92.44675298120005
 51
180.0000002003999
  0
LINE
  5
1FD1
330
1F
100
AcDbEntity
  8
0
  6
HIDDEN
 62
     8
100
AcDbLine
 10
36.26924730875389
 20
20.11063289345509
 30
0.0
 11
36.26924730875389
 21
20.12847365345511
 31
0.0
  0
LINE
  5
1FD2
330
1F
100
AcDbEntity
  8
0
  6
HIDDEN
 62
     8
100
AcDbLine
 10
1.8952755488001
 20
20.47198208159997
 30
0.0
 11
5.300327086550851
 21
20.31580210443875
 31
0.0
  0
ARC
  5
1FD3
330
1F
100
AcDbEntity
  8
0
  6
HIDDEN
 62
     8
100
AcDbCircle
 10
4.218598299568043
 20
20.17435317022926
 30
0.0
 40
0.1875
100
AcDbArc
 50
359.9999997996
 51
87.55324701879997
  0
LINE
  5
1FD4
330
1F
100
AcDbEntity
  8
0
  6
HIDDEN
 62
     8
100
AcDbLine
 10
5.479808263130237
 20
20.11063289345509
 30
0.0
 11
5.479808263130237
 21
20.12847365345511
 31
0.0
  0
ARC
  5
1FD5
330
1F
100
AcDbEntity
  8
0
  6
HIDDEN
 62
     8
100
AcDbCircle
 10
5.745730234330224
 20
19.74563289345508
 30
0.0
 40
0.1875
100
AcDbArc
 50
8.177439432439468
 51
90.00020191930017
  0
LINE
  5
1FD6
330
1F
100
AcDbEntity
  8
0
  6
HIDDEN
 62
     8
100
AcDbLine
 10
5.74572957355086
 20
19.93313289345392
 30
0.0
 11
5.657308263130246
 21
19.93313289345509
 31
0.0
  0
ARC
  5
1FD7
330
1F
100
AcDbEntity
  8
0
  6
HIDDEN
 62
     8
100
AcDbCircle
 10
5.657308263130246
 20
20.11063289345509
 30
0.0
 40
0.1775
100
AcDbArc
 50
179.9999998886999
 51
270.0
  0
ARC
  5
1FD8
330
1F
100
AcDbEntity
  8
0
  6
HIDDEN
 62
     8
100
AcDbCircle
 10
5.292308267930323
 20
20.12847365345511
 30
0.0
 40
0.1875
100
AcDbArc
 50
359.9999997996
 51
87.55324701879997
  0
ARC
  5
1FD9
330
1F
100
AcDbEntity
  8
0
  6
HIDDEN
 62
     8
100
AcDbCircle
 10
4.583598294767966
 20
20.15651241022924
 30
0.0
 40
0.1775
100
AcDbArc
 50
179.9999998886999
 51
270.0
  0
ARC
  5
1FDA
330
1F
100
AcDbEntity
  8
0
  6
HIDDEN
 62
     8
100
AcDbCircle
 10
4.672020265967944
 20
19.79151241022923
 30
0.0
 40
0.1875
100
AcDbArc
 50
8.177439432441607
 51
90.00020191930017
  0
LINE
  5
1FDB
330
1F
100
AcDbEntity
  8
0
  6
HIDDEN
 62
     8
100
AcDbLine
 10
4.67201960518858
 20
19.97901241022807
 30
0.0
 11
4.583598294767966
 21
19.97901241022924
 31
0.0
  0
LINE
  5
1FDC
330
1F
100
AcDbEntity
  8
0
  6
HIDDEN
 62
     8
100
AcDbLine
 10
4.406098294767957
 20
20.15651241022924
 30
0.0
 11
4.406098294767957
 21
20.17435317022926
 31
0.0
  0
LINE
  5
1FDD
330
1F
100
AcDbEntity
  8
0
  6
HIDDEN
 62
     8
100
AcDbLine
 10
7.423989758957887
 20
9.384947567999994
 30
0.0
 11
5.931323793430564
 21
19.77230274198246
 31
0.0
  0
LINE
  5
1FDE
330
1F
100
AcDbEntity
  8
0
  6
HIDDEN
 62
     8
100
AcDbLine
 10
5.032661939757886
 20
18.60003500959999
 30
0.0
 11
4.85761382506827
 21
19.81818225875661
 31
0.0
  0
ARC
  5
1FDF
330
1F
100
AcDbEntity
  8
0
  6
HIDDEN
 62
     8
100
AcDbCircle
 10
1.548440000000027
 20
20.23243999999999
 30
0.0
 40
0.3675950096
100
AcDbArc
 50
50.26467125730023
 51
90.0
  0
ARC
  5
1FE0
330
1F
100
AcDbEntity
  8
0
  6
HIDDEN
 62
     8
100
AcDbCircle
 10
1.903280108800117
 20
20.65931114239997
 30
0.0
 40
0.1875
100
AcDbArc
 50
230.2646697199002
 51
267.5532427178997
  0
LINE
  5
1FEF
330
1F
100
AcDbEntity
  8
CENTER
100
AcDbLine
 10
9.579287199618896
 20
17.29033645897548
 30
0.0
 11
1.303418573799213
 21
16.12723897480153
 31
0.0
  0
ENDSEC
  0
SECTION
  2
OBJECTS
  0
DICTIONARY
  5
C
330
0
100
AcDbDictionary
  3
ACAD_GROUP
350
D
  3
ACAD_LAYOUT
350
1A
  3
ACAD_MLINESTYLE
350
17
  3
ACAD_PLOTSETTINGS
350
19
  3
ACAD_PLOTSTYLENAME
350
E
  3
ACDBHEADERROUNDTRIPXREC
350
2007
  0
DICTIONARY
  5
1C78
330
1F
100
AcDbDictionary
280
     1
  3
ACAD_LAYOUTSELFREF
360
2029
  0
DICTIONARY
  5
1C76
330
1B
100
AcDbDictionary
280
     1
  3
ACAD_LAYOUTSELFREF
360
2028
  0
DICTIONARY
  5
D
102
{ACAD_REACTORS
330
C
102
}
330
C
100
AcDbDictionary
  0
DICTIONARY
  5
1A
102
{ACAD_REACTORS
330
C
102
}
330
C
100
AcDbDictionary
  0
DICTIONARY
  5
17
102
{ACAD_REACTORS
330
C
102
}
330
C
100
AcDbDictionary
  3
STANDARD
350
18
  0
DICTIONARY
  5
19
102
{ACAD_REACTORS
330
C
102
}
330
C
100
AcDbDictionary
  0
ACDBDICTIONARYWDFLT
  5
E
102
{ACAD_REACTORS
330
C
102
}
330
C
100
AcDbDictionary
281
     1
  3
Normal
350
F
100
AcDbDictionaryWithDefault
340
F
  0
DICTIONARY
  5
2007
102
{ACAD_REACTORS
330
C
102
}
330
C
100
AcDbDictionary
  3
CEPSNTYPE
350
2011
  3
DIMSTYLEDATA
350
2015
  3
FINGERPRINTGUID
350
2012
  3
HYPERLINKBASE
350
200A
  3
INSUNITS
350
2010
  3
LAYOUTDICT
350
200C
  3
LWETCUNION
350
200F
  3
PLOTSETDICT
350
200D
  3
PLOTSTYLNAMDICT
350
200E
  3
PSVPSCALE
350
2014
  3
PUCSBASE
350
2018
  3
PUCSORGBACK
350
201E
  3
PUCSORGBOTTOM
350
201A
  3
PUCSORGFRONT
350
201D
  3
PUCSORGLEFT
350
201B
  3
PUCSORGRIGHT
350
201C
  3
PUCSORGTOP
350
2019
  3
PUCSORTHOREF
350
2016
  3
PUCSORTHOVIEW
350
2017
  3
STYLESHEET
350
200B
  3
TSTACKALIGN
350
2008
  3
TSTACKSIZE
350
2009
  3
UCSBASE
350
2021
  3
UCSORGBACK
350
2027
  3
UCSORGBOTTOM
350
2023
  3
UCSORGFRONT
350
2026
  3
UCSORGLEFT
350
2024
  3
UCSORGRIGHT
350
2025
  3
UCSORGTOP
350
2022
  3
UCSORTHOREF
350
201F
  3
UCSORTHOVIEW
350
2020
  3
VERSIONGUID
350
2013
  0
XRECORD
  5
2029
102
{ACAD_REACTORS
330
1C78
102
}
330
1C78
100
AcDbXrecord
340
1F
  0
XRECORD
  5
2028
102
{ACAD_REACTORS
330
1C76
102
}
330
1C76
100
AcDbXrecord
340
1B
  0
MLINESTYLE
  5
18
102
{ACAD_REACTORS
330
17
102
}
330
17
100
AcDbMlineStyle
  2
STANDARD
 70
     0
  3

 62
   256
 51
90.0
 52
90.0
 71
     2
 49
0.5
 62
   256
  6
BYLAYER
 49
-0.5
 62
   256
  6
BYLAYER
  0
ACDBPLACEHOLDER
  5
F
102
{ACAD_REACTORS
330
E
102
}
330
0
100
AcDbPlaceHolder
280
     0
  0
XRECORD
  5
2011
102
{ACAD_REACTORS
330
2007
102
}
330
2007
100
AcDbXrecord
 90
        0
  0
XRECORD
  5
2015
102
{ACAD_REACTORS
330
2007
102
}
330
2007
100
AcDbXrecord
1000
DSTYLE
1002
{
1070
   278
 70
     0
1070
   342
340
220
1070
   371
 70
     0
1070
   372
 70
     0
1002
}
  0
XRECORD
  5
2012
102
{ACAD_REACTORS
330
2007
102
}
330
2007
100
AcDbXrecord
  1

  0
XRECORD
  5
200A
102
{ACAD_REACTORS
330
2007
102
}
330
2007
100
AcDbXrecord
  1

  0
XRECORD
  5
2010
102
{ACAD_REACTORS
330
2007
102
}
330
2007
100
AcDbXrecord
 90
        1
  0
XRECORD
  5
200C
102
{ACAD_REACTORS
330
2007
102
}
330
2007
100
AcDbXrecord
340
1A
  0
XRECORD
  5
200F
102
{ACAD_REACTORS
330
2007
102
}
330
2007
100
AcDbXrecord
 90
    10781
  0
XRECORD
  5
200D
102
{ACAD_REACTORS
330
2007
102
}
330
2007
100
AcDbXrecord
340
19
  0
XRECORD
  5
200E
102
{ACAD_REACTORS
330
2007
102
}
330
2007
100
AcDbXrecord
340
E
  0
XRECORD
  5
2014
102
{ACAD_REACTORS
330
2007
102
}
330
2007
100
AcDbXrecord
 40
0.0
  0
XRECORD
  5
2018
102
{ACAD_REACTORS
330
2007
102
}
330
2007
100
AcDbXrecord
340
0
  0
XRECORD
  5
201E
102
{ACAD_REACTORS
330
2007
102
}
330
2007
100
AcDbXrecord
 10
0.0
 20
0.0
 30
0.0
  0
XRECORD
  5
201A
102
{ACAD_REACTORS
330
2007
102
}
330
2007
100
AcDbXrecord
 10
0.0
 20
0.0
 30
0.0
  0
XRECORD
  5
201D
102
{ACAD_REACTORS
330
2007
102
}
330
2007
100
AcDbXrecord
 10
0.0
 20
0.0
 30
0.0
  0
XRECORD
  5
201B
102
{ACAD_REACTORS
330
2007
102
}
330
2007
100
AcDbXrecord
 10
0.0
 20
0.0
 30
0.0
  0
XRECORD
  5
201C
102
{ACAD_REACTORS
330
2007
102
}
330
2007
100
AcDbXrecord
 10
0.0
 20
0.0
 30
0.0
  0
XRECORD
  5
2019
102
{ACAD_REACTORS
330
2007
102
}
330
2007
100
AcDbXrecord
 10
0.0
 20
0.0
 30
0.0
  0
XRECORD
  5
2016
102
{ACAD_REACTORS
330
2007
102
}
330
2007
100
AcDbXrecord
340
0
  0
XRECORD
  5
2017
102
{ACAD_REACTORS
330
2007
102
}
330
2007
100
AcDbXrecord
 70
     0
  0
XRECORD
  5
200B
102
{ACAD_REACTORS
330
2007
102
}
330
2007
100
AcDbXrecord
  1

  0
XRECORD
  5
2008
102
{ACAD_REACTORS
330
2007
102
}
330
2007
100
AcDbXrecord
 90
        1
  0
XRECORD
  5
2009
102
{ACAD_REACTORS
330
2007
102
}
330
2007
100
AcDbXrecord
 90
       70
  0
XRECORD
  5
2021
102
{ACAD_REACTORS
330
2007
102
}
330
2007
100
AcDbXrecord
340
0
  0
XRECORD
  5
2027
102
{ACAD_REACTORS
330
2007
102
}
330
2007
100
AcDbXrecord
 10
0.0
 20
0.0
 30
0.0
  0
XRECORD
  5
2023
102
{ACAD_REACTORS
330
2007
102
}
330
2007
100
AcDbXrecord
 10
0.0
 20
0.0
 30
0.0
  0
XRECORD
  5
2026
102
{ACAD_REACTORS
330
2007
102
}
330
2007
100
AcDbXrecord
 10
0.0
 20
0.0
 30
0.0
  0
XRECORD
  5
2024
102
{ACAD_REACTORS
330
2007
102
}
330
2007
100
AcDbXrecord
 10
0.0
 20
0.0
 30
0.0
  0
XRECORD
  5
2025
102
{ACAD_REACTORS
330
2007
102
}
330
2007
100
AcDbXrecord
 10
0.0
 20
0.0
 30
0.0
  0
XRECORD
  5
2022
102
{ACAD_REACTORS
330
2007
102
}
330
2007
100
AcDbXrecord
 10
0.0
 20
0.0
 30
0.0
  0
XRECORD
  5
201F
102
{ACAD_REACTORS
330
2007
102
}
330
2007
100
AcDbXrecord
340
0
  0
XRECORD
  5
2020
102
{ACAD_REACTORS
330
2007
102
}
330
2007
100
AcDbXrecord
 70
     0
  0
XRECORD
  5
2013
102
{ACAD_REACTORS
330
2007
102
}
330
2007
100
AcDbXrecord
  1
{E21E5CBD-54EB-40AF-9DFE-8C86DADB632B}
  0
ENDSEC
  0
EOF
