  0
SECTION
  2
HEADER
  9
$ACADVER
  1
AC1014
  9
$ACADMAINTVER
 70
     9
  9
$DWGCODEPAGE
  3
ANSI_1252
  9
$INSBASE
 10
0.0
 20
0.0
 30
0.0
  9
$EXTMIN
 10
-35.92389562100311
 20
-2.217178759750368
 30
-0.0015258207003583
  9
$EXTMAX
 10
35.92039008164528
 20
43.9637884833603
 30
0.0000000349246037
  9
$LIMMIN
 10
0.0
 20
0.0
  9
$LIMMAX
 10
17.0
 20
11.0
  9
$ORTHOMODE
 70
     1
  9
$REGENMODE
 70
     1
  9
$FILLMODE
 70
     1
  9
$QTEXTMODE
 70
     0
  9
$MIRRTEXT
 70
     1
  9
$DRAGMODE
 70
     2
  9
$LTSCALE
 40
0.9350000000000001
  9
$OSMODE
 70
    37
  9
$ATTMODE
 70
     1
  9
$TEXTSIZE
 40
0.2
  9
$TRACEWID
 40
0.05
  9
$TEXTSTYLE
  7
STANDARD
  9
$CLAYER
  8
0
  9
$CELTYPE
  6
BYLAYER
  9
$CECOLOR
 62
   256
  9
$CELTSCALE
 40
1.0
  9
$DELOBJ
 70
     1
  9
$DISPSILH
 70
     0
  9
$DIMSCALE
 40
1.0
  9
$DIMASZ
 40
0.1875
  9
$DIMEXO
 40
0.10625
  9
$DIMDLI
 40
0.646
  9
$DIMRND
 40
0.0
  9
$DIMDLE
 40
0.0
  9
$DIMEXE
 40
0.306
  9
$DIMTP
 40
0.0
  9
$DIMTM
 40
0.0
  9
$DIMTXT
 40
0.125
  9
$DIMCEN
 40
0.153
  9
$DIMTSZ
 40
0.0
  9
$DIMTOL
 70
     0
  9
$DIMLIM
 70
     0
  9
$DIMTIH
 70
     1
  9
$DIMTOH
 70
     1
  9
$DIMSE1
 70
     0
  9
$DIMSE2
 70
     0
  9
$DIMTAD
 70
     0
  9
$DIMZIN
 70
     0
  9
$DIMBLK
  1
_FILLED
  9
$DIMASO
 70
     1
  9
$DIMSHO
 70
     1
  9
$DIMPOST
  1

  9
$DIMAPOST
  1

  9
$DIMALT
 70
     0
  9
$DIMALTD
 70
     2
  9
$DIMALTF
 40
25.4
  9
$DIMLFAC
 40
1.0
  9
$DIMTOFL
 70
     0
  9
$DIMTVP
 40
0.0
  9
$DIMTIX
 70
     0
  9
$DIMSOXD
 70
     0
  9
$DIMSAH
 70
     0
  9
$DIMBLK1
  1

  9
$DIMBLK2
  1

  9
$DIMSTYLE
  2
STANDARD
  9
$DIMCLRD
 70
     0
  9
$DIMCLRE
 70
     0
  9
$DIMCLRT
 70
     0
  9
$DIMTFAC
 40
1.0
  9
$DIMGAP
 40
0.09
  9
$DIMJUST
 70
     0
  9
$DIMSD1
 70
     0
  9
$DIMSD2
 70
     0
  9
$DIMTOLJ
 70
     1
  9
$DIMTZIN
 70
     0
  9
$DIMALTZ
 70
     0
  9
$DIMALTTZ
 70
     0
  9
$DIMFIT
 70
     3
  9
$DIMUPT
 70
     0
  9
$DIMUNIT
 70
     2
  9
$DIMDEC
 70
     4
  9
$DIMTDEC
 70
     4
  9
$DIMALTU
 70
     2
  9
$DIMALTTD
 70
     2
  9
$DIMTXSTY
  7
STANDARD
  9
$DIMAUNIT
 70
     0
  9
$LUNITS
 70
     2
  9
$LUPREC
 70
     4
  9
$SKETCHINC
 40
0.1
  9
$FILLETRAD
 40
0.0
  9
$AUNITS
 70
     0
  9
$AUPREC
 70
     0
  9
$MENU
  1
acad
  9
$ELEVATION
 40
0.0
  9
$PELEVATION
 40
0.0
  9
$THICKNESS
 40
0.0
  9
$LIMCHECK
 70
     0
  9
$BLIPMODE
 70
     0
  9
$CHAMFERA
 40
0.0
  9
$CHAMFERB
 40
0.0
  9
$CHAMFERC
 40
0.0
  9
$CHAMFERD
 40
0.0
  9
$SKPOLY
 70
     0
  9
$TDCREATE
 40
2454026.433579861
  9
$TDUPDATE
 40
2454085.382253599
  9
$TDINDWG
 40
0.0660185764
  9
$TDUSRTIMER
 40
0.0660185764
  9
$USRTIMER
 70
     1
  9
$ANGBASE
 50
0.0
  9
$ANGDIR
 70
     0
  9
$PDMODE
 70
     3
  9
$PDSIZE
 40
0.03125
  9
$PLINEWID
 40
0.0
  9
$COORDS
 70
     2
  9
$SPLFRAME
 70
     0
  9
$SPLINETYPE
 70
     6
  9
$SPLINESEGS
 70
     8
  9
$ATTDIA
 70
     0
  9
$ATTREQ
 70
     1
  9
$HANDLING
 70
-16383
  9
$HANDSEED
  5
2384
  9
$SURFTAB1
 70
     6
  9
$SURFTAB2
 70
     6
  9
$SURFTYPE
 70
     6
  9
$SURFU
 70
     6
  9
$SURFV
 70
     6
  9
$UCSNAME
  2

  9
$UCSORG
 10
0.0
 20
0.0
 30
0.0
  9
$UCSXDIR
 10
1.0
 20
0.0
 30
0.0
  9
$UCSYDIR
 10
0.0
 20
1.0
 30
0.0
  9
$PUCSNAME
  2

  9
$PUCSORG
 10
0.0
 20
0.0
 30
0.0
  9
$PUCSXDIR
 10
1.0
 20
0.0
 30
0.0
  9
$PUCSYDIR
 10
0.0
 20
1.0
 30
0.0
  9
$USERI1
 70
     0
  9
$USERI2
 70
     0
  9
$USERI3
 70
     0
  9
$USERI4
 70
     0
  9
$USERI5
 70
     0
  9
$USERR1
 40
0.0
  9
$USERR2
 40
0.0
  9
$USERR3
 40
0.0
  9
$USERR4
 40
0.0
  9
$USERR5
 40
0.0
  9
$WORLDVIEW
 70
     1
  9
$SHADEDGE
 70
     3
  9
$SHADEDIF
 70
    70
  9
$TILEMODE
 70
     1
  9
$MAXACTVP
 70
    16
  9
$PINSBASE
 10
0.0
 20
0.0
 30
0.0
  9
$PLIMCHECK
 70
     0
  9
$PEXTMIN
 10
1.09999997597041
 20
0.850000036044384
 30
0.0
  9
$PEXTMAX
 10
9.899999783733697
 20
7.650000324399452
 30
0.0
  9
$PLIMMIN
 10
0.0
 20
0.0
  9
$PLIMMAX
 10
10.9999997597041
 20
8.500000360443836
  9
$UNITMODE
 70
     0
  9
$VISRETAIN
 70
     0
  9
$PLINEGEN
 70
     1
  9
$PSLTSCALE
 70
     0
  9
$TREEDEPTH
 70
  3020
  9
$PICKSTYLE
 70
     1
  9
$CMLSTYLE
  2
STANDARD
  9
$CMLJUST
 70
     0
  9
$CMLSCALE
 40
1.0
  9
$PROXYGRAPHICS
 70
     0
  9
$MEASUREMENT
 70
     0
  0
ENDSEC
  0
SECTION
  2
CLASSES
  0
CLASS
  1
ACDBDICTIONARYWDFLT
  2
AcDbDictionaryWithDefault
  3
AutoCAD 2000
 90
        0
280
     0
281
     0
  0
CLASS
  1
ACDBPLACEHOLDER
  2
AcDbPlaceHolder
  3
AutoCAD 2000
 90
        0
280
     0
281
     0
  0
CLASS
  1
LAYOUT
  2
AcDbLayout
  3
AutoCAD 2000
 90
        0
280
     0
281
     0
  0
CLASS
  1
LWPOLYLINE
  2
AcDbPolyline
  3
AutoCAD 2000
 90
        0
280
     0
281
     1
  0
CLASS
  1
IMAGE
  2
AcDbRasterImage
  3
ISM
 90
      127
280
     0
281
     1
  0
CLASS
  1
OLE2FRAME
  2
AcDbOle2Frame
  3
AutoCAD 2000
 90
        0
280
     0
281
     1
  0
CLASS
  1
HATCH
  2
AcDbHatch
  3
AutoCAD 2000
 90
        0
280
     0
281
     1
  0
CLASS
  1
DICTIONARYVAR
  2
AcDbDictionaryVar
  3
AutoCAD 2000
 90
        0
280
     0
281
     0
  0
CLASS
  1
RASTERVARIABLES
  2
AcDbRasterVariables
  3
ISM
 90
        0
280
     0
281
     0
  0
CLASS
  1
IMAGEDEF
  2
AcDbRasterImageDef
  3
ISM
 90
        0
280
     0
281
     0
  0
CLASS
  1
IMAGEDEF_REACTOR
  2
AcDbRasterImageDefReactor
  3
ISM
 90
        1
280
     0
281
     0
  0
CLASS
  1
IDBUFFER
  2
AcDbIdBuffer
  3
AutoCAD 2000
 90
        0
280
     0
281
     0
  0
CLASS
  1
SPATIAL_FILTER
  2
AcDbSpatialFilter
  3
AutoCAD 2000
 90
        0
280
     0
281
     0
  0
CLASS
  1
XRECORD
  2
AcDbXrecord
  3
AutoCAD 2000
 90
        0
280
     0
281
     0
  0
CLASS
  1
SORTENTSTABLE
  2
AcDbSortentsTable
  3
AutoCAD 2000
 90
        0
280
     0
281
     0
  0
CLASS
  1
LAYER_INDEX
  2
AcDbLayerIndex
  3
AutoCAD 2000
 90
        0
280
     0
281
     0
  0
CLASS
  1
SPATIAL_INDEX
  2
AcDbSpatialIndex
  3
AutoCAD 2000
 90
        0
280
     0
281
     0
  0
CLASS
  1
OBJECT_PTR
  2
CAseDLPNTableRecord
  3
ASE-LPNTableRecord
 90
        1
280
     0
281
     0
  0
CLASS
  1
PLOTSETTINGS
  2
AcDbPlotSettings
  3
AutoCAD 2000
 90
        0
280
     0
281
     0
  0
CLASS
  1
VBA_PROJECT
  2
AcDbVbaProject
  3
acadvba
 90
        0
280
     0
281
     0
  0
CLASS
  1
WIPEOUT
  2
AcDbWipeout
  3
WipeOut|AutoCAD Express Tool|expresstools@autodesk.com
 90
      127
280
     0
281
     1
  0
CLASS
  1
WIPEOUTVARIABLES
  2
AcDbWipeoutVariables
  3
WipeOut|AutoCAD Express Tool|expresstools@autodesk.com
 90
        0
280
     0
281
     0
  0
CLASS
  1
RTEXT
  2
RText
  3
RText|AutoCAD Express Tool|expresstools@autodesk.com
 90
        0
280
     0
281
     1
  0
CLASS
  1
ARCALIGNEDTEXT
  2
AcDbArcAlignedText
  3
ATEXT|AutoCAD Express Tool|expresstools@autodesk.com
 90
        0
280
     0
281
     1
  0
CLASS
  1
LONG_TRANSACTION
  2
AcDbLongTransaction
  3
AutoCAD 2000
 90
        0
280
     0
281
     0
  0
CLASS
  1
LWPOLYLINE
  2
AcDbPolyline
  3
AutoCAD 2000
 90
        0
280
     0
281
     1
  0
CLASS
  1
HATCH
  2
AcDbHatch
  3
AutoCAD 2000
 90
        0
280
     0
281
     1
  0
CLASS
  1
XRECORD
  2
AcDbXrecord
  3
AutoCAD 2000
 90
        0
280
     0
281
     0
  0
CLASS
  1
LONG_TRANSACTION
  2
AcDbLongTransaction
  3
AutoCAD 2000
 90
        0
280
     0
281
     0
  0
CLASS
  1
LWPOLYLINE
  2
AcDbPolyline
  3
AutoCAD 2000
 90
        0
280
     0
281
     1
  0
CLASS
  1
HATCH
  2
AcDbHatch
  3
AutoCAD 2000
 90
        0
280
     0
281
     1
  0
CLASS
  1
XRECORD
  2
AcDbXrecord
  3
AutoCAD 2000
 90
        0
280
     0
281
     0
  0
CLASS
  1
LONG_TRANSACTION
  2
AcDbLongTransaction
  3
AutoCAD 2000
 90
        0
280
     0
281
     0
  0
CLASS
  1
LWPOLYLINE
  2
AcDbPolyline
  3
AutoCAD 2000
 90
        0
280
     0
281
     1
  0
CLASS
  1
HATCH
  2
AcDbHatch
  3
AutoCAD 2000
 90
        0
280
     0
281
     1
  0
CLASS
  1
XRECORD
  2
AcDbXrecord
  3
AutoCAD 2000
 90
        0
280
     0
281
     0
  0
CLASS
  1
LONG_TRANSACTION
  2
AcDbLongTransaction
  3
AutoCAD 2000
 90
        0
280
     0
281
     0
  0
CLASS
  1
LWPOLYLINE
  2
AcDbPolyline
  3
AutoCAD 2000
 90
        0
280
     0
281
     1
  0
CLASS
  1
HATCH
  2
AcDbHatch
  3
AutoCAD 2000
 90
        0
280
     0
281
     1
  0
CLASS
  1
XRECORD
  2
AcDbXrecord
  3
AutoCAD 2000
 90
        0
280
     0
281
     0
  0
CLASS
  1
LONG_TRANSACTION
  2
AcDbLongTransaction
  3
AutoCAD 2000
 90
        0
280
     0
281
     0
  0
CLASS
  1
LWPOLYLINE
  2
AcDbPolyline
  3
AutoCAD 2000
 90
        0
280
     0
281
     1
  0
CLASS
  1
HATCH
  2
AcDbHatch
  3
AutoCAD 2000
 90
        0
280
     0
281
     1
  0
CLASS
  1
XRECORD
  2
AcDbXrecord
  3
AutoCAD 2000
 90
        0
280
     0
281
     0
  0
ENDSEC
  0
SECTION
  2
TABLES
  0
TABLE
  2
VPORT
  5
8
330
0
100
AcDbSymbolTable
 70
     3
  0
VPORT
  5
2360
330
8
100
AcDbSymbolTableRecord
100
AcDbViewportTableRecord
  2
*ACTIVE
 70
     0
 10
0.0
 20
0.0
 11
1.0
 21
1.0
 12
-0.0017527696789204
 22
20.87330486180496
 13
0.0
 23
0.0
 14
1.0
 24
1.0
 15
0.0
 25
0.0
 16
0.0
 26
0.0
 36
1.0
 17
0.0
 27
0.0
 37
0.0
 40
46.64124266413835
 41
1.745424292845257
 42
50.0
 43
0.0
 44
0.0
 50
0.0
 51
0.0
 71
     0
 72
   100
 73
     1
 74
     1
 75
     0
 76
     0
 77
     0
 78
     0
  0
ENDTAB
  0
TABLE
  2
LTYPE
  5
5
330
0
100
AcDbSymbolTable
 70
     2
  0
LTYPE
  5
14
330
5
100
AcDbSymbolTableRecord
100
AcDbLinetypeTableRecord
  2
BYBLOCK
 70
     0
  3

 72
    65
 73
     0
 40
0.0
  0
LTYPE
  5
15
330
5
100
AcDbSymbolTableRecord
100
AcDbLinetypeTableRecord
  2
BYLAYER
 70
     0
  3

 72
    65
 73
     0
 40
0.0
  0
LTYPE
  5
16
330
5
100
AcDbSymbolTableRecord
100
AcDbLinetypeTableRecord
  2
CONTINUOUS
 70
     0
  3
Solid line
 72
    65
 73
     0
 40
0.0
  0
LTYPE
  5
1295
330
5
100
AcDbSymbolTableRecord
100
AcDbLinetypeTableRecord
  2
CENTERX2
 70
     0
  3
Center (2x) ________  __  ________  __  _____
 72
    65
 73
     4
 40
4.0
 49
2.5
 74
     0
 49
-0.5
 74
     0
 49
0.5
 74
     0
 49
-0.5
 74
     0
  0
ENDTAB
  0
TABLE
  2
LAYER
  5
2
330
0
100
AcDbSymbolTable
 70
     2
  0
LAYER
  5
10
330
2
100
AcDbSymbolTableRecord
100
AcDbLayerTableRecord
  2
0
 70
     0
 62
     7
  6
CONTINUOUS
  0
LAYER
  5
B09
330
2
100
AcDbSymbolTableRecord
100
AcDbLayerTableRecord
  2
CENTER
 70
     0
 62
     1
  6
CENTERX2
  0
ENDTAB
  0
TABLE
  2
STYLE
  5
3
330
0
100
AcDbSymbolTable
 70
     2
  0
STYLE
  5
11
330
3
100
AcDbSymbolTableRecord
100
AcDbTextStyleTableRecord
  2
STANDARD
 70
     0
 40
0.0
 41
0.8
 50
0.0
 71
     0
 42
0.2
  3
txt
  4

  0
STYLE
  5
21B
330
3
100
AcDbSymbolTableRecord
100
AcDbTextStyleTableRecord
  2
TEXTSTYLE_1
 70
     0
 40
0.0
 41
0.8
 50
0.0
 71
     0
 42
0.2
  3
txt
  4

  0
ENDTAB
  0
TABLE
  2
VIEW
  5
6
330
0
100
AcDbSymbolTable
 70
     0
  0
ENDTAB
  0
TABLE
  2
UCS
  5
7
330
0
100
AcDbSymbolTable
 70
     0
  0
ENDTAB
  0
TABLE
  2
APPID
  5
9
330
0
100
AcDbSymbolTable
 70
     2
  0
APPID
  5
21F
330
9
100
AcDbSymbolTableRecord
100
AcDbRegAppTableRecord
  2
ACAD
 70
     0
  0
APPID
  5
AFF
330
9
100
AcDbSymbolTableRecord
100
AcDbRegAppTableRecord
  2
DCO15
 70
     0
  0
ENDTAB
  0
TABLE
  2
DIMSTYLE
  5
A
330
0
100
AcDbSymbolTable
 70
     1
  0
DIMSTYLE
105
240
330
A
100
AcDbSymbolTableRecord
100
AcDbDimStyleTableRecord
  2
STANDARD
 70
     0
  3

  4

  5
_FILLED
  6
_FILLED
  7
_FILLED
 40
1.0
 41
0.1875
 42
0.0625
 43
0.38
 44
0.18
 45
0.0
 46
0.0
 47
0.00001
 48
0.00001
140
0.125
141
0.09
142
0.0
143
25.4
144
1.0
145
0.0
146
1.0
147
0.09
 71
     0
 72
     0
 73
     1
 74
     1
 75
     0
 76
     0
 77
     0
 78
     4
170
     0
171
     2
172
     0
173
     0
174
     0
175
     0
176
     0
177
     0
178
     0
270
     2
271
     5
272
     5
273
     2
274
     2
340
11
275
     0
280
     0
281
     0
282
     0
283
     1
284
     4
285
     0
286
     0
287
     3
288
     0
  0
ENDTAB
  0
TABLE
  2
BLOCK_RECORD
  5
1
330
0
100
AcDbSymbolTable
 70
     1
  0
BLOCK_RECORD
  5
1F
102
{ACAD_XDICTIONARY
360
1C43
102
}
330
1
100
AcDbSymbolTableRecord
100
AcDbBlockTableRecord
  2
*MODEL_SPACE
  0
BLOCK_RECORD
  5
1B
102
{ACAD_XDICTIONARY
360
1C41
102
}
330
1
100
AcDbSymbolTableRecord
100
AcDbBlockTableRecord
  2
*PAPER_SPACE
  0
BLOCK_RECORD
  5
220
330
1
100
AcDbSymbolTableRecord
100
AcDbBlockTableRecord
  2
_FILLED
  0
ENDTAB
  0
ENDSEC
  0
SECTION
  2
BLOCKS
  0
BLOCK
  5
20
330
1F
100
AcDbEntity
  8
0
100
AcDbBlockBegin
  2
*MODEL_SPACE
 70
     0
 10
0.0
 20
0.0
 30
0.0
  3
*MODEL_SPACE
  1

  0
ENDBLK
  5
21
330
1F
100
AcDbEntity
  8
0
100
AcDbBlockEnd
  0
BLOCK
  5
1C
330
1B
100
AcDbEntity
 67
     1
  8
0
100
AcDbBlockBegin
  2
*PAPER_SPACE
 70
     0
 10
0.0
 20
0.0
 30
0.0
  3
*PAPER_SPACE
  1

  0
ENDBLK
  5
1D
330
1B
100
AcDbEntity
 67
     1
  8
0
100
AcDbBlockEnd
  0
BLOCK
  5
442
330
220
100
AcDbEntity
  8
0
100
AcDbBlockBegin
  2
_FILLED
 70
     0
 10
0.0
 20
0.0
 30
0.0
  3
_FILLED
  1

  0
SOLID
  5
443
330
220
100
AcDbEntity
  8
0
  6
BYBLOCK
 62
     0
100
AcDbTrace
 10
0.0
 20
0.0
 30
0.0
 11
-1.0
 21
0.1666666667
 31
0.0
 12
-1.0
 22
-0.1666666667
 32
0.0
 13
-1.0
 23
-0.1666666667
 33
0.0
  0
ENDBLK
  5
444
330
220
100
AcDbEntity
  8
0
  6
BYBLOCK
 62
     0
100
AcDbBlockEnd
  0
ENDSEC
  0
SECTION
  2
ENTITIES
  0
MTEXT
  5
4BB
330
1F
100
AcDbEntity
  8
0
  6
CONTINUOUS
 62
     2
100
AcDbMText
 10
15.84375
 20
2.3125
 30
0.0
 40
0.09375
 41
0.075
 71
     2
 72
     1
  1
 \P \P 
  7
TEXTSTYLE_1
1001
ACAD
1000
MTEXTBEGIN
1070
    73
1070
     1
1070
    44
1040
1.0
1070
    74
1070
     0
1000
MTEXTEND
1000
MTEXTBEGIN
1070
    73
1070
     1
1070
    44
1040
1.0
1070
    74
1070
     0
1000
MTEXTEND
1000
MTEXTBEGIN
1070
    73
1070
     1
1070
    44
1040
1.0
1070
    74
1070
     0
1000
MTEXTEND
1000
MTEXTBEGIN
1070
    73
1070
     1
1070
    44
1040
1.0
1070
    74
1070
     0
1000
MTEXTEND
1000
MTEXTBEGIN
1070
    73
1070
     1
1070
    44
1040
1.0
1070
    74
1070
     0
1000
MTEXTEND
  0
LWPOLYLINE
  5
21F7
330
1F
100
AcDbEntity
  8
0
100
AcDbPolyline
 90
       24
 70
     0
 43
0.0
 10
28.30666837280034
 20
11.41796513919996
 10
27.91499779360049
 20
10.85320177120002
 10
27.49491156800047
 20
10.30518373280006
 10
27.04803877280039
 20
9.776417268800059
 10
26.5762462352003
 20
9.269271844799959
 10
26.08163784000032
 20
8.78596721919996
 10
25.5653215744004
 20
8.327509211199981
 10
25.02705464160033
 20
7.893697627200026
 10
24.4671879296003
 20
7.484856172799936
 10
23.88746174240043
 20
7.102394534399991
 10
23.2912359328003
 20
6.748498108800049
 10
22.68077944960043
 20
6.424302656000008
 10
22.05726820800043
 20
6.130262435199938
 10
21.42109333120049
 20
5.866406214400058
 10
20.77374269760036
 20
5.633217736000005
 10
20.11741583360037
 20
5.431394006399955
 10
19.45449165120033
 20
5.261497116800001
 10
18.78564144640051
 20
5.123544851199994
 10
18.11079913920036
 20
5.01751051680003
 10
17.43065568000031
 20
4.943555007999975
 10
16.7462129072004
 20
4.901909404799994
 10
16.05868999680035
 20
4.892854459199952
 10
15.36966077920044
 20
4.916554638400043
 10
14.68081283040044
 20
4.973091003200011
  0
LWPOLYLINE
  5
21F8
330
1F
100
AcDbEntity
  8
0
100
AcDbPolyline
 90
       10
 70
     0
 43
0.0
 10
28.65568837440048
 20
11.17226048320003
 10
28.49904995200052
 20
10.93999895039996
 10
28.33728536960041
 20
10.70966920160003
 10
28.1703789632005
 20
10.48136245119997
 10
27.99831109760032
 20
10.25517014399997
 10
27.82105635680034
 20
10.03118087359996
 10
27.63858879520046
 20
9.809488428800023
 10
27.45088219040042
 20
9.590193273599993
 10
27.25790980000045
 20
9.373401363199945
 10
27.05961601280034
 20
9.159193670399986
  0
LWPOLYLINE
  5
21F9
330
1F
100
AcDbEntity
  8
0
100
AcDbPolyline
 90
       25
 70
     0
 43
0.0
 10
-16.86649089119953
 20
10.61907957920004
 10
-16.74056780639955
 20
10.56331898560006
 10
-16.61571060479957
 20
10.50975808639998
 10
-16.49430580159958
 20
10.45930888960003
 10
-16.3759444815995
 20
10.41165536799997
 10
-16.26023660479961
 20
10.3665148128
 10
-16.14698523839968
 20
10.32370214399998
 10
-16.0360022671997
 20
10.28305004959997
 10
-15.92708023679949
 20
10.24439705760005
 10
-15.82003076799958
 20
10.20760112000004
 10
-15.71460674559955
 20
10.17251195519998
 10
-15.61053115039965
 20
10.13898223839998
 10
-15.50772960639949
 20
10.10693964159997
 10
-15.40624222399958
 20
10.07634968000002
 10
-15.30581395519959
 20
10.04709255039995
 10
-15.20570313599967
 20
10.01892417600004
 10
-15.10518419999959
 20
9.991634832000045
 10
-15.00508445119965
 20
9.965441950399963
 10
-14.90610355519959
 20
9.940498108800056
 10
-14.80698284319953
 20
9.916464555200036
 10
-14.70746191199953
 20
9.893278448000046
 10
-14.60794908479954
 20
9.871032393599989
 10
-14.50768688959954
 20
9.849560303999965
 10
-14.40522099999964
 20
9.828584531200021
 10
-14.30002958399961
 20
9.808059348800043
  0
LWPOLYLINE
  5
21FA
330
1F
100
AcDbEntity
  8
0
100
AcDbPolyline
 90
       12
 70
     0
 43
0.0
 10
-14.25892179839968
 20
8.696316448000061
 10
-14.85707043999957
 20
8.781795640000041
 10
-15.4132435647997
 20
8.88862510399997
 10
-15.96511101759949
 20
9.022583039999972
 10
-16.53956691199948
 20
9.191282609599966
 10
-17.1392783295995
 20
9.397775556799956
 10
-17.74821459679958
 20
9.638790483199954
 10
-18.35208593919958
 20
9.909903395199989
 10
-18.93836884799964
 20
10.20577109119994
 10
-19.4969324111995
 20
10.52064716960001
 10
-20.01959174079968
 20
10.84842470559999
 10
-20.50164575999963
 20
11.18391375040005
  0
LWPOLYLINE
  5
21FB
330
1F
100
AcDbEntity
  8
0
100
AcDbPolyline
 90
       19
 70
     0
 43
0.0
 10
-14.47629348799966
 20
6.153919172799987
 10
-15.12013025279964
 20
6.195120881600018
 10
-15.68558913759955
 20
6.258217776000037
 10
-16.18908196319955
 20
6.340101569599937
 10
-16.64284438399965
 20
6.438520761599988
 10
-17.05544711999948
 20
6.551765542400062
 10
-17.43522938879948
 20
6.679197312000042
 10
-17.7887852719997
 20
6.820749222399967
 10
-18.12128957119955
 20
6.976805283199951
 10
-18.44345260319949
 20
7.151769945599994
 10
-18.76369758719954
 20
7.350630395200028
 10
-19.08479101279965
 20
7.576649364800005
 10
-19.41768597279963
 20
7.840288630399982
 10
-19.76465633279951
 20
8.147422788799985
 10
-20.1243263983996
 20
8.501581110400024
 10
-20.49636418239959
 20
8.907775052800047
 10
-20.88050114559962
 20
9.371793875199955
 10
-21.27653581599963
 20
9.900460948799945
 10
-21.68398468319958
 20
10.50129667839996
  0
LWPOLYLINE
  5
21FC
330
1F
100
AcDbEntity
  8
0
100
AcDbPolyline
 90
       19
 70
     0
 43
0.0
 10
14.47629348960037
 20
6.153919172799987
 10
15.12013025440035
 20
6.195120881600018
 10
15.68558913920048
 20
6.258217776000037
 10
16.18908196480049
 20
6.340101569599937
 10
16.64284438560037
 20
6.438520761599988
 10
17.05544712160042
 20
6.551765542400062
 10
17.43522939040042
 20
6.679197312000042
 10
17.78878527360041
 20
6.820749222399967
 10
18.12128957280049
 20
6.976805283199951
 10
18.44345260480042
 20
7.151769945599994
 10
18.76369758880048
 20
7.350630395200028
 10
19.08479101440036
 20
7.576649364800005
 10
19.41768597280031
 20
7.840288630399982
 10
19.76465633280042
 20
8.147422788799985
 10
20.12432640000031
 20
8.501581110400024
 10
20.49636418240049
 20
8.907775052800047
 10
20.88050114720033
 20
9.371793875199955
 10
21.27653581760034
 20
9.900460948799945
 10
21.68398468480029
 20
10.50129667839996
  0
LWPOLYLINE
  5
21FD
330
1F
100
AcDbEntity
  8
0
100
AcDbPolyline
 90
       12
 70
     0
 43
0.0
 10
14.25892180000039
 20
8.696316448000061
 10
14.85707044160051
 20
8.781795640000041
 10
15.41324356640041
 20
8.88862510399997
 10
15.96511101920043
 20
9.022583039999972
 10
16.53956691200039
 20
9.191282609599966
 10
17.13927833120044
 20
9.397775556799956
 10
17.74821459840052
 20
9.638790483199954
 10
18.35208594080052
 20
9.909903395199989
 10
18.93836884960035
 20
10.20577109119994
 10
19.49693241280044
 20
10.52064716960001
 10
20.01959174240039
 20
10.84842470559999
 10
20.50164576160034
 20
11.18391375040005
  0
LWPOLYLINE
  5
21FE
330
1F
100
AcDbEntity
  8
0
100
AcDbPolyline
 90
       25
 70
     0
 43
0.0
 10
14.30002958560032
 20
9.808059348800043
 10
14.40735860480037
 20
9.829012187199964
 10
14.51009611360052
 20
9.850065187200016
 10
14.60968753120039
 20
9.871413035200021
 10
14.70876048480033
 20
9.893574967999938
 10
14.80831814240048
 20
9.91678206719996
 10
14.90725362400041
 20
9.940782476799995
 10
15.00622778400031
 20
9.965735513599952
 10
15.10705051360048
 20
9.992132550400015
 10
15.20683379360036
 20
10.01923695999994
 10
15.30638797920039
 20
10.04725686400002
 10
15.4065720544005
 20
10.07644721600001
 10
15.50795187200049
 20
10.10700767519995
 10
15.61069334720048
 20
10.13903374879998
 10
15.71462155200049
 20
10.17251700960002
 10
15.81969213600052
 20
10.20748670559999
 10
15.92634437120034
 20
10.24413997600004
 10
16.0350471264004
 20
10.2827054736
 10
16.14602148960045
 20
10.32334349920006
 10
16.25942244640043
 20
10.36620228959998
 10
16.37524476160035
 20
10.41137812319993
 10
16.49351672640034
 20
10.45898640480004
 10
16.61445751520034
 20
10.50922962560002
 10
16.73848092000037
 20
10.56240980480004
 10
16.86614815040036
 20
10.61892469919996
  0
LWPOLYLINE
  5
21FF
330
1F
100
AcDbEntity
  8
0
100
AcDbPolyline
 90
       24
 70
     0
 43
0.0
 10
-28.30666837119963
 20
11.41796513919996
 10
-27.91499779199955
 20
10.85320177120002
 10
-27.49491156799956
 20
10.30518373280006
 10
-27.04803877279948
 20
9.776417268800059
 10
-26.57624623519962
 20
9.269271844799959
 10
-26.08163783839961
 20
8.78596721919996
 10
-25.56532157279969
 20
8.327509211199981
 10
-25.02705463999962
 20
7.893697627200026
 10
-24.46718792799959
 20
7.484856172799936
 10
-23.88746174239952
 20
7.102394534399991
 10
-23.29123593119959
 20
6.748498108800049
 10
-22.68077944799949
 20
6.424302656000008
 10
-22.0572682063995
 20
6.130262435199938
 10
-21.42109332959955
 20
5.866406214400058
 10
-20.77374269599965
 20
5.633217736000005
 10
-20.11741583199966
 20
5.431394006399955
 10
-19.45449164959961
 20
5.261497116800001
 10
-18.78564144479958
 20
5.123544851199994
 10
-18.11079913759965
 20
5.01751051680003
 10
-17.4306556783996
 20
4.943555007999975
 10
-16.74621290559969
 20
4.901909404799994
 10
-16.05868999519964
 20
4.892854459199952
 10
-15.3696607775995
 20
4.916554638400043
 10
-14.6808128287995
 20
4.973091003200011
  0
LWPOLYLINE
  5
2200
330
1F
100
AcDbEntity
  8
0
100
AcDbPolyline
 90
       10
 70
     0
 43
0.0
 10
-27.05961601119963
 20
9.159193670399986
 10
-27.25795217439952
 20
9.373448048
 10
-27.45095470879948
 20
9.590276356800018
 10
-27.63867991839958
 20
9.809596999999939
 10
-27.82115524959965
 20
10.03130341279995
 10
-27.99840762559949
 20
10.25529455679998
 10
-28.17046369919955
 20
10.48147607999999
 10
-28.33734960639969
 20
10.70975884799997
 10
-28.49908569759952
 20
10.9400508896
 10
-28.65568837279954
 20
11.17226048320003
  0
LINE
  5
2201
330
1F
100
AcDbEntity
  8
CENTER
100
AcDbLine
 10
0.0000000000003411
 20
3.093177714536608
 30
0.0
 11
0.0000000000003411
 21
16.31578623647922
 31
0.0
  0
LWPOLYLINE
  5
2206
330
1F
100
AcDbEntity
  8
0
100
AcDbPolyline
 90
        6
 70
     0
 43
0.0
 10
-2.817583607999608
 20
7.614677446400037
 10
-3.253744004799614
 20
7.431202593600005
 10
-3.663723807999645
 20
7.200008086399975
 10
-4.041655884799524
 20
6.924311966399955
 10
-4.382118638399674
 20
6.607949041600022
 10
-4.612564364799595
 20
6.343258372799937
  0
LWPOLYLINE
  5
2207
330
1F
100
AcDbEntity
  8
0
100
AcDbPolyline
 90
       10
 70
     0
 43
0.0
 10
4.331180668800357
 20
8.259944767999968
 10
3.424178814400306
 20
8.664811579199977
 10
2.475667795200365
 20
8.972867571200026
 10
1.497275328000455
 20
9.180308358399997
 10
0.5008560048003119
 20
9.284631761599939
 10
-0.5015656495996837
 20
9.284594711999943
 10
-1.497881251199601
 20
9.180212683200011
 10
-2.47606586559948
 20
8.972761068799968
 10
-3.424313443199594
 20
8.664759849600045
 10
-4.331180667199646
 20
8.259944767999968
  0
LWPOLYLINE
  5
2208
330
1F
100
AcDbEntity
  8
0
100
AcDbPolyline
 90
       21
 70
     0
 43
0.0
 10
-2.6779058879996
 20
6.446773057600012
 10
-2.710576692799691
 20
6.452791830399974
 10
-2.743446537599652
 20
6.459683902400001
 10
-2.776509003199521
 20
6.467383502400025
 10
-2.809730846399702
 20
6.475824398399936
 10
-2.843285903999571
 20
6.485001979199978
 10
-2.878168155199659
 20
6.495175119999998
 10
-2.915330977599637
 20
6.506658528000002
 10
-2.9558005343996
 20
6.519848679999995
 10
-3.000785433599617
 20
6.535263667199956
 10
-3.051491129599639
 20
6.553484566400015
 10
-3.109371849599597
 20
6.575244392000058
 10
-3.175857654399692
 20
6.601328299199963
 10
-3.248771825599646
 20
6.631064972800004
 10
-3.323808300799669
 20
6.662691260799988
 10
-3.397533580799631
 20
6.694592633599995
 10
-3.469634476799569
 20
6.7264331824
 10
-3.539951086399582
 20
6.757975796799996
 10
-3.608768566399589
 20
6.789213446400026
 10
-3.677003227199634
 20
6.820460755199974
 10
-3.745637491199545
 20
6.852091227200048
  0
LWPOLYLINE
  5
2209
330
1F
100
AcDbEntity
  8
0
100
AcDbPolyline
 90
       13
 70
     0
 43
0.0
 10
-3.81559899839965
 20
6.522774391999973
 10
-3.715172582399532
 20
6.515724870400049
 10
-3.617006875199535
 20
6.508249043199953
 10
-3.520049734399549
 20
6.500276113599966
 10
-3.423408267199533
 20
6.491724491199988
 10
-3.32836156799965
 20
6.482702588799952
 10
-3.23461228639951
 20
6.473186902400016
 10
-3.14197912959969
 20
6.46315922719998
 10
-3.051406622399667
 20
6.452730012799975
 10
-2.962723233599604
 20
6.441896387200017
 10
-2.875215756799548
 20
6.430579331199965
 10
-2.788675985599525
 20
6.418750382400048
 10
-2.703347228799543
 20
6.406441734400004
  0
LWPOLYLINE
  5
220A
330
1F
100
AcDbEntity
  8
0
100
AcDbPolyline
 90
        5
 70
     0
 43
0.0
 10
0.0000000000003411
 20
5.60624044480005
 10
-0.7668124111995667
 20
5.603334796800027
 10
-1.47696827519951
 20
5.595463993599992
 10
-2.203445857599604
 20
5.58225997759996
 10
-2.988957603199537
 20
5.562118118400007
  0
LWPOLYLINE
  5
220B
330
1F
100
AcDbEntity
  8
0
100
AcDbPolyline
 90
        4
 70
     0
 43
0.0
 10
-2.985384379199672
 20
5.959337507199961
 10
-1.990406657599692
 20
5.983662587200001
 10
-0.995268383999587
 20
5.998258244800013
 10
0.0000000000003411
 20
6.003123999999957
  0
LWPOLYLINE
  5
220D
330
1F
100
AcDbEntity
  8
0
100
AcDbPolyline
 90
       13
 70
     0
 43
0.0
 10
-14.66690170079948
 20
4.577702356800045
 10
-15.51602779519964
 20
4.511934603199961
 10
-16.45656540319953
 20
4.495869758399976
 10
-17.49537337759955
 20
4.547357787199985
 10
-18.64182577439953
 20
4.689423115200042
 10
-19.87603142079967
 20
4.945393374400055
 10
-21.11072521919948
 20
5.314070575999949
 10
-22.33015054399959
 20
5.797682595200058
 10
-23.49976344799949
 20
6.385678876800056
 10
-24.51133003039956
 20
7.005325768000034
 10
-25.36793586239957
 20
7.623010883199981
 10
-26.09459627839953
 20
8.225176755199981
 10
-26.71589710559953
 20
8.806923782399962
  0
LWPOLYLINE
  5
220E
330
1F
100
AcDbEntity
  8
0
100
AcDbPolyline
 90
        4
 70
     0
 43
0.0
 10
-26.71589710559953
 20
8.806923782399962
 10
-26.83167286399964
 20
8.922994257599953
 10
-26.94626318239954
 20
9.04043408480004
 10
-27.05961601119963
 20
9.159193670399986
  0
LWPOLYLINE
  5
2210
330
1F
100
AcDbEntity
  8
0
100
AcDbPolyline
 90
       21
 70
     0
 43
0.0
 10
-14.25892179839968
 20
9.800325560000032
 10
-13.74657218399954
 20
9.707013483199943
 10
-13.21021246239968
 20
9.614313633599977
 10
-12.65253465119951
 20
9.523003049599992
 10
-12.07686957279963
 20
9.433756705599989
 10
-11.49037955839969
 20
9.34757411999999
 10
-10.90323691039964
 20
9.265559791999976
 10
-10.3271509807995
 20
9.188718908799955
 10
-9.776775033599619
 20
9.11821451679998
 10
-9.243900246399675
 20
9.052287967999973
 10
-8.706631225599608
 20
8.987774233600021
 10
-8.15405630559951
 20
8.923125977599966
 10
-7.579512902399642
 20
8.857476340799962
 10
-6.979862324799682
 20
8.790513708800062
 10
-6.375865059199554
 20
8.724657105600044
 10
-5.769704531199636
 20
8.660257507199958
 10
-5.162743942399515
 20
8.597562889599998
 10
-4.625941425599535
 20
8.544149616000026
 10
-4.201298219199657
 20
8.503980940800033
 10
-3.863928361599505
 20
8.474101280000013
 10
-3.853371823999509
 20
8.473233131200004
  0
LWPOLYLINE
  5
2211
330
1F
100
AcDbEntity
  8
0
100
AcDbPolyline
 90
       16
 70
     0
 43
0.0
 10
-5.400264124799491
 20
7.561704644799988
 10
-5.700764441599517
 20
7.668791958399992
 10
-6.218450347199564
 20
7.826245012799972
 10
-6.783097847999556
 20
7.970290512000019
 10
-7.396956271999556
 20
8.100165412800038
 10
-8.060780900799613
 20
8.21458807839997
 10
-8.764268254399553
 20
8.311137518399959
 10
-9.408624108799699
 20
8.380883483200022
 10
-9.983115878399644
 20
8.430465135999952
 10
-10.51229261599962
 20
8.467361417600045
 10
-11.04711733759961
 20
8.497757604799971
 10
-11.59566531679968
 20
8.523882878399945
 10
-12.17020804319952
 20
8.548898947199973
 10
-12.79983847839969
 20
8.578655054399973
 10
-13.52329275039949
 20
8.62473617759997
 10
-14.25892179839968
 20
8.696316454399948
  0
LWPOLYLINE
  5
2212
330
1F
100
AcDbEntity
  8
0
100
AcDbPolyline
 90
       10
 70
     0
 43
0.0
 10
-6.384875956799646
 20
6.548679579199983
 10
-6.469156977599482
 20
6.546392582400017
 10
-7.128057499199599
 20
6.518368524800052
 10
-7.84225303839969
 20
6.478595819199995
 10
-8.620415756799616
 20
6.427132047999975
 10
-9.465811631999599
 20
6.365488222400017
 10
-10.30243472959966
 20
6.302799983999989
 10
-11.11042079839956
 20
6.244951891200003
 10
-11.89261655359962
 20
6.195970819200056
 10
-12.6463084815997
 20
6.159941662400001
  0
LWPOLYLINE
  5
2213
330
1F
100
AcDbEntity
  8
0
100
AcDbPolyline
 90
        5
 70
     0
 43
0.0
 10
-2.988957603199537
 20
5.562118118400007
 10
-5.078196214399554
 20
5.47884872320003
 10
-7.372885118399494
 20
5.337530676800042
 10
-9.886380612799598
 20
5.122577215999967
 10
-12.64726860479947
 20
4.813500334400032
  0
LWPOLYLINE
  5
2214
330
1F
100
AcDbEntity
  8
0
100
AcDbPolyline
 90
       14
 70
     0
 43
0.0
 10
-12.6931166383996
 20
5.202904017599962
 10
-11.44384905759955
 20
5.35152327679998
 10
-10.31842896799969
 20
5.472629310399952
 10
-9.301327308799614
 20
5.571603412799959
 10
-8.379550671999709
 20
5.65266531520001
 10
-7.542171131199552
 20
5.719149033600047
 10
-6.779757511999491
 20
5.773724696000044
 10
-6.084151235199556
 20
5.818540647999952
 10
-5.448634252799706
 20
5.855308929600028
 10
-4.867152623999686
 20
5.885431900799972
 10
-4.333947180799555
 20
5.910072316799983
 10
-3.843686654399675
 20
5.930179614400003
 10
-3.394279719999644
 20
5.946425871999963
 10
-2.985384379199672
 20
5.959337507199961
  0
LWPOLYLINE
  5
2216
330
1F
100
AcDbEntity
  8
0
100
AcDbPolyline
 90
        4
 70
     0
 43
0.0
 10
-14.6808128287995
 20
4.973091003200011
 10
-14.01011164159956
 20
5.046399836799992
 10
-13.34756203039967
 20
5.123101267200013
 10
-12.6931166383996
 20
5.202904017599962
  0
LWPOLYLINE
  5
2217
330
1F
100
AcDbEntity
  8
0
100
AcDbPolyline
 90
        4
 70
     0
 43
0.0
 10
-12.67420943199965
 20
4.810112888000048
 10
-13.33039243039968
 20
4.729628923200039
 10
-13.98706912159957
 20
4.652967580800009
 10
-14.6442766287995
 20
4.580125716800012
  0
LINE
  5
2219
330
1F
100
AcDbEntity
  8
0
100
AcDbLine
 10
-14.6442766287995
 20
4.58012571680004
 30
0.0
 11
-14.66690170079948
 21
4.577702356800074
 31
0.0
  0
LINE
  5
221A
330
1F
100
AcDbEntity
  8
0
100
AcDbLine
 10
-12.64726860479947
 20
4.81350033440006
 30
0.0
 11
-12.67420943199965
 21
4.810112888000077
 31
0.0
  0
LWPOLYLINE
  5
221B
330
1F
100
AcDbEntity
  8
0
100
AcDbPolyline
 90
        4
 70
     0
 43
0.0
 10
-12.6463084815997
 20
6.159941662400001
 10
-13.26763100959954
 20
6.14220191039999
 10
-13.87899015679965
 20
6.139119172799951
 10
-14.47629348799966
 20
6.153919174400016
  0
LINE
  5
221C
330
1F
100
AcDbEntity
  8
0
100
AcDbLine
 10
-14.30002958399961
 20
9.808059348800071
 30
0.0
 11
-14.25892179839968
 21
9.800325603200036
 31
0.0
  0
LWPOLYLINE
  5
221D
330
1F
100
AcDbEntity
  8
0
100
AcDbPolyline
 90
        6
 70
     0
 43
0.0
 10
-4.331180667199646
 20
8.259944767999968
 10
-4.906616139199627
 20
7.92530459680006
 10
-5.439565471999571
 20
7.532756955200056
 10
-5.923649415999648
 20
7.087152928000023
 10
-6.353074734399683
 20
6.594006254400028
 10
-6.681076943999528
 20
6.126500648000046
  0
LWPOLYLINE
  5
221E
330
1F
100
AcDbEntity
  8
0
100
AcDbPolyline
 90
        9
 70
     0
 43
0.0
 10
-6.086246383999537
 20
6.098854007999989
 10
-6.220291841599532
 20
6.090149494399952
 10
-6.347919990399645
 20
6.084914190400013
 10
-6.46252424479951
 20
6.083768475200031
 10
-6.556055988799585
 20
6.086934337600041
 10
-6.623740937599563
 20
6.093971220799971
 10
-6.666567974399526
 20
6.104653664000011
 10
-6.683018078399641
 20
6.118930750399954
 10
-6.681019145599634
 20
6.126504159999967
  0
LWPOLYLINE
  5
221F
330
1F
100
AcDbEntity
  8
0
100
AcDbPolyline
 90
        8
 70
     0
 43
0.0
 10
-4.8072948527996
 20
6.24780469120003
 10
-4.842348724799535
 20
6.234138076800036
 10
-4.898740513599591
 20
6.218776496000032
 10
-4.973615286399649
 20
6.20291213439998
 10
-5.06174190559966
 20
6.187733828799991
 10
-5.16055879839962
 20
6.173769545599952
 10
-5.262441966399705
 20
6.162151476799976
 10
-5.358094913599529
 20
6.153705144000014
  0
LWPOLYLINE
  5
2220
330
1F
100
AcDbEntity
  8
0
100
AcDbPolyline
 90
        3
 70
     0
 43
0.0
 10
-4.631749447999595
 20
6.331172625599947
 10
-4.72158810239955
 20
6.290077190399983
 10
-4.8072948527996
 20
6.24780469120003
  0
LWPOLYLINE
  5
2221
330
1F
100
AcDbEntity
  8
0
100
AcDbPolyline
 90
        3
 70
     0
 43
0.0
 10
-4.612549564799678
 20
6.343259222399979
 10
-4.613817596799549
 20
6.341864296000039
 10
-4.631749447999595
 20
6.331172625599947
  0
LINE
  5
2222
330
1F
100
AcDbEntity
  8
0
100
AcDbLine
 10
-3.745637491199545
 20
6.852091227200077
 30
0.0
 11
-3.987313259199595
 21
6.963954145600069
 31
0.0
  0
LWPOLYLINE
  5
2223
330
1F
100
AcDbEntity
  8
0
100
AcDbPolyline
 90
        3
 70
     0
 43
0.0
 10
-3.81559899839965
 20
6.522774391999973
 10
-4.27505137919968
 20
6.547888476800039
 10
-4.430191295999634
 20
6.552732640000044
  0
LINE
  5
2224
330
1F
100
AcDbEntity
  8
0
100
AcDbLine
 10
-6.086246383999537
 20
6.098854008000017
 30
0.0
 11
-5.358094913599529
 21
6.153705144000042
 31
0.0
  0
LWPOLYLINE
  5
2226
330
1F
100
AcDbEntity
  8
0
100
AcDbPolyline
 90
       13
 70
     0
 43
0.0
 10
26.7158971088005
 20
8.806923783999991
 10
26.09563459840035
 20
8.22609460000001
 10
25.3777833072005
 20
7.630662964799967
 10
24.53917789600029
 20
7.023990014399942
 10
23.55602137120047
 20
6.417296459199974
 10
22.41690155520029
 20
5.836937459200044
 10
21.1974024672005
 20
5.344395843200004
 10
19.93995361440045
 20
4.961653172799969
 10
18.67462472960039
 20
4.694824830399966
 10
17.50726315200029
 20
4.548369484799991
 10
16.45930196960046
 20
4.49590979200002
 10
15.51602207360031
 20
4.511934883199955
 10
14.66690170080039
 20
4.577702356800045
  0
LWPOLYLINE
  5
2228
330
1F
100
AcDbEntity
  8
0
100
AcDbPolyline
 90
       16
 70
     0
 43
0.0
 10
5.400264019200335
 20
7.561704606399985
 10
5.700764443200455
 20
7.668791958399992
 10
6.218450348800502
 20
7.826245012799972
 10
6.783097849600494
 20
7.970290512000019
 10
7.396956273600494
 20
8.100165412800038
 10
8.060780902400324
 20
8.21458807839997
 10
8.764268256000491
 20
8.311137518399959
 10
9.408624108800381
 20
8.380883483200022
 10
9.983115878400326
 20
8.430465135999952
 10
10.51229261760033
 20
8.467361417600045
 10
11.04711733920032
 20
8.497757604799971
 10
11.59566531840039
 20
8.523882878399945
 10
12.17020804480046
 20
8.548898947199973
 10
12.7998384800004
 20
8.578655054399973
 10
13.5232927504004
 20
8.62473617759997
 10
14.25892180000039
 20
8.696316454399948
  0
LWPOLYLINE
  5
2229
330
1F
100
AcDbEntity
  8
0
100
AcDbPolyline
 90
       21
 70
     0
 43
0.0
 10
3.853316761600467
 20
8.473253302400053
 10
3.872834580800486
 20
8.47486197119997
 10
4.2083267200004
 20
8.504624921599997
 10
4.618345998400513
 20
8.543411883199951
 10
5.135201169600463
 20
8.594767783999941
 10
5.739491702400414
 20
8.657093059199951
 10
6.34804282880043
 20
8.721663364799951
 10
6.956226635200323
 20
8.787906206399952
 10
7.556892801600383
 20
8.854922027200018
 10
8.134311174400522
 20
8.920844462400054
 10
8.689252664000491
 20
8.985716268800047
 10
9.229311724800368
 20
9.050511968000023
 10
9.764138254400336
 20
9.116625888000044
 10
10.31594573440031
 20
9.187256595199983
 10
10.89115767840041
 20
9.263913504000015
 10
11.47803321440039
 20
9.345807508800021
 10
12.06719113760039
 20
9.432297070399954
 10
12.64554858240046
 20
9.52189038719996
 10
13.20599257280048
 20
9.613603728000043
 10
13.74476122560042
 20
9.706692072000009
 10
14.25892180000039
 20
9.800325560000032
  0
LWPOLYLINE
  5
222A
330
1F
100
AcDbEntity
  8
0
100
AcDbPolyline
 90
       14
 70
     0
 43
0.0
 10
12.69311664000031
 20
5.202904017599962
 10
11.44384905760045
 20
5.35152327679998
 10
10.3184289696004
 20
5.472629310399952
 10
9.301327310400324
 20
5.571603412799959
 10
8.379550673600419
 20
5.65266531520001
 10
7.542171131200461
 20
5.719149033600047
 10
6.779757513600429
 20
5.773724696000044
 10
6.084151236800494
 20
5.818540647999952
 10
5.448634254400417
 20
5.855308929600028
 10
4.867152625600397
 20
5.885431900799972
 10
4.333947182400493
 20
5.910072316799983
 10
3.843686656000386
 20
5.930179614400003
 10
3.394279721600355
 20
5.946425871999963
 10
2.985384380800383
 20
5.959337507199961
  0
LWPOLYLINE
  5
222B
330
1F
100
AcDbEntity
  8
0
100
AcDbPolyline
 90
        5
 70
     0
 43
0.0
 10
12.64726860480038
 20
4.813500334400032
 10
9.851208627200435
 20
5.12602069440004
 10
7.334364148800318
 20
5.340334804800022
 10
5.057362646400292
 20
5.479892403199983
 10
2.988957604800475
 20
5.562118118400007
  0
LWPOLYLINE
  5
222C
330
1F
100
AcDbEntity
  8
0
100
AcDbPolyline
 90
       10
 70
     0
 43
0.0
 10
6.384876166400431
 20
6.548679572799983
 10
6.46915697920042
 20
6.546392582400017
 10
7.128057500800309
 20
6.518368524800052
 10
7.8422530400004
 20
6.478595819199995
 10
8.620415758400326
 20
6.427132047999975
 10
9.46581163360031
 20
6.365488222400017
 10
10.30243473120037
 20
6.302799983999989
 10
11.11042079840046
 20
6.244951891200003
 10
11.89261655520033
 20
6.195970819200056
 10
12.64630848320041
 20
6.159941662400001
  0
LWPOLYLINE
  5
222D
330
1F
100
AcDbEntity
  8
0
100
AcDbPolyline
 90
        6
 70
     0
 43
0.0
 10
4.612564369600363
 20
6.343258369599993
 10
4.382105308800305
 20
6.607963007999956
 10
4.04166631360033
 20
6.924303372799954
 10
3.663755508800363
 20
7.199987694399965
 10
3.25378640160045
 20
7.431181817599963
 10
2.817583609600319
 20
7.614677446400037
  0
LWPOLYLINE
  5
222E
330
1F
100
AcDbEntity
  8
0
100
AcDbPolyline
 90
        3
 70
     0
 43
0.0
 10
3.815599000000361
 20
6.522774391999973
 10
4.275051380800391
 20
6.547888476800039
 10
4.430190393600355
 20
6.552732612800014
  0
LWPOLYLINE
  5
222F
330
1F
100
AcDbEntity
  8
0
100
AcDbPolyline
 90
        4
 70
     0
 43
0.0
 10
2.985384380800383
 20
5.959337507199961
 10
1.99040667520046
 20
5.983662585599972
 10
0.9952684192004426
 20
5.998258244800013
 10
0.0000000000003411
 20
6.003123999999957
  0
LWPOLYLINE
  5
2230
330
1F
100
AcDbEntity
  8
0
100
AcDbPolyline
 90
        5
 70
     0
 43
0.0
 10
2.988957604800475
 20
5.562118118400007
 10
2.195289857600414
 20
5.582437142399953
 10
1.468516696000392
 20
5.595586940799989
 10
0.762184448000312
 20
5.603369758400049
 10
0.0000000000003411
 20
5.60624044480005
  0
LWPOLYLINE
  5
2231
330
1F
100
AcDbEntity
  8
0
100
AcDbPolyline
 90
       17
 70
     0
 43
0.0
 10
1.172181449600316
 20
6.386813081599939
 10
1.150808835200336
 20
6.372725171200045
 10
1.120425955200403
 20
6.359041065599967
 10
1.081341564800482
 20
6.345885980799948
 10
1.033749315200452
 20
6.333315756799947
 10
0.978115678400286
 20
6.321445595199975
 10
0.9148053392003703
 20
6.310340361599969
 10
0.8443593680004823
 20
6.300082766400009
 10
0.7673599664004769
 20
6.290741547200013
 10
0.6842837072005068
 20
6.282361745600042
 10
0.5958776992002868
 20
6.275006931199982
 10
0.5027387888004569
 20
6.268715111999995
 10
0.4060638384004279
 20
6.263548819199968
 10
0.3065402912003492
 20
6.259521017600036
 10
0.2052214144003983
 20
6.256650383999954
 10
0.1027326352003683
 20
6.254931958399993
 10
0.0000000000003411
 20
6.254362051200018
  0
LWPOLYLINE
  5
2232
330
1F
100
AcDbEntity
  8
0
100
AcDbPolyline
 90
       18
 70
     0
 43
0.0
 10
1.181118608000474
 20
6.399381222400052
 10
1.165965838400438
 20
6.413779535999992
 10
1.142289590400309
 20
6.427881159999969
 10
1.110451216000342
 20
6.441614980799954
 10
1.070866332800392
 20
6.454887230400004
 10
1.023746780800479
 20
6.467666875199938
 10
0.9694973424003592
 20
6.479856280000035
 10
0.9082479584004659
 20
6.491418847999966
 10
0.8403474560003587
 20
6.502264072000002
 10
0.7660182672003657
 20
6.51232336160001
 10
0.685473769600435
 20
6.521522275200027
 10
0.5991522144003057
 20
6.529760065600044
 10
0.507413572800374
 20
6.536949185599951
 10
0.4112818928005027
 20
6.542965003200038
 10
0.311397912000416
 20
6.547734366399936
 10
0.208950561600318
 20
6.551178231999983
 10
0.1047619344004715
 20
6.553258784000036
 10
0.0000000000003411
 20
6.553952289600033
  0
LWPOLYLINE
  5
2233
330
1F
100
AcDbEntity
  8
0
100
AcDbPolyline
 90
        7
 70
     0
 43
0.0
 10
2.817583609600319
 20
7.614677446400037
 10
2.034092785600364
 20
7.850147988800017
 10
1.229156665600498
 20
8.008518777599988
 10
0.4112207696003907
 20
8.088130891199966
 10
-0.4110740015995589
 20
8.088138012799959
 10
-1.229043809599602
 20
8.008535326399965
 10
-2.034048073599592
 20
7.850159073600025
  0
LWPOLYLINE
  5
2234
330
1F
100
AcDbEntity
  8
0
100
AcDbPolyline
 90
       20
 70
     0
 43
0.0
 10
0.0000000000003411
 20
6.584898166399966
 10
0.1047621264004874
 20
6.58420467359997
 10
0.2089510688005021
 20
6.582124158400006
 10
0.3113987936004605
 20
6.57868034720002
 10
0.4112831360004066
 20
6.573911054400014
 10
0.5074151008003583
 20
6.567895324800019
 10
0.5991538672004709
 20
6.560706313600007
 10
0.685475302400505
 20
6.552468665600031
 10
0.7660194576004642
 20
6.543269931200029
 10
0.8403481776005037
 20
6.53321085760001
 10
0.9082481936003432
 20
6.522365868799965
 10
0.9694971312004554
 20
6.510803548800026
 10
1.023746219200461
 20
6.498614395199979
 10
1.070865555200384
 20
6.48583498719995
 10
1.110450372800301
 20
6.472562945599975
 10
1.142288824000502
 20
6.458829292800032
 10
1.165965262400391
 20
6.44472778559998
 10
1.181118289600476
 20
6.430329531199959
 10
1.187348910400373
 20
6.415772411200009
 10
1.187500000000341
 20
6.413137017599979
  0
LINE
  5
2235
330
1F
100
AcDbEntity
  8
0
100
AcDbLine
 10
-2.034048073599592
 20
7.850159073600053
 30
0.0
 11
-2.817583607999608
 21
7.614677446400065
 31
0.0
  0
LINE
  5
2236
330
1F
100
AcDbEntity
  8
0
100
AcDbLine
 10
-1.165973916799543
 20
6.413773619200043
 30
0.0
 11
-1.18112578239959
 21
6.399371537600046
 31
0.0
  0
LINE
  5
2237
330
1F
100
AcDbEntity
  8
0
100
AcDbLine
 10
-2.703347228799543
 20
6.406441736000061
 30
0.0
 11
-2.6779058879996
 21
6.446773056000012
 31
0.0
  0
LINE
  5
2238
330
1F
100
AcDbEntity
  8
0
100
AcDbLine
 10
-1.18112578239959
 20
6.399371537600046
 30
0.0
 11
-1.18169825439952
 21
6.398032552000046
 31
0.0
  0
LWPOLYLINE
  5
2239
330
1F
100
AcDbEntity
  8
0
100
AcDbPolyline
 90
       20
 70
     0
 43
0.0
 10
-1.18749999839963
 20
6.413137041599952
 10
-1.187350198399485
 20
6.415761115199984
 10
-1.181125467199649
 20
6.430319841599953
 10
-1.16597334719961
 20
6.44472186400003
 10
-1.142297759999678
 20
6.458824817599975
 10
-1.110458215999528
 20
6.472559982399957
 10
-1.070873439999672
 20
6.485832617599953
 10
-1.023752812799671
 20
6.498612769599958
 10
-0.9694995023995716
 20
6.510803060799958
 10
-0.9082516255995187
 20
6.522365272000001
 10
-0.8403450799995653
 20
6.533211312000048
 10
-0.7660224191996577
 20
6.543269563200055
 10
-0.6854795087996309
 20
6.552468225600023
 10
-0.5991650847996653
 20
6.560705340800041
 10
-0.5074252943996953
 20
6.567894606400045
 10
-0.4112859423995588
 20
6.573910899199972
 10
-0.311402326399616
 20
6.578680203199951
 10
-0.2089480351995689
 20
6.582124239999984
 10
-0.104761441599635
 20
6.584204683200027
 10
0.0000000000003411
 20
6.584898166399966
  0
LWPOLYLINE
  5
223A
330
1F
100
AcDbEntity
  8
0
100
AcDbPolyline
 90
        3
 70
     0
 43
0.0
 10
-1.172164555199628
 20
6.386798758400004
 10
-1.184394684799713
 20
6.401209820799977
 10
-1.18749999839963
 20
6.413137041599952
  0
LWPOLYLINE
  5
223B
330
1F
100
AcDbEntity
  8
0
100
AcDbPolyline
 90
       17
 70
     0
 43
0.0
 10
0.0000000000003411
 20
6.254362051200018
 10
-0.1027137743996036
 20
6.254931748800004
 10
-0.205192967999551
 20
6.256649745600043
 10
-0.3064961631995402
 20
6.259519503999968
 10
-0.4060107327994729
 20
6.263546332800046
 10
-0.5026701519994959
 20
6.268710972800022
 10
-0.5958034863996318
 20
6.275001355199947
 10
-0.6842139695996821
 20
6.282355348800024
 10
-0.767293481599495
 20
6.29073419040003
 10
-0.8443006623996325
 20
6.300074966399961
 10
-0.9147463247996938
 20
6.310330939199957
 10
-0.9780649791995301
 20
6.32143580319996
 10
-1.033701927999686
 20
6.333304540799986
 10
-1.081302817599521
 20
6.345874483199963
 10
-1.120393446399589
 20
6.359028512000008
 10
-1.150783515199577
 20
6.372711588800029
 10
-1.172164555199628
 20
6.386798758400004
  0
LWPOLYLINE
  5
223C
330
1F
100
AcDbEntity
  8
0
100
AcDbPolyline
 90
       17
 70
     0
 43
0.0
 10
0.0000000000003411
 20
6.553952289600033
 10
-0.104761246399562
 20
6.553258793599979
 10
-0.2089475199996968
 20
6.551178313599962
 10
-0.3114014319995704
 20
6.547734224000009
 10
-0.4112846815995681
 20
6.542964849600025
 10
-0.5074237423995101
 20
6.536948470400034
 10
-0.5991634079995265
 20
6.529759094399992
 10
-0.6854779503995588
 20
6.521521836800047
 10
-0.7660212095996713
 20
6.512322995199951
 10
-0.8403443391995324
 20
6.502264531200012
 10
-0.9082513759996118
 20
6.491418254400059
 10
-0.9694996991996731
 20
6.479855795200023
 10
-1.023753359999659
 20
6.467665254400003
 10
-1.070874206399707
 20
6.45488486399995
 10
-1.110459049599626
 20
6.441612020799993
 10
-1.14229851839957
 20
6.427876687999969
 10
-1.165973916799543
 20
6.413773619200014
  0
LINE
  5
223D
330
1F
100
AcDbEntity
  8
0
100
AcDbLine
 10
1.184401961600428
 20
6.401223737600076
 30
0.0
 11
1.172181449600316
 21
6.386813081599967
 31
0.0
  0
LINE
  5
223E
330
1F
100
AcDbEntity
  8
0
100
AcDbLine
 10
1.187500000000341
 20
6.413137017600007
 30
0.0
 11
1.184401961600428
 21
6.401223737600076
 31
0.0
  0
LINE
  5
223F
330
1F
100
AcDbEntity
  8
0
100
AcDbLine
 10
3.815599003200418
 20
6.884471804800028
 30
0.0
 11
3.815586614400331
 21
6.883982691200031
 31
0.0
  0
LINE
  5
2240
330
1F
100
AcDbEntity
  8
0
100
AcDbLine
 10
1.181695811200484
 20
6.398032595200021
 30
0.0
 11
1.181118608000474
 21
6.39938122240008
 31
0.0
  0
LINE
  5
2241
330
1F
100
AcDbEntity
  8
0
100
AcDbLine
 10
2.703347230400481
 20
6.406441736000061
 30
0.0
 11
2.67790588960031
 21
6.446773056000012
 31
0.0
  0
LWPOLYLINE
  5
2242
330
1F
100
AcDbEntity
  8
0
100
AcDbPolyline
 90
       13
 70
     0
 43
0.0
 10
3.815599000000361
 20
6.522774391999973
 10
3.71517258400047
 20
6.515724870400049
 10
3.617006876800473
 20
6.508249043199953
 10
3.520049736000487
 20
6.500276113599966
 10
3.423408268800471
 20
6.491724491199988
 10
3.32836156960036
 20
6.482702588799952
 10
3.234612288000448
 20
6.473186902400016
 10
3.141979129600372
 20
6.46315922719998
 10
3.051406624000378
 20
6.452730012799975
 10
2.962723235200314
 20
6.441896387200017
 10
2.875215756800457
 20
6.430579331199965
 10
2.788675987200463
 20
6.418750382400048
 10
2.703347230400481
 20
6.406441734400004
  0
LWPOLYLINE
  5
2243
330
1F
100
AcDbEntity
  8
0
100
AcDbPolyline
 90
       22
 70
     0
 43
0.0
 10
2.67790588960031
 20
6.446773057600012
 10
2.710576694400401
 20
6.452791830399974
 10
2.743446539200363
 20
6.459683902400001
 10
2.77650900320043
 20
6.467383502400025
 10
2.809730848000413
 20
6.475824398399936
 10
2.843285905600509
 20
6.485001979199978
 10
2.878168155200341
 20
6.495175119999998
 10
2.915330979200348
 20
6.506658528000002
 10
2.95580053600031
 20
6.519848679999995
 10
3.000785435200327
 20
6.535263667199956
 10
3.05149113120035
 20
6.553484566400015
 10
3.109371849600506
 20
6.575244392000058
 10
3.175857656000403
 20
6.601328299199963
 10
3.248771827200357
 20
6.631064972800004
 10
3.323808302400379
 20
6.662691260799988
 10
3.397533582400342
 20
6.694592633599995
 10
3.469634478400507
 20
6.7264331824
 10
3.539951086400492
 20
6.757975796799996
 10
3.6087685680003
 20
6.789213446400026
 10
3.677003227200316
 20
6.820460755199974
 10
3.745637492800483
 20
6.852091227200048
 10
3.98731288160036
 20
6.963953971199998
  0
LWPOLYLINE
  5
2244
330
1F
100
AcDbEntity
  8
0
100
AcDbPolyline
 90
        3
 70
     0
 43
0.0
 10
4.631749448000505
 20
6.331172625599947
 10
4.613819764800496
 20
6.341862136000031
 10
4.612549712000486
 20
6.343259211200006
  0
LWPOLYLINE
  5
2245
330
1F
100
AcDbEntity
  8
0
100
AcDbPolyline
 90
        6
 70
     0
 43
0.0
 10
4.331180668800357
 20
8.259944767999968
 10
4.906616947200404
 20
7.92530406879996
 10
5.439566952000518
 20
7.532755736000012
 10
5.923651411200467
 20
7.087150878400052
 10
6.353077060800501
 20
6.594003263999979
 10
6.681076945600466
 20
6.126500648000046
  0
LWPOLYLINE
  5
2246
330
1F
100
AcDbEntity
  8
0
100
AcDbPolyline
 90
        3
 70
     0
 43
0.0
 10
4.807294852800509
 20
6.24780469120003
 10
4.721595892800337
 20
6.290073492800047
 10
4.631749448000505
 20
6.331172625599947
  0
LWPOLYLINE
  5
2247
330
1F
100
AcDbEntity
  8
0
100
AcDbPolyline
 90
        8
 70
     0
 43
0.0
 10
5.358094915200467
 20
6.153705144000014
 10
5.262441968000416
 20
6.162151476799976
 10
5.160558798400302
 20
6.173769545599952
 10
5.061741905600342
 20
6.187733828799991
 10
4.97361528800036
 20
6.20291213439998
 10
4.898740515200302
 20
6.218776496000032
 10
4.842348724800444
 20
6.234138076800036
 10
4.807294852800509
 20
6.24780469120003
  0
LINE
  5
2248
330
1F
100
AcDbEntity
  8
0
100
AcDbLine
 10
6.086246384000446
 20
6.098854008000017
 30
0.0
 11
5.358094915200467
 21
6.153705144000042
 31
0.0
  0
LWPOLYLINE
  5
2249
330
1F
100
AcDbEntity
  8
0
100
AcDbPolyline
 90
        9
 70
     0
 43
0.0
 10
6.086246384000446
 20
6.098854007999989
 10
6.220717945600313
 20
6.09012660159999
 10
6.348378929600471
 20
6.084901928000022
 10
6.462846094400333
 20
6.083771651199981
 10
6.556234433600479
 20
6.086945851199971
 10
6.623834116800367
 20
6.093986174400015
 10
6.666613339200353
 20
6.104672534400037
 10
6.683020753600317
 20
6.118949064000048
 10
6.681019086400397
 20
6.126504163200024
  0
LINE
  5
224C
330
1F
100
AcDbEntity
  8
0
100
AcDbLine
 10
12.67420943520039
 20
4.810112888000077
 30
0.0
 11
12.64726860480038
 21
4.81350033440006
 31
0.0
  0
LWPOLYLINE
  5
224D
330
1F
100
AcDbEntity
  8
0
100
AcDbPolyline
 90
        4
 70
     0
 43
0.0
 10
14.64427663040044
 20
4.580125716800012
 10
13.98706912320051
 20
4.652967580800009
 10
13.33039243200039
 20
4.729628923200039
 10
12.67420943520039
 20
4.810112888000048
  0
LWPOLYLINE
  5
224E
330
1F
100
AcDbEntity
  8
0
100
AcDbPolyline
 90
        4
 70
     0
 43
0.0
 10
14.68081283040044
 20
4.973091003200011
 10
14.0101116432005
 20
5.046399836799992
 10
13.34756203200038
 20
5.123101267200013
 10
12.69311664000031
 20
5.202904017599962
  0
LINE
  5
224F
330
1F
100
AcDbEntity
  8
0
100
AcDbLine
 10
14.66690170080039
 20
4.577702356800074
 30
0.0
 11
14.64427663040044
 21
4.58012571680004
 31
0.0
  0
LWPOLYLINE
  5
2250
330
1F
100
AcDbEntity
  8
0
100
AcDbPolyline
 90
        4
 70
     0
 43
0.0
 10
12.64630848320041
 20
6.159941662400001
 10
13.26763101120048
 20
6.14220191039999
 10
13.87899015840037
 20
6.139119172799951
 10
14.47629348800035
 20
6.153919174400016
  0
LINE
  5
2251
330
1F
100
AcDbEntity
  8
0
100
AcDbLine
 10
14.25892180000039
 20
9.800325603200036
 30
0.0
 11
14.30002958560032
 21
9.808059348800071
 31
0.0
  0
LWPOLYLINE
  5
2252
330
1F
100
AcDbEntity
  8
0
100
AcDbPolyline
 90
        4
 70
     0
 43
0.0
 10
27.05961601280034
 20
9.159193670399986
 10
26.94626318400048
 20
9.04043408480004
 10
26.83167286560035
 20
8.922994257599953
 10
26.7158971088005
 20
8.806923783999991
  0
LWPOLYLINE
  5
2257
330
1F
100
AcDbEntity
  8
0
100
AcDbPolyline
 90
        5
 70
     0
 43
0.0
 10
-2.988957603199537
 20
36.18788188159999
 10
-2.195289855999703
 20
36.16756285919996
 10
-1.468516694399681
 20
36.15441305920001
 10
-0.7621844463996013
 20
36.14663024319998
 10
0.0000000000003411
 20
36.14375955519995
  0
LWPOLYLINE
  5
2258
330
1F
100
AcDbEntity
  8
0
100
AcDbPolyline
 90
        4
 70
     0
 43
0.0
 10
-2.985384379199672
 20
35.79066249440006
 10
-1.990406657599692
 20
35.76633741440002
 10
-0.995268383999587
 20
35.75174175519999
 10
0.0000000000003411
 20
35.74687600159995
  0
LWPOLYLINE
  5
2259
330
1F
100
AcDbEntity
  8
0
100
AcDbPolyline
 90
       13
 70
     0
 43
0.0
 10
-3.81559899839965
 20
35.22722560960005
 10
-3.715172582399532
 20
35.23427512960006
 10
-3.617006875199535
 20
35.24175095839996
 10
-3.520049734399549
 20
35.24972388800006
 10
-3.423408267199533
 20
35.25827551040004
 10
-3.32836156799965
 20
35.26729741119993
 10
-3.23461228639951
 20
35.27681309759998
 10
-3.14197912959969
 20
35.28684077439993
 10
-3.051406622399667
 20
35.29726998880005
 10
-2.962723233599604
 20
35.30810361279998
 10
-2.875215756799548
 20
35.31942067039995
 10
-2.788675985599525
 20
35.33124961919998
 10
-2.703347228799543
 20
35.34355826559999
  0
LWPOLYLINE
  5
225A
330
1F
100
AcDbEntity
  8
0
100
AcDbPolyline
 90
       22
 70
     0
 43
0.0
 10
-2.6779058879996
 20
35.30322694400001
 10
-2.710576692799691
 20
35.29720816960002
 10
-2.743446537599652
 20
35.2903160976
 10
-2.776509003199521
 20
35.28261649759997
 10
-2.809730846399702
 20
35.27417560319998
 10
-2.843285903999571
 20
35.26499802080002
 10
-2.878168155199659
 20
35.25482488160003
 10
-2.915330977599637
 20
35.24334147199999
 10
-2.9558005343996
 20
35.23015132160003
 10
-3.000785433599617
 20
35.21473633279993
 10
-3.051491129599639
 20
35.19651543520001
 10
-3.109371849599597
 20
35.17475560799994
 10
-3.175857654399692
 20
35.14867170080004
 10
-3.248771825599646
 20
35.11893502880002
 10
-3.323808300799669
 20
35.08730874080004
 10
-3.397533580799631
 20
35.05540736800003
 10
-3.469634476799569
 20
35.0235668176
 10
-3.539951086399582
 20
34.9920242032
 10
-3.608768566399589
 20
34.96078655359997
 10
-3.677003227199634
 20
34.92953924640005
 10
-3.745637491199545
 20
34.89790877439998
 10
-3.987312879999649
 20
34.78604603040003
  0
LWPOLYLINE
  5
225B
330
1F
100
AcDbEntity
  8
0
100
AcDbPolyline
 90
       10
 70
     0
 43
0.0
 10
-4.331180667199646
 20
33.49005523360006
 10
-3.424178814399624
 20
33.08518842080002
 10
-2.475667793599654
 20
32.77713242879997
 10
-1.497275327999545
 20
32.5696916416
 10
-0.5008560047996298
 20
32.46536823840006
 10
0.5015656512003944
 20
32.46540528800005
 10
1.497881252800311
 20
32.56978731840002
 10
2.476065865600389
 20
32.77723893279994
 10
3.424313443200503
 20
33.08524015040006
 10
4.331180668800357
 20
33.49005523360006
  0
LWPOLYLINE
  5
225C
330
1F
100
AcDbEntity
  8
0
100
AcDbPolyline
 90
        6
 70
     0
 43
0.0
 10
-4.612564367999652
 20
35.40674163200003
 10
-4.382105307199594
 20
35.14203699359995
 10
-4.04166631199962
 20
34.82569662719993
 10
-3.663755507199653
 20
34.55001230719995
 10
-3.253786401599541
 20
34.31881818240003
 10
-2.817583607999608
 20
34.13532255359996
  0
LINE
  5
225E
330
1F
100
AcDbEntity
  8
CENTER
100
AcDbLine
 10
3.940786236479539
 20
12.37500000000002
 30
0.0
 11
-3.940786236478629
 21
12.37500000000002
 31
0.0
  0
LWPOLYLINE
  5
2267
330
1F
100
AcDbEntity
  8
0
100
AcDbPolyline
 90
       60
 70
     0
 43
0.0
 10
-14.31317545919966
 20
31.99656190719997
 10
-14.48287447679956
 20
31.96337947999996
 10
-14.6503501503995
 20
31.92801911039998
 10
-14.81638662559964
 20
31.8903609376
 10
-14.98162396319969
 20
31.85027474720004
 10
-15.14606579359963
 20
31.80776142080003
 10
-15.30983093119959
 20
31.76279055359998
 10
-15.47318784959964
 20
31.71528224479994
 10
-15.63607685919953
 20
31.66524736320002
 10
-15.79865568479965
 20
31.61263189119995
 10
-15.96107638559954
 20
31.557373288
 10
-16.12324639679957
 20
31.49948872000004
 10
-16.28503743679959
 20
31.4390131312
 10
-16.44635867039949
 20
31.37597040159994
 10
-16.60706498079969
 20
31.31040820639998
 10
-16.76697470719966
 20
31.24239804640001
 10
-16.92604240319963
 20
31.17196012639999
 10
-17.08437117599953
 20
31.09904361760004
 10
-17.24190424319965
 20
31.02366342720006
 10
-17.39842087839963
 20
30.94591651680002
 10
-17.55380925759971
 20
30.86585419200003
 10
-17.70803594239953
 20
30.783488992
 10
-17.86097506879957
 20
30.6988833872
 10
-18.01248345439955
 20
30.61211495680004
 10
-18.16234836799969
 20
30.52331012000002
 10
-18.31038913599957
 20
30.43258845440004
 10
-18.45646481119968
 20
30.34005515039996
 10
-18.60053299679964
 20
30.24575838240002
 10
-18.7425877327995
 20
30.14972223999996
 10
-18.88262230399948
 20
30.05197204000001
 10
-19.02059920319959
 20
29.95255538239996
 10
-19.15645291839962
 20
29.85154163359993
 10
-19.29008573439966
 20
29.74902874079998
 10
-19.42142372639966
 20
29.64510252479999
 10
-19.55043284159967
 20
29.53982114559994
 10
-19.67707399039966
 20
29.43324884640003
 10
-19.80129237119956
 20
29.32546622879999
 10
-19.92303663519953
 20
29.21655534399997
 10
-20.04228060959951
 20
29.10657948959999
 10
-20.15900790399962
 20
28.99559489759997
 10
-20.27318237279962
 20
28.88367895199996
 10
-20.3847804431997
 20
28.77090037599998
 10
-20.49381140639968
 20
28.65729619039996
 10
-20.60030845439962
 20
28.54287682719996
 10
-20.7042736559996
 20
28.42768747360003
 10
-20.80570762239961
 20
28.31177739040004
 10
-20.90461416479968
 20
28.195192464
 10
-21.00099168959957
 20
28.07798531039998
 10
-21.09478584639953
 20
27.96027674239997
 10
-21.18586912479952
 20
27.84229371200001
 10
-21.27421613439957
 20
27.72414783680005
 10
-21.35984214719962
 20
27.60590136639996
 10
-21.44276105279948
 20
27.48761957600004
 10
-21.5229882111995
 20
27.36936700160004
 10
-21.60056046399961
 20
27.25117637120002
 10
-21.67551387679953
 20
27.13307889120005
 10
-21.74788328639954
 20
27.01510484959999
 10
-21.81771203039954
 20
26.89726698079994
 10
-21.88505028319957
 20
26.77956049599993
 10
-21.94994497759955
 20
26.66197889919999
  0
LWPOLYLINE
  5
2268
330
1F
100
AcDbEntity
  8
0
100
AcDbPolyline
 90
       19
 70
     0
 43
0.0
 10
-23.20897326399961
 20
27.38887921920002
 10
-23.06501603839967
 20
27.69660048959997
 10
-22.89746160959964
 20
28.00683678400003
 10
-22.70440575519967
 20
28.32027926239993
 10
-22.48943757119957
 20
28.6296290816
 10
-22.27465593279964
 20
28.90756901760005
 10
-22.07444969119967
 20
29.14473715200006
 10
-21.8904027487996
 20
29.34748899359999
 10
-21.71982890719948
 20
29.52428515999997
 10
-21.56174069279961
 20
29.67978704960001
 10
-21.41608460319969
 20
29.81670230559996
 10
-21.28363605759966
 20
29.93638952800006
 10
-21.16372264319954
 20
30.04110209119994
 10
-21.05228135359959
 20
30.13551710239994
 10
-20.94447916159958
 20
30.224348448
 10
-20.83576873599952
 20
30.31157355999994
 10
-20.7252640463995
 20
30.39794023679997
 10
-20.61364718879951
 20
30.48294141439999
 10
-20.50164575999963
 20
30.56608624959995
  0
LWPOLYLINE
  5
2269
330
1F
100
AcDbEntity
  8
0
100
AcDbPolyline
 90
       37
 70
     0
 43
0.0
 10
-23.54735727679951
 20
27.58424532000003
 10
-23.52106748319954
 20
27.64568518880003
 10
-23.49478493119966
 20
27.70836826560003
 10
-23.46881737759952
 20
27.77068547680005
 10
-23.44305883519962
 20
27.83252718560004
 10
-23.41727785759951
 20
27.89427088479999
 10
-23.3909855119997
 20
27.95697885760001
 10
-23.36366326239965
 20
28.02179655359998
 10
-23.33554927359966
 20
28.08807923519998
 10
-23.30669266079951
 20
28.15564665119996
 10
-23.27629913919952
 20
28.22628206399997
 10
-23.24342065759958
 20
28.3020664864
 10
-23.20697994399949
 20
28.38529353600006
 10
-23.16582891519954
 20
28.47830658079999
 10
-23.11884103679961
 20
28.58325907359994
 10
-23.06490782879961
 20
28.70209817440002
 10
-23.00517113919966
 20
28.83173164159996
 10
-22.94344173919955
 20
28.96353655040002
 10
-22.88382453439965
 20
29.08880419199999
 10
-22.82666014079961
 20
29.20708968639996
 10
-22.77130253119969
 20
29.31997517920001
 10
-22.71711180479962
 20
29.42892703519999
 10
-22.66291651839958
 20
29.53638507999994
 10
-22.60765145279958
 20
29.64445176799995
 10
-22.55233487359953
 20
29.75111987039997
 10
-22.49795155519962
 20
29.85455621920005
 10
-22.44274563359965
 20
29.9581343328
 10
-22.38422380319968
 20
30.06639765919999
 10
-22.31977726719958
 20
30.18382850240004
 10
-22.24757763999957
 20
30.31319935040005
 10
-22.17076849279953
 20
30.44834804159995
 10
-22.09392390879963
 20
30.58105367999996
 10
-22.01711311359952
 20
30.71125035199997
 10
-21.93909006399951
 20
30.84104373759998
 10
-21.85863349439967
 20
30.97234261439996
 10
-21.77420885119965
 20
31.10739479040001
 10
-21.68398468319958
 20
31.24870332160003
  0
LWPOLYLINE
  5
226A
330
1F
100
AcDbEntity
  8
0
100
AcDbPolyline
 90
       10
 70
     0
 43
0.0
 10
-31.37430597919967
 20
20.87499999999999
 10
-31.3473754143996
 20
21.90228798559997
 10
-31.25585595999962
 20
23.023265992
 10
-31.07945355679964
 20
24.25039667839996
 10
-30.81067697279957
 20
25.5157462912
 10
-30.46427280479963
 20
26.73070007199999
 10
-30.04811404159966
 20
27.88331441119999
 10
-29.59961477279955
 20
28.90280639039997
 10
-29.13614724639967
 20
29.79124299039995
 10
-28.66460397119965
 20
30.56422982399999
  0
LWPOLYLINE
  5
226B
330
1F
100
AcDbEntity
  8
0
100
AcDbPolyline
 90
       23
 70
     0
 43
0.0
 10
-30.94608432959955
 20
20.87500001600005
 10
-30.92958175679962
 20
21.67088922239997
 10
-30.88026238239956
 20
22.46146414719999
 10
-30.79842609439959
 20
23.24567682079998
 10
-30.6843016079996
 20
24.02293150399998
 10
-30.54112692159958
 20
24.77792863039997
 10
-30.37876193119962
 20
25.47875455680002
 10
-30.20767041279952
 20
26.10860869120006
 10
-30.03618625599949
 20
26.66389157599997
 10
-29.86902705279965
 20
27.15106658720003
 10
-29.7075790079997
 20
27.58175290079998
 10
-29.55215567679954
 20
27.96594354080002
 10
-29.40334911999968
 20
28.309970496
 10
-29.2616326687995
 20
28.61867455679998
 10
-29.12717807999968
 20
28.89630679200001
 10
-29.00022808479969
 20
29.14604750879993
 10
-28.8809294911997
 20
29.37060981600007
 10
-28.76918208639961
 20
29.57264206720003
 10
-28.66467607839956
 20
29.75470840479999
 10
-28.56691405759955
 20
29.91929521919996
 10
-28.47523115679962
 20
30.06881581280004
 10
-28.38881042239961
 20
30.20561846240002
 10
-28.30666837119963
 20
30.33203486080003
  0
LWPOLYLINE
  5
226C
330
1F
100
AcDbEntity
  8
0
100
AcDbPolyline
 90
       18
 70
     0
 43
0.0
 10
-19.26853175999951
 20
12.06619334239997
 10
-19.14013330559953
 20
11.96723635360001
 10
-19.00976947679953
 20
11.86971246560005
 10
-18.87749568959964
 20
11.77368363999994
 10
-18.7434303231995
 20
11.67925291680001
 10
-18.60761845599961
 20
11.5864664416
 10
-18.47004017439951
 20
11.49532601760006
 10
-18.33076895359965
 20
11.40589262560001
 10
-18.18999046719966
 20
11.31829111679997
 10
-18.0481773215996
 20
11.2328055616
 10
-17.90448713439957
 20
11.14893315840004
 10
-17.7587837359996
 20
11.06663051040004
 10
-17.61187845759957
 20
10.98637449440002
 10
-17.46438089119954
 20
10.908478424
 10
-17.31643745759959
 20
10.8329852864
 10
-17.16781359999947
 20
10.75975099840002
 10
-17.01797231999955
 20
10.68850817120005
 10
-16.86649089119953
 20
10.61907957920004
  0
LWPOLYLINE
  5
226D
330
1F
100
AcDbEntity
  8
0
100
AcDbPolyline
 90
       36
 70
     0
 43
0.0
 10
-23.39702989279965
 20
20.84345802719997
 10
-23.3948211759997
 20
20.67177093279997
 10
-23.39019422399962
 20
20.50020428480002
 10
-23.38315056159956
 20
20.32876444800001
 10
-23.37369132959963
 20
20.15746520640004
 10
-23.3618196991996
 20
19.9863481584
 10
-23.34754007679964
 20
19.815457648
 10
-23.3308515551995
 20
19.64478977600004
 10
-23.31175524959951
 20
19.4743835552
 10
-23.29025628959959
 20
19.30430030560001
 10
-23.26636571039955
 20
19.13461912000002
 10
-23.2400910847997
 20
18.96538289759996
 10
-23.2114345615995
 20
18.79660242559998
 10
-23.18039799999962
 20
18.62829078879997
 10
-23.14698426239954
 20
18.46046804319996
 10
-23.11119826399965
 20
18.29316755199999
 10
-23.07304415519968
 20
18.12641944799997
 10
-23.03252448159958
 20
17.96024433759998
 10
-22.98964404959963
 20
17.79467316320006
 10
-22.9444126431996
 20
17.6297575584
 10
-22.89684170719954
 20
17.46555208799998
 10
-22.84694520799951
 20
17.30210943680003
 10
-22.79473567999969
 20
17.13947233279998
 10
-22.74022551679956
 20
16.97768296799995
 10
-22.68342070239953
 20
16.81676430239997
 10
-22.62431151679959
 20
16.65669486080003
 10
-22.56290061919969
 20
16.49749199999996
 10
-22.49919771839961
 20
16.33919267199996
 10
-22.43322161759954
 20
16.18185369440004
 10
-22.36499365759948
 20
16.02553190879996
 10
-22.29451941119953
 20
15.87024717279996
 10
-22.2217995999996
 20
15.71601213600001
 10
-22.14688012959947
 20
15.56293152960006
 10
-22.06980777279966
 20
15.41109760159997
 10
-21.99062286399964
 20
15.26058268639997
 10
-21.90936385919951
 20
15.11145062239995
  0
LWPOLYLINE
  5
226E
330
1F
100
AcDbEntity
  8
0
100
AcDbPolyline
 90
       10
 70
     0
 43
0.0
 10
-24.55907471999955
 20
20.87500168799999
 10
-24.54197972959957
 20
20.13166552799998
 10
-24.49024341279948
 20
19.38187522719999
 10
-24.40353259999949
 20
18.6302059024
 10
-24.28219880799963
 20
17.88217989279996
 10
-24.12740930079951
 20
17.14380465919998
 10
-23.94060806559957
 20
16.41899466400002
 10
-23.72363064319949
 20
15.71129374400004
 10
-23.47889075519958
 20
15.02443265919998
 10
-23.20897326399961
 20
14.3611207824
  0
LWPOLYLINE
  5
226F
330
1F
100
AcDbEntity
  8
0
100
AcDbPolyline
 90
       10
 70
     0
 43
0.0
 10
-28.66460397119965
 20
11.185770176
 10
-29.1325788575997
 20
11.95244840479995
 10
-29.59062716479968
 20
12.8285414288
 10
-30.02998070719957
 20
13.82165047679996
 10
-30.4377745903995
 20
14.93785567999998
 10
-30.78786766239966
 20
16.14347219039996
 10
-31.06852172319952
 20
17.43841583519997
 10
-31.25387212159955
 20
18.70893196480006
 10
-31.34728916159963
 20
19.84607197599996
 10
-31.37430597919967
 20
20.87499999999999
  0
LWPOLYLINE
  5
2270
330
1F
100
AcDbEntity
  8
0
100
AcDbPolyline
 90
       22
 70
     0
 43
0.0
 10
-30.94608432959955
 20
20.87500001600005
 10
-30.9279745151997
 20
20.04132280479996
 10
-30.8738628095997
 20
19.21353816479995
 10
-30.78410142879954
 20
18.39289412159996
 10
-30.65919589279963
 20
17.58144701440005
 10
-30.5038282271995
 20
16.79953595040001
 10
-30.33035388959968
 20
16.08369132320001
 10
-30.15016832479966
 20
15.4479271248
 10
-29.97180091359962
 20
14.89288536640003
 10
-29.79913273759951
 20
14.40814915520002
 10
-29.63281164479951
 20
13.98001710719995
 10
-29.47333895359964
 20
13.59914797919998
 10
-29.3215087231996
 20
13.25964238400001
 10
-29.17753853439956
 20
12.95603616480002
 10
-29.04170278239951
 20
12.6842814304
 10
-28.91424508319948
 20
12.44115507200001
 10
-28.79512895679965
 20
12.22357671199995
 10
-28.68405841919969
 20
12.02857241280003
 10
-28.58050536159964
 20
11.85326368959999
 10
-28.48373518719961
 20
11.6948607104
 10
-28.39283059679962
 20
11.55065816959995
 10
-28.30666837119963
 20
11.41796513919996
  0
LINE
  5
2271
330
1F
100
AcDbEntity
  8
0
100
AcDbLine
 10
-28.65568837279954
 20
11.17226048320006
 30
0.0
 11
-28.66460397119965
 21
11.18577017600003
 31
0.0
  0
LWPOLYLINE
  5
2272
330
1F
100
AcDbEntity
  8
0
100
AcDbPolyline
 90
       27
 70
     0
 43
0.0
 10
-21.89755346559957
 20
15.09020080319999
 10
-21.82985555679954
 20
14.97096569439998
 10
-21.7595475311997
 20
14.85145186559998
 10
-21.68658917119967
 20
14.73168050560002
 10
-21.61093861759957
 20
14.6116744208
 10
-21.53256159199952
 20
14.49147202079996
 10
-21.45142906079957
 20
14.37112167199996
 10
-21.36750046239956
 20
14.25065663199996
 10
-21.28076397759957
 20
14.13015277119995
 10
-21.1912199311995
 20
14.00970014879999
 10
-21.09887897919964
 20
13.88939837919997
 10
-21.00376846399956
 20
13.76936299199996
 10
-20.90600570879962
 20
13.64981100959994
 10
-20.8056340447996
 20
13.53085363039997
 10
-20.70269115999952
 20
13.41258856000001
 10
-20.59719733439953
 20
13.29508880799994
 10
-20.48914547679953
 20
13.17839540800002
 10
-20.37851950719948
 20
13.06254053600002
 10
-20.26528032159956
 20
12.94753099519994
 10
-20.14942756799962
 20
12.83341421440002
 10
-20.03100892799955
 20
12.7202828032
 10
-19.91005422079967
 20
12.60820792480001
 10
-19.78658466559966
 20
12.49725043199998
 10
-19.66063690399948
 20
12.38748292000002
 10
-19.53225997279957
 20
12.27898539520003
 10
-19.4015296095996
 20
12.17185561600001
 10
-19.26853175999951
 20
12.06619334239997
  0
LWPOLYLINE
  5
2273
330
1F
100
AcDbEntity
  8
0
100
AcDbPolyline
 90
       19
 70
     0
 43
0.0
 10
-23.20897326399961
 20
14.3611207824
 10
-23.06501603839967
 20
14.05339951199994
 10
-22.89746160959964
 20
13.74316321599997
 10
-22.70440575519967
 20
13.42972073919997
 10
-22.48943757119957
 20
13.12037092000002
 10
-22.27465593279964
 20
12.84243098239994
 10
-22.07444969119967
 20
12.60526284959996
 10
-21.8904027487996
 20
12.4025110064
 10
-21.71982890719948
 20
12.22571484000002
 10
-21.56174069279961
 20
12.07021295039999
 10
-21.41608460319969
 20
11.93329769599995
 10
-21.28363605759966
 20
11.81361047359996
 10
-21.16372264319954
 20
11.70889791039996
 10
-21.05228135359959
 20
11.61448289760005
 10
-20.94447916159958
 20
11.525651552
 10
-20.83576873599952
 20
11.43842644000005
 10
-20.7252640463995
 20
11.35205976480005
 10
-20.61364718879951
 20
11.26705858560001
 10
-20.50164575999963
 20
11.18391375040005
  0
LWPOLYLINE
  5
2274
330
1F
100
AcDbEntity
  8
0
100
AcDbPolyline
 90
       34
 70
     0
 43
0.0
 10
-23.49478493119966
 20
14.04163173439997
 10
-23.44305883519962
 20
13.91747281439995
 10
-23.41727785759951
 20
13.8557291152
 10
-23.3909855119997
 20
13.79302114400002
 10
-23.36366326239965
 20
13.72820344800004
 10
-23.33554927359966
 20
13.66192076640004
 10
-23.30669266079951
 20
13.59435335039995
 10
-23.27629913919952
 20
13.52371793759994
 10
-23.24342065759958
 20
13.44793351520002
 10
-23.20697994399949
 20
13.36470646559996
 10
-23.16582891519954
 20
13.27169342080003
 10
-23.11884103679961
 20
13.16674092640005
 10
-23.06490782879961
 20
13.04790182559997
 10
-23.00517113919966
 20
12.91826835999995
 10
-22.94344173919955
 20
12.7864634512
 10
-22.88382453439965
 20
12.66119580960003
 10
-22.82666014079961
 20
12.54291031360003
 10
-22.77130253119969
 20
12.43002482079998
 10
-22.71711180479962
 20
12.32107296480001
 10
-22.66291651839958
 20
12.21361492000005
 10
-22.60765145279958
 20
12.10554823359996
 10
-22.55233487359953
 20
11.99888012960002
 10
-22.49795155519962
 20
11.89544378079995
 10
-22.44274563359965
 20
11.79186566880002
 10
-22.38422380319968
 20
11.68360234240003
 10
-22.31977726719958
 20
11.56617149759995
 10
-22.24757763999957
 20
11.43680065119997
 10
-22.17076849279953
 20
11.30165195999995
 10
-22.09392390879963
 20
11.16894632000003
 10
-22.01711311359952
 20
11.03874964800002
 10
-21.93909006399951
 20
10.90895626240001
 10
-21.85863349439967
 20
10.77765738719995
 10
-21.77420885119965
 20
10.64260520959999
 10
-21.68398468319958
 20
10.50129667839996
  0
LWPOLYLINE
  5
2275
330
1F
100
AcDbEntity
  8
0
100
AcDbPolyline
 90
        3
 70
     0
 43
0.0
 10
-23.54735727679951
 20
14.16575468159999
 10
-23.52106748319954
 20
14.10431481119997
 10
-23.49478493119966
 20
14.04163173439997
  0
LINE
  5
2276
330
1F
100
AcDbEntity
  8
0
100
AcDbLine
 10
-21.90936389439968
 20
15.11145060160006
 30
0.0
 11
-21.89755346559957
 21
15.09020080320001
 31
0.0
  0
LWPOLYLINE
  5
2277
330
1F
100
AcDbEntity
  8
0
100
AcDbPolyline
 90
       11
 70
     0
 43
0.0
 10
-24.5590747167995
 20
20.87500168799999
 10
-24.54523075999953
 20
21.54368060479999
 10
-24.50337598239968
 20
22.21784966559994
 10
-24.43319625919968
 20
22.89448452320005
 10
-24.33482538719966
 20
23.56944729439999
 10
-24.20891018879967
 20
24.23843689759996
 10
-24.05643165439949
 20
24.89798340640004
 10
-23.87859901759964
 20
25.54526341439998
 10
-23.67683638399955
 20
26.17782307039999
 10
-23.45298512799956
 20
26.79302016320002
 10
-23.20897326399961
 20
27.38887921920002
  0
LWPOLYLINE
  5
2278
330
1F
100
AcDbEntity
  8
0
100
AcDbPolyline
 90
       35
 70
     0
 43
0.0
 10
-21.95926993279965
 20
26.64472607359994
 10
-22.04161695519962
 20
26.48928225119993
 10
-22.12176071519968
 20
26.33238484160006
 10
-22.19966658559962
 20
26.17408907679998
 10
-22.27529977599954
 20
26.0144529808
 10
-22.34862862719967
 20
25.8535313072
 10
-22.41962606399954
 20
25.69137758720001
 10
-22.48822182239962
 20
25.52815459199996
 10
-22.55439034399967
 20
25.36393242560007
 10
-22.6181199919996
 20
25.198750184
 10
-22.67939850239952
 20
25.03265163360004
 10
-22.73821373759949
 20
24.86568206399999
 10
-22.79455678399961
 20
24.69787883999993
 10
-22.84841951359965
 20
24.5292817472
 10
-22.89979592639963
 20
24.35992732959994
 10
-22.94868023199967
 20
24.18984906080004
 10
-22.99506618239968
 20
24.01907963359997
 10
-23.03894740159955
 20
23.84765929440004
 10
-23.08031296479964
 20
23.67565098720001
 10
-23.11915835359957
 20
23.50309163680003
 10
-23.15547942879959
 20
23.33001434879997
 10
-23.1892718783996
 20
23.15645828319998
 10
-23.22053083199955
 20
22.98246776799999
 10
-23.24925124959952
 20
22.80808988800004
 10
-23.27543101119965
 20
22.63335906400004
 10
-23.29906848959956
 20
22.45831144960004
 10
-23.32016143359953
 20
22.28298563680005
 10
-23.33870761439959
 20
22.1074173856
 10
-23.35470636479965
 20
21.93164225119994
 10
-23.36815750719949
 20
21.75570304159998
 10
-23.37905974559964
 20
21.57965065760004
 10
-23.38741218879965
 20
21.40352184319999
 10
-23.39321452479964
 20
21.22735256479995
 10
-23.39646760799962
 20
21.05117087839994
 10
-23.39717256159963
 20
20.87500041279997
  0
LINE
  5
2279
330
1F
100
AcDbEntity
  8
0
100
AcDbLine
 10
-23.3971725599996
 20
20.8750004128
 30
0.0
 11
-23.39702989279965
 21
20.8434580272
 31
0.0
  0
LINE
  5
227A
330
1F
100
AcDbEntity
  8
0
100
AcDbLine
 10
-21.9499450111997
 20
26.66197891840002
 30
0.0
 11
-21.95926993279965
 21
26.64472607359996
 31
0.0
  0
LWPOLYLINE
  5
227C
330
1F
100
AcDbEntity
  8
0
100
AcDbPolyline
 90
       19
 70
     0
 43
0.0
 10
-14.47629348799966
 20
35.59608082880004
 10
-15.12013025279964
 20
35.55487912000001
 10
-15.68558913759955
 20
35.49178222559999
 10
-16.18908196319955
 20
35.40989843040006
 10
-16.64284438399965
 20
35.31147923840001
 10
-17.05544711999948
 20
35.19823445919996
 10
-17.43522938879948
 20
35.07080268959998
 10
-17.7887852719997
 20
34.92925077760003
 10
-18.12128957119955
 20
34.77319471839996
 10
-18.44345260319949
 20
34.59823005600003
 10
-18.76369758719954
 20
34.39936960479997
 10
-19.08479101279965
 20
34.17335063519999
 10
-19.41768597279963
 20
33.90971137120004
 10
-19.76465633279951
 20
33.60257721280004
 10
-20.1243263983996
 20
33.24841888959997
 10
-20.49636418239959
 20
32.84222494720006
 10
-20.88050114559962
 20
32.37820612639996
 10
-21.27653581599963
 20
31.84953905120005
 10
-21.68398468319958
 20
31.24870332160003
  0
LWPOLYLINE
  5
227D
330
1F
100
AcDbEntity
  8
0
100
AcDbPolyline
 90
       12
 70
     0
 43
0.0
 10
-14.25892179839968
 20
33.05368355199993
 10
-14.85707043999957
 20
32.96820436159999
 10
-15.4132435647997
 20
32.86137489600003
 10
-15.96511101759949
 20
32.72741696160005
 10
-16.53956691199948
 20
32.55871739040003
 10
-17.1392783295995
 20
32.35222444319993
 10
-17.74821459679958
 20
32.11120951680004
 10
-18.35208593919958
 20
31.84009660640004
 10
-18.93836884799964
 20
31.54422890880005
 10
-19.4969324111995
 20
31.22935283200002
 10
-20.01959174079968
 20
30.9015752944
 10
-20.50164575999963
 20
30.56608624959995
  0
LWPOLYLINE
  5
227E
330
1F
100
AcDbEntity
  8
0
100
AcDbPolyline
 90
       13
 70
     0
 43
0.0
 10
-26.71589710719956
 20
32.94307621600001
 10
-26.09563459679964
 20
33.52390539999999
 10
-25.37778330559956
 20
34.11933703680006
 10
-24.53917789439958
 20
34.72600998560006
 10
-23.55602137119956
 20
35.33270354080002
 10
-22.41690155359958
 20
35.91306254079995
 10
-21.19740246559956
 20
36.40560415679999
 10
-19.93995361279951
 20
36.78834682720003
 10
-18.67462472799968
 20
37.05517516960003
 10
-17.50726315199961
 20
37.20163051680003
 10
-16.45930196799952
 20
37.25409020799998
 10
-15.5160220719996
 20
37.23806511839995
 10
-14.66690170079948
 20
37.17229764479998
  0
LWPOLYLINE
  5
227F
330
1F
100
AcDbEntity
  8
0
100
AcDbPolyline
 90
       24
 70
     0
 43
0.0
 10
-28.30666837119963
 20
30.33203486080003
 10
-27.91499779199955
 20
30.8967982304
 10
-27.49491156799956
 20
31.44481626719993
 10
-27.04803877279948
 20
31.97358273279997
 10
-26.57624623519962
 20
32.48072815520004
 10
-26.08163783839961
 20
32.96403278080004
 10
-25.56532157279969
 20
33.42249079039993
 10
-25.02705463999962
 20
33.85630237279997
 10
-24.46718792799959
 20
34.26514382720006
 10
-23.88746174239952
 20
34.6476054656
 10
-23.29123593119959
 20
35.00150189279997
 10
-22.68077944799949
 20
35.32569734399999
 10
-22.0572682063995
 20
35.61973756639997
 10
-21.42109332959955
 20
35.88359378559994
 10
-20.77374269599965
 20
36.11678226560002
 10
-20.11741583199966
 20
36.31860599359993
 10
-19.45449164959961
 20
36.4885028832
 10
-18.78564144479958
 20
36.62645515040003
 10
-18.11079913759965
 20
36.73248948319997
 10
-17.4306556783996
 20
36.80644499360005
 10
-16.74621290559969
 20
36.8480905952
 10
-16.05868999519964
 20
36.85714554080004
 10
-15.3696607775995
 20
36.83344536160007
 10
-14.6808128287995
 20
36.77690899840001
  0
LWPOLYLINE
  5
2280
330
1F
100
AcDbEntity
  8
0
100
AcDbPolyline
 90
        4
 70
     0
 43
0.0
 10
-27.05961601119963
 20
32.59080633120004
 10
-26.94626318239954
 20
32.70956591679999
 10
-26.83167286399964
 20
32.82700574239993
 10
-26.71589710719956
 20
32.94307621600001
  0
LWPOLYLINE
  5
2281
330
1F
100
AcDbEntity
  8
0
100
AcDbPolyline
 90
       10
 70
     0
 43
0.0
 10
-28.65568837439957
 20
30.57773951679996
 10
-28.49904995039958
 20
30.81000105120006
 10
-28.3372853695995
 20
31.04033079839996
 10
-28.17037896159956
 20
31.26863755039994
 10
-27.99831109599961
 20
31.49482985600002
 10
-27.82105635519963
 20
31.71881912799995
 10
-27.63858879359952
 20
31.94051157119997
 10
-27.45088218879971
 20
32.1598067264
 10
-27.25790979839951
 20
32.37659863839997
 10
-27.05961601119963
 20
32.59080633120004
  0
LINE
  5
2282
330
1F
100
AcDbEntity
  8
0
100
AcDbLine
 10
-28.66460397119965
 20
30.56422982400002
 30
0.0
 11
-28.65568837439957
 21
30.57773951679999
 31
0.0
  0
LWPOLYLINE
  5
2283
330
1F
100
AcDbEntity
  8
0
100
AcDbPolyline
 90
        5
 70
     0
 43
0.0
 10
-12.64726860479947
 20
36.93649966719999
 10
-9.851208627199525
 20
36.62397930719999
 10
-7.334364147199607
 20
36.4096651968
 10
-5.05736264639961
 20
36.27010759840004
 10
-2.988957603199537
 20
36.18788188159999
  0
LWPOLYLINE
  5
2284
330
1F
100
AcDbEntity
  8
0
100
AcDbPolyline
 90
       14
 70
     0
 43
0.0
 10
-12.6931166383996
 20
36.54709598240003
 10
-11.44384905759955
 20
36.39847672480005
 10
-10.31842896799969
 20
36.27737069119996
 10
-9.301327308799614
 20
36.17839658880007
 10
-8.379550671999709
 20
36.09733468640001
 10
-7.542171131199552
 20
36.03085096799998
 10
-6.779757511999491
 20
35.97627530399995
 10
-6.084151235199556
 20
35.93145935359996
 10
-5.448634252799706
 20
35.894691072
 10
-4.867152623999686
 20
35.86456809920003
 10
-4.333947180799555
 20
35.83992768320001
 10
-3.843686654399675
 20
35.81982038720002
 10
-3.394279719999644
 20
35.80357412960006
 10
-2.985384379199672
 20
35.79066249440006
  0
LWPOLYLINE
  5
2285
330
1F
100
AcDbEntity
  8
0
100
AcDbPolyline
 90
       10
 70
     0
 43
0.0
 10
-6.384876164799493
 20
35.20132042720002
 10
-6.469156977599482
 20
35.20360741920001
 10
-7.128057499199599
 20
35.23163147679997
 10
-7.84225303839969
 20
35.2714041808
 10
-8.620415756799616
 20
35.32286795200002
 10
-9.465811631999599
 20
35.38451177920001
 10
-10.30243472959966
 20
35.44720001760004
 10
-11.11042079839956
 20
35.50504810879999
 10
-11.89261655359962
 20
35.55402918079994
 10
-12.6463084815997
 20
35.5900583376
  0
LWPOLYLINE
  5
2286
330
1F
100
AcDbEntity
  8
0
100
AcDbPolyline
 90
       27
 70
     0
 43
0.0
 10
-3.95822103359967
 20
33.32357379040002
 10
-4.338311590399712
 20
33.28573922240002
 10
-4.819781681599693
 20
33.23492520000002
 10
-5.311730385599616
 20
33.18139397920004
 10
-5.777938087999586
 20
33.12992625440006
 10
-6.23120636959959
 20
33.07949276160002
 10
-6.670772827199584
 20
33.03020751680003
 10
-7.095133308799518
 20
32.98229040479998
 10
-7.505296094399568
 20
32.93567031999998
 10
-7.903590953599518
 20
32.89008885759995
 10
-8.292775567999683
 20
32.84520452159995
 10
-8.676028827199502
 20
32.80058907520003
 10
-9.055985014399652
 20
32.75584186879996
 10
-9.433195404799675
 20
32.71077623359997
 10
-9.808683230399651
 20
32.66512313600003
 10
-10.18158132479959
 20
32.61884818399994
 10
-10.55174865759965
 20
32.57184505119994
 10
-10.92074563039966
 20
32.52377891360004
 10
-11.28918301439955
 20
32.47441735519998
 10
-11.65788147999967
 20
32.42348560319999
 10
-12.02787570719954
 20
32.37066168640001
 10
-12.39897139999959
 20
32.31578674880006
 10
-12.77064909759963
 20
32.25875754239996
 10
-13.14325655679965
 20
32.19934692959998
 10
-13.51627743839969
 20
32.13747399359999
 10
-13.88838628319956
 20
32.07322348479999
 10
-14.25892179839968
 20
32.00660761919994
  0
LWPOLYLINE
  5
2287
330
1F
100
AcDbEntity
  8
0
100
AcDbPolyline
 90
       16
 70
     0
 43
0.0
 10
-5.400264019199653
 20
34.18829539360001
 10
-5.700764441599517
 20
34.08120804160001
 10
-6.218450347199564
 20
33.92375498720002
 10
-6.783097847999556
 20
33.77970948799998
 10
-7.396956271999556
 20
33.64983458719996
 10
-8.060780900799613
 20
33.53541192319994
 10
-8.764268254399553
 20
33.43886248319995
 10
-9.408624108799699
 20
33.36911651679997
 10
-9.983115878399644
 20
33.31953486559996
 10
-10.51229261599962
 20
33.28263858399998
 10
-11.04711733759961
 20
33.25224239680006
 10
-11.59566531679968
 20
33.22611712319996
 10
-12.17020804319952
 20
33.20110105280003
 10
-12.79983847839969
 20
33.17134494560002
 10
-13.52329275039949
 20
33.12526382240003
 10
-14.25892179839968
 20
33.05368354560005
  0
LWPOLYLINE
  5
2288
330
1F
100
AcDbEntity
  8
0
100
AcDbPolyline
 90
        4
 70
     0
 43
0.0
 10
-14.25892179839968
 20
32.00660754720002
 10
-14.27702254879966
 20
32.00328576319998
 10
-14.2951071359995
 20
31.99993721279998
 10
-14.31317545919966
 20
31.99656190719997
  0
LWPOLYLINE
  5
2289
330
1F
100
AcDbEntity
  8
0
100
AcDbPolyline
 90
        4
 70
     0
 43
0.0
 10
-14.6442766287995
 20
37.16987428480001
 10
-13.98706912159957
 20
37.09703242080002
 10
-13.33039243039968
 20
37.02037107679996
 10
-12.67420943359968
 20
36.93988711359998
  0
LWPOLYLINE
  5
228A
330
1F
100
AcDbEntity
  8
0
100
AcDbPolyline
 90
        4
 70
     0
 43
0.0
 10
-12.6463084815997
 20
35.5900583376
 10
-13.26763100959954
 20
35.60779808960001
 10
-13.87899015679965
 20
35.61088082879996
 10
-14.47629348799966
 20
35.59608082559998
  0
LWPOLYLINE
  5
228B
330
1F
100
AcDbEntity
  8
0
100
AcDbPolyline
 90
        4
 70
     0
 43
0.0
 10
-14.6808128287995
 20
36.77690899840001
 10
-14.01011164159956
 20
36.70360016480003
 10
-13.34756203039967
 20
36.62689873279998
 10
-12.6931166383996
 20
36.54709598240003
  0
LINE
  5
228C
330
1F
100
AcDbEntity
  8
0
100
AcDbLine
 10
-14.66690170079948
 20
37.17229764480001
 30
0.0
 11
-14.6442766287995
 21
37.16987428480004
 31
0.0
  0
LINE
  5
228D
330
1F
100
AcDbEntity
  8
0
100
AcDbLine
 10
-12.67420943359968
 20
36.93988711360001
 30
0.0
 11
-12.64726860479947
 21
36.93649966720002
 31
0.0
  0
LWPOLYLINE
  5
228E
330
1F
100
AcDbEntity
  8
0
100
AcDbPolyline
 90
        9
 70
     0
 43
0.0
 10
-6.086246383999537
 20
35.65114599200001
 10
-6.220717945599631
 20
35.65987340000003
 10
-6.348378929599562
 20
35.66509807199997
 10
-6.462846092799622
 20
35.66622835039993
 10
-6.556234431999541
 20
35.66305415040005
 10
-6.623834115199656
 20
35.65601382720001
 10
-6.666613337599642
 20
35.64532746719999
 10
-6.683020751999606
 20
35.63105093600006
 10
-6.681019086399487
 20
35.62349583679997
  0
LWPOLYLINE
  5
228F
330
1F
100
AcDbEntity
  8
0
100
AcDbPolyline
 90
        6
 70
     0
 43
0.0
 10
-4.331180667199646
 20
33.49005523360006
 10
-4.906616945599694
 20
33.82469593280006
 10
-5.439566951999609
 20
34.21724426560001
 10
-5.923651409599528
 20
34.66284912159995
 10
-6.353077059199563
 20
35.15599673759993
 10
-6.681076943999528
 20
35.62349935199995
  0
LINE
  5
2290
330
1F
100
AcDbEntity
  8
0
100
AcDbLine
 10
-6.086246383999537
 20
35.65114599200004
 30
0.0
 11
-5.358094913599529
 21
35.59629485760004
 31
0.0
  0
LWPOLYLINE
  5
2291
330
1F
100
AcDbEntity
  8
0
100
AcDbPolyline
 90
        3
 70
     0
 43
0.0
 10
-3.81559899839965
 20
35.22722560960005
 10
-4.27505137919968
 20
35.20211152319996
 10
-4.430190391999644
 20
35.19726738880001
  0
LWPOLYLINE
  5
2292
330
1F
100
AcDbEntity
  8
0
100
AcDbPolyline
 90
        8
 70
     0
 43
0.0
 10
-5.358094913599529
 20
35.59629485760001
 10
-5.262441966399705
 20
35.58784852479993
 10
-5.16055879839962
 20
35.57623045599996
 10
-5.06174190559966
 20
35.56226617280003
 10
-4.973615286399649
 20
35.54708786719993
 10
-4.898740513599591
 20
35.53122350399997
 10
-4.842348724799535
 20
35.51586192479999
 10
-4.8072948527996
 20
35.50219531039999
  0
LWPOLYLINE
  5
2293
330
1F
100
AcDbEntity
  8
0
100
AcDbPolyline
 90
        3
 70
     0
 43
0.0
 10
-4.631749447999595
 20
35.41882737440005
 10
-4.613819763199558
 20
35.40813786559999
 10
-4.612549710399548
 20
35.40674079040002
  0
LWPOLYLINE
  5
2294
330
1F
100
AcDbEntity
  8
0
100
AcDbPolyline
 90
        3
 70
     0
 43
0.0
 10
-4.8072948527996
 20
35.50219531039999
 10
-4.721595891199626
 20
35.45992650719995
 10
-4.631749447999595
 20
35.41882737440005
  0
LWPOLYLINE
  5
229D
330
1F
100
AcDbEntity
  8
0
100
AcDbPolyline
 90
       24
 70
     0
 43
0.0
 10
28.30666837280034
 20
30.33203486080003
 10
27.91499779360049
 20
30.8967982304
 10
27.49491156800047
 20
31.44481626719993
 10
27.04803877280039
 20
31.97358273279997
 10
26.5762462352003
 20
32.48072815520004
 10
26.08163784000032
 20
32.96403278080004
 10
25.5653215744004
 20
33.42249079039993
 10
25.02705464160033
 20
33.85630237279997
 10
24.4671879296003
 20
34.26514382720006
 10
23.88746174240043
 20
34.6476054656
 10
23.2912359328003
 20
35.00150189279997
 10
22.68077944960043
 20
35.32569734399999
 10
22.05726820800043
 20
35.61973756639997
 10
21.42109333120049
 20
35.88359378559994
 10
20.77374269760036
 20
36.11678226560002
 10
20.11741583360037
 20
36.31860599359993
 10
19.45449165120033
 20
36.4885028832
 10
18.78564144640051
 20
36.62645515040003
 10
18.11079913920036
 20
36.73248948319997
 10
17.43065568000031
 20
36.80644499360005
 10
16.7462129072004
 20
36.8480905952
 10
16.05868999680035
 20
36.85714554080004
 10
15.36966077920044
 20
36.83344536160007
 10
14.68081283040044
 20
36.77690899840001
  0
LWPOLYLINE
  5
229E
330
1F
100
AcDbEntity
  8
0
100
AcDbPolyline
 90
       13
 70
     0
 43
0.0
 10
14.66690170080039
 20
37.17229764479998
 10
15.51602779680036
 20
37.23806539680003
 10
16.45656540480047
 20
37.25413024320005
 10
17.49537337920048
 20
37.20264221439993
 10
18.64182577600047
 20
37.06057688479996
 10
19.87603142240038
 20
36.80460662719997
 10
21.11072522080041
 20
36.43592942400005
 10
22.3301505456003
 20
35.95231740479994
 10
23.4997634480004
 20
35.36432112319994
 10
24.5113300320005
 20
34.74467423199996
 10
25.36793586400028
 20
34.12698911680001
 10
26.09459627840044
 20
33.52482324640004
 10
26.71589710720047
 20
32.94307621920006
  0
LWPOLYLINE
  5
229F
330
1F
100
AcDbEntity
  8
0
100
AcDbPolyline
 90
       34
 70
     0
 43
0.0
 10
23.49478493280037
 20
27.70836826560003
 10
23.44305883680033
 20
27.83252718560004
 10
23.41727785920045
 20
27.89427088479999
 10
23.39098551360041
 20
27.95697885760001
 10
23.36366326400036
 20
28.02179655359998
 10
23.33554927360034
 20
28.08807923519998
 10
23.30669266240045
 20
28.15564665119996
 10
23.27629914080046
 20
28.22628206399997
 10
23.24342065920029
 20
28.3020664864
 10
23.20697994560043
 20
28.38529353600006
 10
23.16582891680047
 20
28.47830658079999
 10
23.11884103840032
 20
28.58325907359994
 10
23.06490783040032
 20
28.70209817440002
 10
23.00517114080037
 20
28.83173164159996
 10
22.94344174080049
 20
28.96353655040002
 10
22.88382453600036
 20
29.08880419199999
 10
22.82666014080052
 20
29.20708968639996
 10
22.7713025328004
 20
29.31997517920001
 10
22.71711180640033
 20
29.42892703519999
 10
22.66291651840049
 20
29.53638507999994
 10
22.60765145440029
 20
29.64445176799995
 10
22.55233487360044
 20
29.75111987039997
 10
22.4979515552003
 20
29.85455621920005
 10
22.44274563520036
 20
29.9581343328
 10
22.38422380480039
 20
30.06639765919999
 10
22.31977726880052
 20
30.18382850240004
 10
22.24757764160051
 20
30.31319935040005
 10
22.17076849440047
 20
30.44834804159995
 10
22.09392391040034
 20
30.58105367999996
 10
22.01711311520046
 20
30.71125035199997
 10
21.93909006560045
 20
30.84104373759998
 10
21.85863349440035
 20
30.97234261439996
 10
21.77420885120034
 20
31.10739479040001
 10
21.68398468480029
 20
31.24870332160003
  0
LWPOLYLINE
  5
22A0
330
1F
100
AcDbEntity
  8
0
100
AcDbPolyline
 90
       19
 70
     0
 43
0.0
 10
23.20897326400029
 20
27.38887921920002
 10
23.06501604000038
 20
27.69660048959997
 10
22.89746161120035
 20
28.00683678400003
 10
22.70440575680038
 20
28.32027926239993
 10
22.48943757280051
 20
28.6296290816
 10
22.27465593280033
 20
28.90756901760005
 10
22.07444969280038
 20
29.14473715200006
 10
21.89040275040031
 20
29.34748899359999
 10
21.71982890720039
 20
29.52428515999997
 10
21.56174069440032
 20
29.67978704960001
 10
21.4160846048004
 20
29.81670230559996
 10
21.28363605920037
 20
29.93638952800006
 10
21.16372264480048
 20
30.04110209119994
 10
21.0522813552003
 20
30.13551710239994
 10
20.94447916320052
 20
30.224348448
 10
20.83576873600043
 20
30.31157355999994
 10
20.72526404800044
 20
30.39794023679997
 10
20.61364719040045
 20
30.48294141439999
 10
20.50164576160034
 20
30.56608624959995
  0
LWPOLYLINE
  5
22A1
330
1F
100
AcDbEntity
  8
0
100
AcDbPolyline
 90
       60
 70
     0
 43
0.0
 10
21.94994497920049
 20
26.66197889919999
 10
21.88505856800031
 20
26.77954575679996
 10
21.81772218400044
 20
26.89724954719997
 10
21.74788989760043
 20
27.01509388479996
 10
21.67551452160034
 20
27.13307785920005
 10
21.60055445600039
 20
27.25118568480002
 10
21.52297543040038
 20
27.36938615680003
 10
21.44274026880032
 20
27.48764971360003
 10
21.35980960480048
 20
27.60594704319998
 10
21.2741789904004
 20
27.72419831520005
 10
21.18583567040047
 20
27.84233774559993
 10
21.0947703136004
 20
27.96029655040001
 10
21.00101104000043
 20
28.07796140480002
 10
20.90462470080035
 20
28.19517985280004
 10
20.80571433920033
 20
28.31176959519996
 10
20.70429681120038
 20
28.42766142079995
 10
20.60035772160028
 20
28.54282307519997
 10
20.49389175360045
 20
28.6572111808
 10
20.3848775024004
 20
28.77080077760001
 10
20.27327471360047
 20
28.88358704639995
 10
20.15909251200048
 20
28.99551321600006
 10
20.04237240800045
 20
29.10649352639996
 10
19.92313752960046
 20
29.216463696
 10
19.8013902864003
 20
29.32537995999996
 10
19.67716032320038
 20
29.43317507200004
 10
19.55050914720038
 20
29.53975790879997
 10
19.42147647680042
 20
29.64506013599998
 10
19.29010811840032
 20
29.74901130080002
 10
19.15646075840038
 20
29.85153571199998
 10
19.02060240640037
 20
29.95255303680005
 10
18.8826264000005
 20
30.05196913439999
 10
18.74260885760043
 20
30.14970772640003
 10
18.60055363200046
 20
30.24574465599994
 10
18.45646684320047
 20
30.34005384319994
 10
18.31037436160033
 20
30.43259765920004
 10
18.16232240320039
 20
30.52332576799995
 10
18.01250132960046
 20
30.61210454399997
 10
17.86109735040042
 20
30.69881455359996
 10
17.70825188640048
 20
30.78337160640001
 10
17.55410269760034
 20
30.86570024640002
 10
17.39872113120043
 20
30.94576459999996
 10
17.24218473760049
 20
31.02352665759997
 10
17.08460542400041
 20
31.09893363840001
 10
16.9262211472004
 20
31.17187939519999
 10
16.76712739520041
 20
31.24233177280007
 10
16.60722656960035
 20
31.31034088640001
 10
16.44660190720048
 20
31.37587326080006
 10
16.28534154080045
 20
31.43889687839998
 10
16.12354157440051
 20
31.49938087359998
 10
15.9613226912005
 20
31.55728743359998
 10
15.79885349120047
 20
31.61256623680003
 10
15.63628194400041
 20
31.66518268000004
 10
15.47326637760045
 20
31.71525876800001
 10
15.30972954560036
 20
31.76281921760005
 10
15.14593516640036
 20
31.80779623679995
 10
14.98152150400039
 20
31.85030041760001
 10
14.81621947840051
 20
31.89040016479998
 10
14.65011763680047
 20
31.92807002079996
 10
14.48266895840049
 20
31.96342127039997
 10
14.31317546080038
 20
31.99656190719997
  0
CIRCLE
  5
22A2
330
1F
100
AcDbEntity
  8
0
100
AcDbCircle
 10
0.0000000000003411
 20
12.37500000000002
 30
0.0
 40
1.2714466064
  0
LWPOLYLINE
  5
22A3
330
1F
100
AcDbEntity
  8
0
100
AcDbPolyline
 90
       23
 70
     0
 43
0.0
 10
1.824121806400512
 20
12.375
 10
1.821407691200306
 20
12.46137017440003
 10
1.814061460800417
 20
12.55735632480002
 10
1.800106512000297
 20
12.66523556959998
 10
1.777044443200452
 20
12.78578183519994
 10
1.743334328000514
 20
12.91418132319995
 10
1.69838361760037
 20
13.04560115679999
 10
1.642841516800331
 20
13.17509996479998
 10
1.578136747200346
 20
13.29895250399999
 10
1.504309257600311
 20
13.41733135039999
 10
1.421787329600306
 20
13.52957895199995
 10
1.331105857600391
 20
13.63501296159995
 10
1.232831192000389
 20
13.73303680159995
 10
1.127376300800392
 20
13.82326438239999
 10
1.015486720000467
 20
13.90507431679998
 10
0.8984571184004153
 20
13.97766353279996
 10
0.777429428800474
 20
14.04061199520003
 10
0.6534626784003877
 20
14.09372915519998
 10
0.5271129824003538
 20
14.13712131520003
 10
0.3986035360004507
 20
14.17094780160005
 10
0.2679833280004686
 20
14.19528569600004
 10
0.1351444112004856
 20
14.21008003999998
 10
0.0000000000003411
 20
14.21509367039993
  0
LWPOLYLINE
  5
22A4
330
1F
100
AcDbEntity
  8
0
100
AcDbPolyline
 90
       26
 70
     0
 43
0.0
 10
0.0000000000003411
 20
10.49176433119998
 10
0.0947206912004504
 20
10.49418389120001
 10
0.1903489632003357
 20
10.50165647200003
 10
0.2865176096003097
 20
10.51442956319999
 10
0.3827943760003336
 20
10.53266302240001
 10
0.4781693568003221
 20
10.55628626399993
 10
0.5718053584004111
 20
10.58508527039998
 10
0.6634712784003796
 20
10.61892355999998
 10
0.7530581392003342
 20
10.65770371999997
 10
0.8406018592003192
 20
10.70142106399998
 10
0.9266318816004286
 20
10.75043028799996
 10
1.011641057600286
 20
10.80528644800006
 10
1.095926923200408
 20
10.86666044640003
 10
1.179504398400354
 20
10.93525123999995
 10
1.262194496000461
 20
11.011823176
 10
1.34388326720034
 20
11.0974949376
 10
1.424048054400486
 20
11.19335872320004
 10
1.501594676800436
 20
11.30017464319996
 10
1.574090240000373
 20
11.41672769599995
 10
1.639734404800378
 20
11.54201987199996
 10
1.696429953600386
 20
11.67341277920002
 10
1.743000073600455
 20
11.80858910560004
 10
1.779250852800373
 20
11.94695403519995
 10
1.8049231680003
 20
12.08747040959997
 10
1.81992587520051
 20
12.22960327520002
 10
1.824143820800486
 20
12.37287973759998
  0
LINE
  5
22A5
330
1F
100
AcDbEntity
  8
0
100
AcDbLine
 10
-1.824121806399602
 20
12.37500000000002
 30
0.0
 11
-1.824143820799577
 21
12.37287973760001
 31
0.0
  0
LINE
  5
22A6
330
1F
100
AcDbEntity
  8
0
100
AcDbLine
 10
-1.997090886399632
 20
12.37743180639998
 30
0.0
 11
-1.997111623999558
 21
12.37500000000002
 31
0.0
  0
LWPOLYLINE
  5
22A8
330
1F
100
AcDbEntity
  8
0
100
AcDbPolyline
 90
       26
 70
     0
 43
0.0
 10
-1.824143820799577
 20
12.37287973759998
 10
-1.819926641599636
 20
12.22961466560002
 10
-1.804924918399478
 20
12.08748257759998
 10
-1.779253028799644
 20
11.94696383680002
 10
-1.743002814399574
 20
11.8085981616
 10
-1.696432663999644
 20
11.67341978240006
 10
-1.639737451199493
 20
11.54202625920004
 10
-1.574101539199659
 20
11.41674743039993
 10
-1.501612870399526
 20
11.30020165279995
 10
-1.424065129599625
 20
11.19338058719995
 10
-1.34390074079954
 20
11.09751447040002
 10
-1.262213255999654
 20
11.01184164000005
 10
-1.179524977599498
 20
10.93526916639996
 10
-1.095951593599579
 20
10.86667950879996
 10
-1.011667924799553
 20
10.80530486400004
 10
-0.9266557535996753
 20
10.75044476799996
 10
-0.8406236831996238
 20
10.70143271680001
 10
-0.7530799007996621
 20
10.65771385599998
 10
-0.6634901471996955
 20
10.61893112159998
 10
-0.5718210495996346
 20
10.58509057599997
 10
-0.4781821871996499
 20
10.55628982400003
 10
-0.3828075887996647
 20
10.53266590719999
 10
-0.2865341375996877
 20
10.51443222080001
 10
-0.1903647871996554
 20
10.50165813440003
 10
-0.0947307343996045
 20
10.49418440800002
 10
0.0000000000003411
 20
10.49176433119998
  0
LWPOLYLINE
  5
22A9
330
1F
100
AcDbEntity
  8
0
100
AcDbPolyline
 90
       23
 70
     0
 43
0.0
 10
0.0000000000003411
 20
14.21509367039993
 10
-0.1353081647995395
 20
14.21006786079999
 10
-0.2683058895996737
 20
14.19523768960004
 10
-0.3990796655995155
 20
14.17084087039995
 10
-0.5277368687997069
 20
14.13693230240005
 10
-0.6542276335995894
 20
14.09343434080005
 10
-0.7783308479996549
 20
14.04018512000004
 10
-0.8994820127996945
 20
13.97708004959997
 10
-1.016616067199606
 20
13.9043123824
 10
-1.128583895999668
 20
13.82230776000005
 10
-1.234085017599568
 20
13.73187712000003
 10
-1.332384838399661
 20
13.63363454080001
 10
-1.423065716799669
 20
13.52797055999997
 10
-1.505559823999533
 20
13.41548432959996
 10
-1.579328281599487
 20
13.29686594240001
 10
-1.643951470399656
 20
13.17275867520004
 10
-1.699383755199619
 20
13.04299366079999
 10
-1.744124479999641
 20
12.91154771039998
 10
-1.777563486399571
 20
12.78346920319995
 10
-1.800373409599501
 20
12.66354273599995
 10
-1.814166131199613
 20
12.55631741119998
 10
-1.821433127999512
 20
12.46088373120005
 10
-1.824121806399602
 20
12.375
  0
LWPOLYLINE
  5
22AA
330
1F
100
AcDbEntity
  8
0
100
AcDbPolyline
 90
        7
 70
     0
 43
0.0
 10
-1.824143801599689
 20
12.37287973759998
 10
-1.848226526399571
 20
12.37326252799994
 10
-1.87482181919961
 20
12.37363614239995
 10
-1.903492054399634
 20
12.37399466720001
 10
-1.933765460799691
 20
12.37433243199996
 10
-1.965143889599517
 20
12.37464409919994
 10
-1.997111006399677
 20
12.37492475999999
  0
LWPOLYLINE
  5
22AB
330
1F
100
AcDbEntity
  8
0
100
AcDbPolyline
 90
       10
 70
     0
 43
0.0
 10
24.55907472000046
 20
20.87500168799999
 10
24.54197972960048
 20
20.13166552799998
 10
24.49024341440042
 20
19.38187522719999
 10
24.4035326000004
 20
18.6302059024
 10
24.28219880800031
 20
17.88217989279996
 10
24.12740930240045
 20
17.14380465919998
 10
23.94060806720028
 20
16.41899466400002
 10
23.72363064480043
 20
15.71129374400004
 10
23.47889075680052
 20
15.02443265919998
 10
23.20897326400029
 20
14.3611207824
  0
LWPOLYLINE
  5
22AC
330
1F
100
AcDbEntity
  8
0
100
AcDbPolyline
 90
       36
 70
     0
 43
0.0
 10
21.90936385920042
 20
15.11145062239995
 10
21.99062885280034
 20
15.26059386719998
 10
22.06982010400031
 20
15.41112145919998
 10
22.14689778720037
 20
15.56296695360003
 10
22.22182067520031
 20
15.7160560016
 10
22.2945411760005
 20
15.87029421919999
 10
22.36501573600037
 20
16.02558150879997
 10
22.43324584480035
 20
16.18191031679998
 10
22.49922214720038
 20
16.33925213439999
 10
22.56292329600035
 20
16.4975495456
 10
22.6243311120005
 20
16.65674676959997
 10
22.68343711520049
 20
16.81680975040001
 10
22.74024003040051
 20
16.97772503679994
 10
22.79474948160043
 20
17.13951428799998
 10
22.84695942720043
 20
17.30215483999995
 10
22.8968567312005
 20
17.46560259039995
 10
22.94442809280042
 20
17.62981234400001
 10
22.9896589680003
 20
17.7947291168
 10
23.03253774240045
 20
17.96029708159994
 10
23.07305597920037
 20
18.12646947839994
 10
23.1112086768004
 20
18.29321459039999
 10
23.14699318080045
 20
18.46051122719996
 10
23.18040571520043
 20
18.62833101440003
 10
23.2114418800005
 20
18.79664374879996
 10
23.24009844800036
 20
18.96542818880004
 10
23.26637195360047
 20
19.13466128959998
 10
23.29026119840034
 20
19.30433703519997
 10
23.31175925120044
 20
19.47441711199997
 10
23.33085441760033
 20
19.64481705280002
 10
23.34754174080046
 20
19.81547599520001
 10
23.36182059040049
 20
19.98635979999994
 10
23.37369188480045
 20
20.15747410079995
 10
23.38315094080042
 20
20.32877228960001
 10
23.39019445920041
 20
20.50021116480002
 10
23.39482127360031
 20
20.67177579040003
 10
23.39702989440036
 20
20.84345802719997
  0
LWPOLYLINE
  5
22AD
330
1F
100
AcDbEntity
  8
0
100
AcDbPolyline
 90
       18
 70
     0
 43
0.0
 10
16.86614815040036
 20
10.61892469919996
 10
17.01723861760035
 20
10.68816478559995
 10
17.16709276320045
 20
10.75940231840002
 10
17.31651005920037
 20
10.83302355360001
 10
17.46567992640041
 20
10.90915375680003
 10
17.61417513600042
 20
10.98760738240002
 10
17.76136108960042
 20
11.0680614368
 10
17.90636531520033
 20
11.15001156480002
 10
18.04896779360035
 20
11.23327491199995
 10
18.19024835520042
 20
11.31844970400004
 10
18.33109540960037
 20
11.4060992592
 10
18.47046035040045
 20
11.49560006239994
 10
18.60801234720031
 20
11.58673133119998
 10
18.74372895840031
 20
11.67945997280003
 10
18.87770018080038
 20
11.77382983359996
 10
19.00990377760047
 20
11.86981146239997
 10
19.14020014240043
 20
11.96728713920004
 10
19.26853176160045
 20
12.06619334239997
  0
LWPOLYLINE
  5
22AE
330
1F
100
AcDbEntity
  8
0
100
AcDbPolyline
 90
       27
 70
     0
 43
0.0
 10
19.26853176160045
 20
12.06619334239997
 10
19.40152960960051
 20
12.17185561600001
 10
19.53225997280048
 20
12.27898539520003
 10
19.66063690400039
 20
12.38748292000002
 10
19.78658466720037
 20
12.49725043199998
 10
19.91005422080036
 20
12.60820792480001
 10
20.03100892800046
 20
12.7202828032
 10
20.14942756960033
 20
12.83341421440002
 10
20.2652803232005
 20
12.94753099519994
 10
20.37851950880042
 20
13.06254053600002
 10
20.48914547840047
 20
13.17839540800002
 10
20.59719733440044
 20
13.29508880799994
 10
20.70269116160045
 20
13.41258856000001
 10
20.80563404640031
 20
13.53085363039997
 10
20.90600571040033
 20
13.64981100959994
 10
21.0037684656005
 20
13.76936299199996
 10
21.09887897920032
 20
13.88939837919997
 10
21.19121993280043
 20
14.00970014879999
 10
21.28076397920051
 20
14.13015277119995
 10
21.3675004640005
 20
14.25065663199996
 10
21.4514290624005
 20
14.37112167199996
 10
21.53256159360046
 20
14.49147202079996
 10
21.61093861920051
 20
14.6116744208
 10
21.68658917280038
 20
14.73168050560002
 10
21.75954753280041
 20
14.85145186559998
 10
21.82985555840048
 20
14.97096569439998
 10
21.89755346720051
 20
15.09020080319999
  0
LWPOLYLINE
  5
22AF
330
1F
100
AcDbEntity
  8
0
100
AcDbPolyline
 90
       19
 70
     0
 43
0.0
 10
23.20897326400029
 20
14.3611207824
 10
23.06501604000038
 20
14.05339951199994
 10
22.89746161120035
 20
13.74316321599997
 10
22.70440575680038
 20
13.42972073919997
 10
22.48943757280051
 20
13.12037092000002
 10
22.27465593280033
 20
12.84243098239994
 10
22.07444969280038
 20
12.60526284959996
 10
21.89040275040031
 20
12.4025110064
 10
21.71982890720039
 20
12.22571484000002
 10
21.56174069440032
 20
12.07021295039999
 10
21.4160846048004
 20
11.93329769599995
 10
21.28363605920037
 20
11.81361047359996
 10
21.16372264480048
 20
11.70889791039996
 10
21.0522813552003
 20
11.61448289760005
 10
20.94447916320052
 20
11.525651552
 10
20.83576873600043
 20
11.43842644000005
 10
20.72526404800044
 20
11.35205976480005
 10
20.61364719040045
 20
11.26705858560001
 10
20.50164576160034
 20
11.18391375040005
  0
LWPOLYLINE
  5
22B0
330
1F
100
AcDbEntity
  8
0
100
AcDbPolyline
 90
       37
 70
     0
 43
0.0
 10
23.54735727840045
 20
14.16575468159999
 10
23.52106748480048
 20
14.10431481119997
 10
23.49478493280037
 20
14.04163173439997
 10
23.46881737920046
 20
13.97931452479997
 10
23.44305883680033
 20
13.91747281439995
 10
23.41727785920045
 20
13.8557291152
 10
23.39098551360041
 20
13.79302114400002
 10
23.36366326400036
 20
13.72820344800004
 10
23.33554927360034
 20
13.66192076640004
 10
23.30669266240045
 20
13.59435335039995
 10
23.27629914080046
 20
13.52371793759994
 10
23.24342065920029
 20
13.44793351520002
 10
23.20697994560043
 20
13.36470646559996
 10
23.16582891680047
 20
13.27169342080003
 10
23.11884103840032
 20
13.16674092640005
 10
23.06490783040032
 20
13.04790182559997
 10
23.00517114080037
 20
12.91826835999995
 10
22.94344174080049
 20
12.7864634512
 10
22.88382453600036
 20
12.66119580960003
 10
22.82666014080052
 20
12.54291031360003
 10
22.7713025328004
 20
12.43002482079998
 10
22.71711180640033
 20
12.32107296480001
 10
22.66291651840049
 20
12.21361492000005
 10
22.60765145440029
 20
12.10554823359996
 10
22.55233487360044
 20
11.99888012960002
 10
22.4979515552003
 20
11.89544378079995
 10
22.44274563520036
 20
11.79186566880002
 10
22.38422380480039
 20
11.68360234240003
 10
22.31977726880052
 20
11.56617149759995
 10
22.24757764160051
 20
11.43680065119997
 10
22.17076849440047
 20
11.30165195999995
 10
22.09392391040034
 20
11.16894632000003
 10
22.01711311520046
 20
11.03874964800002
 10
21.93909006560045
 20
10.90895626240001
 10
21.85863349440035
 20
10.77765738719995
 10
21.77420885120034
 20
10.64260520959999
 10
21.68398468480029
 20
10.50129667839996
  0
LINE
  5
22B1
330
1F
100
AcDbEntity
  8
0
100
AcDbLine
 10
21.89755346720051
 20
15.09020080320001
 30
0.0
 11
21.9093638960004
 21
15.11145060160006
 31
0.0
  0
LWPOLYLINE
  5
22B2
330
1F
100
AcDbEntity
  8
0
100
AcDbPolyline
 90
       35
 70
     0
 43
0.0
 10
23.39717256160031
 20
20.87500041279997
 10
23.39646766880048
 20
21.05116563679996
 10
23.39321453440049
 20
21.22735228960004
 10
23.38741172320044
 20
21.40353347519999
 10
23.37905826400049
 20
21.57967779520004
 10
23.3681545440005
 20
21.75574589919995
 10
23.35470202240037
 20
21.93169413279997
 10
23.33870268320049
 20
22.107467552
 10
23.32015576960031
 20
22.28303578880002
 10
23.29906136480042
 20
22.45836727200003
 10
23.27542204640042
 20
22.63342201440002
 10
23.24924060000046
 20
22.80815761439999
 10
23.22051947520037
 20
22.98253374080002
 10
23.18926188160037
 20
23.15651170080002
 10
23.1554720208004
 20
23.33005097440002
 10
23.1191539792004
 20
23.50311175039996
 10
23.08031207040051
 20
23.67565483839996
 10
23.0389471232005
 20
23.84766042399996
 10
22.99506996960042
 20
24.01906527840003
 10
22.94868924320041
 20
24.18981682560001
 10
22.89981026560042
 20
24.35987878560001
 10
22.84843784640031
 20
24.52922287679996
 10
22.79457689280036
 20
24.69781745919999
 10
22.73823523200042
 20
24.86561958239997
 10
22.67942238560033
 20
25.03258540000001
 10
22.61814417920038
 20
25.19868608640001
 10
22.55441231360043
 20
25.36387671679995
 10
22.48824046240031
 20
25.52810930240002
 10
22.4196417648003
 20
25.69134099200005
 10
22.34863644320046
 20
25.8535138144
 10
22.27530112800047
 20
26.01445007359996
 10
22.19966768160031
 20
26.1740868096
 10
22.12176369600035
 20
26.33237889759993
 10
22.04162076800037
 20
26.48927492639995
 10
21.95926993440036
 20
26.64472607359994
  0
LWPOLYLINE
  5
22B3
330
1F
100
AcDbEntity
  8
0
100
AcDbPolyline
 90
       11
 70
     0
 43
0.0
 10
24.55907471680041
 20
20.87500168799999
 10
24.54523076000043
 20
21.54368060479999
 10
24.50337598400039
 20
22.21784966559994
 10
24.43319625920037
 20
22.89448452320005
 10
24.33482538880037
 20
23.56944729439999
 10
24.20891019040039
 20
24.23843689759996
 10
24.05643165600042
 20
24.89798340640004
 10
23.87859901920035
 20
25.54526341439998
 10
23.67683638560049
 20
26.17782307039999
 10
23.4529851296005
 20
26.79302016320002
 10
23.20897326400029
 20
27.38887921920002
  0
LINE
  5
22B4
330
1F
100
AcDbEntity
  8
0
100
AcDbLine
 10
23.39702989440036
 20
20.8434580272
 30
0.0
 11
23.39717256160031
 21
20.8750004128
 31
0.0
  0
LINE
  5
22B5
330
1F
100
AcDbEntity
  8
0
100
AcDbLine
 10
21.95926993440036
 20
26.64472607359996
 30
0.0
 11
21.94994501120038
 21
26.66197891840002
 31
0.0
  0
LWPOLYLINE
  5
22B6
330
1F
100
AcDbEntity
  8
0
100
AcDbPolyline
 90
        3
 70
     0
 43
0.0
 10
23.54735727840045
 20
27.58424532000003
 10
23.52106748480048
 20
27.64568518880003
 10
23.49478493280037
 20
27.70836826560003
  0
LWPOLYLINE
  5
22B8
330
1F
100
AcDbEntity
  8
0
100
AcDbPolyline
 90
       16
 70
     0
 43
0.0
 10
5.400264124800401
 20
34.18829535680004
 10
5.700764443200455
 20
34.08120804160001
 10
6.218450348800502
 20
33.92375498720002
 10
6.783097849600494
 20
33.77970948799998
 10
7.396956273600494
 20
33.64983458719996
 10
8.060780902400324
 20
33.53541192319994
 10
8.764268256000491
 20
33.43886248319995
 10
9.408624108800381
 20
33.36911651679997
 10
9.983115878400326
 20
33.31953486559996
 10
10.51229261760033
 20
33.28263858399998
 10
11.04711733920032
 20
33.25224239680006
 10
11.59566531840039
 20
33.22611712319996
 10
12.17020804480046
 20
33.20110105280003
 10
12.7998384800004
 20
33.17134494560002
 10
13.5232927504004
 20
33.12526382240003
 10
14.25892180000039
 20
33.05368354560005
  0
LWPOLYLINE
  5
22B9
330
1F
100
AcDbEntity
  8
0
100
AcDbPolyline
 90
        5
 70
     0
 43
0.0
 10
2.988957604800475
 20
36.18788188159999
 10
5.078196216000492
 20
36.27115127839999
 10
7.372885118400404
 20
36.41246932319996
 10
9.886380612800508
 20
36.62742278400003
 10
12.64726860480038
 20
36.93649966719999
  0
LWPOLYLINE
  5
22BA
330
1F
100
AcDbEntity
  8
0
100
AcDbPolyline
 90
       27
 70
     0
 43
0.0
 10
14.25892180000039
 20
32.00660761919994
 10
13.88750361280028
 20
32.07337898399998
 10
13.51438750880049
 20
32.13779376000002
 10
13.14039140640045
 20
32.19981270719995
 10
12.76685621120043
 20
32.25935051199996
 10
12.39422470080046
 20
32.31650133280004
 10
12.02222800960032
 20
32.37148174879996
 10
11.65143605760033
 20
32.42439011199997
 10
11.28186813920035
 20
32.47541173759998
 10
10.91254026560034
 20
32.52486205599996
 10
10.54264628640032
 20
32.57301480160004
 10
10.17157627040035
 20
32.62010317759996
 10
9.797664216000498
 20
32.66647565280004
 10
9.421194841600367
 20
32.71222135519997
 10
9.042877974400312
 20
32.75739542880001
 10
8.661911451200353
 20
32.80224102400007
 10
8.277284390400495
 20
32.84699856960003
 10
7.886325036800485
 20
32.89207172800002
 10
7.486601044800522
 20
32.93780200800006
 10
7.074958174400421
 20
32.98457573280006
 10
6.649043395200465
 20
33.03265243999999
 10
6.207821436800372
 20
33.08210419839997
 10
5.752514657600499
 20
33.13274376640004
 10
5.283742608000352
 20
33.18446743519996
 10
4.788096676800364
 20
33.23832809279997
 10
4.315648345600379
 20
33.28806879839999
 10
3.958150259200351
 20
33.32353875519993
  0
LWPOLYLINE
  5
22BB
330
1F
100
AcDbEntity
  8
0
100
AcDbPolyline
 90
       10
 70
     0
 43
0.0
 10
6.384875958400357
 20
35.20132042239993
 10
6.46915697920042
 20
35.20360741920001
 10
7.128057500800309
 20
35.23163147679997
 10
7.8422530400004
 20
35.2714041808
 10
8.620415758400326
 20
35.32286795200002
 10
9.46581163360031
 20
35.38451177920001
 10
10.30243473120037
 20
35.44720001760004
 10
11.11042079840046
 20
35.50504810879999
 10
11.89261655520033
 20
35.55402918079994
 10
12.64630848320041
 20
35.5900583376
  0
LWPOLYLINE
  5
22BC
330
1F
100
AcDbEntity
  8
0
100
AcDbPolyline
 90
       14
 70
     0
 43
0.0
 10
12.69311664000031
 20
36.54709598240003
 10
11.44384905760045
 20
36.39847672480005
 10
10.3184289696004
 20
36.27737069119996
 10
9.301327310400324
 20
36.17839658880007
 10
8.379550673600419
 20
36.09733468640001
 10
7.542171131200461
 20
36.03085096799998
 10
6.779757513600429
 20
35.97627530399995
 10
6.084151236800494
 20
35.93145935359996
 10
5.448634254400417
 20
35.894691072
 10
4.867152625600397
 20
35.86456809920003
 10
4.333947182400493
 20
35.83992768320001
 10
3.843686656000386
 20
35.81982038720002
 10
3.394279721600355
 20
35.80357412960006
 10
2.985384380800383
 20
35.79066249440006
  0
LWPOLYLINE
  5
22BD
330
1F
100
AcDbEntity
  8
0
100
AcDbPolyline
 90
        3
 70
     0
 43
0.0
 10
3.815599000000361
 20
35.22722560960005
 10
4.275051380800391
 20
35.20211152319996
 10
4.430191297600345
 20
35.19726736000007
  0
LWPOLYLINE
  5
22BE
330
1F
100
AcDbEntity
  8
0
100
AcDbPolyline
 90
        6
 70
     0
 43
0.0
 10
2.817583609600319
 20
34.13532255359996
 10
3.253744006400324
 20
34.31879740639999
 10
3.663723809600355
 20
34.54999191520005
 10
4.041655886400462
 20
34.82568803360004
 10
4.382118640000385
 20
35.14205095839997
 10
4.612564366400306
 20
35.40674162879998
  0
LWPOLYLINE
  5
22BF
330
1F
100
AcDbEntity
  8
0
100
AcDbPolyline
 90
        5
 70
     0
 43
0.0
 10
0.0000000000003411
 20
36.14375955519995
 10
0.7668124128005048
 20
36.14666520319997
 10
1.476968276800448
 20
36.1545360064
 10
2.203445857600513
 20
36.16774002240004
 10
2.988957604800475
 20
36.18788188159999
  0
LWPOLYLINE
  5
22C0
330
1F
100
AcDbEntity
  8
0
100
AcDbPolyline
 90
        4
 70
     0
 43
0.0
 10
2.985384380800383
 20
35.79066249440006
 10
1.99040667520046
 20
35.76633741440002
 10
0.9952684192004426
 20
35.75174175680001
 10
0.0000000000003411
 20
35.74687600159995
  0
LWPOLYLINE
  5
22C1
330
1F
100
AcDbEntity
  8
0
100
AcDbPolyline
 90
        7
 70
     0
 43
0.0
 10
-2.817583607999608
 20
34.13532255359996
 10
-2.034092783999653
 20
33.89985201280001
 10
-1.22915666399956
 20
33.74148122400004
 10
-0.41122076799968
 20
33.66186911039994
 10
0.411074003200497
 20
33.66186198720004
 10
1.229043811200313
 20
33.74146467519995
 10
2.034048075200303
 20
33.89984092639997
  0
LINE
  5
22C2
330
1F
100
AcDbEntity
  8
0
100
AcDbLine
 10
-2.703347228799543
 20
35.34355826560002
 30
0.0
 11
-2.6779058879996
 21
35.30322694400004
 31
0.0
  0
LWPOLYLINE
  5
22C3
330
1F
100
AcDbEntity
  8
0
100
AcDbPolyline
 90
       22
 70
     0
 43
0.0
 10
2.67790588960031
 20
35.30322694400001
 10
2.710576694400401
 20
35.29720816960002
 10
2.743446539200363
 20
35.2903160976
 10
2.77650900320043
 20
35.28261649759997
 10
2.809730848000413
 20
35.27417560319998
 10
2.843285905600509
 20
35.26499802080002
 10
2.878168155200341
 20
35.25482488160003
 10
2.915330979200348
 20
35.24334147199999
 10
2.95580053600031
 20
35.23015132160003
 10
3.000785435200327
 20
35.21473633279993
 10
3.05149113120035
 20
35.19651543520001
 10
3.109371849600506
 20
35.17475560799994
 10
3.175857656000403
 20
35.14867170080004
 10
3.248771827200357
 20
35.11893502880002
 10
3.323808302400379
 20
35.08730874080004
 10
3.397533582400342
 20
35.05540736800003
 10
3.469634478400507
 20
35.0235668176
 10
3.539951086400492
 20
34.9920242032
 10
3.6087685680003
 20
34.96078655359997
 10
3.677003227200316
 20
34.92953924640005
 10
3.745637492800483
 20
34.89790877439998
 10
3.987313260800306
 20
34.78604585439995
  0
LWPOLYLINE
  5
22C4
330
1F
100
AcDbEntity
  8
0
100
AcDbPolyline
 90
       13
 70
     0
 43
0.0
 10
3.815599000000361
 20
35.22722560960005
 10
3.71517258400047
 20
35.23427512960006
 10
3.617006876800473
 20
35.24175095839996
 10
3.520049736000487
 20
35.24972388800006
 10
3.423408268800471
 20
35.25827551040004
 10
3.32836156960036
 20
35.26729741119993
 10
3.234612288000448
 20
35.27681309759998
 10
3.141979129600372
 20
35.28684077439993
 10
3.051406624000378
 20
35.29726998880005
 10
2.962723235200314
 20
35.30810361279998
 10
2.875215756800457
 20
35.31942067039995
 10
2.788675987200463
 20
35.33124961919998
 10
2.703347230400481
 20
35.34355826559999
  0
LINE
  5
22C5
330
1F
100
AcDbEntity
  8
0
100
AcDbLine
 10
3.815599003200418
 20
34.86552819520003
 30
0.0
 11
3.815586614400331
 21
34.86601731040005
 31
0.0
  0
LINE
  5
22C6
330
1F
100
AcDbEntity
  8
0
100
AcDbLine
 10
2.703347230400481
 20
35.34355826560002
 30
0.0
 11
2.67790588960031
 21
35.30322694400004
 31
0.0
  0
LINE
  5
22C7
330
1F
100
AcDbEntity
  8
0
100
AcDbLine
 10
2.034048075200303
 20
33.8998409264
 30
0.0
 11
2.817583609600319
 21
34.13532255359999
 31
0.0
  0
LWPOLYLINE
  5
22C8
330
1F
100
AcDbEntity
  8
0
100
AcDbPolyline
 90
        9
 70
     0
 43
0.0
 10
6.086246384000446
 20
35.65114599200001
 10
6.22029184320047
 20
35.65985050719996
 10
6.347919992000356
 20
35.66508580959999
 10
6.46252424480042
 20
35.66623152479996
 10
6.556055990400295
 20
35.66306566239996
 10
6.623740937600473
 20
35.65602877920003
 10
6.666567976000465
 20
35.64534633599999
 10
6.683018080000351
 20
35.63106925119996
 10
6.681019147200345
 20
35.62349584000003
  0
LINE
  5
22C9
330
1F
100
AcDbEntity
  8
0
100
AcDbLine
 10
6.086246384000446
 20
35.65114599200004
 30
0.0
 11
5.358094915200467
 21
35.59629485760004
 31
0.0
  0
LWPOLYLINE
  5
22CA
330
1F
100
AcDbEntity
  8
0
100
AcDbPolyline
 90
        3
 70
     0
 43
0.0
 10
4.612549566400389
 20
35.40674077760002
 10
4.613817596800458
 20
35.40813570559999
 10
4.631749448000505
 20
35.41882737440005
  0
LWPOLYLINE
  5
22CB
330
1F
100
AcDbEntity
  8
0
100
AcDbPolyline
 90
        6
 70
     0
 43
0.0
 10
4.331180668800357
 20
33.49005523360006
 10
4.906616140800338
 20
33.82469540319994
 10
5.439565473600509
 20
34.21724304479994
 10
5.923649417600358
 20
34.6628470736
 10
6.353074736000394
 20
35.1559937472
 10
6.681076945600466
 20
35.62349935199995
  0
LWPOLYLINE
  5
22CC
330
1F
100
AcDbEntity
  8
0
100
AcDbPolyline
 90
        8
 70
     0
 43
0.0
 10
4.807294852800509
 20
35.50219531039999
 10
4.842348724800444
 20
35.51586192479999
 10
4.898740515200302
 20
35.53122350399997
 10
4.97361528800036
 20
35.54708786719993
 10
5.061741905600342
 20
35.56226617280003
 10
5.160558798400302
 20
35.57623045599996
 10
5.262441968000416
 20
35.58784852479993
 10
5.358094915200467
 20
35.59629485760001
  0
LWPOLYLINE
  5
22CD
330
1F
100
AcDbEntity
  8
0
100
AcDbPolyline
 90
        3
 70
     0
 43
0.0
 10
4.631749448000505
 20
35.41882737440005
 10
4.721588104000488
 20
35.45992280960001
 10
4.807294852800509
 20
35.50219531039999
  0
LWPOLYLINE
  5
22CE
330
1F
100
AcDbEntity
  8
0
100
AcDbPolyline
 90
       19
 70
     0
 43
0.0
 10
14.47629348960037
 20
35.59608082880004
 10
15.12013025440035
 20
35.55487912000001
 10
15.68558913920048
 20
35.49178222559999
 10
16.18908196480049
 20
35.40989843040006
 10
16.64284438560037
 20
35.31147923840001
 10
17.05544712160042
 20
35.19823445919996
 10
17.43522939040042
 20
35.07080268959998
 10
17.78878527360041
 20
34.92925077760003
 10
18.12128957280049
 20
34.77319471839996
 10
18.44345260480042
 20
34.59823005600003
 10
18.76369758880048
 20
34.39936960479997
 10
19.08479101440036
 20
34.17335063519999
 10
19.41768597280031
 20
33.90971137120004
 10
19.76465633280042
 20
33.60257721280004
 10
20.12432640000031
 20
33.24841888959997
 10
20.49636418240049
 20
32.84222494720006
 10
20.88050114720033
 20
32.37820612639996
 10
21.27653581760034
 20
31.84953905120005
 10
21.68398468480029
 20
31.24870332160003
  0
LWPOLYLINE
  5
22CF
330
1F
100
AcDbEntity
  8
0
100
AcDbPolyline
 90
       12
 70
     0
 43
0.0
 10
14.25892180000039
 20
33.05368355199993
 10
14.85707044160051
 20
32.96820436159999
 10
15.41324356640041
 20
32.86137489600003
 10
15.96511101920043
 20
32.72741696160005
 10
16.53956691200039
 20
32.55871739040003
 10
17.13927833120044
 20
32.35222444319993
 10
17.74821459840052
 20
32.11120951680004
 10
18.35208594080052
 20
31.84009660640004
 10
18.93836884960035
 20
31.54422890880005
 10
19.49693241280044
 20
31.22935283200002
 10
20.01959174240039
 20
30.9015752944
 10
20.50164576160034
 20
30.56608624959995
  0
LWPOLYLINE
  5
22D0
330
1F
100
AcDbEntity
  8
0
100
AcDbPolyline
 90
        4
 70
     0
 43
0.0
 10
14.31317546080038
 20
31.99656190719997
 10
14.29510717280038
 20
31.99993720639997
 10
14.27702258880037
 20
32.00328575520007
 10
14.25892180000039
 20
32.00660754720002
  0
LWPOLYLINE
  5
22D1
330
1F
100
AcDbEntity
  8
0
100
AcDbPolyline
 90
        4
 70
     0
 43
0.0
 10
12.64630848320041
 20
35.5900583376
 10
13.26763101120048
 20
35.60779808960001
 10
13.87899015840037
 20
35.61088082879996
 10
14.47629348800035
 20
35.59608082559998
  0
LINE
  5
22D2
330
1F
100
AcDbEntity
  8
0
100
AcDbLine
 10
14.64427663040044
 20
37.16987428480004
 30
0.0
 11
14.66690170080039
 21
37.17229764480001
 31
0.0
  0
LWPOLYLINE
  5
22D3
330
1F
100
AcDbEntity
  8
0
100
AcDbPolyline
 90
        4
 70
     0
 43
0.0
 10
12.67420943360036
 20
36.93988711359998
 10
13.33039243200039
 20
37.02037107679996
 10
13.98706912320051
 20
37.09703242080002
 10
14.64427663040044
 20
37.16987428480001
  0
LINE
  5
22D4
330
1F
100
AcDbEntity
  8
0
100
AcDbLine
 10
12.64726860480038
 20
36.93649966720002
 30
0.0
 11
12.67420943360036
 21
36.93988711360001
 31
0.0
  0
LWPOLYLINE
  5
22D5
330
1F
100
AcDbEntity
  8
0
100
AcDbPolyline
 90
        4
 70
     0
 43
0.0
 10
14.68081283040044
 20
36.77690899840001
 10
14.0101116432005
 20
36.70360016480003
 10
13.34756203200038
 20
36.62689873279998
 10
12.69311664000031
 20
36.54709598240003
  0
LWPOLYLINE
  5
22DD
330
1F
100
AcDbEntity
  8
0
100
AcDbPolyline
 90
       23
 70
     0
 43
0.0
 10
30.94608433120049
 20
20.87500001600005
 10
30.92958175840033
 20
21.67088922239997
 10
30.8802623840005
 20
22.46146414719999
 10
30.7984260960003
 20
23.24567682079998
 10
30.68430160960031
 20
24.02293150399998
 10
30.54112692320052
 20
24.77792863039997
 10
30.3787619312003
 20
25.47875455680002
 10
30.20767041440047
 20
26.10860869120006
 10
30.03618625760043
 20
26.66389157599997
 10
29.86902705280033
 20
27.15106658720003
 10
29.70757900800037
 20
27.58175290079998
 10
29.55215567840048
 20
27.96594354080002
 10
29.40334912160039
 20
28.309970496
 10
29.26163267040044
 20
28.61867455679998
 10
29.12717808160039
 20
28.89630679200001
 10
29.0002280864004
 20
29.14604750879993
 10
28.88092949280041
 20
29.37060981600007
 10
28.76918208800032
 20
29.57264206720003
 10
28.6646760800005
 20
29.75470840479999
 10
28.56691405920048
 20
29.91929521919996
 10
28.47523115840033
 20
30.06881581280004
 10
28.38881042400032
 20
30.20561846240002
 10
28.30666837120031
 20
30.33203486080003
  0
LWPOLYLINE
  5
22DE
330
1F
100
AcDbEntity
  8
0
100
AcDbPolyline
 90
       10
 70
     0
 43
0.0
 10
28.66460397280036
 20
30.56422982399999
 10
29.13257885760037
 20
29.79755159520005
 10
29.59062716480037
 20
28.92145857119999
 10
30.0299807088005
 20
27.92834952320004
 10
30.43777459200043
 20
26.81214432160004
 10
30.78786766400037
 20
25.60652780960003
 10
31.06852172480046
 20
24.31158416640005
 10
31.25387212320049
 20
23.04106803679997
 10
31.34728916320034
 20
21.90392802400003
 10
31.37430598080038
 20
20.87499999999999
  0
LWPOLYLINE
  5
22DF
330
1F
100
AcDbEntity
  8
0
100
AcDbPolyline
 90
       10
 70
     0
 43
0.0
 10
31.37430598080038
 20
20.87499999999999
 10
31.34737541440029
 20
19.84771201440003
 10
31.25585596160033
 20
18.72673400799999
 10
31.07945355680033
 20
17.49960332320006
 10
30.81067697280047
 20
16.23425371040002
 10
30.46427280480031
 20
15.019299928
 10
30.04811404320037
 20
13.86668559040003
 10
29.59961477440049
 20
12.84719361120005
 10
29.13614724640035
 20
11.95875701119996
 10
28.66460397280036
 20
11.185770176
  0
LWPOLYLINE
  5
22E0
330
1F
100
AcDbEntity
  8
0
100
AcDbPolyline
 90
       22
 70
     0
 43
0.0
 10
30.94608433120049
 20
20.87500001600005
 10
30.92797451520039
 20
20.04132280479996
 10
30.87386281120041
 20
19.21353816479995
 10
30.78410143040048
 20
18.39289412159996
 10
30.65919589440034
 20
17.58144701440005
 10
30.50382822880044
 20
16.79953595040001
 10
30.33035389120039
 20
16.08369132320001
 10
30.15016832640037
 20
15.4479271248
 10
29.97180091520033
 20
14.89288536640003
 10
29.79913273760042
 20
14.40814915520002
 10
29.63281164640045
 20
13.98001710719995
 10
29.47333895520035
 20
13.59914797919998
 10
29.32150872480031
 20
13.25964238400001
 10
29.1775385360005
 20
12.95603616480002
 10
29.04170278400044
 20
12.6842814304
 10
28.91424508480042
 20
12.44115507200001
 10
28.79512895840036
 20
12.22357671199995
 10
28.6840584208004
 20
12.02857241280003
 10
28.58050536320035
 20
11.85326368959999
 10
28.48373518880032
 20
11.6948607104
 10
28.39283059680031
 20
11.55065816959995
 10
28.30666837120031
 20
11.41796513919996
  0
LINE
  5
22E1
330
1F
100
AcDbEntity
  8
0
100
AcDbLine
 10
28.66460397280036
 20
11.18577017600003
 30
0.0
 11
28.65568837440048
 21
11.17226048320006
 31
0.0
  0
LWPOLYLINE
  5
22E3
330
1F
100
AcDbEntity
  8
0
100
AcDbPolyline
 90
        4
 70
     0
 43
0.0
 10
26.71589710720047
 20
32.94307621920006
 10
26.83167286560035
 20
32.82700574239993
 10
26.94626318400048
 20
32.70956591679999
 10
27.05961601280034
 20
32.59080633120004
  0
LINE
  5
22E4
330
1F
100
AcDbEntity
  8
0
100
AcDbLine
 10
28.65568837440048
 20
30.57773951679999
 30
0.0
 11
28.66460397280036
 21
30.56422982400002
 31
0.0
  0
LWPOLYLINE
  5
22E5
330
1F
100
AcDbEntity
  8
0
100
AcDbPolyline
 90
       10
 70
     0
 43
0.0
 10
27.05961601280034
 20
32.59080633120004
 10
27.25795217600046
 20
32.37655195360003
 10
27.45095471040042
 20
32.15972364319998
 10
27.63867992000053
 20
31.94040300159997
 10
27.82115525120036
 20
31.71869658720004
 10
27.9984076256004
 20
31.49470544480005
 10
28.17046370080049
 20
31.26852392160003
 10
28.33734960800041
 20
31.04024115200002
 10
28.49908569920046
 20
30.80994911039999
 10
28.65568837440048
 20
30.57773951679996
  0
ARC
  5
231B
330
1F
100
AcDbEntity
  8
0
100
AcDbCircle
 10
16.54218153978784
 20
19.06139106298906
 30
0.0
 40
17.03686366905948
100
AcDbArc
 50
271.6968930176992
 51
314.6488888751201
  0
ARC
  5
231C
330
1F
100
AcDbEntity
  8
0
100
AcDbCircle
 10
16.7950339808472
 20
18.96570973836742
 30
0.0
 40
18.5939584386699
100
AcDbArc
 50
270.9170379848277
 51
338.6221333671004
  0
ARC
  5
231D
330
1F
100
AcDbEntity
  8
0
100
AcDbCircle
 10
16.79497849051771
 20
18.96573927655946
 30
0.0
 40
18.21863219554026
100
AcDbArc
 50
270.9019444898377
 51
338.6222746005963
  0
ARC
  5
231E
330
1F
100
AcDbEntity
  8
0
100
AcDbCircle
 10
16.79487054964974
 20
18.96579673827713
 30
0.0
 40
17.52945219696104
100
AcDbArc
 50
270.8725658464049
 51
338.6225470836691
  0
ARC
  5
231F
330
1F
100
AcDbEntity
  8
0
100
AcDbCircle
 10
17.38816219793803
 20
18.97009030687195
 30
0.0
 40
16.38629266741902
100
AcDbArc
 50
312.768477625887
 51
337.8528272976859
  0
ARC
  5
2320
330
1F
100
AcDbEntity
  8
0
100
AcDbCircle
 10
0.0000000000003411
 20
595.2063399999999
 30
0.0
 40
593.4234249183999
100
AcDbArc
 50
270.2886421077002
 51
271.2214276657998
  0
ARC
  5
2321
330
1F
100
AcDbEntity
  8
0
100
AcDbCircle
 10
0.0000000000001137
 20
586.5989228560461
 30
0.0
 40
586.4739228560461
100
AcDbArc
 50
268.3298935202463
 51
271.6701064797536
  0
ARC
  5
2322
330
1F
100
AcDbEntity
  8
0
100
AcDbCircle
 10
0.0000000000001137
 20
586.5989426502437
 30
0.0
 40
586.098553963844
100
AcDbArc
 50
268.3298858118358
 51
271.6701141881642
  0
ARC
  5
2323
330
1F
100
AcDbEntity
  8
0
100
AcDbCircle
 10
0.0000000000020748
 20
586.5989790621695
 30
0.0
 40
585.4092889101695
100
AcDbArc
 50
268.3298716318343
 51
271.6701283681651
  0
ARC
  5
2324
330
1F
100
AcDbEntity
  8
0
100
AcDbCircle
 10
-0.1249999999996589
 20
595.2063399999999
 30
0.0
 40
593.4227207215999
100
AcDbArc
 50
271.4149004654997
 51
271.6579832004
  0
ARC
  5
2325
330
1F
100
AcDbEntity
  8
0
100
AcDbCircle
 10
0.7888318640029582
 20
523.4991832417355
 30
0.0
 40
521.7157927199703
100
AcDbArc
 50
271.3026826692556
 51
271.5090234642935
  0
ARC
  5
2326
330
1F
100
AcDbEntity
  8
0
100
AcDbCircle
 10
-16.54218153978595
 20
19.06139106301344
 30
0.0
 40
17.03686366908388
100
AcDbArc
 50
225.3511111219833
 51
268.3031069822999
  0
ARC
  5
2327
330
1F
100
AcDbEntity
  8
0
100
AcDbCircle
 10
-16.79503398084628
 20
18.96570973836743
 30
0.0
 40
18.59395843866991
100
AcDbArc
 50
201.3778666328991
 51
269.0829620151721
  0
ARC
  5
2328
330
1F
100
AcDbEntity
  8
0
100
AcDbCircle
 10
-16.79497849051682
 20
18.96573927655944
 30
0.0
 40
18.21863219554025
100
AcDbArc
 50
201.3777253994031
 51
269.0980555101623
  0
ARC
  5
2329
330
1F
100
AcDbEntity
  8
0
100
AcDbCircle
 10
-16.79487054964883
 20
18.96579673827713
 30
0.0
 40
17.52945219696103
100
AcDbArc
 50
201.3774529163303
 51
269.1274341535949
  0
ARC
  5
232A
330
1F
100
AcDbEntity
  8
0
100
AcDbCircle
 10
0.0000000000003411
 20
595.2063399999999
 30
0.0
 40
593.4234249183999
100
AcDbArc
 50
268.7785723342001
 51
269.7113578922996
  0
ARC
  5
232B
330
1F
100
AcDbEntity
  8
0
100
AcDbCircle
 10
-0.7888318636066458
 20
523.4991832776707
 30
0.0
 40
521.7157927559053
100
AcDbArc
 50
268.4909765356528
 51
268.6973173307905
  0
ARC
  5
232C
330
1F
100
AcDbEntity
  8
0
100
AcDbCircle
 10
0.1250000000003411
 20
595.2063399999999
 30
0.0
 40
593.4227207215999
100
AcDbArc
 50
268.3420167996
 51
268.5850995344
  0
ARC
  5
232D
330
1F
100
AcDbEntity
  8
0
100
AcDbCircle
 10
0.0000000000003411
 20
595.2063399999999
 30
0.0
 40
593.4236085152
100
AcDbArc
 50
269.7113578922996
 51
270.2886421077002
  0
ARC
  5
232E
330
1F
100
AcDbEntity
  8
0
100
AcDbCircle
 10
12.25644552717173
 20
20.81250000000002
 30
0.0
 40
23.49355447282874
100
AcDbArc
 50
338.4628024693006
 51
21.53719753069904
  0
ARC
  5
232F
330
1F
100
AcDbEntity
  8
0
100
AcDbCircle
 10
11.92664000000047
 20
20.87500000000003
 30
0.0
 40
23.4479713136
100
AcDbArc
 50
338.6141679710998
 51
21.38583202889979
  0
ARC
  5
2330
330
1F
100
AcDbEntity
  8
0
100
AcDbCircle
 10
11.92664000000047
 20
20.87500000000003
 30
0.0
 40
22.164934808
100
AcDbArc
 50
338.6142793623
 51
21.38572064240011
  0
ARC
  5
2331
330
1F
100
AcDbEntity
  8
0
100
AcDbCircle
 10
11.92664000000047
 20
20.87500000000003
 30
0.0
 40
22.75866984799999
100
AcDbArc
 50
338.6141679710998
 51
21.38583202889979
  0
ARC
  5
2332
330
1F
100
AcDbEntity
  8
0
100
AcDbCircle
 10
0.0000000000003411
 20
-553.4563399999999
 30
0.0
 40
593.4234249183999
100
AcDbArc
 50
88.77857233420014
 51
89.71135789229968
  0
ARC
  5
2333
330
1F
100
AcDbEntity
  8
0
100
AcDbCircle
 10
0.0000000000003979
 20
-544.848922856046
 30
0.0
 40
586.4739228560459
100
AcDbArc
 50
88.32989352024636
 51
91.67010647975365
  0
ARC
  5
2334
330
1F
100
AcDbEntity
  8
0
100
AcDbCircle
 10
0.0000000000003979
 20
-544.8489426502442
 30
0.0
 40
586.0985539638441
100
AcDbArc
 50
88.32988581183577
 51
91.67011418816422
  0
ARC
  5
2335
330
1F
100
AcDbEntity
  8
0
100
AcDbCircle
 10
0.0000000000003979
 20
-544.8489790621692
 30
0.0
 40
585.4092889101691
100
AcDbArc
 50
88.32987163183462
 51
91.67012836816537
  0
ARC
  5
2336
330
1F
100
AcDbEntity
  8
0
100
AcDbCircle
 10
16.66486288472634
 20
22.66905948944025
 30
0.0
 40
18.71169772517059
100
AcDbArc
 50
21.20471879516854
 51
88.6900692702461
  0
ARC
  5
2337
330
1F
100
AcDbEntity
  8
0
100
AcDbCircle
 10
16.79487054964972
 20
22.78420326172292
 30
0.0
 40
17.52945219696105
100
AcDbArc
 50
21.37745291633034
 51
89.12743415359502
  0
ARC
  5
2338
330
1F
100
AcDbEntity
  8
0
100
AcDbCircle
 10
16.79497849051777
 20
22.78426072344061
 30
0.0
 40
18.21863219554021
100
AcDbArc
 50
21.37772539940328
 51
89.09805551016244
  0
ARC
  5
2339
330
1F
100
AcDbEntity
  8
0
100
AcDbCircle
 10
16.54218153978685
 20
22.68860893698661
 30
0.0
 40
17.03686366908388
100
AcDbArc
 50
45.35111112198339
 51
88.3031069822999
  0
ARC
  5
233A
330
1F
100
AcDbEntity
  8
0
100
AcDbCircle
 10
-0.1249999999996589
 20
-553.4563399999999
 30
0.0
 40
593.4227207215999
100
AcDbArc
 50
88.34201679960001
 51
88.58509953450029
  0
ARC
  5
233B
330
1F
100
AcDbEntity
  8
0
100
AcDbCircle
 10
0.788831864002276
 20
-481.7491832417195
 30
0.0
 40
521.7157927199544
100
AcDbArc
 50
88.49097653570629
 51
88.69731733074416
  0
ARC
  5
233C
330
1F
100
AcDbEntity
  8
0
100
AcDbCircle
 10
16.54289243520054
 20
22.38382155360003
 30
0.0
 40
17.34136478559999
100
AcDbArc
 50
88.33527429670004
 51
88.34201678669977
  0
ARC
  5
233D
330
1F
100
AcDbEntity
  8
0
100
AcDbCircle
 10
-16.54218153978692
 20
22.68860893701099
 30
0.0
 40
17.03686366905948
100
AcDbArc
 50
91.69689301769922
 51
134.6488888751201
  0
ARC
  5
233E
330
1F
100
AcDbEntity
  8
0
100
AcDbCircle
 10
-16.66486288472543
 20
22.66905948944025
 30
0.0
 40
18.71169772517059
100
AcDbArc
 50
91.30993072975391
 51
158.7952812048314
  0
ARC
  5
233F
330
1F
100
AcDbEntity
  8
0
100
AcDbCircle
 10
-16.79497849051682
 20
22.78426072344062
 30
0.0
 40
18.21863219554023
100
AcDbArc
 50
90.90194448983773
 51
158.6222746005967
  0
ARC
  5
2340
330
1F
100
AcDbEntity
  8
0
100
AcDbCircle
 10
-16.79487054964882
 20
22.78420326172292
 30
0.0
 40
17.52945219696104
100
AcDbArc
 50
90.87256584640497
 51
158.6225470836696
  0
ARC
  5
2341
330
1F
100
AcDbEntity
  8
0
100
AcDbCircle
 10
0.0000000000003411
 20
-553.4563399999999
 30
0.0
 40
593.4234249183999
100
AcDbArc
 50
90.28864210770031
 51
91.22142766579985
  0
ARC
  5
2342
330
1F
100
AcDbEntity
  8
0
100
AcDbCircle
 10
-0.7888318636047984
 20
-481.7491832776638
 30
0.0
 40
521.7157927558985
100
AcDbArc
 50
91.30268266920962
 51
91.50902346434728
  0
ARC
  5
2343
330
1F
100
AcDbEntity
  8
0
100
AcDbCircle
 10
0.1250000000003411
 20
-553.4563399999999
 30
0.0
 40
593.4227207215999
100
AcDbArc
 50
91.4149004655999
 51
91.65798320039998
  0
ARC
  5
2344
330
1F
100
AcDbEntity
  8
0
100
AcDbCircle
 10
-16.54289243519963
 20
22.38382155360003
 30
0.0
 40
17.34136478559999
100
AcDbArc
 50
91.65798321339959
 51
91.66472570329997
  0
ARC
  5
2345
330
1F
100
AcDbEntity
  8
0
100
AcDbCircle
 10
0.0000000000003411
 20
-553.4563399999999
 30
0.0
 40
593.4236085152
100
AcDbArc
 50
89.71135789229968
 51
90.28864210770031
  0
ARC
  5
2346
330
1F
100
AcDbEntity
  8
0
100
AcDbCircle
 10
-12.25644552717085
 20
20.81250000000001
 30
0.0
 40
23.49355447282871
100
AcDbArc
 50
158.4628024693008
 51
201.537197530699
  0
ARC
  5
2347
330
1F
100
AcDbEntity
  8
0
100
AcDbCircle
 10
-11.92663999999956
 20
20.87500000000003
 30
0.0
 40
23.4479713136
100
AcDbArc
 50
158.6141679711002
 51
201.3858320288997
  0
ARC
  5
2348
330
1F
100
AcDbEntity
  8
0
100
AcDbCircle
 10
-11.92663999999956
 20
20.87500000000003
 30
0.0
 40
22.164934808
100
AcDbArc
 50
158.6142793621
 51
201.3857206422999
  0
ARC
  5
2349
330
1F
100
AcDbEntity
  8
0
100
AcDbCircle
 10
-11.92663999999956
 20
20.87500000000003
 30
0.0
 40
22.75866984799999
100
AcDbArc
 50
158.6141679711002
 51
201.3858320288997
  0
ARC
  5
234A
330
1F
100
AcDbEntity
  8
0
100
AcDbCircle
 10
-17.38816219794758
 20
22.77990969313191
 30
0.0
 40
16.38629266740911
100
AcDbArc
 50
132.7684776258693
 51
157.8528272973672
  0
ARC
  5
234B
330
1F
100
AcDbEntity
  8
0
100
AcDbCircle
 10
-17.3881670929187
 20
18.97008838659056
 30
0.0
 40
16.38628282245062
100
AcDbArc
 50
202.1471731554392
 51
227.2315232269365
  0
ARC
  5
234E
330
1F
100
AcDbEntity
  8
0
100
AcDbCircle
 10
17.38816709293453
 20
22.77991161339163
 30
0.0
 40
16.38628282244405
100
AcDbArc
 50
22.14717315565216
 51
47.23152322694843
  0
VIEWPORT
  5
2358
330
1B
100
AcDbEntity
 67
     1
  8
0
100
AcDbViewport
 10
5.499999879852054
 20
4.250000180221918
 30
0.0
 40
16.40109574499596
 41
8.993000381349579
 68
     1
 69
     1
1001
ACAD
1000
MVIEW
1002
{
1070
    16
1010
0.0
1020
0.0
1030
0.0
1010
0.0
1020
0.0
1030
1.0
1040
0.0
1040
8.993000381349579
1040
5.499999879852054
1040
4.250000180221918
1040
50.0
1040
0.0
1040
0.0
1070
     0
1070
   100
1070
     1
1070
     1
1070
     0
1070
     0
1070
     0
1070
     0
1040
0.0
1040
0.0
1040
0.0
1040
10.0
1040
10.0
1040
10.0
1040
10.0
1070
     0
1002
{
1002
}
1002
}
  0
VIEWPORT
  5
235A
330
1B
100
AcDbEntity
 67
     1
  8
0
100
AcDbViewport
 10
5.499999879852054
 20
4.250000180221918
 30
0.0
 40
8.799999807763287
 41
6.800000288355068
 68
     2
 69
     2
1001
ACAD
1000
MVIEW
1002
{
1070
    16
1010
0.0
1020
0.0
1030
0.0
1010
0.0
1020
0.0
1030
1.0
1040
0.0
1040
161.654488207597
1040
67.49024495742112
1040
15.10605955842659
1040
50.0
1040
0.0
1040
0.0
1070
     0
1070
   100
1070
     1
1070
     1
1070
     0
1070
     0
1070
     0
1070
     0
1040
0.0
1040
0.0
1040
0.0
1040
1.0
1040
1.0
1040
0.0
1040
0.0
1070
     0
1002
{
1002
}
1002
}
  0
ENDSEC
  0
SECTION
  2
OBJECTS
  0
DICTIONARY
  5
C
330
0
100
AcDbDictionary
  3
ACAD_GROUP
350
D
  3
ACAD_LAYOUT
350
1A
  3
ACAD_MLINESTYLE
350
17
  3
ACAD_PLOTSETTINGS
350
19
  3
ACAD_PLOTSTYLENAME
350
E
  3
ACDBHEADERROUNDTRIPXREC
350
2361
  0
DICTIONARY
  5
1C43
330
1F
100
AcDbDictionary
280
     1
  3
ACAD_LAYOUTSELFREF
360
2383
  0
DICTIONARY
  5
1C41
330
1B
100
AcDbDictionary
280
     1
  3
ACAD_LAYOUTSELFREF
360
2382
  0
DICTIONARY
  5
D
102
{ACAD_REACTORS
330
C
102
}
330
C
100
AcDbDictionary
  0
DICTIONARY
  5
1A
102
{ACAD_REACTORS
330
C
102
}
330
C
100
AcDbDictionary
  0
DICTIONARY
  5
17
102
{ACAD_REACTORS
330
C
102
}
330
C
100
AcDbDictionary
  3
STANDARD
350
18
  0
DICTIONARY
  5
19
102
{ACAD_REACTORS
330
C
102
}
330
C
100
AcDbDictionary
  0
ACDBDICTIONARYWDFLT
  5
E
102
{ACAD_REACTORS
330
C
102
}
330
C
100
AcDbDictionary
281
     1
  3
Normal
350
F
100
AcDbDictionaryWithDefault
340
F
  0
DICTIONARY
  5
2361
102
{ACAD_REACTORS
330
C
102
}
330
C
100
AcDbDictionary
  3
CEPSNTYPE
350
236B
  3
DIMSTYLEDATA
350
236F
  3
FINGERPRINTGUID
350
236C
  3
HYPERLINKBASE
350
2364
  3
INSUNITS
350
236A
  3
LAYOUTDICT
350
2366
  3
LWETCUNION
350
2369
  3
PLOTSETDICT
350
2367
  3
PLOTSTYLNAMDICT
350
2368
  3
PSVPSCALE
350
236E
  3
PUCSBASE
350
2372
  3
PUCSORGBACK
350
2378
  3
PUCSORGBOTTOM
350
2374
  3
PUCSORGFRONT
350
2377
  3
PUCSORGLEFT
350
2375
  3
PUCSORGRIGHT
350
2376
  3
PUCSORGTOP
350
2373
  3
PUCSORTHOREF
350
2370
  3
PUCSORTHOVIEW
350
2371
  3
STYLESHEET
350
2365
  3
TSTACKALIGN
350
2362
  3
TSTACKSIZE
350
2363
  3
UCSBASE
350
237B
  3
UCSORGBACK
350
2381
  3
UCSORGBOTTOM
350
237D
  3
UCSORGFRONT
350
2380
  3
UCSORGLEFT
350
237E
  3
UCSORGRIGHT
350
237F
  3
UCSORGTOP
350
237C
  3
UCSORTHOREF
350
2379
  3
UCSORTHOVIEW
350
237A
  3
VERSIONGUID
350
236D
  0
XRECORD
  5
2383
102
{ACAD_REACTORS
330
1C43
102
}
330
1C43
100
AcDbXrecord
340
1F
  0
XRECORD
  5
2382
102
{ACAD_REACTORS
330
1C41
102
}
330
1C41
100
AcDbXrecord
340
1B
  0
MLINESTYLE
  5
18
102
{ACAD_REACTORS
330
17
102
}
330
17
100
AcDbMlineStyle
  2
STANDARD
 70
     0
  3

 62
   256
 51
90.0
 52
90.0
 71
     2
 49
0.5
 62
   256
  6
BYLAYER
 49
-0.5
 62
   256
  6
BYLAYER
  0
ACDBPLACEHOLDER
  5
F
102
{ACAD_REACTORS
330
E
102
}
330
0
100
AcDbPlaceHolder
280
     0
  0
XRECORD
  5
236B
102
{ACAD_REACTORS
330
2361
102
}
330
2361
100
AcDbXrecord
 90
        0
  0
XRECORD
  5
236F
102
{ACAD_REACTORS
330
2361
102
}
330
2361
100
AcDbXrecord
1000
DSTYLE
1002
{
1070
   278
 70
     0
1070
   342
340
220
1070
   371
 70
     0
1070
   372
 70
     0
1002
}
  0
XRECORD
  5
236C
102
{ACAD_REACTORS
330
2361
102
}
330
2361
100
AcDbXrecord
  1

  0
XRECORD
  5
2364
102
{ACAD_REACTORS
330
2361
102
}
330
2361
100
AcDbXrecord
  1

  0
XRECORD
  5
236A
102
{ACAD_REACTORS
330
2361
102
}
330
2361
100
AcDbXrecord
 90
        1
  0
XRECORD
  5
2366
102
{ACAD_REACTORS
330
2361
102
}
330
2361
100
AcDbXrecord
340
1A
  0
XRECORD
  5
2369
102
{ACAD_REACTORS
330
2361
102
}
330
2361
100
AcDbXrecord
 90
    10781
  0
XRECORD
  5
2367
102
{ACAD_REACTORS
330
2361
102
}
330
2361
100
AcDbXrecord
340
19
  0
XRECORD
  5
2368
102
{ACAD_REACTORS
330
2361
102
}
330
2361
100
AcDbXrecord
340
E
  0
XRECORD
  5
236E
102
{ACAD_REACTORS
330
2361
102
}
330
2361
100
AcDbXrecord
 40
0.0
  0
XRECORD
  5
2372
102
{ACAD_REACTORS
330
2361
102
}
330
2361
100
AcDbXrecord
340
0
  0
XRECORD
  5
2378
102
{ACAD_REACTORS
330
2361
102
}
330
2361
100
AcDbXrecord
 10
0.0
 20
0.0
 30
0.0
  0
XRECORD
  5
2374
102
{ACAD_REACTORS
330
2361
102
}
330
2361
100
AcDbXrecord
 10
0.0
 20
0.0
 30
0.0
  0
XRECORD
  5
2377
102
{ACAD_REACTORS
330
2361
102
}
330
2361
100
AcDbXrecord
 10
0.0
 20
0.0
 30
0.0
  0
XRECORD
  5
2375
102
{ACAD_REACTORS
330
2361
102
}
330
2361
100
AcDbXrecord
 10
0.0
 20
0.0
 30
0.0
  0
XRECORD
  5
2376
102
{ACAD_REACTORS
330
2361
102
}
330
2361
100
AcDbXrecord
 10
0.0
 20
0.0
 30
0.0
  0
XRECORD
  5
2373
102
{ACAD_REACTORS
330
2361
102
}
330
2361
100
AcDbXrecord
 10
0.0
 20
0.0
 30
0.0
  0
XRECORD
  5
2370
102
{ACAD_REACTORS
330
2361
102
}
330
2361
100
AcDbXrecord
340
0
  0
XRECORD
  5
2371
102
{ACAD_REACTORS
330
2361
102
}
330
2361
100
AcDbXrecord
 70
     0
  0
XRECORD
  5
2365
102
{ACAD_REACTORS
330
2361
102
}
330
2361
100
AcDbXrecord
  1

  0
XRECORD
  5
2362
102
{ACAD_REACTORS
330
2361
102
}
330
2361
100
AcDbXrecord
 90
        1
  0
XRECORD
  5
2363
102
{ACAD_REACTORS
330
2361
102
}
330
2361
100
AcDbXrecord
 90
       70
  0
XRECORD
  5
237B
102
{ACAD_REACTORS
330
2361
102
}
330
2361
100
AcDbXrecord
340
0
  0
XRECORD
  5
2381
102
{ACAD_REACTORS
330
2361
102
}
330
2361
100
AcDbXrecord
 10
0.0
 20
0.0
 30
0.0
  0
XRECORD
  5
237D
102
{ACAD_REACTORS
330
2361
102
}
330
2361
100
AcDbXrecord
 10
0.0
 20
0.0
 30
0.0
  0
XRECORD
  5
2380
102
{ACAD_REACTORS
330
2361
102
}
330
2361
100
AcDbXrecord
 10
0.0
 20
0.0
 30
0.0
  0
XRECORD
  5
237E
102
{ACAD_REACTORS
330
2361
102
}
330
2361
100
AcDbXrecord
 10
0.0
 20
0.0
 30
0.0
  0
XRECORD
  5
237F
102
{ACAD_REACTORS
330
2361
102
}
330
2361
100
AcDbXrecord
 10
0.0
 20
0.0
 30
0.0
  0
XRECORD
  5
237C
102
{ACAD_REACTORS
330
2361
102
}
330
2361
100
AcDbXrecord
 10
0.0
 20
0.0
 30
0.0
  0
XRECORD
  5
2379
102
{ACAD_REACTORS
330
2361
102
}
330
2361
100
AcDbXrecord
340
0
  0
XRECORD
  5
237A
102
{ACAD_REACTORS
330
2361
102
}
330
2361
100
AcDbXrecord
 70
     0
  0
XRECORD
  5
236D
102
{ACAD_REACTORS
330
2361
102
}
330
2361
100
AcDbXrecord
  1
{2609977A-7F41-4A6C-8CE1-FC8722C09263}
  0
ENDSEC
  0
EOF
