  0
SECTION
  2
HEADER
  9
$ACADVER
  1
AC1014
  9
$ACADMAINTVER
 70
     9
  9
$DWGCODEPAGE
  3
ANSI_1252
  9
$INSBASE
 10
44.66788599815072
 20
34.73869848653773
 30
0.0
  9
$EXTMIN
 10
26.65113883214155
 20
27.63376430232627
 30
0.0
  9
$EXTMAX
 10
62.67556769913279
 20
60.4705249033308
 30
0.0000000000000152
  9
$LIMMIN
 10
0.0
 20
0.0
  9
$LIMMAX
 10
17.0
 20
11.0
  9
$ORTHOMODE
 70
     1
  9
$REGENMODE
 70
     1
  9
$FILLMODE
 70
     1
  9
$QTEXTMODE
 70
     0
  9
$MIRRTEXT
 70
     1
  9
$DRAGMODE
 70
     2
  9
$LTSCALE
 40
12.0
  9
$OSMODE
 70
    55
  9
$ATTMODE
 70
     1
  9
$TEXTSIZE
 40
0.2
  9
$TRACEWID
 40
0.05
  9
$TEXTSTYLE
  7
STANDARD
  9
$CLAYER
  8
0
  9
$CELTYPE
  6
BYLAYER
  9
$CECOLOR
 62
   256
  9
$CELTSCALE
 40
1.0
  9
$DELOBJ
 70
     1
  9
$DISPSILH
 70
     0
  9
$DIMSCALE
 40
16.0
  9
$DIMASZ
 40
0.1875
  9
$DIMEXO
 40
0.10625
  9
$DIMDLI
 40
0.646
  9
$DIMRND
 40
0.0
  9
$DIMDLE
 40
0.0
  9
$DIMEXE
 40
0.306
  9
$DIMTP
 40
0.0
  9
$DIMTM
 40
0.0
  9
$DIMTXT
 40
0.125
  9
$DIMCEN
 40
0.153
  9
$DIMTSZ
 40
0.0
  9
$DIMTOL
 70
     0
  9
$DIMLIM
 70
     0
  9
$DIMTIH
 70
     1
  9
$DIMTOH
 70
     1
  9
$DIMSE1
 70
     0
  9
$DIMSE2
 70
     0
  9
$DIMTAD
 70
     0
  9
$DIMZIN
 70
     0
  9
$DIMBLK
  1
_FILLED
  9
$DIMASO
 70
     1
  9
$DIMSHO
 70
     1
  9
$DIMPOST
  1

  9
$DIMAPOST
  1

  9
$DIMALT
 70
     0
  9
$DIMALTD
 70
     2
  9
$DIMALTF
 40
25.4
  9
$DIMLFAC
 40
1.0
  9
$DIMTOFL
 70
     0
  9
$DIMTVP
 40
0.0
  9
$DIMTIX
 70
     0
  9
$DIMSOXD
 70
     0
  9
$DIMSAH
 70
     1
  9
$DIMBLK1
  1
_FILLED
  9
$DIMBLK2
  1
_FILLED
  9
$DIMSTYLE
  2
STANDARD
  9
$DIMCLRD
 70
     0
  9
$DIMCLRE
 70
     0
  9
$DIMCLRT
 70
     0
  9
$DIMTFAC
 40
1.0
  9
$DIMGAP
 40
0.09
  9
$DIMJUST
 70
     0
  9
$DIMSD1
 70
     0
  9
$DIMSD2
 70
     0
  9
$DIMTOLJ
 70
     1
  9
$DIMTZIN
 70
     0
  9
$DIMALTZ
 70
     0
  9
$DIMALTTZ
 70
     0
  9
$DIMFIT
 70
     3
  9
$DIMUPT
 70
     0
  9
$DIMUNIT
 70
     2
  9
$DIMDEC
 70
     4
  9
$DIMTDEC
 70
     4
  9
$DIMALTU
 70
     2
  9
$DIMALTTD
 70
     2
  9
$DIMTXSTY
  7
STANDARD
  9
$DIMAUNIT
 70
     0
  9
$LUNITS
 70
     2
  9
$LUPREC
 70
     4
  9
$SKETCHINC
 40
0.1
  9
$FILLETRAD
 40
0.0
  9
$AUNITS
 70
     0
  9
$AUPREC
 70
     0
  9
$MENU
  1
acad
  9
$ELEVATION
 40
0.0
  9
$PELEVATION
 40
0.0
  9
$THICKNESS
 40
0.0
  9
$LIMCHECK
 70
     0
  9
$BLIPMODE
 70
     0
  9
$CHAMFERA
 40
0.0
  9
$CHAMFERB
 40
0.0
  9
$CHAMFERC
 40
0.0
  9
$CHAMFERD
 40
0.0
  9
$SKPOLY
 70
     0
  9
$TDCREATE
 40
2453683.493156655
  9
$TDUPDATE
 40
2453689.473264953
  9
$TDINDWG
 40
0.0133608912
  9
$TDUSRTIMER
 40
0.0133608912
  9
$USRTIMER
 70
     1
  9
$ANGBASE
 50
0.0
  9
$ANGDIR
 70
     0
  9
$PDMODE
 70
     3
  9
$PDSIZE
 40
0.3125
  9
$PLINEWID
 40
0.0
  9
$COORDS
 70
     1
  9
$SPLFRAME
 70
     0
  9
$SPLINETYPE
 70
     6
  9
$SPLINESEGS
 70
     8
  9
$ATTDIA
 70
     0
  9
$ATTREQ
 70
     1
  9
$HANDLING
 70
 22529
  9
$HANDSEED
  5
F8
  9
$SURFTAB1
 70
     6
  9
$SURFTAB2
 70
     6
  9
$SURFTYPE
 70
     6
  9
$SURFU
 70
     6
  9
$SURFV
 70
     6
  9
$UCSNAME
  2

  9
$UCSORG
 10
0.0
 20
0.0
 30
0.0
  9
$UCSXDIR
 10
1.0
 20
0.0
 30
0.0
  9
$UCSYDIR
 10
0.0
 20
1.0
 30
0.0
  9
$PUCSNAME
  2

  9
$PUCSORG
 10
0.0
 20
0.0
 30
0.0
  9
$PUCSXDIR
 10
1.0
 20
0.0
 30
0.0
  9
$PUCSYDIR
 10
0.0
 20
1.0
 30
0.0
  9
$USERI1
 70
     0
  9
$USERI2
 70
     0
  9
$USERI3
 70
     0
  9
$USERI4
 70
     0
  9
$USERI5
 70
     0
  9
$USERR1
 40
0.0
  9
$USERR2
 40
0.0
  9
$USERR3
 40
0.0
  9
$USERR4
 40
0.0
  9
$USERR5
 40
0.0
  9
$WORLDVIEW
 70
     1
  9
$SHADEDGE
 70
     3
  9
$SHADEDIF
 70
    70
  9
$TILEMODE
 70
     1
  9
$MAXACTVP
 70
    16
  9
$PINSBASE
 10
0.0
 20
0.0
 30
0.0
  9
$PLIMCHECK
 70
     0
  9
$PEXTMIN
 10
1.000000000000000E+20
 20
1.000000000000000E+20
 30
1.000000000000000E+20
  9
$PEXTMAX
 10
-1.000000000000000E+20
 20
-1.000000000000000E+20
 30
-1.000000000000000E+20
  9
$PLIMMIN
 10
0.0
 20
0.0
  9
$PLIMMAX
 10
12.0
 20
9.0
  9
$UNITMODE
 70
     0
  9
$VISRETAIN
 70
     0
  9
$PLINEGEN
 70
     1
  9
$PSLTSCALE
 70
     0
  9
$TREEDEPTH
 70
  3020
  9
$PICKSTYLE
 70
     1
  9
$CMLSTYLE
  2
STANDARD
  9
$CMLJUST
 70
     0
  9
$CMLSCALE
 40
1.0
  9
$PROXYGRAPHICS
 70
     0
  9
$MEASUREMENT
 70
     0
  0
ENDSEC
  0
SECTION
  2
CLASSES
  0
CLASS
  1
ACDBDICTIONARYWDFLT
  2
AcDbDictionaryWithDefault
  3
AutoCAD 2000
 90
        0
280
     1
281
     0
  0
CLASS
  1
ACDBPLACEHOLDER
  2
AcDbPlaceHolder
  3
AutoCAD 2000
 90
        0
280
     1
281
     0
  0
CLASS
  1
LAYOUT
  2
AcDbLayout
  3
AutoCAD 2000
 90
        0
280
     1
281
     0
  0
CLASS
  1
LWPOLYLINE
  2
AcDbPolyline
  3
AutoCAD 2000
 90
        0
280
     0
281
     1
  0
CLASS
  1
IMAGE
  2
AcDbRasterImage
  3
ISM
 90
      127
280
     1
281
     1
  0
CLASS
  1
OLE2FRAME
  2
AcDbOle2Frame
  3
AutoCAD 2000
 90
        0
280
     0
281
     1
  0
CLASS
  1
HATCH
  2
AcDbHatch
  3
AutoCAD 2000
 90
        0
280
     0
281
     1
  0
CLASS
  1
DICTIONARYVAR
  2
AcDbDictionaryVar
  3
AutoCAD 2000
 90
        0
280
     0
281
     0
  0
CLASS
  1
RASTERVARIABLES
  2
AcDbRasterVariables
  3
ISM
 90
        0
280
     1
281
     0
  0
CLASS
  1
IMAGEDEF
  2
AcDbRasterImageDef
  3
ISM
 90
        0
280
     1
281
     0
  0
CLASS
  1
IMAGEDEF_REACTOR
  2
AcDbRasterImageDefReactor
  3
ISM
 90
        1
280
     1
281
     0
  0
CLASS
  1
IDBUFFER
  2
AcDbIdBuffer
  3
AutoCAD 2000
 90
        0
280
     0
281
     0
  0
CLASS
  1
SPATIAL_FILTER
  2
AcDbSpatialFilter
  3
AutoCAD 2000
 90
        0
280
     0
281
     0
  0
CLASS
  1
XRECORD
  2
AcDbXrecord
  3
AutoCAD 2000
 90
        0
280
     0
281
     0
  0
CLASS
  1
SORTENTSTABLE
  2
AcDbSortentsTable
  3
AutoCAD 2000
 90
        0
280
     0
281
     0
  0
CLASS
  1
LAYER_INDEX
  2
AcDbLayerIndex
  3
AutoCAD 2000
 90
        0
280
     0
281
     0
  0
CLASS
  1
SPATIAL_INDEX
  2
AcDbSpatialIndex
  3
AutoCAD 2000
 90
        0
280
     0
281
     0
  0
CLASS
  1
OBJECT_PTR
  2
CAseDLPNTableRecord
  3
ASE-LPNTableRecord
 90
        1
280
     0
281
     0
  0
CLASS
  1
PLOTSETTINGS
  2
AcDbPlotSettings
  3
AutoCAD 2000
 90
        0
280
     1
281
     0
  0
CLASS
  1
VBA_PROJECT
  2
AcDbVbaProject
  3
acadvba
 90
        0
280
     1
281
     0
  0
CLASS
  1
WIPEOUT
  2
AcDbWipeout
  3
WipeOut|AutoCAD Express Tool|expresstools@autodesk.com
 90
      127
280
     1
281
     1
  0
CLASS
  1
WIPEOUTVARIABLES
  2
AcDbWipeoutVariables
  3
WipeOut|AutoCAD Express Tool|expresstools@autodesk.com
 90
        0
280
     1
281
     0
  0
CLASS
  1
RTEXT
  2
RText
  3
RText|AutoCAD Express Tool|expresstools@autodesk.com
 90
        0
280
     1
281
     1
  0
CLASS
  1
ARCALIGNEDTEXT
  2
AcDbArcAlignedText
  3
ATEXT|AutoCAD Express Tool|expresstools@autodesk.com
 90
        0
280
     1
281
     1
  0
CLASS
  1
LONG_TRANSACTION
  2
AcDbLongTransaction
  3
AutoCAD 2000
 90
        0
280
     1
281
     0
  0
CLASS
  1
LWPOLYLINE
  2
AcDbPolyline
  3
AutoCAD 2000
 90
        0
280
     0
281
     1
  0
CLASS
  1
HATCH
  2
AcDbHatch
  3
AutoCAD 2000
 90
        0
280
     0
281
     1
  0
CLASS
  1
XRECORD
  2
AcDbXrecord
  3
AutoCAD 2000
 90
        0
280
     0
281
     0
  0
CLASS
  1
LONG_TRANSACTION
  2
AcDbLongTransaction
  3
AutoCAD 2000
 90
        0
280
     0
281
     0
  0
CLASS
  1
LWPOLYLINE
  2
AcDbPolyline
  3
AutoCAD 2000
 90
        0
280
     0
281
     1
  0
CLASS
  1
HATCH
  2
AcDbHatch
  3
AutoCAD 2000
 90
        0
280
     0
281
     1
  0
CLASS
  1
XRECORD
  2
AcDbXrecord
  3
AutoCAD 2000
 90
        0
280
     0
281
     0
  0
ENDSEC
  0
SECTION
  2
TABLES
  0
TABLE
  2
VPORT
  5
1A
330
0
100
AcDbSymbolTable
 70
     3
  0
VPORT
  5
D4
330
1A
100
AcDbSymbolTableRecord
100
AcDbViewportTableRecord
  2
*ACTIVE
 70
     0
 10
0.0
 20
0.0
 11
1.0
 21
1.0
 12
44.6633529960644
 22
44.05214446958434
 13
0.0
 23
0.0
 14
1.0
 24
1.0
 15
0.0
 25
0.0
 16
0.0
 26
0.0
 36
1.0
 17
0.0
 27
0.0
 37
0.0
 40
40.18143474950384
 41
1.786792452830188
 42
50.0
 43
0.0
 44
0.0
 50
0.0
 51
0.0
 71
     0
 72
   100
 73
     1
 74
     1
 75
     0
 76
     0
 77
     0
 78
     0
  0
ENDTAB
  0
TABLE
  2
LTYPE
  5
11
330
0
100
AcDbSymbolTable
 70
     3
  0
LTYPE
  5
12
330
11
100
AcDbSymbolTableRecord
100
AcDbLinetypeTableRecord
  2
BYBLOCK
 70
     0
  3

 72
    65
 73
     0
 40
0.0
  0
LTYPE
  5
15
330
11
100
AcDbSymbolTableRecord
100
AcDbLinetypeTableRecord
  2
BYLAYER
 70
     0
  3

 72
    65
 73
     0
 40
0.0
  0
LTYPE
  5
7
330
11
100
AcDbSymbolTableRecord
100
AcDbLinetypeTableRecord
  2
CONTINUOUS
 70
     0
  3
Solid line
 72
    65
 73
     0
 40
0.0
  0
LTYPE
  5
2F
330
11
100
AcDbSymbolTableRecord
100
AcDbLinetypeTableRecord
  2
CENTER
 70
     0
  3
____ _ ____ _ ____ _ ____ _ ____ _ ____ _ ____
 72
    65
 73
     4
 40
0.6
 49
0.375
 74
     0
 49
-0.075
 74
     0
 49
0.075
 74
     0
 49
-0.075
 74
     0
  0
LTYPE
  5
75
330
11
100
AcDbSymbolTableRecord
100
AcDbLinetypeTableRecord
  2
HIDDEN
 70
     0
  3
- - - - - - - - - - - - - - - - - - - -
 72
    65
 73
     2
 40
0.2
 49
0.1
 74
     0
 49
-0.1
 74
     0
  0
ENDTAB
  0
TABLE
  2
LAYER
  5
E
330
0
100
AcDbSymbolTable
 70
     1
  0
LAYER
  5
6
330
E
100
AcDbSymbolTableRecord
100
AcDbLayerTableRecord
  2
0
 70
     0
 62
     7
  6
CONTINUOUS
  0
ENDTAB
  0
TABLE
  2
STYLE
  5
F
330
0
100
AcDbSymbolTable
 70
     1
  0
STYLE
  5
10
330
F
100
AcDbSymbolTableRecord
100
AcDbTextStyleTableRecord
  2
STANDARD
 70
     0
 40
0.0
 41
0.8
 50
0.0
 71
     0
 42
0.2
  3
txt
  4

  0
ENDTAB
  0
TABLE
  2
VIEW
  5
18
330
0
100
AcDbSymbolTable
 70
     0
  0
ENDTAB
  0
TABLE
  2
UCS
  5
19
330
0
100
AcDbSymbolTable
 70
     0
  0
ENDTAB
  0
TABLE
  2
APPID
  5
1C
330
0
100
AcDbSymbolTable
 70
     1
  0
APPID
  5
1D
330
1C
100
AcDbSymbolTableRecord
100
AcDbRegAppTableRecord
  2
ACAD
 70
     0
  0
ENDTAB
  0
TABLE
  2
DIMSTYLE
  5
1E
330
0
100
AcDbSymbolTable
 70
     1
  0
DIMSTYLE
105
26
330
1E
100
AcDbSymbolTableRecord
100
AcDbDimStyleTableRecord
  2
STANDARD
 70
     0
  3

  4

  5
_FILLED
  6
_FILLED
  7
_FILLED
 40
1.0
 41
0.1875
 42
0.10625
 43
0.646
 44
0.306
 45
0.0
 46
0.0
 47
0.0
 48
0.0
140
0.125
141
0.153
142
0.0
143
25.4
144
1.0
145
0.0
146
1.0
147
0.09
 71
     0
 72
     0
 73
     1
 74
     1
 75
     0
 76
     0
 77
     0
 78
     0
170
     0
171
     2
172
     0
173
     0
174
     0
175
     0
176
     0
177
     0
178
     0
270
     2
271
     4
272
     4
273
     2
274
     2
340
10
275
     0
280
     0
281
     0
282
     0
283
     1
284
     0
285
     0
286
     0
287
     3
288
     0
  0
ENDTAB
  0
TABLE
  2
BLOCK_RECORD
  5
1
330
0
100
AcDbSymbolTable
 70
     1
  0
BLOCK_RECORD
  5
2
102
{ACAD_XDICTIONARY
360
3
102
}
330
1
100
AcDbSymbolTableRecord
100
AcDbBlockTableRecord
  2
*MODEL_SPACE
  0
BLOCK_RECORD
  5
9
102
{ACAD_XDICTIONARY
360
A
102
}
330
1
100
AcDbSymbolTableRecord
100
AcDbBlockTableRecord
  2
*PAPER_SPACE
  0
BLOCK_RECORD
  5
29
330
1
100
AcDbSymbolTableRecord
100
AcDbBlockTableRecord
  2
_FILLED
  0
ENDTAB
  0
ENDSEC
  0
SECTION
  2
BLOCKS
  0
BLOCK
  5
5
330
2
100
AcDbEntity
  8
0
100
AcDbBlockBegin
  2
*MODEL_SPACE
 70
     0
 10
0.0
 20
0.0
 30
0.0
  3
*MODEL_SPACE
  1

  0
ENDBLK
  5
8
330
2
100
AcDbEntity
  8
0
100
AcDbBlockEnd
  0
BLOCK
  5
C
330
9
100
AcDbEntity
 67
     1
  8
0
100
AcDbBlockBegin
  2
*PAPER_SPACE
 70
     0
 10
0.0
 20
0.0
 30
0.0
  3
*PAPER_SPACE
  1

  0
ENDBLK
  5
D
330
9
100
AcDbEntity
 67
     1
  8
0
100
AcDbBlockEnd
  0
BLOCK
  5
2B
330
29
100
AcDbEntity
  8
0
100
AcDbBlockBegin
  2
_FILLED
 70
     0
 10
0.0
 20
0.0
 30
0.0
  3
_FILLED
  1

  0
SOLID
  5
2A
330
29
100
AcDbEntity
  8
0
  6
BYBLOCK
 62
     0
100
AcDbTrace
 10
0.0
 20
0.0
 30
0.0
 11
-1.0
 21
0.1666666667
 31
0.0
 12
-1.0
 22
-0.1666666667
 32
0.0
 13
-1.0
 23
-0.1666666667
 33
0.0
  0
ENDBLK
  5
2C
330
29
100
AcDbEntity
  8
0
  6
BYBLOCK
 62
     0
100
AcDbBlockEnd
  0
ENDSEC
  0
SECTION
  2
ENTITIES
  0
LWPOLYLINE
  5
2D
330
2
100
AcDbEntity
  8
0
  6
CONTINUOUS
100
AcDbPolyline
 90
        7
 70
     0
 43
0.0
 10
30.15008214047664
 20
53.36369848653774
 10
30.44714541415072
 20
51.28262884333773
 10
30.96635948615073
 20
48.30598117933774
 10
31.55794457095072
 20
45.45177177773773
 10
32.21992598375072
 20
43.07724064653773
 10
32.93539623015073
 20
40.47541750093773
 10
33.57349491655074
 20
38.39394337613773
  0
LINE
  5
2E
330
2
100
AcDbEntity
  8
0
  6
CENTER
 62
     1
100
AcDbLine
 10
44.66788599815072
 20
27.63869848653773
 30
0.0
 11
44.66788599815072
 21
60.46369848653774
 31
0.0
  0
LWPOLYLINE
  5
30
330
2
100
AcDbEntity
  8
0
  6
CONTINUOUS
100
AcDbPolyline
 90
       11
 70
     0
 43
0.0
 10
55.76143845255072
 20
38.38206876333773
 10
56.06495484775073
 20
39.34695457773773
 10
56.48640181415072
 20
40.76603292493773
 10
56.89911545575071
 20
42.25597720653772
 10
57.29719887815074
 20
43.79870251853772
 10
57.68442559335074
 20
45.03933516813773
 10
58.05920810855074
 20
46.73475349773773
 10
58.41810474535072
 20
48.51639774253773
 10
58.75504198535074
 20
50.38589397293772
 10
59.06237898535073
 20
52.34330373133773
 10
59.1981536656627
 20
53.36369848653774
  0
LWPOLYLINE
  5
31
330
2
100
AcDbEntity
  8
0
  6
CONTINUOUS
100
AcDbPolyline
 90
        5
 70
     0
 43
0.0
 10
33.57345579975071
 20
38.39403332973773
 10
33.78737664295073
 20
37.89769968813773
 10
34.23118686215073
 20
37.29606276493773
 10
34.68496479015072
 20
36.91172808493773
 10
35.07481758215073
 20
36.68246210893773
  0
LINE
  5
32
330
2
100
AcDbEntity
  8
0
  6
CONTINUOUS
100
AcDbLine
 10
51.36013523015072
 20
35.99205491373774
 30
0.0
 11
52.20296240935073
 21
36.18312269293773
 31
0.0
  0
ARC
  5
33
330
2
100
AcDbEntity
  8
0
  6
CONTINUOUS
100
AcDbCircle
 10
43.34466269255074
 20
35.86369848653773
 30
0.0
 40
0.34375
100
AcDbArc
 50
225.0
 51
270.0
  0
LWPOLYLINE
  5
34
330
2
100
AcDbEntity
  8
0
  6
CONTINUOUS
100
AcDbPolyline
 90
        3
 70
     0
 43
0.0
 10
43.73915485895074
 20
35.87441695373773
 10
42.90821451495074
 20
35.88053906893773
 10
42.79700031015074
 20
35.88098512173774
  0
LINE
  5
35
330
2
100
AcDbEntity
  8
0
  6
CONTINUOUS
100
AcDbLine
 10
41.54241380135073
 20
35.90140373293774
 30
0.0
 11
43.33550182055072
 21
35.87851276973774
 31
0.0
  0
LWPOLYLINE
  5
36
330
2
100
AcDbEntity
  8
0
  6
CONTINUOUS
100
AcDbPolyline
 90
        3
 70
     0
 43
0.0
 10
35.36128272135073
 20
36.55502330573773
 10
35.66861164615073
 20
36.44706024813773
 10
36.01501218215074
 20
36.35144401293773
  0
ARC
  5
37
330
2
100
AcDbEntity
  8
0
  6
CONTINUOUS
100
AcDbCircle
 10
39.41788599815072
 20
35.48869848653773
 30
0.0
 40
0.75
100
AcDbArc
 50
182.4172682108
 51
270.0
  0
LINE
  5
38
330
2
100
AcDbEntity
  8
0
  6
CONTINUOUS
100
AcDbLine
 10
37.98849591015073
 20
35.99094535373773
 30
0.0
 11
39.12174314695073
 21
35.95198988653773
 31
0.0
  0
LWPOLYLINE
  5
39
330
2
100
AcDbEntity
  8
0
  6
CONTINUOUS
100
AcDbPolyline
 90
        3
 70
     0
 43
0.0
 10
37.93731790695074
 20
35.99543923693773
 10
38.65896031335072
 20
35.96737678413773
 10
39.41181255175072
 20
35.94494512493774
  0
LWPOLYLINE
  5
3A
330
2
100
AcDbEntity
  8
0
  6
CONTINUOUS
100
AcDbPolyline
 90
        6
 70
     0
 43
0.0
 10
36.35045613895073
 20
36.27704011533773
 10
36.44479437895071
 20
36.25934647853773
 10
36.63491858215073
 20
36.23090613773773
 10
36.81412462375073
 20
36.21067026733773
 10
37.00413360295073
 20
36.19366674093773
 10
37.14639879655072
 20
36.18291147533773
  0
LINE
  5
3B
330
2
100
AcDbEntity
  8
0
  6
CONTINUOUS
100
AcDbLine
 10
36.01501218215074
 20
36.35144401293773
 30
0.0
 11
36.35376045415071
 21
36.27637405773773
 31
0.0
  0
LINE
  5
3C
330
2
100
AcDbEntity
  8
0
  6
CONTINUOUS
100
AcDbLine
 10
38.24431568135074
 20
35.95369733613773
 30
0.0
 11
38.36347942855073
 21
35.88243959853773
 31
0.0
  0
LINE
  5
3D
330
2
100
AcDbEntity
  8
0
  6
CONTINUOUS
100
AcDbLine
 10
38.16300946375074
 20
35.98494643533773
 30
0.0
 11
38.24431568135074
 21
35.95369733613773
 31
0.0
  0
LWPOLYLINE
  5
3E
330
2
100
AcDbEntity
  8
0
  6
CONTINUOUS
100
AcDbPolyline
 90
        4
 70
     0
 43
0.0
 10
38.36347942855073
 20
35.88243959853773
 10
38.47752576455073
 20
35.77919653613774
 10
38.57286208455073
 20
35.64632864973773
 10
38.64004568935072
 20
35.63247195053773
  0
LINE
  5
3F
330
2
100
AcDbEntity
  8
0
  6
CONTINUOUS
100
AcDbLine
 10
38.64004568935072
 20
35.63247195053773
 30
0.0
 11
38.66855088295074
 21
35.45706109613773
 31
0.0
  0
LINE
  5
40
330
2
100
AcDbEntity
  8
0
  6
CONTINUOUS
100
AcDbLine
 10
37.14315192135072
 20
36.18314518893773
 30
0.0
 11
37.98849591015073
 21
35.99094535373773
 31
0.0
  0
LINE
  5
41
330
2
100
AcDbEntity
  8
0
  6
CONTINUOUS
100
AcDbLine
 10
40.15688637895073
 20
35.92707146733773
 30
0.0
 11
41.89405576935072
 21
35.89589007373774
 31
0.0
  0
LWPOLYLINE
  5
42
330
2
100
AcDbEntity
  8
0
  6
CONTINUOUS
100
AcDbPolyline
 90
        6
 70
     0
 43
0.0
 10
40.68482723495072
 20
35.54531394573773
 10
40.74066718535073
 20
35.55085957133774
 10
40.82586114535073
 20
35.68487515373773
 10
40.93343409575072
 20
35.79464335213773
 10
41.05657841575072
 20
35.87765069773773
 10
41.12973595655072
 20
35.90891518253773
  0
LINE
  5
43
330
2
100
AcDbEntity
  8
0
  6
CONTINUOUS
100
AcDbLine
 10
40.66531962375072
 20
35.42671313453773
 30
0.0
 11
40.68482723495072
 21
35.54531394573773
 31
0.0
  0
LINE
  5
44
330
2
100
AcDbEntity
  8
0
  6
CONTINUOUS
100
AcDbLine
 10
39.91788599815072
 20
34.73869848653773
 30
0.0
 11
39.41788599815072
 21
34.73869848653773
 31
0.0
  0
LINE
  5
45
330
2
100
AcDbEntity
  8
0
  6
CONTINUOUS
100
AcDbLine
 10
39.12174314695073
 20
35.95198988653773
 30
0.0
 11
40.42804781255074
 21
35.92087295693773
 31
0.0
  0
ARC
  5
46
330
2
100
AcDbEntity
  8
0
  6
CONTINUOUS
100
AcDbCircle
 10
39.91788599815072
 20
35.48869848653773
 30
0.0
 40
0.75
100
AcDbArc
 50
270.0
 51
355.2592939293
  0
LINE
  5
47
330
2
100
AcDbEntity
  8
0
  6
CONTINUOUS
100
AcDbLine
 10
42.68792891815073
 20
35.87984103373773
 30
0.0
 11
42.68735725735072
 21
35.87923907053773
 31
0.0
  0
LINE
  5
48
330
2
100
AcDbEntity
  8
0
  6
CONTINUOUS
100
AcDbLine
 10
42.68698423815073
 20
35.87926231693773
 30
0.0
 11
42.68689264135073
 21
35.87926885933773
 31
0.0
  0
LINE
  5
49
330
2
100
AcDbEntity
  8
0
  6
CONTINUOUS
100
AcDbLine
 10
42.52782138695073
 20
35.88824973293773
 30
0.0
 11
42.68735736775073
 21
35.87924071213773
 31
0.0
  0
LINE
  5
4A
330
2
100
AcDbEntity
  8
0
  6
CONTINUOUS
100
AcDbLine
 10
42.68745064135072
 20
35.87923370733774
 30
0.0
 11
42.68904411975071
 21
35.87915479053773
 31
0.0
  0
LWPOLYLINE
  5
4B
330
2
100
AcDbEntity
  8
0
  6
CONTINUOUS
100
AcDbPolyline
 90
        4
 70
     0
 43
0.0
 10
42.79700031015074
 20
35.88098512173774
 10
42.74853228935072
 20
35.88084136653773
 10
42.71029383335073
 20
35.88043699693773
 10
42.68792891815073
 20
35.87984103373773
  0
LWPOLYLINE
  5
4C
330
2
100
AcDbEntity
  8
0
  6
CONTINUOUS
100
AcDbPolyline
 90
        5
 70
     0
 43
0.0
 10
42.68691164935072
 20
35.87926669293773
 10
42.68770162375074
 20
35.87917664813773
 10
42.69104597095074
 20
35.87851494093773
 10
42.70220878855073
 20
35.87302744173773
 10
42.70517811335074
 20
35.87041323533773
  0
LINE
  5
4D
330
2
100
AcDbEntity
  8
0
  6
CONTINUOUS
100
AcDbLine
 10
43.10159473735072
 20
35.62063053133773
 30
0.0
 11
42.70517422215073
 21
35.87041707693773
 31
0.0
  0
LINE
  5
4E
330
2
100
AcDbEntity
  8
0
  6
CONTINUOUS
100
AcDbLine
 10
35.07481758215073
 20
36.68246210893773
 30
0.0
 11
35.36421449575072
 21
36.55386495853773
 31
0.0
  0
LINE
  5
4F
330
2
100
AcDbEntity
  8
0
  6
CONTINUOUS
100
AcDbLine
 10
45.64667671015072
 20
35.87531805453773
 30
0.0
 11
48.88712361095073
 21
35.92144469133773
 31
0.0
  0
ARC
  5
50
330
2
100
AcDbEntity
  8
0
  6
CONTINUOUS
100
AcDbCircle
 10
44.91788599815072
 20
35.48869848653773
 30
0.0
 40
0.75
100
AcDbArc
 50
270.0
 51
356.6600762658
  0
LINE
  5
51
330
2
100
AcDbEntity
  8
0
  6
CONTINUOUS
100
AcDbLine
 10
44.66788622535074
 20
35.87274630573773
 30
0.0
 11
45.64666705895072
 21
35.87532444493774
 31
0.0
  0
LINE
  5
52
330
2
100
AcDbEntity
  8
0
  6
CONTINUOUS
100
AcDbLine
 10
44.63184639655074
 20
35.87130431853774
 30
0.0
 11
45.64667671015072
 21
35.87531805453773
 31
0.0
  0
LINE
  5
53
330
2
100
AcDbEntity
  8
0
  6
CONTINUOUS
100
AcDbLine
 10
43.35813119815074
 20
35.51994848653773
 30
0.0
 11
45.99110930215073
 21
35.51994848653773
 31
0.0
  0
LWPOLYLINE
  5
54
330
2
100
AcDbEntity
  8
0
  6
CONTINUOUS
100
AcDbPolyline
 90
        3
 70
     0
 43
0.0
 10
44.66788599815072
 20
35.86369848653773
 10
44.64993783975072
 20
35.86368823853773
 10
44.63184639655074
 20
35.87130431853774
  0
ARC
  5
55
330
2
100
AcDbEntity
  8
0
  6
CONTINUOUS
100
AcDbCircle
 10
44.41788599815072
 20
35.48869848653773
 30
0.0
 40
0.75
100
AcDbArc
 50
183.3399052697999
 51
270.0
  0
LINE
  5
56
330
2
100
AcDbEntity
  8
0
  6
CONTINUOUS
100
AcDbLine
 10
43.34442675335071
 20
35.51994848653773
 30
0.0
 11
43.35813119815074
 21
35.51994848653773
 31
0.0
  0
LINE
  5
57
330
2
100
AcDbEntity
  8
0
  6
CONTINUOUS
100
AcDbLine
 10
43.65806303975074
 20
35.51994848653773
 30
0.0
 11
43.66916001255072
 21
35.44500400813773
 31
0.0
  0
LWPOLYLINE
  5
58
330
2
100
AcDbEntity
  8
0
  6
CONTINUOUS
100
AcDbPolyline
 90
        3
 70
     0
 43
0.0
 10
44.63184639655074
 20
35.87130431853774
 10
44.17593109415074
 20
35.86435522733774
 10
43.74264710535072
 20
35.87405019053774
  0
LINE
  5
59
330
2
100
AcDbEntity
  8
0
  6
CONTINUOUS
100
AcDbLine
 10
44.41788599815072
 20
34.73869848653773
 30
0.0
 11
44.91788599815072
 21
34.73869848653773
 31
0.0
  0
LINE
  5
5A
330
2
100
AcDbEntity
  8
0
  6
CONTINUOUS
100
AcDbLine
 10
46.77760317255073
 20
35.89070313613774
 30
0.0
 11
46.75789782375074
 21
35.89016826893773
 31
0.0
  0
LWPOLYLINE
  5
5B
330
2
100
AcDbEntity
  8
0
  6
CONTINUOUS
100
AcDbPolyline
 90
        3
 70
     0
 43
0.0
 10
46.91464131815073
 20
35.89380988173774
 10
46.99141443015074
 20
35.89743176333773
 10
46.99711413255073
 20
35.89767682573773
  0
ARC
  5
5C
330
2
100
AcDbEntity
  8
0
  6
CONTINUOUS
100
AcDbCircle
 10
45.99110930215073
 20
35.86369848653773
 30
0.0
 40
0.34375
100
AcDbArc
 50
270.0
 51
315.0
  0
LINE
  5
5D
330
2
100
AcDbEntity
  8
0
  6
CONTINUOUS
100
AcDbLine
 10
45.66660850055072
 20
35.44500409133773
 30
0.0
 11
45.68087892615074
 21
35.51994848653773
 31
0.0
  0
LINE
  5
5E
330
2
100
AcDbEntity
  8
0
  6
CONTINUOUS
100
AcDbLine
 10
46.23417725895072
 20
35.62063053133773
 30
0.0
 11
46.63060127815072
 21
35.87042058253773
 31
0.0
  0
LINE
  5
5F
330
2
100
AcDbEntity
  8
0
  6
CONTINUOUS
100
AcDbLine
 10
46.55382502055073
 20
35.88477452173774
 30
0.0
 11
46.37018761095072
 21
35.87992089133773
 31
0.0
  0
LWPOLYLINE
  5
60
330
2
100
AcDbEntity
  8
0
  6
CONTINUOUS
100
AcDbPolyline
 90
        5
 70
     0
 43
0.0
 10
46.63059710695072
 20
35.87041688973773
 10
46.63303279175074
 20
35.87260890093773
 10
46.64443655015074
 20
35.87844112653773
 10
46.64821006055072
 20
35.87919816173773
 10
46.64887273895073
 20
35.87927166573773
  0
LINE
  5
61
330
2
100
AcDbEntity
  8
0
  6
CONTINUOUS
100
AcDbLine
 10
46.64842458695074
 20
35.87924098733774
 30
0.0
 11
46.80228064615073
 21
35.88792955693773
 31
0.0
  0
LINE
  5
62
330
2
100
AcDbEntity
  8
0
  6
CONTINUOUS
100
AcDbLine
 10
49.41788599815073
 20
34.73869848653773
 30
0.0
 11
49.91788599815072
 21
34.73869848653773
 31
0.0
  0
LINE
  5
63
330
2
100
AcDbEntity
  8
0
  6
CONTINUOUS
100
AcDbLine
 10
48.49716839655073
 20
35.91432595373774
 30
0.0
 11
50.21763606535071
 21
35.95311026893773
 31
0.0
  0
LWPOLYLINE
  5
64
330
2
100
AcDbEntity
  8
0
  6
CONTINUOUS
100
AcDbPolyline
 90
        6
 70
     0
 43
0.0
 10
48.20605216775073
 20
35.90926356653774
 10
48.25024070375073
 20
35.89241827213774
 10
48.37289107335073
 20
35.81785593933773
 10
48.48746411655074
 20
35.71175032333774
 10
48.58185548135074
 20
35.57635592813773
 10
48.64587545095074
 20
35.56463061613773
  0
LINE
  5
65
330
2
100
AcDbEntity
  8
0
  6
CONTINUOUS
100
AcDbLine
 10
48.64587545095074
 20
35.56463061613773
 30
0.0
 11
48.67045196615072
 21
35.42671341613773
 31
0.0
  0
ARC
  5
66
330
2
100
AcDbEntity
  8
0
  6
CONTINUOUS
100
AcDbCircle
 10
49.41788599815073
 20
35.48869848653773
 30
0.0
 40
0.75
100
AcDbArc
 50
184.7407028692
 51
270.0
  0
LINE
  5
67
330
2
100
AcDbEntity
  8
0
  6
CONTINUOUS
100
AcDbLine
 10
51.27837171655073
 20
36.01307389293773
 30
0.0
 11
51.28648329415074
 21
36.01426413133774
 31
0.0
  0
ARC
  5
68
330
2
100
AcDbEntity
  8
0
  6
CONTINUOUS
100
AcDbCircle
 10
49.91788599815072
 20
35.48869848653773
 30
0.0
 40
0.75
100
AcDbArc
 50
270.0
 51
357.5827249942999
  0
LINE
  5
69
330
2
100
AcDbEntity
  8
0
  6
CONTINUOUS
100
AcDbLine
 10
50.66721957735072
 20
35.45706595693773
 30
0.0
 11
50.70216228615072
 21
35.65367452653773
 31
0.0
  0
LWPOLYLINE
  5
6A
330
2
100
AcDbEntity
  8
0
  6
CONTINUOUS
100
AcDbPolyline
 90
        3
 70
     0
 43
0.0
 10
50.70216228615072
 20
35.65367452653773
 10
50.77922627655073
 20
35.67390654093773
 10
50.88516454375073
 20
35.80762610413774
  0
LINE
  5
6B
330
2
100
AcDbEntity
  8
0
  6
CONTINUOUS
100
AcDbLine
 10
49.94414815495074
 20
35.94652899533773
 30
0.0
 11
51.36013523015072
 21
35.99205491373774
 31
0.0
  0
LINE
  5
6C
330
2
100
AcDbEntity
  8
0
  6
CONTINUOUS
100
AcDbLine
 10
50.69130121415074
 20
35.96875931053773
 30
0.0
 11
51.41074043495073
 21
35.99643873133773
 31
0.0
  0
LWPOLYLINE
  5
6D
330
2
100
AcDbEntity
  8
0
  6
CONTINUOUS
100
AcDbPolyline
 90
        4
 70
     0
 43
0.0
 10
50.88516454375073
 20
35.80762610413774
 10
51.00676595655073
 20
35.90624259853774
 10
51.12922920295074
 20
35.97042609613773
 10
51.18148266215072
 20
35.98761835693773
  0
LWPOLYLINE
  5
6E
330
2
100
AcDbEntity
  8
0
  6
CONTINUOUS
100
AcDbPolyline
 90
        4
 70
     0
 43
0.0
 10
53.04169602695072
 20
36.28133648173773
 10
53.37860690855072
 20
36.35786908973773
 10
53.73171947335072
 20
36.45897469613773
 10
54.05603162215072
 20
36.57920872493773
  0
LWPOLYLINE
  5
6F
330
2
100
AcDbEntity
  8
0
  6
CONTINUOUS
100
AcDbPolyline
 90
        6
 70
     0
 43
0.0
 10
52.20028411495073
 20
36.18293616813772
 10
52.34776772615072
 20
36.19372684973773
 10
52.54789114055071
 20
36.21108772973773
 10
52.73485785575073
 20
36.23167106093773
 10
52.93226089575075
 20
36.26074570093773
 10
53.04582668775072
 20
36.28218663213773
  0
LWPOLYLINE
  5
70
330
2
100
AcDbEntity
  8
0
  6
CONTINUOUS
100
AcDbPolyline
 90
        5
 70
     0
 43
0.0
 10
54.05280332135072
 20
36.57784996813773
 10
54.33660583495072
 20
36.71203592173773
 10
54.72505099655072
 20
36.95509682413773
 10
55.16299355175073
 20
37.34911992013773
 10
55.57424108455072
 20
37.93636194893773
  0
LINE
  5
71
330
2
100
AcDbEntity
  8
0
  6
CONTINUOUS
100
AcDbLine
 10
55.57424108455072
 20
37.93636194893773
 30
0.0
 11
55.76166879495073
 21
38.38258896813773
 31
0.0
  0
LINE
  5
72
330
2
100
AcDbEntity
  8
0
  6
CONTINUOUS
100
AcDbLine
 10
26.66788599815072
 20
53.36369848653774
 30
0.0
 11
62.66788599815072
 21
53.36369848653774
 31
0.0
  0
LINE
  5
73
330
2
100
AcDbEntity
  8
0
100
AcDbLine
 10
28.43289853164604
 20
55.86369848653774
 30
0.0
 11
60.9028734646554
 21
55.86369848653774
 31
0.0
  0
LINE
  5
74
330
2
100
AcDbEntity
  8
0
  6
HIDDEN
 62
     8
 48
0.3
100
AcDbLine
 10
30.15008214047664
 20
53.36369848653774
 30
0.0
 11
29.95571563172533
 21
54.6085948583455
 31
0.0
  0
ARC
  5
76
330
2
100
AcDbEntity
  8
0
  6
HIDDEN
 62
     8
 48
0.3
100
AcDbCircle
 10
28.43289853164604
 20
54.31232975876016
 30
0.0
 40
1.551368727777572
100
AcDbArc
 50
11.00940573286188
 51
90.0
  0
ARC
  5
77
330
2
100
AcDbEntity
  8
0
100
AcDbCircle
 10
28.43289853164604
 20
54.31232975876016
 30
0.0
 40
1.551368727777572
100
AcDbArc
 50
90.0
 51
168.9905942671379
  0
LINE
  5
78
330
2
100
AcDbEntity
  8
0
100
AcDbLine
 10
26.66788599815072
 20
53.36369848653774
 30
0.0
 11
26.91008143156675
 21
54.6085948583455
 31
0.0
  0
LWPOLYLINE
  5
79
330
2
100
AcDbEntity
  8
0
  6
CONTINUOUS
100
AcDbPolyline
 90
        5
 70
     0
 43
0.0
 10
45.00575335015073
 20
50.23142018573773
 10
45.32156704455073
 20
50.36108228013773
 10
45.59400436455073
 20
50.56809844973773
 10
45.80392111655072
 20
50.83883789613773
 10
45.93579480615074
 20
51.15341380813774
  0
LWPOLYLINE
  5
7A
330
2
100
AcDbEntity
  8
0
  6
CONTINUOUS
100
AcDbPolyline
 90
        7
 70
     0
 43
0.0
 10
44.93054961255071
 20
50.17170533453773
 10
45.17938462695073
 20
50.24582497613773
 10
45.40896383975073
 20
50.36583517933773
 10
45.61047326055072
 20
50.52748659373773
 10
45.77641647975073
 20
50.72476858733773
 10
45.90008998855071
 20
50.95025753933773
 10
45.97639314375072
 20
51.19505706733773
  0
LWPOLYLINE
  5
7B
330
2
100
AcDbEntity
  8
0
  6
CONTINUOUS
100
AcDbPolyline
 90
        6
 70
     0
 43
0.0
 10
45.77670023175073
 20
52.16539915853773
 10
45.61182931175074
 20
52.35883042253774
 10
45.41123210855073
 20
52.51706057133773
 10
45.18197506375074
 20
52.63500589933773
 10
44.93200465575071
 20
52.70850738573773
 10
44.67005379975072
 20
52.73346600333773
  0
LINE
  5
7C
330
2
100
AcDbEntity
  8
0
  6
CONTINUOUS
100
AcDbLine
 10
44.67205267015072
 20
50.14674296013772
 30
0.0
 11
44.93054961255071
 21
50.17170533453773
 31
0.0
  0
LINE
  5
7D
330
2
100
AcDbEntity
  8
0
  6
CONTINUOUS
100
AcDbLine
 10
44.66788599815072
 20
50.18730726893773
 30
0.0
 11
45.00575335015073
 21
50.23142018573773
 31
0.0
  0
LWPOLYLINE
  5
7E
330
2
100
AcDbEntity
  8
0
  6
CONTINUOUS
100
AcDbPolyline
 90
        7
 70
     0
 43
0.0
 10
43.36710619335073
 20
51.19081210733773
 10
43.44369670855073
 20
50.94630158733774
 10
43.56717300775073
 20
50.72122019213773
 10
43.73259389095074
 20
50.52458557293773
 10
43.93373667015072
 20
50.36381011373773
 10
44.16315456935072
 20
50.24447832653773
 10
44.41232365415072
 20
50.17075794733774
  0
LINE
  5
7F
330
2
100
AcDbEntity
  8
0
  6
CONTINUOUS
100
AcDbLine
 10
43.41977581735074
 20
51.88328935053773
 30
0.0
 11
43.36679982695073
 21
51.69805059533773
 31
0.0
  0
LINE
  5
80
330
2
100
AcDbEntity
  8
0
  6
CONTINUOUS
100
AcDbLine
 10
43.44294524615074
 20
51.94148807053773
 30
0.0
 11
43.41977581735074
 21
51.88328935053773
 31
0.0
  0
LINE
  5
81
330
2
100
AcDbEntity
  8
0
  6
CONTINUOUS
100
AcDbLine
 10
43.35998651495072
 20
51.44696160653773
 30
0.0
 11
43.39932029895073
 21
51.14939252333773
 31
0.0
  0
LINE
  5
82
330
2
100
AcDbEntity
  8
0
  6
CONTINUOUS
100
AcDbLine
 10
43.34154770855073
 20
51.44452429613773
 30
0.0
 11
43.36710619335073
 21
51.19081210733773
 31
0.0
  0
LINE
  5
83
330
2
100
AcDbEntity
  8
0
  6
CONTINUOUS
100
AcDbLine
 10
43.36679982695073
 20
51.69805059533773
 30
0.0
 11
43.34154770855073
 21
51.44452429613773
 31
0.0
  0
LWPOLYLINE
  5
84
330
2
100
AcDbEntity
  8
0
  6
CONTINUOUS
100
AcDbPolyline
 90
        6
 70
     0
 43
0.0
 10
43.39932029895073
 20
51.14939252333773
 10
43.53025618535073
 20
50.83576026893773
 10
43.73835627655071
 20
50.56621992653774
 10
44.01026987975072
 20
50.35981849133773
 10
44.32806263335073
 20
50.23001158733773
 10
44.66788599815072
 20
50.18730726893773
  0
LWPOLYLINE
  5
85
330
2
100
AcDbEntity
  8
0
  6
CONTINUOUS
100
AcDbPolyline
 90
        7
 70
     0
 43
0.0
 10
44.67005379975072
 20
52.73346600333773
 10
44.41186098695072
 20
52.70885783853773
 10
44.16315940615072
 20
52.63620363213773
 10
43.93363462695072
 20
52.51843785773773
 10
43.73220391975073
 20
52.35943395373773
 10
43.56642155815072
 20
52.16479333133773
 10
43.44294524615074
 20
51.94148807053773
  0
LINE
  5
86
330
2
100
AcDbEntity
  8
0
  6
CONTINUOUS
100
AcDbLine
 10
44.41232365415072
 20
50.17075794733774
 30
0.0
 11
44.67205267015072
 21
50.14674296013772
 31
0.0
  0
LINE
  5
87
330
2
100
AcDbEntity
  8
0
  6
CONTINUOUS
100
AcDbLine
 10
45.97624520135073
 20
51.70128208493773
 30
0.0
 11
45.89981704775072
 21
51.94340271213773
 31
0.0
  0
LINE
  5
88
330
2
100
AcDbEntity
  8
0
  6
CONTINUOUS
100
AcDbLine
 10
45.89981704775072
 20
51.94340271213773
 30
0.0
 11
45.86625572775074
 21
52.01511888973773
 31
0.0
  0
LINE
  5
89
330
2
100
AcDbEntity
  8
0
  6
CONTINUOUS
100
AcDbLine
 10
45.86625572775074
 20
52.01511888973773
 30
0.0
 11
45.77670023175073
 21
52.16539915853773
 31
0.0
  0
LINE
  5
8A
330
2
100
AcDbEntity
  8
0
  6
CONTINUOUS
100
AcDbLine
 10
45.93579480615074
 20
51.15341380813774
 30
0.0
 11
45.98038599815072
 21
51.48791259373773
 31
0.0
  0
LINE
  5
8B
330
2
100
AcDbEntity
  8
0
  6
CONTINUOUS
100
AcDbLine
 10
45.97639314375072
 20
51.19505706733773
 30
0.0
 11
46.00173562215073
 21
51.44877833933773
 31
0.0
  0
LINE
  5
8C
330
2
100
AcDbEntity
  8
0
  6
CONTINUOUS
100
AcDbLine
 10
46.00173562215073
 20
51.44877833933773
 30
0.0
 11
45.97624520135073
 21
51.70128208493773
 31
0.0
  0
ARC
  5
8D
330
2
100
AcDbEntity
  8
0
  6
HIDDEN
 62
     8
 48
0.3
100
AcDbCircle
 10
60.9028734646554
 20
54.31232975876016
 30
0.0
 40
1.551368727777572
100
AcDbArc
 50
90.0
 51
168.9905942671381
  0
LINE
  5
8E
330
2
100
AcDbEntity
  8
0
  6
HIDDEN
 62
     8
 48
0.3
100
AcDbLine
 10
59.18568985582481
 20
53.36369848653774
 30
0.0
 11
59.38005636457611
 21
54.6085948583455
 31
0.0
  0
LINE
  5
8F
330
2
100
AcDbEntity
  8
0
100
AcDbLine
 10
62.66788599815072
 20
53.36369848653774
 30
0.0
 11
62.42569056473469
 21
54.6085948583455
 31
0.0
  0
ARC
  5
90
330
2
100
AcDbEntity
  8
0
100
AcDbCircle
 10
60.9028734646554
 20
54.31232975876016
 30
0.0
 40
1.551368727777572
100
AcDbArc
 50
11.0094057328621
 51
90.0
  0
ENDSEC
  0
SECTION
  2
OBJECTS
  0
DICTIONARY
  5
24
330
0
100
AcDbDictionary
  3
ACAD_GROUP
350
20
  3
ACAD_LAYOUT
350
94
  3
ACAD_MLINESTYLE
350
21
  3
ACAD_PLOTSETTINGS
350
95
  3
ACAD_PLOTSTYLENAME
350
92
  3
ACDBHEADERROUNDTRIPXREC
350
D5
  3
ACDBVARIABLEDICTIONARY
350
D2
  0
DICTIONARY
  5
3
330
2
100
AcDbDictionary
280
     1
  3
ACAD_LAYOUTSELFREF
360
F6
  0
DICTIONARY
  5
A
330
9
100
AcDbDictionary
280
     1
  3
ACAD_LAYOUTSELFREF
360
F7
  0
DICTIONARY
  5
20
102
{ACAD_REACTORS
330
24
102
}
330
24
100
AcDbDictionary
  0
DICTIONARY
  5
94
102
{ACAD_REACTORS
330
24
102
}
330
24
100
AcDbDictionary
  0
DICTIONARY
  5
21
102
{ACAD_REACTORS
330
24
102
}
330
24
100
AcDbDictionary
  3
STANDARD
350
25
  0
DICTIONARY
  5
95
102
{ACAD_REACTORS
330
24
102
}
330
24
100
AcDbDictionary
  0
ACDBDICTIONARYWDFLT
  5
92
102
{ACAD_REACTORS
330
24
102
}
330
24
100
AcDbDictionary
281
     1
  3
Normal
350
93
100
AcDbDictionaryWithDefault
340
93
  0
DICTIONARY
  5
D5
102
{ACAD_REACTORS
330
24
102
}
330
24
100
AcDbDictionary
  3
CEPSNTYPE
350
DF
  3
DIMSTYLEDATA
350
E3
  3
FINGERPRINTGUID
350
E0
  3
HYPERLINKBASE
350
D8
  3
INSUNITS
350
DE
  3
LAYOUTDICT
350
DA
  3
LWETCUNION
350
DD
  3
PLOTSETDICT
350
DB
  3
PLOTSTYLNAMDICT
350
DC
  3
PSVPSCALE
350
E2
  3
PUCSBASE
350
E6
  3
PUCSORGBACK
350
EC
  3
PUCSORGBOTTOM
350
E8
  3
PUCSORGFRONT
350
EB
  3
PUCSORGLEFT
350
E9
  3
PUCSORGRIGHT
350
EA
  3
PUCSORGTOP
350
E7
  3
PUCSORTHOREF
350
E4
  3
PUCSORTHOVIEW
350
E5
  3
STYLESHEET
350
D9
  3
TSTACKALIGN
350
D6
  3
TSTACKSIZE
350
D7
  3
UCSBASE
350
EF
  3
UCSORGBACK
350
F5
  3
UCSORGBOTTOM
350
F1
  3
UCSORGFRONT
350
F4
  3
UCSORGLEFT
350
F2
  3
UCSORGRIGHT
350
F3
  3
UCSORGTOP
350
F0
  3
UCSORTHOREF
350
ED
  3
UCSORTHOVIEW
350
EE
  3
VERSIONGUID
350
E1
  0
DICTIONARY
  5
D2
102
{ACAD_REACTORS
330
24
102
}
330
24
100
AcDbDictionary
  3
DIMASSOC
350
D3
  0
XRECORD
  5
F6
102
{ACAD_REACTORS
330
3
102
}
330
3
100
AcDbXrecord
340
2
  0
XRECORD
  5
F7
102
{ACAD_REACTORS
330
A
102
}
330
A
100
AcDbXrecord
340
9
  0
MLINESTYLE
  5
25
102
{ACAD_REACTORS
330
21
102
}
330
21
100
AcDbMlineStyle
  2
STANDARD
 70
     0
  3

 62
   256
 51
90.0
 52
90.0
 71
     2
 49
0.5
 62
   256
  6
BYLAYER
 49
-0.5
 62
   256
  6
BYLAYER
  0
ACDBPLACEHOLDER
  5
93
102
{ACAD_REACTORS
330
92
102
}
330
92
100
AcDbPlaceHolder
280
     0
  0
XRECORD
  5
DF
102
{ACAD_REACTORS
330
D5
102
}
330
D5
100
AcDbXrecord
 90
        0
  0
XRECORD
  5
E3
102
{ACAD_REACTORS
330
D5
102
}
330
D5
100
AcDbXrecord
1000
DSTYLE
1002
{
1070
   341
340
29
1070
   342
340
29
1070
   343
340
29
1070
   344
340
29
1002
}
  0
XRECORD
  5
E0
102
{ACAD_REACTORS
330
D5
102
}
330
D5
100
AcDbXrecord
  1
{9AF65AB8-D71D-4DCE-8F79-1158D7FC822E}
  0
XRECORD
  5
D8
102
{ACAD_REACTORS
330
D5
102
}
330
D5
100
AcDbXrecord
  1

  0
XRECORD
  5
DE
102
{ACAD_REACTORS
330
D5
102
}
330
D5
100
AcDbXrecord
 90
        0
  0
XRECORD
  5
DA
102
{ACAD_REACTORS
330
D5
102
}
330
D5
100
AcDbXrecord
340
94
  0
XRECORD
  5
DD
102
{ACAD_REACTORS
330
D5
102
}
330
D5
100
AcDbXrecord
 90
    14877
  0
XRECORD
  5
DB
102
{ACAD_REACTORS
330
D5
102
}
330
D5
100
AcDbXrecord
340
95
  0
XRECORD
  5
DC
102
{ACAD_REACTORS
330
D5
102
}
330
D5
100
AcDbXrecord
340
92
  0
XRECORD
  5
E2
102
{ACAD_REACTORS
330
D5
102
}
330
D5
100
AcDbXrecord
 40
0.0
  0
XRECORD
  5
E6
102
{ACAD_REACTORS
330
D5
102
}
330
D5
100
AcDbXrecord
340
0
  0
XRECORD
  5
EC
102
{ACAD_REACTORS
330
D5
102
}
330
D5
100
AcDbXrecord
 10
0.0
 20
0.0
 30
0.0
  0
XRECORD
  5
E8
102
{ACAD_REACTORS
330
D5
102
}
330
D5
100
AcDbXrecord
 10
0.0
 20
0.0
 30
0.0
  0
XRECORD
  5
EB
102
{ACAD_REACTORS
330
D5
102
}
330
D5
100
AcDbXrecord
 10
0.0
 20
0.0
 30
0.0
  0
XRECORD
  5
E9
102
{ACAD_REACTORS
330
D5
102
}
330
D5
100
AcDbXrecord
 10
0.0
 20
0.0
 30
0.0
  0
XRECORD
  5
EA
102
{ACAD_REACTORS
330
D5
102
}
330
D5
100
AcDbXrecord
 10
0.0
 20
0.0
 30
0.0
  0
XRECORD
  5
E7
102
{ACAD_REACTORS
330
D5
102
}
330
D5
100
AcDbXrecord
 10
0.0
 20
0.0
 30
0.0
  0
XRECORD
  5
E4
102
{ACAD_REACTORS
330
D5
102
}
330
D5
100
AcDbXrecord
340
0
  0
XRECORD
  5
E5
102
{ACAD_REACTORS
330
D5
102
}
330
D5
100
AcDbXrecord
 70
     0
  0
XRECORD
  5
D9
102
{ACAD_REACTORS
330
D5
102
}
330
D5
100
AcDbXrecord
  1

  0
XRECORD
  5
D6
102
{ACAD_REACTORS
330
D5
102
}
330
D5
100
AcDbXrecord
 90
        1
  0
XRECORD
  5
D7
102
{ACAD_REACTORS
330
D5
102
}
330
D5
100
AcDbXrecord
 90
       70
  0
XRECORD
  5
EF
102
{ACAD_REACTORS
330
D5
102
}
330
D5
100
AcDbXrecord
340
0
  0
XRECORD
  5
F5
102
{ACAD_REACTORS
330
D5
102
}
330
D5
100
AcDbXrecord
 10
0.0
 20
0.0
 30
0.0
  0
XRECORD
  5
F1
102
{ACAD_REACTORS
330
D5
102
}
330
D5
100
AcDbXrecord
 10
0.0
 20
0.0
 30
0.0
  0
XRECORD
  5
F4
102
{ACAD_REACTORS
330
D5
102
}
330
D5
100
AcDbXrecord
 10
0.0
 20
0.0
 30
0.0
  0
XRECORD
  5
F2
102
{ACAD_REACTORS
330
D5
102
}
330
D5
100
AcDbXrecord
 10
0.0
 20
0.0
 30
0.0
  0
XRECORD
  5
F3
102
{ACAD_REACTORS
330
D5
102
}
330
D5
100
AcDbXrecord
 10
0.0
 20
0.0
 30
0.0
  0
XRECORD
  5
F0
102
{ACAD_REACTORS
330
D5
102
}
330
D5
100
AcDbXrecord
 10
0.0
 20
0.0
 30
0.0
  0
XRECORD
  5
ED
102
{ACAD_REACTORS
330
D5
102
}
330
D5
100
AcDbXrecord
340
0
  0
XRECORD
  5
EE
102
{ACAD_REACTORS
330
D5
102
}
330
D5
100
AcDbXrecord
 70
     0
  0
XRECORD
  5
E1
102
{ACAD_REACTORS
330
D5
102
}
330
D5
100
AcDbXrecord
  1
{16EB72AA-EA66-4EAF-9C96-C347581F5191}
  0
DICTIONARYVAR
  5
D3
102
{ACAD_REACTORS
330
D2
102
}
330
D2
100
DictionaryVariables
280
     0
  1
1
  0
ENDSEC
  0
EOF
