  0
SECTION
  2
HEADER
  9
$ACADVER
  1
AC1014
  9
$ACADMAINTVER
 70
     9
  9
$DWGCODEPAGE
  3
ANSI_1252
  9
$INSBASE
 10
494.6440052068527
 20
167.9540973796653
 30
0.0
  9
$EXTMIN
 10
483.0163178077845
 20
165.9737179132779
 30
-0.0015258207003612
  9
$EXTMAX
 10
522.9099638829839
 20
189.7098871309737
 30
0.0000000349246008
  9
$LIMMIN
 10
0.0
 20
0.0
  9
$LIMMAX
 10
100.5024158491978
 20
51.69854817198938
  9
$ORTHOMODE
 70
     1
  9
$REGENMODE
 70
     1
  9
$FILLMODE
 70
     1
  9
$QTEXTMODE
 70
     0
  9
$MIRRTEXT
 70
     1
  9
$DRAGMODE
 70
     2
  9
$LTSCALE
 40
2.0
  9
$OSMODE
 70
    55
  9
$ATTMODE
 70
     1
  9
$TEXTSIZE
 40
0.06
  9
$TRACEWID
 40
1.0
  9
$TEXTSTYLE
  7
CARTOUCHE
  9
$CLAYER
  8
0
  9
$CELTYPE
  6
BYLAYER
  9
$CECOLOR
 62
   256
  9
$CELTSCALE
 40
1.0
  9
$DELOBJ
 70
     1
  9
$DISPSILH
 70
     0
  9
$DIMSCALE
 40
16.0
  9
$DIMASZ
 40
0.1
  9
$DIMEXO
 40
0.0625
  9
$DIMDLI
 40
0.25
  9
$DIMRND
 40
0.0
  9
$DIMDLE
 40
0.0
  9
$DIMEXE
 40
0.1
  9
$DIMTP
 40
0.0
  9
$DIMTM
 40
0.0
  9
$DIMTXT
 40
0.1
  9
$DIMCEN
 40
0.09
  9
$DIMTSZ
 40
0.0
  9
$DIMTOL
 70
     0
  9
$DIMLIM
 70
     0
  9
$DIMTIH
 70
     1
  9
$DIMTOH
 70
     1
  9
$DIMSE1
 70
     0
  9
$DIMSE2
 70
     0
  9
$DIMTAD
 70
     0
  9
$DIMZIN
 70
     4
  9
$DIMBLK
  1

  9
$DIMASO
 70
     1
  9
$DIMSHO
 70
     1
  9
$DIMPOST
  1
\X
  9
$DIMAPOST
  1
cm
  9
$DIMALT
 70
     1
  9
$DIMALTD
 70
     1
  9
$DIMALTF
 40
2.54
  9
$DIMLFAC
 40
1.0
  9
$DIMTOFL
 70
     0
  9
$DIMTVP
 40
0.0
  9
$DIMTIX
 70
     0
  9
$DIMSOXD
 70
     0
  9
$DIMSAH
 70
     0
  9
$DIMBLK1
  1

  9
$DIMBLK2
  1

  9
$DIMSTYLE
  2
STANDARD
  9
$DIMCLRD
 70
     0
  9
$DIMCLRE
 70
     0
  9
$DIMCLRT
 70
     0
  9
$DIMTFAC
 40
1.0
  9
$DIMGAP
 40
0.08
  9
$DIMJUST
 70
     0
  9
$DIMSD1
 70
     0
  9
$DIMSD2
 70
     0
  9
$DIMTOLJ
 70
     1
  9
$DIMTZIN
 70
     4
  9
$DIMALTZ
 70
     4
  9
$DIMALTTZ
 70
     4
  9
$DIMFIT
 70
     1
  9
$DIMUPT
 70
     0
  9
$DIMUNIT
 70
     5
  9
$DIMDEC
 70
     3
  9
$DIMTDEC
 70
     3
  9
$DIMALTU
 70
     2
  9
$DIMALTTD
 70
     1
  9
$DIMTXSTY
  7
ROMANS
  9
$DIMAUNIT
 70
     0
  9
$LUNITS
 70
     2
  9
$LUPREC
 70
     2
  9
$SKETCHINC
 40
1.0
  9
$FILLETRAD
 40
3.0
  9
$AUNITS
 70
     0
  9
$AUPREC
 70
     0
  9
$MENU
  1
.
  9
$ELEVATION
 40
0.0
  9
$PELEVATION
 40
0.0
  9
$THICKNESS
 40
0.0
  9
$LIMCHECK
 70
     0
  9
$BLIPMODE
 70
     0
  9
$CHAMFERA
 40
0.0
  9
$CHAMFERB
 40
0.0
  9
$CHAMFERC
 40
20.0
  9
$CHAMFERD
 40
0.0
  9
$SKPOLY
 70
     0
  9
$TDCREATE
 40
2452062.301426851
  9
$TDUPDATE
 40
2453689.502269630
  9
$TDINDWG
 40
2.1227593981
  9
$TDUSRTIMER
 40
2.1227593981
  9
$USRTIMER
 70
     1
  9
$ANGBASE
 50
0.0
  9
$ANGDIR
 70
     0
  9
$PDMODE
 70
    33
  9
$PDSIZE
 40
0.25
  9
$PLINEWID
 40
0.0
  9
$COORDS
 70
     1
  9
$SPLFRAME
 70
     0
  9
$SPLINETYPE
 70
     6
  9
$SPLINESEGS
 70
     8
  9
$ATTDIA
 70
     0
  9
$ATTREQ
 70
     1
  9
$HANDLING
 70
 22529
  9
$HANDSEED
  5
103
  9
$SURFTAB1
 70
     6
  9
$SURFTAB2
 70
     6
  9
$SURFTYPE
 70
     6
  9
$SURFU
 70
     6
  9
$SURFV
 70
     6
  9
$UCSNAME
  2

  9
$UCSORG
 10
0.0
 20
0.0
 30
0.0
  9
$UCSXDIR
 10
1.0
 20
0.0
 30
0.0
  9
$UCSYDIR
 10
0.0
 20
1.0
 30
0.0
  9
$PUCSNAME
  2

  9
$PUCSORG
 10
0.0
 20
0.0
 30
0.0
  9
$PUCSXDIR
 10
1.0
 20
0.0
 30
0.0
  9
$PUCSYDIR
 10
0.0
 20
1.0
 30
0.0
  9
$USERI1
 70
     0
  9
$USERI2
 70
     0
  9
$USERI3
 70
     0
  9
$USERI4
 70
     0
  9
$USERI5
 70
     0
  9
$USERR1
 40
0.0
  9
$USERR2
 40
0.0
  9
$USERR3
 40
0.0
  9
$USERR4
 40
0.0
  9
$USERR5
 40
0.0
  9
$WORLDVIEW
 70
     1
  9
$SHADEDGE
 70
     3
  9
$SHADEDIF
 70
    70
  9
$TILEMODE
 70
     1
  9
$MAXACTVP
 70
    48
  9
$PINSBASE
 10
0.0
 20
0.0
 30
0.0
  9
$PLIMCHECK
 70
     0
  9
$PEXTMIN
 10
0.0
 20
0.0
 30
0.0
  9
$PEXTMAX
 10
0.0
 20
0.0
 30
0.0
  9
$PLIMMIN
 10
0.0
 20
0.0
  9
$PLIMMAX
 10
12.0
 20
9.0
  9
$UNITMODE
 70
     0
  9
$VISRETAIN
 70
     1
  9
$PLINEGEN
 70
     0
  9
$PSLTSCALE
 70
     1
  9
$TREEDEPTH
 70
  3020
  9
$PICKSTYLE
 70
     1
  9
$CMLSTYLE
  2
STANDARD
  9
$CMLJUST
 70
     0
  9
$CMLSCALE
 40
20.0
  9
$PROXYGRAPHICS
 70
     1
  9
$MEASUREMENT
 70
     0
  0
ENDSEC
  0
SECTION
  2
CLASSES
  0
CLASS
  1
ACDBDICTIONARYWDFLT
  2
AcDbDictionaryWithDefault
  3
AutoCAD 2000
 90
        0
280
     0
281
     0
  0
CLASS
  1
ACDBPLACEHOLDER
  2
AcDbPlaceHolder
  3
AutoCAD 2000
 90
        0
280
     0
281
     0
  0
CLASS
  1
LAYOUT
  2
AcDbLayout
  3
AutoCAD 2000
 90
        0
280
     0
281
     0
  0
CLASS
  1
DICTIONARYVAR
  2
AcDbDictionaryVar
  3
AutoCAD 2000
 90
        0
280
     0
281
     0
  0
CLASS
  1
IMAGEDEF
  2
AcDbRasterImageDef
  3
ISM
 90
        0
280
     0
281
     0
  0
CLASS
  1
LONG_TRANSACTION
  2
AcDbLongTransaction
  3
AutoCAD 2000
 90
        0
280
     0
281
     0
  0
CLASS
  1
LWPOLYLINE
  2
AcDbPolyline
  3
AutoCAD 2000
 90
        0
280
     0
281
     1
  0
CLASS
  1
HATCH
  2
AcDbHatch
  3
AutoCAD 2000
 90
        0
280
     0
281
     1
  0
CLASS
  1
XRECORD
  2
AcDbXrecord
  3
AutoCAD 2000
 90
        0
280
     0
281
     0
  0
CLASS
  1
LONG_TRANSACTION
  2
AcDbLongTransaction
  3
AutoCAD 2000
 90
        0
280
     0
281
     0
  0
CLASS
  1
LWPOLYLINE
  2
AcDbPolyline
  3
AutoCAD 2000
 90
        0
280
     0
281
     1
  0
CLASS
  1
HATCH
  2
AcDbHatch
  3
AutoCAD 2000
 90
        0
280
     0
281
     1
  0
CLASS
  1
XRECORD
  2
AcDbXrecord
  3
AutoCAD 2000
 90
        0
280
     0
281
     0
  0
ENDSEC
  0
SECTION
  2
TABLES
  0
TABLE
  2
VPORT
  5
1D
330
0
100
AcDbSymbolTable
 70
     3
  0
VPORT
  5
DF
330
1D
100
AcDbSymbolTableRecord
100
AcDbViewportTableRecord
  2
*ACTIVE
 70
     0
 10
0.0
 20
0.0
 11
1.0
 21
1.0
 12
502.9631408229071
 22
177.8418024970404
 13
0.0
 23
0.0
 14
10.0
 24
10.0
 15
10.0
 25
10.0
 16
0.0
 26
0.0
 36
1.0
 17
0.0
 27
0.0
 37
0.0
 40
28.56520567803875
 41
1.786792452830188
 42
50.0
 43
0.0
 44
0.0
 50
0.0
 51
0.0
 71
     0
 72
   100
 73
     1
 74
     3
 75
     0
 76
     0
 77
     0
 78
     2
  0
ENDTAB
  0
TABLE
  2
LTYPE
  5
18
330
0
100
AcDbSymbolTable
 70
     2
  0
LTYPE
  5
19
330
18
100
AcDbSymbolTableRecord
100
AcDbLinetypeTableRecord
  2
BYBLOCK
 70
     0
  3

 72
    65
 73
     0
 40
0.0
  0
LTYPE
  5
1A
330
18
100
AcDbSymbolTableRecord
100
AcDbLinetypeTableRecord
  2
BYLAYER
 70
     0
  3

 72
    65
 73
     0
 40
0.0
  0
LTYPE
  5
8
330
18
100
AcDbSymbolTableRecord
100
AcDbLinetypeTableRecord
  2
CONTINUOUS
 70
     0
  3
Solid line
 72
    65
 73
     0
 40
0.0
  0
LTYPE
  5
33
330
18
100
AcDbSymbolTableRecord
100
AcDbLinetypeTableRecord
  2
CENTER
 70
     0
  3
Center ____ _ ____ _ ____ _ ____ _ ____ _ ____
 72
    65
 73
     4
 40
50.8
 49
31.75
 74
     0
 49
-6.349999999999999
 74
     0
 49
6.349999999999999
 74
     0
 49
-6.349999999999999
 74
     0
  0
ENDTAB
  0
TABLE
  2
LAYER
  5
10
102
{ACAD_XDICTIONARY
360
11
102
}
330
0
100
AcDbSymbolTable
 70
     2
  0
LAYER
  5
4
330
10
100
AcDbSymbolTableRecord
100
AcDbLayerTableRecord
  2
0
 70
     0
 62
     7
  6
CONTINUOUS
  0
LAYER
  5
32
330
10
100
AcDbSymbolTableRecord
100
AcDbLayerTableRecord
  2
CENTER
 70
     0
 62
     1
  6
CENTER
  0
ENDTAB
  0
TABLE
  2
STYLE
  5
15
330
0
100
AcDbSymbolTable
 70
     3
  0
STYLE
  5
16
330
15
100
AcDbSymbolTableRecord
100
AcDbTextStyleTableRecord
  2
STANDARD
 70
     0
 40
0.0
 41
1.0
 50
0.0
 71
     0
 42
0.125
  3
txt
  4

  0
STYLE
  5
29
330
15
100
AcDbSymbolTableRecord
100
AcDbTextStyleTableRecord
  2
CARTOUCHE
 70
     0
 40
0.0
 41
1.0
 50
0.0
 71
     0
 42
0.06
  3
romans.shx
  4

  0
STYLE
  5
23
330
15
100
AcDbSymbolTableRecord
100
AcDbTextStyleTableRecord
  2
ROMANS
 70
     0
 40
0.0
 41
1.0
 50
0.0
 71
     0
 42
1.0
  3
romans.shx
  4

  0
ENDTAB
  0
TABLE
  2
VIEW
  5
1B
330
0
100
AcDbSymbolTable
 70
     0
  0
ENDTAB
  0
TABLE
  2
UCS
  5
1C
330
0
100
AcDbSymbolTable
 70
     0
  0
ENDTAB
  0
TABLE
  2
APPID
  5
1F
330
0
100
AcDbSymbolTable
 70
     1
  0
APPID
  5
20
330
1F
100
AcDbSymbolTableRecord
100
AcDbRegAppTableRecord
  2
ACAD
 70
     0
  0
ENDTAB
  0
TABLE
  2
DIMSTYLE
  5
21
330
0
100
AcDbSymbolTable
 70
     1
  0
DIMSTYLE
105
22
330
21
100
AcDbSymbolTableRecord
100
AcDbDimStyleTableRecord
  2
STANDARD
 70
     0
  3
\X
  4
cm
  5

  6

  7

 40
16.0
 41
0.1
 42
0.0625
 43
0.25
 44
0.1
 45
0.0
 46
0.0
 47
0.0
 48
0.0
140
0.1
141
0.09
142
0.0
143
2.54
144
1.0
145
0.0
146
1.0
147
0.08
 71
     0
 72
     0
 73
     1
 74
     1
 75
     0
 76
     0
 77
     0
 78
     4
170
     1
171
     1
172
     0
173
     0
174
     0
175
     0
176
     0
177
     0
178
     0
270
     5
271
     3
272
     3
273
     2
274
     1
340
23
275
     0
280
     0
281
     0
282
     0
283
     1
284
     4
285
     4
286
     4
287
     1
288
     0
  0
ENDTAB
  0
TABLE
  2
BLOCK_RECORD
  5
1
330
0
100
AcDbSymbolTable
 70
     0
  0
BLOCK_RECORD
  5
2
102
{ACAD_XDICTIONARY
360
5C
102
}
330
1
100
AcDbSymbolTableRecord
100
AcDbBlockTableRecord
  2
*MODEL_SPACE
  0
BLOCK_RECORD
  5
C
102
{ACAD_XDICTIONARY
360
5E
102
}
330
1
100
AcDbSymbolTableRecord
100
AcDbBlockTableRecord
  2
*PAPER_SPACE
  0
ENDTAB
  0
ENDSEC
  0
SECTION
  2
BLOCKS
  0
BLOCK
  5
3
330
2
100
AcDbEntity
  8
0
100
AcDbBlockBegin
  2
*MODEL_SPACE
 70
     0
 10
0.0
 20
0.0
 30
0.0
  3
*MODEL_SPACE
  1

  0
ENDBLK
  5
9
330
2
100
AcDbEntity
  8
0
100
AcDbBlockEnd
  0
BLOCK
  5
D
330
C
100
AcDbEntity
 67
     1
  8
0
100
AcDbBlockBegin
  2
*PAPER_SPACE
 70
     0
 10
0.0
 20
0.0
 30
0.0
  3
*PAPER_SPACE
  1

  0
ENDBLK
  5
E
330
C
100
AcDbEntity
 67
     1
  8
0
100
AcDbBlockEnd
  0
ENDSEC
  0
SECTION
  2
ENTITIES
  0
LINE
  5
2B
330
2
100
AcDbEntity
  8
0
 48
0.1
100
AcDbLine
 10
483.0190052068527
 20
186.9540973796653
 30
0.0
 11
522.8940052068528
 21
186.9540973796653
 31
0.0
  0
LINE
  5
2C
330
2
100
AcDbEntity
  8
0
 48
0.1
100
AcDbLine
 10
485.4518741848803
 20
189.7040973796653
 30
0.0
 11
520.4611362288253
 21
189.7040973796653
 31
0.0
  0
LINE
  5
2D
330
2
100
AcDbEntity
  8
0
 48
0.1
100
AcDbLine
 10
493.5091212558086
 20
168.937428929262
 30
0.0
 11
512.5166774938743
 21
169.2604921320562
 31
0.0
  0
LINE
  5
2E
330
2
100
AcDbEntity
  8
0
 48
0.1
100
AcDbLine
 10
487.6439950738384
 20
186.9540973796653
 30
0.0
 11
490.5604094386506
 21
171.3850715998521
 31
0.0
  0
ARC
  5
2F
330
2
100
AcDbEntity
  8
0
 48
0.1
100
AcDbCircle
 10
493.5091212558086
 20
171.937428929262
 30
0.0
 40
3.0
100
AcDbArc
 50
190.6097789210223
 51
270.0
  0
LINE
  5
30
330
2
100
AcDbEntity
  8
0
 48
0.1
100
AcDbLine
 10
502.0009424507634
 20
169.0769392941107
 30
0.0
 11
502.3934067256108
 21
168.2415017266445
 31
0.0
  0
LINE
  5
31
330
2
100
AcDbEntity
  8
CENTER
 48
0.05
100
AcDbLine
 10
494.6440052068527
 20
165.9741573176547
 30
0.0
 11
494.6440052068527
 21
171.9403194869722
 31
0.0
  0
LINE
  5
34
330
2
100
AcDbEntity
  8
0
 48
0.1
100
AcDbLine
 10
496.9869917442497
 20
168.9981353844496
 30
0.0
 11
496.6315472545599
 21
168.2415017266445
 31
0.0
  0
ARC
  5
35
330
2
100
AcDbEntity
  8
0
 48
0.1
100
AcDbCircle
 10
495.2396568892114
 20
168.4540973796653
 30
0.0
 40
0.5
100
AcDbArc
 50
205.1627730604341
 51
269.9999999999992
  0
LINE
  5
36
330
2
100
AcDbEntity
  8
0
 48
0.1
100
AcDbLine
 10
494.4601787747513
 20
168.9374289292619
 30
0.0
 11
494.7871051371247
 21
168.2415017266445
 31
0.0
  0
LINE
  5
37
330
2
100
AcDbEntity
  8
0
 48
0.1
100
AcDbLine
 10
495.2396568892114
 20
167.9540973796653
 30
0.0
 11
496.1789955024733
 21
167.9540973796653
 31
0.0
  0
LINE
  5
38
330
2
100
AcDbEntity
  8
0
 48
0.1
100
AcDbLine
 10
496.1789955024733
 20
167.9540973796653
 30
0.0
 11
495.2396568892114
 21
167.9540973796653
 31
0.0
  0
LINE
  5
39
330
2
100
AcDbEntity
  8
0
 48
0.1
100
AcDbLine
 10
495.2396568892114
 20
167.9540973796653
 30
0.0
 11
496.1789955024733
 21
167.9540973796653
 31
0.0
  0
ARC
  5
3A
330
2
100
AcDbEntity
  8
0
 48
0.1
100
AcDbCircle
 10
496.1789955024733
 20
168.4540973796653
 30
0.0
 40
0.5
100
AcDbArc
 50
270.0000000000008
 51
334.8372269395658
  0
ARC
  5
3B
330
2
100
AcDbEntity
  8
0
 48
0.1
100
AcDbCircle
 10
493.0134232375971
 20
168.5170289717488
 30
0.0
 40
0.5
100
AcDbArc
 50
45.00000000000112
 51
60.94298210333627
  0
ARC
  5
3C
330
2
100
AcDbEntity
  8
0
 48
0.1
100
AcDbCircle
 10
493.8137916967571
 20
168.7773206843687
 30
0.0
 40
0.25
100
AcDbArc
 50
225.0000000000005
 51
270.0
  0
ARC
  5
3D
330
2
100
AcDbEntity
  8
0
 48
0.1
100
AcDbCircle
 10
493.8137916967571
 20
168.7773206843687
 30
0.0
 40
0.25
100
AcDbArc
 50
225.0000000000005
 51
270.0
  0
LINE
  5
3E
330
2
100
AcDbEntity
  8
0
 48
0.1
100
AcDbLine
 10
493.6370150014604
 20
168.600543989072
 30
0.0
 11
493.3669766281903
 21
168.870582362342
 31
0.0
  0
LINE
  5
3F
330
2
100
AcDbEntity
  8
0
 48
0.1
100
AcDbLine
 10
493.6370150014604
 20
168.600543989072
 30
0.0
 11
493.3669766281903
 21
168.870582362342
 31
0.0
  0
LINE
  5
40
330
2
100
AcDbEntity
  8
0
 48
0.1
100
AcDbLine
 10
494.18316639571
 20
168.5273206843687
 30
0.0
 11
493.8137916967571
 21
168.5273206843687
 31
0.0
  0
LINE
  5
41
330
2
100
AcDbEntity
  8
0
 48
0.1
100
AcDbLine
 10
493.8137916967571
 20
168.5273206843687
 30
0.0
 11
494.6528357023409
 21
168.5273206843687
 31
0.0
  0
LINE
  5
42
330
2
100
AcDbEntity
  8
0
 48
0.1
100
AcDbLine
 10
504.6520519023366
 20
169.1232145817198
 30
0.0
 11
504.237848843046
 21
168.2415017266445
 31
0.0
  0
ARC
  5
43
330
2
100
AcDbEntity
  8
0
 48
0.1
100
AcDbCircle
 10
502.8459584776975
 20
168.4540973796653
 30
0.0
 40
0.5
100
AcDbArc
 50
205.1627730604341
 51
269.9999999999992
  0
ARC
  5
44
330
2
100
AcDbEntity
  8
0
 48
0.1
100
AcDbCircle
 10
503.7852970909594
 20
168.4540973796653
 30
0.0
 40
0.5
100
AcDbArc
 50
270.0000000000008
 51
334.8372269395658
  0
LINE
  5
45
330
2
100
AcDbEntity
  8
0
 48
0.1
100
AcDbLine
 10
502.8459584776975
 20
167.9540973796653
 30
0.0
 11
503.7852970909594
 21
167.9540973796653
 31
0.0
  0
LINE
  5
46
330
2
100
AcDbEntity
  8
0
 48
0.1
100
AcDbLine
 10
502.8459584776975
 20
167.9540973796653
 30
0.0
 11
503.7852970909594
 21
167.9540973796653
 31
0.0
  0
LINE
  5
47
330
2
100
AcDbEntity
  8
0
 48
0.1
100
AcDbLine
 10
503.7852970909594
 20
167.9540973796653
 30
0.0
 11
502.8459584776975
 21
167.9540973796653
 31
0.0
  0
LINE
  5
48
330
2
100
AcDbEntity
  8
0
 48
0.1
100
AcDbLine
 10
511.817834314753
 20
169.2482937789901
 30
0.0
 11
511.3448726858615
 21
168.2415017266445
 31
0.0
  0
ARC
  5
49
330
2
100
AcDbEntity
  8
0
 48
0.1
100
AcDbCircle
 10
510.8923209337748
 20
168.4540973796653
 30
0.0
 40
0.5
100
AcDbArc
 50
270.0000000000008
 51
334.8372269395658
  0
LINE
  5
4A
330
2
100
AcDbEntity
  8
0
 48
0.1
100
AcDbLine
 10
509.0501635132829
 20
169.1999839054504
 30
0.0
 11
509.5004305684263
 21
168.2415017266445
 31
0.0
  0
ARC
  5
4B
330
2
100
AcDbEntity
  8
0
 48
0.1
100
AcDbCircle
 10
509.952982320513
 20
168.4540973796653
 30
0.0
 40
0.5
100
AcDbArc
 50
205.1627730604341
 51
269.9999999999992
  0
LINE
  5
4C
330
2
100
AcDbEntity
  8
0
 48
0.1
100
AcDbLine
 10
510.8923209337749
 20
167.9540973796653
 30
0.0
 11
509.952982320513
 21
167.9540973796653
 31
0.0
  0
LINE
  5
4D
330
2
100
AcDbEntity
  8
0
 48
0.1
100
AcDbLine
 10
509.952982320513
 20
167.9540973796653
 30
0.0
 11
510.8923209337749
 21
167.9540973796653
 31
0.0
  0
LINE
  5
4E
330
2
100
AcDbEntity
  8
0
 48
0.1
100
AcDbLine
 10
510.8923209337749
 20
167.9540973796653
 30
0.0
 11
509.952982320513
 21
167.9540973796653
 31
0.0
  0
SPLINE
  5
4F
330
2
100
AcDbEntity
  8
0
 48
0.1
100
AcDbSpline
210
0.0
220
0.0
230
1.0
 70
     8
 71
     3
 72
    11
 73
     7
 74
     0
 42
0.0000000001
 43
0.0000000001
 40
2.905508902230586
 40
2.905508902230918
 40
2.905508902230918
 40
2.905508902230918
 40
4.252032055284468
 40
5.719956877634702
 40
6.429333584659596
 40
7.260754040682666
 40
7.260754040682666
 40
7.260754040682666
 40
7.260754040682666
 10
485.4518741848803
 20
189.7040973796653
 30
0.0
 10
484.9950402567484
 20
189.6944791423023
 30
0.0
 10
484.0070560252781
 20
189.53682436363
 30
0.0
 10
483.2851801944857
 20
188.468614365408
 30
0.0
 10
483.0350257234888
 20
187.7492866162085
 30
0.0
 10
483.0190052068527
 20
187.2312375316731
 30
0.0
 10
483.0190052068527
 20
186.9540973796653
 30
0.0
  0
LINE
  5
50
330
2
100
AcDbEntity
  8
CENTER
 48
0.05
100
AcDbLine
 10
490.9296553482672
 20
185.0790973796653
 30
0.0
 11
485.0607906898883
 21
185.0790973796653
 31
0.0
  0
LINE
  5
51
330
2
100
AcDbEntity
  8
0
 48
0.1
100
AcDbLine
 10
518.2690153398671
 20
186.9540973796653
 30
0.0
 11
515.4130320917206
 21
171.7076778881156
 31
0.0
  0
ARC
  5
52
330
2
100
AcDbEntity
  8
0
 48
0.1
100
AcDbCircle
 10
512.4643202745626
 20
172.2600352175255
 30
0.0
 40
3.0
100
AcDbArc
 50
271.0
 51
349.3902210789777
  0
SPLINE
  5
53
330
2
100
AcDbEntity
  8
0
 48
0.1
100
AcDbSpline
210
0.0
220
0.0
230
1.0
 70
     8
 71
     3
 72
    11
 73
     7
 74
     0
 42
0.0000000001
 43
0.0000000001
 40
2.905508902230586
 40
2.905508902230918
 40
2.905508902230918
 40
2.905508902230918
 40
4.252032055284468
 40
5.719956877634702
 40
6.429333584659596
 40
7.260754040682666
 40
7.260754040682666
 40
7.260754040682666
 40
7.260754040682666
 10
520.4611362288253
 20
189.7040973796653
 30
0.0
 10
520.9179701569571
 20
189.6944791423023
 30
0.0
 10
521.9059543884275
 20
189.53682436363
 30
0.0
 10
522.6278302192198
 20
188.468614365408
 30
0.0
 10
522.8779846902167
 20
187.7492866162085
 30
0.0
 10
522.8940052068528
 20
187.2312375316731
 30
0.0
 10
522.8940052068528
 20
186.9540973796653
 30
0.0
  0
ENDSEC
  0
SECTION
  2
OBJECTS
  0
DICTIONARY
  5
7
330
0
100
AcDbDictionary
  3
ACAD_GROUP
350
26
  3
ACAD_LAYOUT
350
B
  3
ACAD_MLINESTYLE
350
27
  3
ACAD_PLOTSETTINGS
350
28
  3
ACAD_PLOTSTYLENAME
350
6
  3
ACDBHEADERROUNDTRIPXREC
350
E0
  3
ACDBVARIABLEDICTIONARY
350
54
  0
DICTIONARY
  5
11
330
10
100
AcDbDictionary
280
     1
  3
ACAD_LAYERFILTERS
360
12
  0
DICTIONARY
  5
5C
330
2
100
AcDbDictionary
280
     1
  3
ACAD_LAYOUTSELFREF
360
101
  0
DICTIONARY
  5
5E
330
C
100
AcDbDictionary
280
     1
  3
ACAD_LAYOUTSELFREF
360
102
  0
DICTIONARY
  5
26
102
{ACAD_REACTORS
330
7
102
}
330
7
100
AcDbDictionary
  0
DICTIONARY
  5
B
102
{ACAD_REACTORS
330
7
102
}
330
7
100
AcDbDictionary
  0
DICTIONARY
  5
27
102
{ACAD_REACTORS
330
7
102
}
330
7
100
AcDbDictionary
  3
STANDARD
350
2A
  0
DICTIONARY
  5
28
102
{ACAD_REACTORS
330
7
102
}
330
7
100
AcDbDictionary
  0
ACDBDICTIONARYWDFLT
  5
6
102
{ACAD_REACTORS
330
7
102
}
330
7
100
AcDbDictionary
281
     1
  3
Normal
350
5
100
AcDbDictionaryWithDefault
340
5
  0
DICTIONARY
  5
E0
102
{ACAD_REACTORS
330
7
102
}
330
7
100
AcDbDictionary
  3
CEPSNTYPE
350
EA
  3
DIMSTYLEDATA
350
EE
  3
FINGERPRINTGUID
350
EB
  3
HYPERLINKBASE
350
E3
  3
INSUNITS
350
E9
  3
LAYOUTDICT
350
E5
  3
LWETCUNION
350
E8
  3
PLOTSETDICT
350
E6
  3
PLOTSTYLNAMDICT
350
E7
  3
PSVPSCALE
350
ED
  3
PUCSBASE
350
F1
  3
PUCSORGBACK
350
F7
  3
PUCSORGBOTTOM
350
F3
  3
PUCSORGFRONT
350
F6
  3
PUCSORGLEFT
350
F4
  3
PUCSORGRIGHT
350
F5
  3
PUCSORGTOP
350
F2
  3
PUCSORTHOREF
350
EF
  3
PUCSORTHOVIEW
350
F0
  3
STYLESHEET
350
E4
  3
TSTACKALIGN
350
E1
  3
TSTACKSIZE
350
E2
  3
UCSBASE
350
FA
  3
UCSORGBACK
350
100
  3
UCSORGBOTTOM
350
FC
  3
UCSORGFRONT
350
FF
  3
UCSORGLEFT
350
FD
  3
UCSORGRIGHT
350
FE
  3
UCSORGTOP
350
FB
  3
UCSORTHOREF
350
F8
  3
UCSORTHOVIEW
350
F9
  3
VERSIONGUID
350
EC
  0
DICTIONARY
  5
54
102
{ACAD_REACTORS
330
7
102
}
330
7
100
AcDbDictionary
  3
DIMASSOC
350
56
  3
HIDETEXT
350
55
  0
DICTIONARY
  5
12
102
{ACAD_REACTORS
330
11
102
}
330
11
100
AcDbDictionary
280
     1
  3
DIM-1_12
360
13
  3
DIM-1_16
360
14
  0
XRECORD
  5
101
102
{ACAD_REACTORS
330
5C
102
}
330
5C
100
AcDbXrecord
340
2
  0
XRECORD
  5
102
102
{ACAD_REACTORS
330
5E
102
}
330
5E
100
AcDbXrecord
340
C
  0
MLINESTYLE
  5
2A
102
{ACAD_REACTORS
330
27
102
}
330
27
100
AcDbMlineStyle
  2
STANDARD
 70
     0
  3

 62
   256
 51
90.0
 52
90.0
 71
     2
 49
0.5
 62
   256
  6
BYLAYER
 49
-0.5
 62
   256
  6
BYLAYER
  0
ACDBPLACEHOLDER
  5
5
102
{ACAD_REACTORS
330
6
102
}
330
6
100
AcDbPlaceHolder
280
     0
  0
XRECORD
  5
EA
102
{ACAD_REACTORS
330
E0
102
}
330
E0
100
AcDbXrecord
 90
        0
  0
XRECORD
  5
EE
102
{ACAD_REACTORS
330
E0
102
}
330
E0
100
AcDbXrecord
1000
DSTYLE
1002
{
1070
    79
 70
     1
1070
   276
 70
     1
1070
   277
 70
     5
1070
   289
 70
     1
1002
}
  0
XRECORD
  5
EB
102
{ACAD_REACTORS
330
E0
102
}
330
E0
100
AcDbXrecord
  1
{6A4AC8E0-4F58-11D5-8420-0003476D26AB}
  0
XRECORD
  5
E3
102
{ACAD_REACTORS
330
E0
102
}
330
E0
100
AcDbXrecord
  1

  0
XRECORD
  5
E9
102
{ACAD_REACTORS
330
E0
102
}
330
E0
100
AcDbXrecord
 90
        1
  0
XRECORD
  5
E5
102
{ACAD_REACTORS
330
E0
102
}
330
E0
100
AcDbXrecord
340
B
  0
XRECORD
  5
E8
102
{ACAD_REACTORS
330
E0
102
}
330
E0
100
AcDbXrecord
 90
    10781
  0
XRECORD
  5
E6
102
{ACAD_REACTORS
330
E0
102
}
330
E0
100
AcDbXrecord
340
28
  0
XRECORD
  5
E7
102
{ACAD_REACTORS
330
E0
102
}
330
E0
100
AcDbXrecord
340
6
  0
XRECORD
  5
ED
102
{ACAD_REACTORS
330
E0
102
}
330
E0
100
AcDbXrecord
 40
0.0
  0
XRECORD
  5
F1
102
{ACAD_REACTORS
330
E0
102
}
330
E0
100
AcDbXrecord
340
0
  0
XRECORD
  5
F7
102
{ACAD_REACTORS
330
E0
102
}
330
E0
100
AcDbXrecord
 10
0.0
 20
0.0
 30
0.0
  0
XRECORD
  5
F3
102
{ACAD_REACTORS
330
E0
102
}
330
E0
100
AcDbXrecord
 10
0.0
 20
0.0
 30
0.0
  0
XRECORD
  5
F6
102
{ACAD_REACTORS
330
E0
102
}
330
E0
100
AcDbXrecord
 10
0.0
 20
0.0
 30
0.0
  0
XRECORD
  5
F4
102
{ACAD_REACTORS
330
E0
102
}
330
E0
100
AcDbXrecord
 10
0.0
 20
0.0
 30
0.0
  0
XRECORD
  5
F5
102
{ACAD_REACTORS
330
E0
102
}
330
E0
100
AcDbXrecord
 10
0.0
 20
0.0
 30
0.0
  0
XRECORD
  5
F2
102
{ACAD_REACTORS
330
E0
102
}
330
E0
100
AcDbXrecord
 10
0.0
 20
0.0
 30
0.0
  0
XRECORD
  5
EF
102
{ACAD_REACTORS
330
E0
102
}
330
E0
100
AcDbXrecord
340
0
  0
XRECORD
  5
F0
102
{ACAD_REACTORS
330
E0
102
}
330
E0
100
AcDbXrecord
 70
     0
  0
XRECORD
  5
E4
102
{ACAD_REACTORS
330
E0
102
}
330
E0
100
AcDbXrecord
  1

  0
XRECORD
  5
E1
102
{ACAD_REACTORS
330
E0
102
}
330
E0
100
AcDbXrecord
 90
        1
  0
XRECORD
  5
E2
102
{ACAD_REACTORS
330
E0
102
}
330
E0
100
AcDbXrecord
 90
       70
  0
XRECORD
  5
FA
102
{ACAD_REACTORS
330
E0
102
}
330
E0
100
AcDbXrecord
340
0
  0
XRECORD
  5
100
102
{ACAD_REACTORS
330
E0
102
}
330
E0
100
AcDbXrecord
 10
0.0
 20
0.0
 30
0.0
  0
XRECORD
  5
FC
102
{ACAD_REACTORS
330
E0
102
}
330
E0
100
AcDbXrecord
 10
0.0
 20
0.0
 30
0.0
  0
XRECORD
  5
FF
102
{ACAD_REACTORS
330
E0
102
}
330
E0
100
AcDbXrecord
 10
0.0
 20
0.0
 30
0.0
  0
XRECORD
  5
FD
102
{ACAD_REACTORS
330
E0
102
}
330
E0
100
AcDbXrecord
 10
0.0
 20
0.0
 30
0.0
  0
XRECORD
  5
FE
102
{ACAD_REACTORS
330
E0
102
}
330
E0
100
AcDbXrecord
 10
0.0
 20
0.0
 30
0.0
  0
XRECORD
  5
FB
102
{ACAD_REACTORS
330
E0
102
}
330
E0
100
AcDbXrecord
 10
0.0
 20
0.0
 30
0.0
  0
XRECORD
  5
F8
102
{ACAD_REACTORS
330
E0
102
}
330
E0
100
AcDbXrecord
340
0
  0
XRECORD
  5
F9
102
{ACAD_REACTORS
330
E0
102
}
330
E0
100
AcDbXrecord
 70
     1
  0
XRECORD
  5
EC
102
{ACAD_REACTORS
330
E0
102
}
330
E0
100
AcDbXrecord
  1
{9B2B9CE4-421F-4662-8C60-C39F4E0E7DDF}
  0
DICTIONARYVAR
  5
56
102
{ACAD_REACTORS
330
54
102
}
330
54
100
DictionaryVariables
280
     0
  1
1
  0
DICTIONARYVAR
  5
55
102
{ACAD_REACTORS
330
54
102
}
330
54
100
DictionaryVariables
280
     0
  1
1
  0
XRECORD
  5
13
102
{ACAD_REACTORS
330
12
102
}
330
12
100
AcDbXrecord
  1
DIM-1_12
  1
DIM-1_12
  1
*
  1
*
 70
     0
  1
*
  1
*
  0
XRECORD
  5
14
102
{ACAD_REACTORS
330
12
102
}
330
12
100
AcDbXrecord
  1
dim-1_16
  1
*
  1
*
  1
*
 70
     0
  1
*
  1
*
  0
ENDSEC
  0
EOF
