  0
SECTION
  2
HEADER
  9
$ACADVER
  1
AC1014
  9
$ACADMAINTVER
 70
     9
  9
$DWGCODEPAGE
  3
ANSI_1252
  9
$INSBASE
 10
438.091126489648
 20
193.2979596948898
 30
0.0
  9
$EXTMIN
 10
399.2728924784215
 20
181.0398671214098
 30
-0.0015258207003612
  9
$EXTMAX
 10
476.9181815437222
 20
222.9297632827691
 30
0.0000000349246008
  9
$LIMMIN
 10
0.0
 20
0.0
  9
$LIMMAX
 10
100.5024158491978
 20
51.69854817198938
  9
$ORTHOMODE
 70
     1
  9
$REGENMODE
 70
     1
  9
$FILLMODE
 70
     1
  9
$QTEXTMODE
 70
     0
  9
$MIRRTEXT
 70
     1
  9
$DRAGMODE
 70
     2
  9
$LTSCALE
 40
2.0
  9
$OSMODE
 70
    55
  9
$ATTMODE
 70
     1
  9
$TEXTSIZE
 40
0.06
  9
$TRACEWID
 40
1.0
  9
$TEXTSTYLE
  7
CARTOUCHE
  9
$CLAYER
  8
0
  9
$CELTYPE
  6
BYLAYER
  9
$CECOLOR
 62
   256
  9
$CELTSCALE
 40
1.0
  9
$DELOBJ
 70
     1
  9
$DISPSILH
 70
     0
  9
$DIMSCALE
 40
16.0
  9
$DIMASZ
 40
0.1
  9
$DIMEXO
 40
0.0625
  9
$DIMDLI
 40
0.25
  9
$DIMRND
 40
0.0
  9
$DIMDLE
 40
0.0
  9
$DIMEXE
 40
0.1
  9
$DIMTP
 40
0.0
  9
$DIMTM
 40
0.0
  9
$DIMTXT
 40
0.1
  9
$DIMCEN
 40
0.09
  9
$DIMTSZ
 40
0.0
  9
$DIMTOL
 70
     0
  9
$DIMLIM
 70
     0
  9
$DIMTIH
 70
     1
  9
$DIMTOH
 70
     1
  9
$DIMSE1
 70
     0
  9
$DIMSE2
 70
     0
  9
$DIMTAD
 70
     0
  9
$DIMZIN
 70
     4
  9
$DIMBLK
  1

  9
$DIMASO
 70
     1
  9
$DIMSHO
 70
     1
  9
$DIMPOST
  1
\X
  9
$DIMAPOST
  1
cm
  9
$DIMALT
 70
     1
  9
$DIMALTD
 70
     0
  9
$DIMALTF
 40
2.54
  9
$DIMLFAC
 40
1.0
  9
$DIMTOFL
 70
     0
  9
$DIMTVP
 40
0.0
  9
$DIMTIX
 70
     0
  9
$DIMSOXD
 70
     0
  9
$DIMSAH
 70
     0
  9
$DIMBLK1
  1

  9
$DIMBLK2
  1

  9
$DIMSTYLE
  2
STANDARD
  9
$DIMCLRD
 70
     0
  9
$DIMCLRE
 70
     0
  9
$DIMCLRT
 70
     0
  9
$DIMTFAC
 40
1.0
  9
$DIMGAP
 40
0.08
  9
$DIMJUST
 70
     0
  9
$DIMSD1
 70
     0
  9
$DIMSD2
 70
     0
  9
$DIMTOLJ
 70
     1
  9
$DIMTZIN
 70
     4
  9
$DIMALTZ
 70
     4
  9
$DIMALTTZ
 70
     4
  9
$DIMFIT
 70
     1
  9
$DIMUPT
 70
     0
  9
$DIMUNIT
 70
     5
  9
$DIMDEC
 70
     3
  9
$DIMTDEC
 70
     3
  9
$DIMALTU
 70
     2
  9
$DIMALTTD
 70
     0
  9
$DIMTXSTY
  7
ROMANS
  9
$DIMAUNIT
 70
     0
  9
$LUNITS
 70
     2
  9
$LUPREC
 70
     2
  9
$SKETCHINC
 40
1.0
  9
$FILLETRAD
 40
3.0
  9
$AUNITS
 70
     0
  9
$AUPREC
 70
     0
  9
$MENU
  1
.
  9
$ELEVATION
 40
0.0
  9
$PELEVATION
 40
0.0
  9
$THICKNESS
 40
0.0
  9
$LIMCHECK
 70
     0
  9
$BLIPMODE
 70
     0
  9
$CHAMFERA
 40
0.0
  9
$CHAMFERB
 40
0.0
  9
$CHAMFERC
 40
20.0
  9
$CHAMFERD
 40
0.0
  9
$SKPOLY
 70
     0
  9
$TDCREATE
 40
2452062.301426851
  9
$TDUPDATE
 40
2453689.520878680
  9
$TDINDWG
 40
1.3722540046
  9
$TDUSRTIMER
 40
1.3722540046
  9
$USRTIMER
 70
     1
  9
$ANGBASE
 50
0.0
  9
$ANGDIR
 70
     0
  9
$PDMODE
 70
    33
  9
$PDSIZE
 40
0.25
  9
$PLINEWID
 40
0.0
  9
$COORDS
 70
     1
  9
$SPLFRAME
 70
     0
  9
$SPLINETYPE
 70
     6
  9
$SPLINESEGS
 70
     8
  9
$ATTDIA
 70
     0
  9
$ATTREQ
 70
     1
  9
$HANDLING
 70
 22529
  9
$HANDSEED
  5
F9
  9
$SURFTAB1
 70
     6
  9
$SURFTAB2
 70
     6
  9
$SURFTYPE
 70
     6
  9
$SURFU
 70
     6
  9
$SURFV
 70
     6
  9
$UCSNAME
  2

  9
$UCSORG
 10
0.0
 20
0.0
 30
0.0
  9
$UCSXDIR
 10
1.0
 20
0.0
 30
0.0
  9
$UCSYDIR
 10
0.0
 20
1.0
 30
0.0
  9
$PUCSNAME
  2

  9
$PUCSORG
 10
0.0
 20
0.0
 30
0.0
  9
$PUCSXDIR
 10
1.0
 20
0.0
 30
0.0
  9
$PUCSYDIR
 10
0.0
 20
1.0
 30
0.0
  9
$USERI1
 70
     0
  9
$USERI2
 70
     0
  9
$USERI3
 70
     0
  9
$USERI4
 70
     0
  9
$USERI5
 70
     0
  9
$USERR1
 40
0.0
  9
$USERR2
 40
0.0
  9
$USERR3
 40
0.0
  9
$USERR4
 40
0.0
  9
$USERR5
 40
0.0
  9
$WORLDVIEW
 70
     1
  9
$SHADEDGE
 70
     3
  9
$SHADEDIF
 70
    70
  9
$TILEMODE
 70
     1
  9
$MAXACTVP
 70
    48
  9
$PINSBASE
 10
0.0
 20
0.0
 30
0.0
  9
$PLIMCHECK
 70
     0
  9
$PEXTMIN
 10
0.0
 20
0.0
 30
0.0
  9
$PEXTMAX
 10
0.0
 20
0.0
 30
0.0
  9
$PLIMMIN
 10
0.0
 20
0.0
  9
$PLIMMAX
 10
12.0
 20
9.0
  9
$UNITMODE
 70
     0
  9
$VISRETAIN
 70
     1
  9
$PLINEGEN
 70
     0
  9
$PSLTSCALE
 70
     1
  9
$TREEDEPTH
 70
  3020
  9
$PICKSTYLE
 70
     1
  9
$CMLSTYLE
  2
STANDARD
  9
$CMLJUST
 70
     0
  9
$CMLSCALE
 40
20.0
  9
$PROXYGRAPHICS
 70
     1
  9
$MEASUREMENT
 70
     0
  0
ENDSEC
  0
SECTION
  2
CLASSES
  0
CLASS
  1
ACDBDICTIONARYWDFLT
  2
AcDbDictionaryWithDefault
  3
AutoCAD 2000
 90
        0
280
     0
281
     0
  0
CLASS
  1
ACDBPLACEHOLDER
  2
AcDbPlaceHolder
  3
AutoCAD 2000
 90
        0
280
     0
281
     0
  0
CLASS
  1
LAYOUT
  2
AcDbLayout
  3
AutoCAD 2000
 90
        0
280
     0
281
     0
  0
CLASS
  1
DICTIONARYVAR
  2
AcDbDictionaryVar
  3
AutoCAD 2000
 90
        0
280
     0
281
     0
  0
CLASS
  1
IMAGEDEF
  2
AcDbRasterImageDef
  3
ISM
 90
        0
280
     0
281
     0
  0
CLASS
  1
LONG_TRANSACTION
  2
AcDbLongTransaction
  3
AutoCAD 2000
 90
        0
280
     0
281
     0
  0
CLASS
  1
LWPOLYLINE
  2
AcDbPolyline
  3
AutoCAD 2000
 90
        0
280
     0
281
     1
  0
CLASS
  1
HATCH
  2
AcDbHatch
  3
AutoCAD 2000
 90
        0
280
     0
281
     1
  0
CLASS
  1
XRECORD
  2
AcDbXrecord
  3
AutoCAD 2000
 90
        0
280
     0
281
     0
  0
CLASS
  1
LONG_TRANSACTION
  2
AcDbLongTransaction
  3
AutoCAD 2000
 90
        0
280
     0
281
     0
  0
CLASS
  1
LWPOLYLINE
  2
AcDbPolyline
  3
AutoCAD 2000
 90
        0
280
     0
281
     1
  0
CLASS
  1
HATCH
  2
AcDbHatch
  3
AutoCAD 2000
 90
        0
280
     0
281
     1
  0
CLASS
  1
XRECORD
  2
AcDbXrecord
  3
AutoCAD 2000
 90
        0
280
     0
281
     0
  0
ENDSEC
  0
SECTION
  2
TABLES
  0
TABLE
  2
VPORT
  5
1D
330
0
100
AcDbSymbolTable
 70
     3
  0
VPORT
  5
D5
330
1D
100
AcDbSymbolTableRecord
100
AcDbViewportTableRecord
  2
*ACTIVE
 70
     0
 10
0.0
 20
0.0
 11
1.0
 21
1.0
 12
438.0955368762256
 22
201.9848151141818
 13
0.0
 23
0.0
 14
10.0
 24
10.0
 15
10.0
 25
10.0
 16
0.0
 26
0.0
 36
1.0
 17
0.0
 27
0.0
 37
0.0
 40
52.9132145289766
 41
1.786792452830188
 42
50.0
 43
0.0
 44
0.0
 50
0.0
 51
0.0
 71
     0
 72
   100
 73
     1
 74
     3
 75
     0
 76
     0
 77
     0
 78
     2
  0
ENDTAB
  0
TABLE
  2
LTYPE
  5
18
330
0
100
AcDbSymbolTable
 70
     2
  0
LTYPE
  5
19
330
18
100
AcDbSymbolTableRecord
100
AcDbLinetypeTableRecord
  2
BYBLOCK
 70
     0
  3

 72
    65
 73
     0
 40
0.0
  0
LTYPE
  5
1A
330
18
100
AcDbSymbolTableRecord
100
AcDbLinetypeTableRecord
  2
BYLAYER
 70
     0
  3

 72
    65
 73
     0
 40
0.0
  0
LTYPE
  5
8
330
18
100
AcDbSymbolTableRecord
100
AcDbLinetypeTableRecord
  2
CONTINUOUS
 70
     0
  3
Solid line
 72
    65
 73
     0
 40
0.0
  0
LTYPE
  5
3F
330
18
100
AcDbSymbolTableRecord
100
AcDbLinetypeTableRecord
  2
CENTER
 70
     0
  3
Center ____ _ ____ _ ____ _ ____ _ ____ _ ____
 72
    65
 73
     4
 40
50.8
 49
31.75
 74
     0
 49
-6.349999999999999
 74
     0
 49
6.349999999999999
 74
     0
 49
-6.349999999999999
 74
     0
  0
ENDTAB
  0
TABLE
  2
LAYER
  5
10
102
{ACAD_XDICTIONARY
360
11
102
}
330
0
100
AcDbSymbolTable
 70
     2
  0
LAYER
  5
4
330
10
100
AcDbSymbolTableRecord
100
AcDbLayerTableRecord
  2
0
 70
     0
 62
     7
  6
CONTINUOUS
  0
LAYER
  5
3E
330
10
100
AcDbSymbolTableRecord
100
AcDbLayerTableRecord
  2
CENTER
 70
     0
 62
     1
  6
CENTER
  0
ENDTAB
  0
TABLE
  2
STYLE
  5
15
330
0
100
AcDbSymbolTable
 70
     3
  0
STYLE
  5
16
330
15
100
AcDbSymbolTableRecord
100
AcDbTextStyleTableRecord
  2
STANDARD
 70
     0
 40
0.0
 41
1.0
 50
0.0
 71
     0
 42
0.125
  3
txt
  4

  0
STYLE
  5
28
330
15
100
AcDbSymbolTableRecord
100
AcDbTextStyleTableRecord
  2
CARTOUCHE
 70
     0
 40
0.0
 41
1.0
 50
0.0
 71
     0
 42
0.06
  3
romans.shx
  4

  0
STYLE
  5
23
330
15
100
AcDbSymbolTableRecord
100
AcDbTextStyleTableRecord
  2
ROMANS
 70
     0
 40
0.0
 41
1.0
 50
0.0
 71
     0
 42
1.0
  3
romans.shx
  4

  0
ENDTAB
  0
TABLE
  2
VIEW
  5
1B
330
0
100
AcDbSymbolTable
 70
     0
  0
ENDTAB
  0
TABLE
  2
UCS
  5
1C
330
0
100
AcDbSymbolTable
 70
     0
  0
ENDTAB
  0
TABLE
  2
APPID
  5
1F
330
0
100
AcDbSymbolTable
 70
     1
  0
APPID
  5
20
330
1F
100
AcDbSymbolTableRecord
100
AcDbRegAppTableRecord
  2
ACAD
 70
     0
  0
ENDTAB
  0
TABLE
  2
DIMSTYLE
  5
21
330
0
100
AcDbSymbolTable
 70
     1
  0
DIMSTYLE
105
22
330
21
100
AcDbSymbolTableRecord
100
AcDbDimStyleTableRecord
  2
STANDARD
 70
     0
  3
\X
  4
cm
  5

  6

  7

 40
16.0
 41
0.1
 42
0.0625
 43
0.25
 44
0.1
 45
0.0
 46
0.0
 47
0.0
 48
0.0
140
0.1
141
0.09
142
0.0
143
2.54
144
1.0
145
0.0
146
1.0
147
0.08
 71
     0
 72
     0
 73
     1
 74
     1
 75
     0
 76
     0
 77
     0
 78
     4
170
     1
171
     0
172
     0
173
     0
174
     0
175
     0
176
     0
177
     0
178
     0
270
     5
271
     3
272
     3
273
     2
274
     0
340
23
275
     0
280
     0
281
     0
282
     0
283
     1
284
     4
285
     4
286
     4
287
     1
288
     0
  0
ENDTAB
  0
TABLE
  2
BLOCK_RECORD
  5
1
330
0
100
AcDbSymbolTable
 70
     0
  0
BLOCK_RECORD
  5
2
102
{ACAD_XDICTIONARY
360
4C
102
}
330
1
100
AcDbSymbolTableRecord
100
AcDbBlockTableRecord
  2
*MODEL_SPACE
  0
BLOCK_RECORD
  5
C
102
{ACAD_XDICTIONARY
360
4E
102
}
330
1
100
AcDbSymbolTableRecord
100
AcDbBlockTableRecord
  2
*PAPER_SPACE
  0
ENDTAB
  0
ENDSEC
  0
SECTION
  2
BLOCKS
  0
BLOCK
  5
3
330
2
100
AcDbEntity
  8
0
100
AcDbBlockBegin
  2
*MODEL_SPACE
 70
     0
 10
0.0
 20
0.0
 30
0.0
  3
*MODEL_SPACE
  1

  0
ENDBLK
  5
9
330
2
100
AcDbEntity
  8
0
100
AcDbBlockEnd
  0
BLOCK
  5
D
330
C
100
AcDbEntity
 67
     1
  8
0
100
AcDbBlockBegin
  2
*PAPER_SPACE
 70
     0
 10
0.0
 20
0.0
 30
0.0
  3
*PAPER_SPACE
  1

  0
ENDBLK
  5
E
330
C
100
AcDbEntity
 67
     1
  8
0
100
AcDbBlockEnd
  0
ENDSEC
  0
SECTION
  2
ENTITIES
  0
SPLINE
  5
2A
330
2
100
AcDbEntity
  8
0
 48
0.1
100
AcDbSpline
210
0.0
220
0.0
230
1.0
 70
     8
 71
     3
 72
    12
 73
     8
 74
     6
 42
0.0000000001
 43
0.0000000001
 44
0.0000000001
 12
0.0
 22
-1.0
 32
0.0
 13
-1.0
 23
0.0
 33
0.0
 40
0.0
 40
0.0
 40
0.0
 40
0.0
 40
0.0124523918622054
 40
10.97197241611934
 40
29.25104681783357
 40
47.54115604790825
 40
48.94746178880859
 40
48.94746178880859
 40
48.94746178880859
 40
48.94746178880859
 10
476.9036264896479
 20
202.0479596948903
 30
0.0
 10
476.9036264896479
 20
202.0438088976029
 30
0.0
 10
476.9057119062751
 20
198.3865525156732
 30
0.0
 10
473.5934205528557
 20
188.3188732138589
 30
0.0
 10
457.7089307683374
 20
180.9275352291227
 30
0.0
 10
445.1268337060172
 20
181.0503172883153
 30
0.0
 10
438.5598950699478
 20
181.0479596948898
 30
0.0
 10
438.0911264896477
 20
181.0479596948898
 30
0.0
 11
476.9036264896479
 21
202.0479596948903
 31
0.0
 11
476.9036296202305
 21
202.0355073034216
 31
0.0
 11
473.5145189883399
 21
191.6131751130287
 31
0.0
 11
457.7389950109194
 21
182.379681504365
 31
0.0
 11
439.497432230548
 21
181.0479596948898
 31
0.0
 11
438.0911264896477
 21
181.0479596948898
 31
0.0
  0
SPLINE
  5
2B
330
2
100
AcDbEntity
  8
0
 48
0.1
100
AcDbSpline
210
0.0
220
0.0
230
1.0
 70
     8
 71
     3
 72
    12
 73
     8
 74
     6
 42
0.0000000001
 43
0.0000000001
 44
0.0000000001
 12
0.0
 22
-1.0
 32
0.0
 13
1.0
 23
0.0
 33
0.0
 40
0.0
 40
0.0
 40
0.0
 40
0.0
 40
0.0124523918622054
 40
10.97197241611932
 40
29.25104681783356
 40
47.54115604790772
 40
48.94746178880806
 40
48.94746178880806
 40
48.94746178880806
 40
48.94746178880806
 10
399.278626489648
 20
202.0479596948903
 30
0.0
 10
399.278626489648
 20
202.0438088976029
 30
0.0
 10
399.2765410730161
 20
198.3865525156729
 30
0.0
 10
402.5888324264439
 20
188.3188732138592
 30
0.0
 10
418.4733222109572
 20
180.9275352291227
 30
0.0
 10
431.055419273278
 20
181.0503172883151
 30
0.0
 10
437.6223579093475
 20
181.0479596948898
 30
0.0
 10
438.0911264896477
 20
181.0479596948898
 30
0.0
 11
399.278626489648
 21
202.0479596948903
 31
0.0
 11
399.2786233590654
 21
202.0355073034216
 31
0.0
 11
402.6677339909559
 21
191.6131751130287
 31
0.0
 11
418.4432579683765
 21
182.379681504365
 31
0.0
 11
436.6848207487473
 21
181.0479596948898
 31
0.0
 11
438.0911264896477
 21
181.0479596948898
 31
0.0
  0
SPLINE
  5
2C
330
2
100
AcDbEntity
  8
0
 48
0.1
100
AcDbSpline
210
0.0
220
0.0
230
1.0
 70
     8
 71
     3
 72
    12
 73
     8
 74
     6
 42
0.0000000001
 43
0.0000000001
 44
0.0000000001
 40
0.0
 40
0.0
 40
0.0
 40
0.0
 40
0.3932057996606488
 40
5.078146334416582
 40
13.30824099036491
 40
23.82303041414108
 40
31.86050318906639
 40
31.86050318906639
 40
31.86050318906639
 40
31.86050318906639
 10
412.403626489648
 20
202.0479596948899
 30
0.0
 10
412.4025865089367
 20
202.1789987002524
 30
0.0
 10
412.3891554399103
 20
203.8713319397963
 30
0.0
 10
413.7176999237411
 20
208.3452183962096
 30
0.0
 10
420.3179419338128
 20
213.4294688341339
 30
0.0
 10
429.2332296498714
 20
215.1291459112059
 30
0.0
 10
435.4135855226764
 20
215.2033234534864
 30
0.0
 10
438.0911264896479
 20
215.2354596948895
 30
0.0
 11
412.403626489648
 21
202.0479596948899
 31
0.0
 11
412.403626489648
 21
202.4411654945505
 31
0.0
 11
413.6728803004578
 21
206.9508952622798
 31
0.0
 11
419.8592635109075
 21
212.3788894423924
 31
0.0
 11
430.0593847878498
 21
214.9319900205178
 31
0.0
 11
438.0911264896479
 21
215.2354596948895
 31
0.0
  0
SPLINE
  5
2D
330
2
100
AcDbEntity
  8
0
 48
0.1
100
AcDbSpline
210
0.0
220
0.0
230
1.0
 70
     8
 71
     3
 72
    12
 73
     8
 74
     6
 42
0.0000000001
 43
0.0000000001
 44
0.0000000001
 12
0.0
 22
1.0
 32
0.0
 13
1.0
 23
0.0
 33
0.0
 40
0.0
 40
0.0
 40
0.0
 40
0.0
 40
0.0124523918622054
 40
10.97197241611932
 40
29.18822374786244
 40
47.4783329779366
 40
48.88463871883694
 40
48.88463871883694
 40
48.88463871883694
 40
48.88463871883694
 10
399.278626489648
 20
202.0479596948897
 30
0.0
 10
399.278626489648
 20
202.0521104921771
 30
0.0
 10
399.2765443854407
 20
205.7093615939439
 30
0.0
 10
402.5662021255002
 20
215.7801574894733
 30
0.0
 10
418.5163348442272
 20
223.0069373547841
 30
0.0
 10
431.0549839607869
 20
222.9213128560854
 30
0.0
 10
437.6223579093475
 20
222.9229596948898
 30
0.0
 10
438.0911264896477
 20
222.9229596948898
 30
0.0
 11
399.278626489648
 21
202.0479596948897
 31
0.0
 11
399.2786233590654
 21
202.0604120863584
 31
0.0
 11
402.6677339909559
 21
212.4827442767513
 31
0.0
 11
418.4432579683765
 21
221.5912378854147
 31
0.0
 11
436.6848207487473
 21
222.9229596948898
 31
0.0
 11
438.0911264896477
 21
222.9229596948898
 31
0.0
  0
SPLINE
  5
30
330
2
100
AcDbEntity
  8
0
 48
0.1
100
AcDbSpline
210
0.0
220
0.0
230
1.0
 70
     8
 71
     3
 72
    44
 73
    40
 74
     0
 42
0.0000000001
 43
0.0000000001
 40
0.0
 40
0.0
 40
0.0
 40
0.0
 40
0.0372315905762032
 40
0.0372315905762032
 40
0.0744631811524064
 40
0.0744631811524064
 40
0.1489263623048127
 40
0.1489263623048127
 40
0.2978527246096254
 40
0.2978527246096254
 40
0.5957054492192509
 40
0.5957054492192509
 40
1.191410898438501
 40
1.191410898438501
 40
2.382821796877003
 40
2.382821796877003
 40
4.765643593754006
 40
4.765643593754006
 40
10.27683404202779
 40
10.27683404202779
 40
13.31385718964302
 40
13.31385718964302
 40
16.35088033725824
 40
16.35088033725824
 40
21.62185769145444
 40
21.62185769145444
 40
26.89283504565065
 40
26.89283504565065
 40
30.42408765172858
 40
30.42408765172858
 40
33.95534025780652
 40
33.95534025780652
 40
41.01784546996239
 40
41.01784546996239
 40
44.71382998133154
 40
44.71382998133154
 40
47.4197731612029
 40
47.4197731612029
 40
49.00979646262858
 40
49.00979646262858
 40
49.00979646262858
 40
49.00979646262858
 10
403.528626489648
 20
202.0479596948897
 30
0.0
 10
403.528626489648
 20
202.0656469007519
 30
0.0
 10
403.5286215871328
 20
202.0703023971164
 30
0.0
 10
403.5286463177023
 20
202.0885901599365
 30
0.0
 10
403.5286692367145
 20
202.0977376039415
 30
0.0
 10
403.5287696614337
 20
202.1251905108
 30
0.0
 10
403.5288788347207
 20
202.1435065459231
 30
0.0
 10
403.5293330737283
 20
202.1984960360291
 30
0.0
 10
403.5298048569187
 20
202.2352108546177
 30
0.0
 10
403.5317274150463
 20
202.3455134774299
 30
0.0
 10
403.5336853712856
 20
202.4192592726634
 30
0.0
 10
403.5415898346145
 20
202.6410695136308
 30
0.0
 10
403.5495664981691
 20
202.7897053421885
 30
0.0
 10
403.581618347601
 20
203.2374135952291
 30
0.0
 10
403.6138086332321
 20
203.5382751294304
 30
0.0
 10
403.7426233725097
 20
204.4439827289219
 30
0.0
 10
403.8713950720036
 20
205.0518847120593
 30
0.0
 10
404.4340697927509
 20
207.0420337206678
 30
0.0
 10
405.0471069009616
 20
208.3908366421919
 30
0.0
 10
406.248018287078
 20
210.0930247727566
 30
0.0
 10
406.7242536358104
 20
210.6924143170067
 30
0.0
 10
407.7983350687573
 20
211.8354060273072
 30
0.0
 10
408.392642179961
 20
212.3741132347463
 30
0.0
 10
410.1643542740688
 20
213.7586121018041
 30
0.0
 10
411.4474765014381
 20
214.5377965089519
 30
0.0
 10
414.2383145007259
 20
215.8812940287411
 30
0.0
 10
415.7432101728204
 20
216.4455646624411
 30
0.0
 10
418.3299240421799
 20
217.2061961591607
 30
0.0
 10
419.385252890639
 20
217.4624694720905
 30
0.0
 10
421.5051731928504
 20
217.8852379804709
 30
0.0
 10
422.5735274073196
 20
218.0529230179344
 30
0.0
 10
425.8133146061444
 20
218.4503570429431
 30
0.0
 10
428.0180372026773
 20
218.574496951149
 30
0.0
 10
431.3984762508123
 20
218.6592377573195
 30
0.0
 10
432.5962222767996
 20
218.6695194489943
 30
0.0
 10
434.6975129638773
 20
218.6750542697996
 30
0.0
 10
435.5940811200635
 20
218.6735539514078
 30
0.0
 10
437.0304130478473
 20
218.6727504775294
 30
0.0
 10
437.5623520405678
 20
218.6729596948898
 30
0.0
 10
438.0911264896477
 20
218.6729596948898
 30
0.0
  0
SPLINE
  5
32
330
2
100
AcDbEntity
  8
0
 48
0.1
100
AcDbSpline
210
0.0
220
0.0
230
1.0
 70
     8
 71
     3
 72
    12
 73
     8
 74
     6
 42
0.0000000001
 43
0.0000000001
 44
0.0000000001
 40
0.0
 40
0.0
 40
0.0
 40
0.0
 40
0.3932057996606773
 40
5.078146334416583
 40
13.39121325288301
 40
23.90600267665918
 40
31.94347545158448
 40
31.94347545158448
 40
31.94347545158448
 40
31.94347545158448
 10
412.403626489648
 20
202.0479596948901
 30
0.0
 10
412.4025740185377
 20
201.9169074304303
 30
0.0
 10
412.3889816393935
 20
200.2244029532377
 30
0.0
 10
413.7418647316139
 20
195.7396670743154
 30
0.0
 10
420.2605725870804
 20
190.5148858213149
 30
0.0
 10
429.2391961953263
 20
188.848157337686
 30
0.0
 10
435.4153890738099
 20
188.7695256318642
 30
0.0
 10
438.0911264896479
 20
188.7354596948901
 30
0.0
 11
412.403626489648
 21
202.0479596948901
 31
0.0
 11
412.403626489648
 21
201.6547538952294
 31
0.0
 11
413.6728803004578
 21
197.1450241275001
 31
0.0
 11
419.8592635109075
 21
191.5920299473873
 31
0.0
 11
430.0593847878498
 21
189.0389293692619
 31
0.0
 11
438.0911264896479
 21
188.7354596948901
 31
0.0
  0
SPLINE
  5
33
330
2
100
AcDbEntity
  8
0
 48
0.1
100
AcDbSpline
210
0.0
220
0.0
230
1.0
 70
     8
 71
     3
 72
    44
 73
    40
 74
     0
 42
0.0000000001
 43
0.0000000001
 40
0.0
 40
0.0
 40
0.0
 40
0.0
 40
0.0372315905762032
 40
0.0372315905762032
 40
0.0744631811524064
 40
0.0744631811524064
 40
0.1489263623048127
 40
0.1489263623048127
 40
0.2978527246096254
 40
0.2978527246096254
 40
0.5957054492192509
 40
0.5957054492192509
 40
1.191410898438501
 40
1.191410898438501
 40
2.382821796877003
 40
2.382821796877003
 40
4.765643593754006
 40
4.765643593754006
 40
10.27683404202779
 40
10.27683404202779
 40
13.31385718964302
 40
13.31385718964302
 40
16.35088033725824
 40
16.35088033725824
 40
21.62185769145444
 40
21.62185769145444
 40
26.89283504565065
 40
26.89283504565065
 40
30.42408765172858
 40
30.42408765172858
 40
33.95534025780652
 40
33.95534025780652
 40
41.01784546996239
 40
41.01784546996239
 40
44.71382998133154
 40
44.71382998133154
 40
47.4197731612029
 40
47.4197731612029
 40
49.00979646262858
 40
49.00979646262858
 40
49.00979646262858
 40
49.00979646262858
 10
403.528626489648
 20
202.0479596948903
 30
0.0
 10
403.528626489648
 20
202.030272489028
 30
0.0
 10
403.5286215871328
 20
202.0256169926636
 30
0.0
 10
403.5286463177023
 20
202.0073292298434
 30
0.0
 10
403.5286692367145
 20
201.9981817858385
 30
0.0
 10
403.5287696614337
 20
201.9707288789799
 30
0.0
 10
403.5288788347207
 20
201.9524128438568
 30
0.0
 10
403.5293330737283
 20
201.8974233537508
 30
0.0
 10
403.5298048569187
 20
201.8607085351622
 30
0.0
 10
403.5317274150463
 20
201.75040591235
 30
0.0
 10
403.5336853712856
 20
201.6766601171166
 30
0.0
 10
403.5415898346145
 20
201.4548498761491
 30
0.0
 10
403.5495664981691
 20
201.3062140475915
 30
0.0
 10
403.581618347601
 20
200.8585057945508
 30
0.0
 10
403.6138086332321
 20
200.5576442603496
 30
0.0
 10
403.7426233725097
 20
199.651936660858
 30
0.0
 10
403.8713950720036
 20
199.0440346777206
 30
0.0
 10
404.4340697927509
 20
197.0538856691121
 30
0.0
 10
405.0471069009616
 20
195.7050827475881
 30
0.0
 10
406.248018287078
 20
193.877894617023
 30
0.0
 10
406.7242536358104
 20
193.278505072773
 30
0.0
 10
407.7983350687573
 20
192.1355133624724
 30
0.0
 10
408.392642179961
 20
191.5968061550333
 30
0.0
 10
410.1643542740688
 20
190.2123072879755
 30
0.0
 10
411.4474765014381
 20
189.4331228808277
 30
0.0
 10
414.2383145007259
 20
188.0896253610385
 30
0.0
 10
415.7432101728204
 20
187.5253547273386
 30
0.0
 10
418.3299240421799
 20
186.7647232306189
 30
0.0
 10
419.385252890639
 20
186.5084499176892
 30
0.0
 10
421.5051731928504
 20
186.0856814093087
 30
0.0
 10
422.5735274073196
 20
185.9179963718452
 30
0.0
 10
425.8133146061444
 20
185.5205623468365
 30
0.0
 10
428.0180372026773
 20
185.3964224386306
 30
0.0
 10
431.3984762508123
 20
185.3116816324601
 30
0.0
 10
432.5962222767996
 20
185.3013999407853
 30
0.0
 10
434.6975129638773
 20
185.2958651199801
 30
0.0
 10
435.5940811200635
 20
185.2973654383719
 30
0.0
 10
437.0304130478473
 20
185.2981689122502
 30
0.0
 10
437.5623520405678
 20
185.2979596948898
 30
0.0
 10
438.0911264896477
 20
185.2979596948898
 30
0.0
  0
SPLINE
  5
36
330
2
100
AcDbEntity
  8
0
 48
0.1
100
AcDbSpline
210
0.0
220
0.0
230
1.0
 70
     8
 71
     3
 72
    44
 73
    40
 74
     0
 42
0.0000000001
 43
0.0000000001
 40
0.0
 40
0.0
 40
0.0
 40
0.0
 40
0.0372315905762032
 40
0.0372315905762032
 40
0.0744631811524064
 40
0.0744631811524064
 40
0.1489263623048127
 40
0.1489263623048127
 40
0.2978527246096254
 40
0.2978527246096254
 40
0.5957054492192509
 40
0.5957054492192509
 40
1.191410898438501
 40
1.191410898438501
 40
2.382821796877003
 40
2.382821796877003
 40
4.765643593754006
 40
4.765643593754006
 40
10.27683404202779
 40
10.27683404202779
 40
13.31385718964302
 40
13.31385718964302
 40
16.35088033725824
 40
16.35088033725824
 40
21.62185769145444
 40
21.62185769145444
 40
26.89283504565065
 40
26.89283504565065
 40
30.42408765172858
 40
30.42408765172858
 40
33.95534025780652
 40
33.95534025780652
 40
41.01784546996239
 40
41.01784546996239
 40
44.71382998133154
 40
44.71382998133154
 40
47.4197731612029
 40
47.4197731612029
 40
49.00979646262858
 40
49.00979646262858
 40
49.00979646262858
 40
49.00979646262858
 10
472.653626489648
 20
202.0479596948897
 30
0.0
 10
472.653626489648
 20
202.0656469007519
 30
0.0
 10
472.6536313921632
 20
202.0703023971164
 30
0.0
 10
472.6536066615936
 20
202.0885901599365
 30
0.0
 10
472.6535837425814
 20
202.0977376039415
 30
0.0
 10
472.6534833178622
 20
202.1251905108
 30
0.0
 10
472.6533741445751
 20
202.1435065459231
 30
0.0
 10
472.6529199055676
 20
202.1984960360291
 30
0.0
 10
472.6524481223771
 20
202.2352108546177
 30
0.0
 10
472.6505255642496
 20
202.3455134774299
 30
0.0
 10
472.6485676080102
 20
202.4192592726634
 30
0.0
 10
472.6406631446813
 20
202.6410695136308
 30
0.0
 10
472.6326864811268
 20
202.7897053421885
 30
0.0
 10
472.6006346316949
 20
203.2374135952291
 30
0.0
 10
472.5684443460639
 20
203.5382751294304
 30
0.0
 10
472.4396296067862
 20
204.4439827289219
 30
0.0
 10
472.3108579072922
 20
205.0518847120593
 30
0.0
 10
471.748183186545
 20
207.0420337206678
 30
0.0
 10
471.1351460783342
 20
208.3908366421919
 30
0.0
 10
469.9342346922178
 20
210.0930247727566
 30
0.0
 10
469.4579993434854
 20
210.6924143170067
 30
0.0
 10
468.3839179105385
 20
211.8354060273072
 30
0.0
 10
467.7896107993348
 20
212.3741132347463
 30
0.0
 10
466.0178987052271
 20
213.7586121018041
 30
0.0
 10
464.7347764778579
 20
214.5377965089519
 30
0.0
 10
461.94393847857
 20
215.8812940287411
 30
0.0
 10
460.4390428064755
 20
216.4455646624411
 30
0.0
 10
457.852328937116
 20
217.2061961591607
 30
0.0
 10
456.7970000886569
 20
217.4624694720905
 30
0.0
 10
454.6770797864454
 20
217.8852379804709
 30
0.0
 10
453.6087255719762
 20
218.0529230179344
 30
0.0
 10
450.3689383731514
 20
218.4503570429431
 30
0.0
 10
448.1642157766186
 20
218.574496951149
 30
0.0
 10
444.7212767284833
 20
218.6592377573195
 30
0.0
 10
443.5860307024958
 20
218.6695194489943
 30
0.0
 10
441.484740015418
 20
218.6750542697996
 30
0.0
 10
440.5881718592318
 20
218.6735539514078
 30
0.0
 10
439.1518399314481
 20
218.6727504775294
 30
0.0
 10
438.6199009387276
 20
218.6729596948898
 30
0.0
 10
438.0911264896477
 20
218.6729596948898
 30
0.0
  0
SPLINE
  5
37
330
2
100
AcDbEntity
  8
0
 48
0.1
100
AcDbSpline
210
0.0
220
0.0
230
1.0
 70
     8
 71
     3
 72
    12
 73
     8
 74
     6
 42
0.0000000001
 43
0.0000000001
 44
0.0000000001
 12
0.0
 22
1.0
 32
0.0
 13
-1.0
 23
0.0
 33
0.0
 40
0.0
 40
0.0
 40
0.0
 40
0.0
 40
0.0124523918622054
 40
10.85316828678762
 40
29.13224268850185
 40
47.42235191857653
 40
48.82865765947687
 40
48.82865765947687
 40
48.82865765947687
 40
48.82865765947687
 10
476.9036264896479
 20
202.0479596948897
 30
0.0
 10
476.9036264896479
 20
202.0521104921771
 30
0.0
 10
476.9057129692856
 20
205.6697717021136
 30
0.0
 10
473.5320886589227
 20
215.6675536834053
 30
0.0
 10
457.7163592372576
 20
223.044403666577
 30
0.0
 10
445.1266882761879
 20
222.9205821422274
 30
0.0
 10
438.5598950699478
 20
222.9229596948898
 30
0.0
 10
438.0911264896477
 20
222.9229596948898
 30
0.0
 11
476.9036264896479
 21
202.0479596948897
 31
0.0
 11
476.9036296202305
 21
202.0604120863584
 31
0.0
 11
473.5145189883399
 21
212.3577442767509
 31
0.0
 11
457.7389950109194
 21
221.5912378854147
 31
0.0
 11
439.497432230548
 21
222.9229596948898
 31
0.0
 11
438.0911264896477
 21
222.9229596948898
 31
0.0
  0
SPLINE
  5
39
330
2
100
AcDbEntity
  8
0
 48
0.1
100
AcDbSpline
210
0.0
220
0.0
230
1.0
 70
     8
 71
     3
 72
    12
 73
     8
 74
     6
 42
0.0000000001
 43
0.0000000001
 44
0.0000000001
 40
0.0
 40
0.0
 40
0.0
 40
0.0
 40
0.3932057996606773
 40
5.078146334416598
 40
13.39121325288302
 40
23.96664317492302
 40
31.94166086424155
 40
31.94166086424155
 40
31.94166086424155
 40
31.94166086424155
 10
463.778626489648
 20
202.0479596948901
 30
0.0
 10
463.7796789970141
 20
201.9169072231376
 30
0.0
 10
463.7932718443933
 20
200.2244000688162
 30
0.0
 10
462.440342147587
 20
195.7399306511426
 30
0.0
 10
455.9052075221948
 20
190.4994717830439
 30
0.0
 10
446.9204817187396
 20
188.8568894887596
 30
0.0
 10
440.745717590656
 20
188.7719681875081
 30
0.0
 10
438.0911264896475
 20
188.7354596948901
 30
0.0
 11
463.778626489648
 21
202.0479596948901
 31
0.0
 11
463.778626489648
 21
201.6547538952294
 31
0.0
 11
462.5093726788381
 21
197.1450241275001
 31
0.0
 11
456.3229894683884
 21
191.5920299473873
 31
0.0
 11
446.0603681914458
 21
189.0389293692619
 31
0.0
 11
438.0911264896475
 21
188.7354596948901
 31
0.0
  0
SPLINE
  5
3B
330
2
100
AcDbEntity
  8
0
 48
0.1
100
AcDbSpline
210
0.0
220
0.0
230
1.0
 70
     8
 71
     3
 72
    44
 73
    40
 74
     0
 42
0.0000000001
 43
0.0000000001
 40
0.0
 40
0.0
 40
0.0
 40
0.0
 40
0.0372315905762032
 40
0.0372315905762032
 40
0.0744631811524064
 40
0.0744631811524064
 40
0.1489263623048127
 40
0.1489263623048127
 40
0.2978527246096254
 40
0.2978527246096254
 40
0.5957054492192509
 40
0.5957054492192509
 40
1.191410898438501
 40
1.191410898438501
 40
2.382821796877003
 40
2.382821796877003
 40
4.765643593754006
 40
4.765643593754006
 40
10.27683404202779
 40
10.27683404202779
 40
13.31385718964302
 40
13.31385718964302
 40
16.35088033725824
 40
16.35088033725824
 40
21.62185769145444
 40
21.62185769145444
 40
26.89283504565065
 40
26.89283504565065
 40
30.42408765172858
 40
30.42408765172858
 40
33.95534025780652
 40
33.95534025780652
 40
41.01784546996239
 40
41.01784546996239
 40
44.71382998133154
 40
44.71382998133154
 40
47.4197731612029
 40
47.4197731612029
 40
49.00979646262858
 40
49.00979646262858
 40
49.00979646262858
 40
49.00979646262858
 10
472.653626489648
 20
202.0479596948903
 30
0.0
 10
472.653626489648
 20
202.030272489028
 30
0.0
 10
472.6536313921632
 20
202.0256169926636
 30
0.0
 10
472.6536066615936
 20
202.0073292298434
 30
0.0
 10
472.6535837425814
 20
201.9981817858385
 30
0.0
 10
472.6534833178622
 20
201.9707288789799
 30
0.0
 10
472.6533741445751
 20
201.9524128438568
 30
0.0
 10
472.6529199055676
 20
201.8974233537508
 30
0.0
 10
472.6524481223771
 20
201.8607085351622
 30
0.0
 10
472.6505255642496
 20
201.75040591235
 30
0.0
 10
472.6485676080102
 20
201.6766601171166
 30
0.0
 10
472.6406631446813
 20
201.4548498761491
 30
0.0
 10
472.6326864811268
 20
201.3062140475915
 30
0.0
 10
472.6006346316949
 20
200.8585057945508
 30
0.0
 10
472.5684443460639
 20
200.5576442603496
 30
0.0
 10
472.4396296067862
 20
199.651936660858
 30
0.0
 10
472.3108579072922
 20
199.0440346777206
 30
0.0
 10
471.748183186545
 20
197.0538856691121
 30
0.0
 10
471.1351460783342
 20
195.7050827475881
 30
0.0
 10
469.9342346922178
 20
193.877894617023
 30
0.0
 10
469.4579993434854
 20
193.278505072773
 30
0.0
 10
468.3839179105385
 20
192.1355133624724
 30
0.0
 10
467.7896107993348
 20
191.5968061550333
 30
0.0
 10
466.0178987052271
 20
190.2123072879755
 30
0.0
 10
464.7347764778579
 20
189.4331228808277
 30
0.0
 10
461.94393847857
 20
188.0896253610385
 30
0.0
 10
460.4390428064755
 20
187.5253547273386
 30
0.0
 10
457.852328937116
 20
186.7647232306189
 30
0.0
 10
456.7970000886569
 20
186.5084499176892
 30
0.0
 10
454.6770797864454
 20
186.0856814093087
 30
0.0
 10
453.6087255719762
 20
185.9179963718452
 30
0.0
 10
450.3689383731514
 20
185.5205623468365
 30
0.0
 10
448.1642157766186
 20
185.3964224386306
 30
0.0
 10
444.7212767284833
 20
185.3116816324601
 30
0.0
 10
443.5860307024958
 20
185.3013999407853
 30
0.0
 10
441.484740015418
 20
185.2958651199801
 30
0.0
 10
440.5881718592318
 20
185.2973654383719
 30
0.0
 10
439.1518399314481
 20
185.2981689122502
 30
0.0
 10
438.6199009387276
 20
185.2979596948898
 30
0.0
 10
438.0911264896477
 20
185.2979596948898
 30
0.0
  0
LINE
  5
3D
330
2
100
AcDbEntity
  8
CENTER
 48
0.05
100
AcDbLine
 10
438.091126489648
 20
197.4934399955154
 30
0.0
 11
438.091126489648
 21
189.1024793942642
 31
0.0
  0
CIRCLE
  5
40
330
2
100
AcDbEntity
  8
0
 48
0.1
100
AcDbCircle
 10
438.091126489648
 20
193.2979596948898
 30
0.0
 40
1.89014635623478
  0
LINE
  5
41
330
2
100
AcDbEntity
  8
CENTER
 48
0.05
100
AcDbLine
 10
442.2866067902735
 20
193.2979596948898
 30
0.0
 11
433.8956461890224
 21
193.2979596948898
 31
0.0
  0
CIRCLE
  5
42
330
2
100
AcDbEntity
  8
0
 48
0.1
100
AcDbCircle
 10
438.091126489648
 20
193.2979596948898
 30
0.0
 40
1.25
  0
SPLINE
  5
43
330
2
100
AcDbEntity
  8
0
 48
0.1
100
AcDbSpline
210
0.0
220
0.0
230
1.0
 70
     8
 71
     3
 72
    12
 73
     8
 74
     6
 42
0.0000000001
 43
0.0000000001
 44
0.0000000001
 40
0.0
 40
0.0
 40
0.0
 40
0.0
 40
0.3932057996606488
 40
5.078146334416597
 40
13.30824099036493
 40
23.88367091240492
 40
31.85868860172345
 40
31.85868860172345
 40
31.85868860172345
 40
31.85868860172345
 10
463.778626489648
 20
202.0479596948899
 30
0.0
 10
463.7796665133118
 20
202.1789989148769
 30
0.0
 10
463.7930981370576
 20
203.8713349262381
 30
0.0
 10
462.4644987826922
 20
208.3449472062325
 30
0.0
 10
455.8476254713069
 20
213.4446115440729
 30
0.0
 10
446.9264056820252
 20
215.1203665485565
 30
0.0
 10
440.7474986607129
 20
215.2008563479729
 30
0.0
 10
438.0911264896475
 20
215.2354596948895
 30
0.0
 11
463.778626489648
 21
202.0479596948899
 31
0.0
 11
463.778626489648
 21
202.4411654945505
 31
0.0
 11
462.5093726788381
 21
206.9508952622798
 31
0.0
 11
456.3229894683884
 21
212.3788894423924
 31
0.0
 11
446.0603681914458
 21
214.9319900205178
 31
0.0
 11
438.0911264896475
 21
215.2354596948895
 31
0.0
  0
ENDSEC
  0
SECTION
  2
OBJECTS
  0
DICTIONARY
  5
7
330
0
100
AcDbDictionary
  3
ACAD_GROUP
350
25
  3
ACAD_LAYOUT
350
B
  3
ACAD_MLINESTYLE
350
26
  3
ACAD_PLOTSETTINGS
350
27
  3
ACAD_PLOTSTYLENAME
350
6
  3
ACDBHEADERROUNDTRIPXREC
350
D6
  3
ACDBVARIABLEDICTIONARY
350
44
  0
DICTIONARY
  5
11
330
10
100
AcDbDictionary
280
     1
  3
ACAD_LAYERFILTERS
360
12
  0
DICTIONARY
  5
4C
330
2
100
AcDbDictionary
280
     1
  3
ACAD_LAYOUTSELFREF
360
F7
  0
DICTIONARY
  5
4E
330
C
100
AcDbDictionary
280
     1
  3
ACAD_LAYOUTSELFREF
360
F8
  0
DICTIONARY
  5
25
102
{ACAD_REACTORS
330
7
102
}
330
7
100
AcDbDictionary
  0
DICTIONARY
  5
B
102
{ACAD_REACTORS
330
7
102
}
330
7
100
AcDbDictionary
  0
DICTIONARY
  5
26
102
{ACAD_REACTORS
330
7
102
}
330
7
100
AcDbDictionary
  3
STANDARD
350
29
  0
DICTIONARY
  5
27
102
{ACAD_REACTORS
330
7
102
}
330
7
100
AcDbDictionary
  0
ACDBDICTIONARYWDFLT
  5
6
102
{ACAD_REACTORS
330
7
102
}
330
7
100
AcDbDictionary
281
     1
  3
Normal
350
5
100
AcDbDictionaryWithDefault
340
5
  0
DICTIONARY
  5
D6
102
{ACAD_REACTORS
330
7
102
}
330
7
100
AcDbDictionary
  3
CEPSNTYPE
350
E0
  3
DIMSTYLEDATA
350
E4
  3
FINGERPRINTGUID
350
E1
  3
HYPERLINKBASE
350
D9
  3
INSUNITS
350
DF
  3
LAYOUTDICT
350
DB
  3
LWETCUNION
350
DE
  3
PLOTSETDICT
350
DC
  3
PLOTSTYLNAMDICT
350
DD
  3
PSVPSCALE
350
E3
  3
PUCSBASE
350
E7
  3
PUCSORGBACK
350
ED
  3
PUCSORGBOTTOM
350
E9
  3
PUCSORGFRONT
350
EC
  3
PUCSORGLEFT
350
EA
  3
PUCSORGRIGHT
350
EB
  3
PUCSORGTOP
350
E8
  3
PUCSORTHOREF
350
E5
  3
PUCSORTHOVIEW
350
E6
  3
STYLESHEET
350
DA
  3
TSTACKALIGN
350
D7
  3
TSTACKSIZE
350
D8
  3
UCSBASE
350
F0
  3
UCSORGBACK
350
F6
  3
UCSORGBOTTOM
350
F2
  3
UCSORGFRONT
350
F5
  3
UCSORGLEFT
350
F3
  3
UCSORGRIGHT
350
F4
  3
UCSORGTOP
350
F1
  3
UCSORTHOREF
350
EE
  3
UCSORTHOVIEW
350
EF
  3
VERSIONGUID
350
E2
  0
DICTIONARY
  5
44
102
{ACAD_REACTORS
330
7
102
}
330
7
100
AcDbDictionary
  3
DIMASSOC
350
46
  3
HIDETEXT
350
45
  0
DICTIONARY
  5
12
102
{ACAD_REACTORS
330
11
102
}
330
11
100
AcDbDictionary
280
     1
  3
DIM-1_12
360
13
  3
DIM-1_16
360
14
  0
XRECORD
  5
F7
102
{ACAD_REACTORS
330
4C
102
}
330
4C
100
AcDbXrecord
340
2
  0
XRECORD
  5
F8
102
{ACAD_REACTORS
330
4E
102
}
330
4E
100
AcDbXrecord
340
C
  0
MLINESTYLE
  5
29
102
{ACAD_REACTORS
330
26
102
}
330
26
100
AcDbMlineStyle
  2
STANDARD
 70
     0
  3

 62
   256
 51
90.0
 52
90.0
 71
     2
 49
0.5
 62
   256
  6
BYLAYER
 49
-0.5
 62
   256
  6
BYLAYER
  0
ACDBPLACEHOLDER
  5
5
102
{ACAD_REACTORS
330
6
102
}
330
6
100
AcDbPlaceHolder
280
     0
  0
XRECORD
  5
E0
102
{ACAD_REACTORS
330
D6
102
}
330
D6
100
AcDbXrecord
 90
        0
  0
XRECORD
  5
E4
102
{ACAD_REACTORS
330
D6
102
}
330
D6
100
AcDbXrecord
1000
DSTYLE
1002
{
1070
    79
 70
     1
1070
   276
 70
     1
1070
   277
 70
     5
1070
   289
 70
     1
1002
}
  0
XRECORD
  5
E1
102
{ACAD_REACTORS
330
D6
102
}
330
D6
100
AcDbXrecord
  1
{6A4AC8E0-4F58-11D5-8420-0003476D26AB}
  0
XRECORD
  5
D9
102
{ACAD_REACTORS
330
D6
102
}
330
D6
100
AcDbXrecord
  1

  0
XRECORD
  5
DF
102
{ACAD_REACTORS
330
D6
102
}
330
D6
100
AcDbXrecord
 90
        1
  0
XRECORD
  5
DB
102
{ACAD_REACTORS
330
D6
102
}
330
D6
100
AcDbXrecord
340
B
  0
XRECORD
  5
DE
102
{ACAD_REACTORS
330
D6
102
}
330
D6
100
AcDbXrecord
 90
    10781
  0
XRECORD
  5
DC
102
{ACAD_REACTORS
330
D6
102
}
330
D6
100
AcDbXrecord
340
27
  0
XRECORD
  5
DD
102
{ACAD_REACTORS
330
D6
102
}
330
D6
100
AcDbXrecord
340
6
  0
XRECORD
  5
E3
102
{ACAD_REACTORS
330
D6
102
}
330
D6
100
AcDbXrecord
 40
0.0
  0
XRECORD
  5
E7
102
{ACAD_REACTORS
330
D6
102
}
330
D6
100
AcDbXrecord
340
0
  0
XRECORD
  5
ED
102
{ACAD_REACTORS
330
D6
102
}
330
D6
100
AcDbXrecord
 10
0.0
 20
0.0
 30
0.0
  0
XRECORD
  5
E9
102
{ACAD_REACTORS
330
D6
102
}
330
D6
100
AcDbXrecord
 10
0.0
 20
0.0
 30
0.0
  0
XRECORD
  5
EC
102
{ACAD_REACTORS
330
D6
102
}
330
D6
100
AcDbXrecord
 10
0.0
 20
0.0
 30
0.0
  0
XRECORD
  5
EA
102
{ACAD_REACTORS
330
D6
102
}
330
D6
100
AcDbXrecord
 10
0.0
 20
0.0
 30
0.0
  0
XRECORD
  5
EB
102
{ACAD_REACTORS
330
D6
102
}
330
D6
100
AcDbXrecord
 10
0.0
 20
0.0
 30
0.0
  0
XRECORD
  5
E8
102
{ACAD_REACTORS
330
D6
102
}
330
D6
100
AcDbXrecord
 10
0.0
 20
0.0
 30
0.0
  0
XRECORD
  5
E5
102
{ACAD_REACTORS
330
D6
102
}
330
D6
100
AcDbXrecord
340
0
  0
XRECORD
  5
E6
102
{ACAD_REACTORS
330
D6
102
}
330
D6
100
AcDbXrecord
 70
     0
  0
XRECORD
  5
DA
102
{ACAD_REACTORS
330
D6
102
}
330
D6
100
AcDbXrecord
  1

  0
XRECORD
  5
D7
102
{ACAD_REACTORS
330
D6
102
}
330
D6
100
AcDbXrecord
 90
        1
  0
XRECORD
  5
D8
102
{ACAD_REACTORS
330
D6
102
}
330
D6
100
AcDbXrecord
 90
       70
  0
XRECORD
  5
F0
102
{ACAD_REACTORS
330
D6
102
}
330
D6
100
AcDbXrecord
340
0
  0
XRECORD
  5
F6
102
{ACAD_REACTORS
330
D6
102
}
330
D6
100
AcDbXrecord
 10
0.0
 20
0.0
 30
0.0
  0
XRECORD
  5
F2
102
{ACAD_REACTORS
330
D6
102
}
330
D6
100
AcDbXrecord
 10
0.0
 20
0.0
 30
0.0
  0
XRECORD
  5
F5
102
{ACAD_REACTORS
330
D6
102
}
330
D6
100
AcDbXrecord
 10
0.0
 20
0.0
 30
0.0
  0
XRECORD
  5
F3
102
{ACAD_REACTORS
330
D6
102
}
330
D6
100
AcDbXrecord
 10
0.0
 20
0.0
 30
0.0
  0
XRECORD
  5
F4
102
{ACAD_REACTORS
330
D6
102
}
330
D6
100
AcDbXrecord
 10
0.0
 20
0.0
 30
0.0
  0
XRECORD
  5
F1
102
{ACAD_REACTORS
330
D6
102
}
330
D6
100
AcDbXrecord
 10
0.0
 20
0.0
 30
0.0
  0
XRECORD
  5
EE
102
{ACAD_REACTORS
330
D6
102
}
330
D6
100
AcDbXrecord
340
0
  0
XRECORD
  5
EF
102
{ACAD_REACTORS
330
D6
102
}
330
D6
100
AcDbXrecord
 70
     1
  0
XRECORD
  5
E2
102
{ACAD_REACTORS
330
D6
102
}
330
D6
100
AcDbXrecord
  1
{5ECB6835-A03D-4853-BE4F-E3B4C4509724}
  0
DICTIONARYVAR
  5
46
102
{ACAD_REACTORS
330
44
102
}
330
44
100
DictionaryVariables
280
     0
  1
1
  0
DICTIONARYVAR
  5
45
102
{ACAD_REACTORS
330
44
102
}
330
44
100
DictionaryVariables
280
     0
  1
1
  0
XRECORD
  5
13
102
{ACAD_REACTORS
330
12
102
}
330
12
100
AcDbXrecord
  1
DIM-1_12
  1
DIM-1_12
  1
*
  1
*
 70
     0
  1
*
  1
*
  0
XRECORD
  5
14
102
{ACAD_REACTORS
330
12
102
}
330
12
100
AcDbXrecord
  1
dim-1_16
  1
*
  1
*
  1
*
 70
     0
  1
*
  1
*
  0
ENDSEC
  0
EOF
