  0
SECTION
  2
HEADER
  9
$ACADVER
  1
AC1014
  9
$ACADMAINTVER
 70
     9
  9
$DWGCODEPAGE
  3
ANSI_1252
  9
$INSBASE
 10
181.5817468367372
 20
193.2979596948898
 30
0.0
  9
$EXTMIN
 10
142.767288291653
 20
181.0398671214098
 30
-0.0000372535645418
  9
$EXTMAX
 10
220.4009732485364
 20
222.9297632827691
 30
1.220855201745237
  9
$LIMMIN
 10
0.0
 20
0.0
  9
$LIMMAX
 10
100.5024158491978
 20
51.69854817198938
  9
$ORTHOMODE
 70
     1
  9
$REGENMODE
 70
     1
  9
$FILLMODE
 70
     1
  9
$QTEXTMODE
 70
     0
  9
$MIRRTEXT
 70
     1
  9
$DRAGMODE
 70
     2
  9
$LTSCALE
 40
2.0
  9
$OSMODE
 70
    55
  9
$ATTMODE
 70
     1
  9
$TEXTSIZE
 40
0.06
  9
$TRACEWID
 40
1.0
  9
$TEXTSTYLE
  7
CARTOUCHE
  9
$CLAYER
  8
0
  9
$CELTYPE
  6
BYLAYER
  9
$CECOLOR
 62
   256
  9
$CELTSCALE
 40
1.0
  9
$DELOBJ
 70
     1
  9
$DISPSILH
 70
     0
  9
$DIMSCALE
 40
16.0
  9
$DIMASZ
 40
0.1
  9
$DIMEXO
 40
0.0625
  9
$DIMDLI
 40
0.25
  9
$DIMRND
 40
0.0
  9
$DIMDLE
 40
0.0
  9
$DIMEXE
 40
0.1
  9
$DIMTP
 40
0.0
  9
$DIMTM
 40
0.0
  9
$DIMTXT
 40
0.1
  9
$DIMCEN
 40
0.09
  9
$DIMTSZ
 40
0.0
  9
$DIMTOL
 70
     0
  9
$DIMLIM
 70
     0
  9
$DIMTIH
 70
     1
  9
$DIMTOH
 70
     1
  9
$DIMSE1
 70
     0
  9
$DIMSE2
 70
     0
  9
$DIMTAD
 70
     0
  9
$DIMZIN
 70
     4
  9
$DIMBLK
  1

  9
$DIMASO
 70
     1
  9
$DIMSHO
 70
     1
  9
$DIMPOST
  1
\X
  9
$DIMAPOST
  1
cm
  9
$DIMALT
 70
     1
  9
$DIMALTD
 70
     0
  9
$DIMALTF
 40
2.54
  9
$DIMLFAC
 40
1.0
  9
$DIMTOFL
 70
     0
  9
$DIMTVP
 40
0.0
  9
$DIMTIX
 70
     0
  9
$DIMSOXD
 70
     0
  9
$DIMSAH
 70
     0
  9
$DIMBLK1
  1

  9
$DIMBLK2
  1

  9
$DIMSTYLE
  2
STANDARD
  9
$DIMCLRD
 70
     0
  9
$DIMCLRE
 70
     0
  9
$DIMCLRT
 70
     0
  9
$DIMTFAC
 40
1.0
  9
$DIMGAP
 40
0.08
  9
$DIMJUST
 70
     0
  9
$DIMSD1
 70
     0
  9
$DIMSD2
 70
     0
  9
$DIMTOLJ
 70
     1
  9
$DIMTZIN
 70
     4
  9
$DIMALTZ
 70
     4
  9
$DIMALTTZ
 70
     4
  9
$DIMFIT
 70
     1
  9
$DIMUPT
 70
     0
  9
$DIMUNIT
 70
     5
  9
$DIMDEC
 70
     3
  9
$DIMTDEC
 70
     3
  9
$DIMALTU
 70
     2
  9
$DIMALTTD
 70
     0
  9
$DIMTXSTY
  7
ROMANS
  9
$DIMAUNIT
 70
     0
  9
$LUNITS
 70
     2
  9
$LUPREC
 70
     2
  9
$SKETCHINC
 40
1.0
  9
$FILLETRAD
 40
3.0
  9
$AUNITS
 70
     0
  9
$AUPREC
 70
     0
  9
$MENU
  1
.
  9
$ELEVATION
 40
0.0
  9
$PELEVATION
 40
0.0
  9
$THICKNESS
 40
0.0
  9
$LIMCHECK
 70
     0
  9
$BLIPMODE
 70
     0
  9
$CHAMFERA
 40
0.0
  9
$CHAMFERB
 40
0.0
  9
$CHAMFERC
 40
20.0
  9
$CHAMFERD
 40
0.0
  9
$SKPOLY
 70
     0
  9
$TDCREATE
 40
2452062.301426851
  9
$TDUPDATE
 40
2453689.518651053
  9
$TDINDWG
 40
1.3663976736
  9
$TDUSRTIMER
 40
1.3663976736
  9
$USRTIMER
 70
     1
  9
$ANGBASE
 50
0.0
  9
$ANGDIR
 70
     0
  9
$PDMODE
 70
    33
  9
$PDSIZE
 40
0.25
  9
$PLINEWID
 40
0.0
  9
$COORDS
 70
     1
  9
$SPLFRAME
 70
     0
  9
$SPLINETYPE
 70
     6
  9
$SPLINESEGS
 70
     8
  9
$ATTDIA
 70
     0
  9
$ATTREQ
 70
     1
  9
$HANDLING
 70
 22529
  9
$HANDSEED
  5
271
  9
$SURFTAB1
 70
     6
  9
$SURFTAB2
 70
     6
  9
$SURFTYPE
 70
     6
  9
$SURFU
 70
     6
  9
$SURFV
 70
     6
  9
$UCSNAME
  2

  9
$UCSORG
 10
0.0
 20
0.0
 30
0.0
  9
$UCSXDIR
 10
1.0
 20
0.0
 30
0.0
  9
$UCSYDIR
 10
0.0
 20
1.0
 30
0.0
  9
$PUCSNAME
  2

  9
$PUCSORG
 10
0.0
 20
0.0
 30
0.0
  9
$PUCSXDIR
 10
1.0
 20
0.0
 30
0.0
  9
$PUCSYDIR
 10
0.0
 20
1.0
 30
0.0
  9
$USERI1
 70
     0
  9
$USERI2
 70
     0
  9
$USERI3
 70
     0
  9
$USERI4
 70
     0
  9
$USERI5
 70
     0
  9
$USERR1
 40
0.0
  9
$USERR2
 40
0.0
  9
$USERR3
 40
0.0
  9
$USERR4
 40
0.0
  9
$USERR5
 40
0.0
  9
$WORLDVIEW
 70
     1
  9
$SHADEDGE
 70
     3
  9
$SHADEDIF
 70
    70
  9
$TILEMODE
 70
     1
  9
$MAXACTVP
 70
    48
  9
$PINSBASE
 10
0.0
 20
0.0
 30
0.0
  9
$PLIMCHECK
 70
     0
  9
$PEXTMIN
 10
0.0
 20
0.0
 30
0.0
  9
$PEXTMAX
 10
0.0
 20
0.0
 30
0.0
  9
$PLIMMIN
 10
0.0
 20
0.0
  9
$PLIMMAX
 10
12.0
 20
9.0
  9
$UNITMODE
 70
     0
  9
$VISRETAIN
 70
     1
  9
$PLINEGEN
 70
     0
  9
$PSLTSCALE
 70
     1
  9
$TREEDEPTH
 70
  3020
  9
$PICKSTYLE
 70
     1
  9
$CMLSTYLE
  2
STANDARD
  9
$CMLJUST
 70
     0
  9
$CMLSCALE
 40
20.0
  9
$PROXYGRAPHICS
 70
     1
  9
$MEASUREMENT
 70
     0
  0
ENDSEC
  0
SECTION
  2
CLASSES
  0
CLASS
  1
ACDBDICTIONARYWDFLT
  2
AcDbDictionaryWithDefault
  3
AutoCAD 2000
 90
        0
280
     0
281
     0
  0
CLASS
  1
ACDBPLACEHOLDER
  2
AcDbPlaceHolder
  3
AutoCAD 2000
 90
        0
280
     0
281
     0
  0
CLASS
  1
LAYOUT
  2
AcDbLayout
  3
AutoCAD 2000
 90
        0
280
     0
281
     0
  0
CLASS
  1
DICTIONARYVAR
  2
AcDbDictionaryVar
  3
AutoCAD 2000
 90
        0
280
     0
281
     0
  0
CLASS
  1
IMAGEDEF
  2
AcDbRasterImageDef
  3
ISM
 90
        0
280
     0
281
     0
  0
CLASS
  1
LONG_TRANSACTION
  2
AcDbLongTransaction
  3
AutoCAD 2000
 90
        0
280
     0
281
     0
  0
CLASS
  1
LWPOLYLINE
  2
AcDbPolyline
  3
AutoCAD 2000
 90
        0
280
     0
281
     1
  0
CLASS
  1
HATCH
  2
AcDbHatch
  3
AutoCAD 2000
 90
        0
280
     0
281
     1
  0
CLASS
  1
XRECORD
  2
AcDbXrecord
  3
AutoCAD 2000
 90
        0
280
     0
281
     0
  0
CLASS
  1
LONG_TRANSACTION
  2
AcDbLongTransaction
  3
AutoCAD 2000
 90
        0
280
     0
281
     0
  0
CLASS
  1
LWPOLYLINE
  2
AcDbPolyline
  3
AutoCAD 2000
 90
        0
280
     0
281
     1
  0
CLASS
  1
HATCH
  2
AcDbHatch
  3
AutoCAD 2000
 90
        0
280
     0
281
     1
  0
CLASS
  1
XRECORD
  2
AcDbXrecord
  3
AutoCAD 2000
 90
        0
280
     0
281
     0
  0
ENDSEC
  0
SECTION
  2
TABLES
  0
TABLE
  2
VPORT
  5
1D
330
0
100
AcDbSymbolTable
 70
     3
  0
VPORT
  5
24D
330
1D
100
AcDbSymbolTableRecord
100
AcDbViewportTableRecord
  2
*ACTIVE
 70
     0
 10
0.0
 20
0.0
 11
1.0
 21
1.0
 12
181.5841305033813
 22
201.9848151773009
 13
0.0
 23
0.0
 14
10.0
 24
10.0
 15
10.0
 25
10.0
 16
0.0
 26
0.0
 36
1.0
 17
0.0
 27
0.0
 37
0.0
 40
50.28190296432535
 41
1.786792452830188
 42
50.0
 43
0.0
 44
0.0
 50
0.0
 51
0.0
 71
     0
 72
   100
 73
     1
 74
     3
 75
     0
 76
     0
 77
     0
 78
     2
  0
ENDTAB
  0
TABLE
  2
LTYPE
  5
18
330
0
100
AcDbSymbolTable
 70
     2
  0
LTYPE
  5
19
330
18
100
AcDbSymbolTableRecord
100
AcDbLinetypeTableRecord
  2
BYBLOCK
 70
     0
  3

 72
    65
 73
     0
 40
0.0
  0
LTYPE
  5
1A
330
18
100
AcDbSymbolTableRecord
100
AcDbLinetypeTableRecord
  2
BYLAYER
 70
     0
  3

 72
    65
 73
     0
 40
0.0
  0
LTYPE
  5
8
330
18
100
AcDbSymbolTableRecord
100
AcDbLinetypeTableRecord
  2
CONTINUOUS
 70
     0
  3
Solid line
 72
    65
 73
     0
 40
0.0
  0
LTYPE
  5
1B1
330
18
100
AcDbSymbolTableRecord
100
AcDbLinetypeTableRecord
  2
CENTER
 70
     0
  3
Center ____ _ ____ _ ____ _ ____ _ ____ _ ____
 72
    65
 73
     4
 40
50.8
 49
31.75
 74
     0
 49
-6.349999999999999
 74
     0
 49
6.349999999999999
 74
     0
 49
-6.349999999999999
 74
     0
  0
ENDTAB
  0
TABLE
  2
LAYER
  5
10
102
{ACAD_XDICTIONARY
360
11
102
}
330
0
100
AcDbSymbolTable
 70
     2
  0
LAYER
  5
4
330
10
100
AcDbSymbolTableRecord
100
AcDbLayerTableRecord
  2
0
 70
     0
 62
     7
  6
CONTINUOUS
  0
LAYER
  5
1B0
330
10
100
AcDbSymbolTableRecord
100
AcDbLayerTableRecord
  2
CENTER
 70
     0
 62
     1
  6
CENTER
  0
ENDTAB
  0
TABLE
  2
STYLE
  5
15
330
0
100
AcDbSymbolTable
 70
     3
  0
STYLE
  5
16
330
15
100
AcDbSymbolTableRecord
100
AcDbTextStyleTableRecord
  2
STANDARD
 70
     0
 40
0.0
 41
1.0
 50
0.0
 71
     0
 42
0.125
  3
txt
  4

  0
STYLE
  5
28
330
15
100
AcDbSymbolTableRecord
100
AcDbTextStyleTableRecord
  2
CARTOUCHE
 70
     0
 40
0.0
 41
1.0
 50
0.0
 71
     0
 42
0.06
  3
romans.shx
  4

  0
STYLE
  5
23
330
15
100
AcDbSymbolTableRecord
100
AcDbTextStyleTableRecord
  2
ROMANS
 70
     0
 40
0.0
 41
1.0
 50
0.0
 71
     0
 42
1.0
  3
romans.shx
  4

  0
ENDTAB
  0
TABLE
  2
VIEW
  5
1B
330
0
100
AcDbSymbolTable
 70
     0
  0
ENDTAB
  0
TABLE
  2
UCS
  5
1C
330
0
100
AcDbSymbolTable
 70
     0
  0
ENDTAB
  0
TABLE
  2
APPID
  5
1F
330
0
100
AcDbSymbolTable
 70
     1
  0
APPID
  5
20
330
1F
100
AcDbSymbolTableRecord
100
AcDbRegAppTableRecord
  2
ACAD
 70
     0
  0
ENDTAB
  0
TABLE
  2
DIMSTYLE
  5
21
330
0
100
AcDbSymbolTable
 70
     1
  0
DIMSTYLE
105
22
330
21
100
AcDbSymbolTableRecord
100
AcDbDimStyleTableRecord
  2
STANDARD
 70
     0
  3
\X
  4
cm
  5

  6

  7

 40
16.0
 41
0.1
 42
0.0625
 43
0.25
 44
0.1
 45
0.0
 46
0.0
 47
0.0
 48
0.0
140
0.1
141
0.09
142
0.0
143
2.54
144
1.0
145
0.0
146
1.0
147
0.08
 71
     0
 72
     0
 73
     1
 74
     1
 75
     0
 76
     0
 77
     0
 78
     4
170
     1
171
     0
172
     0
173
     0
174
     0
175
     0
176
     0
177
     0
178
     0
270
     5
271
     3
272
     3
273
     2
274
     0
340
23
275
     0
280
     0
281
     0
282
     0
283
     1
284
     4
285
     4
286
     4
287
     1
288
     0
  0
ENDTAB
  0
TABLE
  2
BLOCK_RECORD
  5
1
330
0
100
AcDbSymbolTable
 70
     0
  0
BLOCK_RECORD
  5
2
102
{ACAD_XDICTIONARY
360
1C4
102
}
330
1
100
AcDbSymbolTableRecord
100
AcDbBlockTableRecord
  2
*MODEL_SPACE
  0
BLOCK_RECORD
  5
C
102
{ACAD_XDICTIONARY
360
1C6
102
}
330
1
100
AcDbSymbolTableRecord
100
AcDbBlockTableRecord
  2
*PAPER_SPACE
  0
ENDTAB
  0
ENDSEC
  0
SECTION
  2
BLOCKS
  0
BLOCK
  5
3
330
2
100
AcDbEntity
  8
0
100
AcDbBlockBegin
  2
*MODEL_SPACE
 70
     0
 10
0.0
 20
0.0
 30
0.0
  3
*MODEL_SPACE
  1

  0
ENDBLK
  5
9
330
2
100
AcDbEntity
  8
0
100
AcDbBlockEnd
  0
BLOCK
  5
D
330
C
100
AcDbEntity
 67
     1
  8
0
100
AcDbBlockBegin
  2
*PAPER_SPACE
 70
     0
 10
0.0
 20
0.0
 30
0.0
  3
*PAPER_SPACE
  1

  0
ENDBLK
  5
E
330
C
100
AcDbEntity
 67
     1
  8
0
100
AcDbBlockEnd
  0
ENDSEC
  0
SECTION
  2
ENTITIES
  0
SPLINE
  5
2A
330
2
100
AcDbEntity
  8
0
 48
0.1
100
AcDbSpline
210
0.0
220
0.0
230
1.0
 70
     8
 71
     3
 72
    12
 73
     8
 74
     6
 42
0.0000000001
 43
0.0000000001
 44
0.0000000001
 12
0.0
 22
-1.0
 32
0.0
 13
-1.0
 23
0.0
 33
0.0
 40
0.0
 40
0.0
 40
0.0
 40
0.0
 40
0.0124523918622054
 40
10.97197241611932
 40
29.25104681783356
 40
47.54115604790824
 40
48.9474617888086
 40
48.9474617888086
 40
48.9474617888086
 40
48.9474617888086
 10
220.3942468367372
 20
202.0479596948903
 30
0.0
 10
220.3942468367372
 20
202.0438088976029
 30
0.0
 10
220.3963322533476
 20
198.386552515673
 30
0.0
 10
217.0840408999582
 20
188.318873213859
 30
0.0
 10
201.1995511154221
 20
180.9275352291227
 30
0.0
 10
188.6174540531064
 20
181.0503172883153
 30
0.0
 10
182.050515417037
 20
181.0479596948898
 30
0.0
 10
181.5817468367369
 20
181.0479596948898
 30
0.0
 11
220.3942468367372
 21
202.0479596948903
 31
0.0
 11
220.3942499673197
 21
202.0355073034216
 31
0.0
 11
217.0051393354292
 21
191.6131751130287
 31
0.0
 11
201.2296153580087
 21
182.379681504365
 31
0.0
 11
182.9880525776373
 21
181.0479596948898
 31
0.0
 11
181.5817468367369
 21
181.0479596948898
 31
0.0
  0
SPLINE
  5
2B
330
2
100
AcDbEntity
  8
0
 48
0.1
100
AcDbSpline
210
0.0
220
0.0
230
1.0
 70
     8
 71
     3
 72
    12
 73
     8
 74
     6
 42
0.0000000001
 43
0.0000000001
 44
0.0000000001
 12
0.0
 22
-1.0
 32
0.0
 13
1.0
 23
0.0
 33
0.0
 40
0.0
 40
0.0
 40
0.0
 40
0.0
 40
0.0124523918622054
 40
10.97197241611932
 40
29.25104681783356
 40
47.54115604790772
 40
48.94746178880806
 40
48.94746178880806
 40
48.94746178880806
 40
48.94746178880806
 10
142.7692468367372
 20
202.0479596948903
 30
0.0
 10
142.7692468367372
 20
202.0438088976029
 30
0.0
 10
142.7671614201018
 20
198.3865525156729
 30
0.0
 10
146.079452773536
 20
188.3188732138592
 30
0.0
 10
161.9639425580452
 20
180.9275352291227
 30
0.0
 10
174.5460396203679
 20
181.0503172883151
 30
0.0
 10
181.1129782564368
 20
181.0479596948898
 30
0.0
 10
181.5817468367369
 20
181.0479596948898
 30
0.0
 11
142.7692468367372
 21
202.0479596948903
 31
0.0
 11
142.7692437061547
 21
202.0355073034216
 31
0.0
 11
146.1583543380451
 21
191.6131751130287
 31
0.0
 11
161.9338783154657
 21
182.379681504365
 31
0.0
 11
180.1754410958366
 21
181.0479596948898
 31
0.0
 11
181.5817468367369
 21
181.0479596948898
 31
0.0
  0
SPLINE
  5
2C
330
2
100
AcDbEntity
  8
0
 48
0.1
100
AcDbSpline
210
0.0
220
0.0
230
1.0
 70
     8
 71
     3
 72
    32
 73
    28
 74
     0
 42
0.0000000001
 43
0.0000000001
 40
0.0
 40
0.0
 40
0.0
 40
0.0
 40
0.3081579803011284
 40
0.3081579803011284
 40
0.6163159606022568
 40
0.6163159606022568
 40
1.232631921204513
 40
1.232631921204513
 40
2.465263842409027
 40
2.465263842409027
 40
4.930527684818054
 40
4.930527684818054
 40
9.861055369636108
 40
9.861055369636108
 40
14.53709184146529
 40
14.53709184146529
 40
19.21312831329448
 40
19.21312831329448
 40
25.26280148062859
 40
25.26280148062859
 40
29.45064485883369
 40
29.45064485883369
 40
40.89550541833398
 40
40.89550541833398
 40
46.21960319354069
 40
46.21960319354069
 40
49.00979646262858
 40
49.00979646262858
 40
49.00979646262858
 40
49.00979646262858
 10
219.8942468367372
 20
202.0479596948897
 30
0.0
 10
219.8942468367372
 20
202.1553826194819
 30
0.0
 10
219.8934819831789
 20
202.2476037070749
 30
0.0
 10
219.88987916481
 20
202.4470669191349
 30
0.0
 10
219.8871326626662
 20
202.5468910639277
 30
0.0
 10
219.876077345388
 20
202.8465806479062
 30
0.0
 10
219.8649526559814
 20
203.046663278126
 30
0.0
 10
219.8204731596643
 20
203.6472944668649
 30
0.0
 10
219.7760119120951
 20
204.0482267142944
 30
0.0
 10
219.5995039707975
 20
205.2486548697189
 30
0.0
 10
219.4243181704085
 20
206.0457821051894
 30
0.0
 10
218.7371860814707
 20
208.3963410906873
 30
0.0
 10
218.0634777092782
 20
209.7838169568972
 30
0.0
 10
216.3927406917314
 20
212.4628562332094
 30
0.0
 10
215.4121890355234
 20
213.6333728420718
 30
0.0
 10
213.1824447100459
 20
215.7198410766011
 30
0.0
 10
211.9347431447221
 20
216.6375304507131
 30
0.0
 10
208.8616471620217
 20
218.4771694176967
 30
0.0
 10
206.9742847206121
 20
219.3209522490434
 30
0.0
 10
203.6763574439812
 20
220.4577349515043
 30
0.0
 10
202.2979902138379
 20
220.8403424730895
 30
0.0
 10
197.1585616315426
 20
221.9902726778155
 30
0.0
 10
193.394355643697
 20
222.2790066766425
 30
0.0
 10
187.8467455906607
 20
222.4210856887069
 30
0.0
 10
186.1433174386838
 20
222.424750779648
 30
0.0
 10
183.4426413257696
 20
222.4234374414118
 30
0.0
 10
182.511556470901
 20
222.4229596948898
 30
0.0
 10
181.5817468367369
 20
222.4229596948898
 30
0.0
  0
SPLINE
  5
2D
330
2
100
AcDbEntity
  8
0
 48
0.1
100
AcDbSpline
210
0.0
220
0.0
230
1.0
 70
     8
 71
     3
 72
    44
 73
    40
 74
     0
 42
0.0000000001
 43
0.0000000001
 40
0.0
 40
0.0
 40
0.0
 40
0.0
 40
0.0372315905762032
 40
0.0372315905762032
 40
0.0744631811524064
 40
0.0744631811524064
 40
0.1489263623048127
 40
0.1489263623048127
 40
0.2978527246096254
 40
0.2978527246096254
 40
0.5957054492192509
 40
0.5957054492192509
 40
1.191410898438501
 40
1.191410898438501
 40
2.382821796877003
 40
2.382821796877003
 40
4.765643593754006
 40
4.765643593754006
 40
10.27683404202779
 40
10.27683404202779
 40
13.31385718964302
 40
13.31385718964302
 40
16.35088033725824
 40
16.35088033725824
 40
21.62185769145444
 40
21.62185769145444
 40
26.89283504565065
 40
26.89283504565065
 40
30.42408765172858
 40
30.42408765172858
 40
33.95534025780652
 40
33.95534025780652
 40
41.01784546996239
 40
41.01784546996239
 40
44.71382998133154
 40
44.71382998133154
 40
47.4197731612029
 40
47.4197731612029
 40
49.00979646262858
 40
49.00979646262858
 40
49.00979646262858
 40
49.00979646262858
 10
216.1442468367372
 20
202.0479596948897
 30
0.0
 10
216.1442468367372
 20
202.0656469007519
 30
0.0
 10
216.1442517392524
 20
202.0703023971164
 30
0.0
 10
216.1442270086828
 20
202.0885901599365
 30
0.0
 10
216.1442040896706
 20
202.0977376039415
 30
0.0
 10
216.1441036649514
 20
202.1251905108
 30
0.0
 10
216.1439944916643
 20
202.1435065459231
 30
0.0
 10
216.1435402526568
 20
202.1984960360291
 30
0.0
 10
216.1430684694664
 20
202.2352108546177
 30
0.0
 10
216.1411459113388
 20
202.3455134774299
 30
0.0
 10
216.1391879550994
 20
202.4192592726634
 30
0.0
 10
216.1312834917706
 20
202.6410695136308
 30
0.0
 10
216.123306828216
 20
202.7897053421885
 30
0.0
 10
216.0912549787842
 20
203.2374135952291
 30
0.0
 10
216.0590646931531
 20
203.5382751294304
 30
0.0
 10
215.9302499538754
 20
204.4439827289219
 30
0.0
 10
215.8014782543815
 20
205.0518847120593
 30
0.0
 10
215.2388035336342
 20
207.0420337206678
 30
0.0
 10
214.6257664254235
 20
208.3908366421919
 30
0.0
 10
213.4248550393071
 20
210.0930247727566
 30
0.0
 10
212.9486196905746
 20
210.6924143170067
 30
0.0
 10
211.8745382576278
 20
211.8354060273072
 30
0.0
 10
211.2802311464241
 20
212.3741132347463
 30
0.0
 10
209.5085190523163
 20
213.7586121018041
 30
0.0
 10
208.225396824947
 20
214.5377965089519
 30
0.0
 10
205.4345588256593
 20
215.8812940287411
 30
0.0
 10
203.9296631535647
 20
216.4455646624411
 30
0.0
 10
201.3429492842052
 20
217.2061961591607
 30
0.0
 10
200.2876204357462
 20
217.4624694720905
 30
0.0
 10
198.1677001335347
 20
217.8852379804709
 30
0.0
 10
197.0993459190655
 20
218.0529230179344
 30
0.0
 10
193.8595587202406
 20
218.4503570429431
 30
0.0
 10
191.6548361237078
 20
218.574496951149
 30
0.0
 10
188.2118970755725
 20
218.6592377573195
 30
0.0
 10
187.076651049585
 20
218.6695194489943
 30
0.0
 10
184.9753603625073
 20
218.6750542697996
 30
0.0
 10
184.0787922063211
 20
218.6735539514078
 30
0.0
 10
182.6424602785373
 20
218.6727504775294
 30
0.0
 10
182.1105212858169
 20
218.6729596948898
 30
0.0
 10
181.5817468367369
 20
218.6729596948898
 30
0.0
  0
SPLINE
  5
2E
330
2
100
AcDbEntity
  8
0
 48
0.1
100
AcDbSpline
210
0.0
220
0.0
230
1.0
 70
     8
 71
     3
 72
    46
 73
    42
 74
     0
 42
0.0000000001
 43
0.0000000001
 40
0.0
 40
0.0
 40
0.0
 40
0.0
 40
0.0329421752638776
 40
0.0329421752638776
 40
0.0658843505277552
 40
0.0658843505277552
 40
0.1317687010555104
 40
0.1317687010555104
 40
0.2635374021110208
 40
0.2635374021110208
 40
0.5270748042220417
 40
0.5270748042220417
 40
1.054149608444083
 40
1.054149608444083
 40
2.108299216888166
 40
2.108299216888166
 40
4.216598433776333
 40
4.216598433776333
 40
8.433196867552666
 40
8.433196867552666
 40
10.78067188088944
 40
10.78067188088944
 40
13.14530759320114
 40
13.14530759320114
 40
15.50994330551285
 40
15.50994330551285
 40
20.85290796175864
 40
20.85290796175864
 40
26.19587261800443
 40
26.19587261800443
 40
29.6535647659466
 40
29.6535647659466
 40
33.11125691388879
 40
33.11125691388879
 40
41.61119157699688
 40
41.61119157699688
 40
45.04531562953203
 40
45.04531562953203
 40
47.61929663822919
 40
47.61929663822919
 40
49.00979646262858
 40
49.00979646262858
 40
49.00979646262858
 40
49.00979646262858
 10
215.6442468367372
 20
202.0479596948897
 30
0.0
 10
215.6442468367372
 20
202.0637171713889
 30
0.0
 10
215.6442519419898
 20
202.0679934230516
 30
0.0
 10
215.6442351032152
 20
202.0834922151369
 30
0.0
 10
215.6442187691747
 20
202.0912446076908
 30
0.0
 10
215.6441460148783
 20
202.114510694818
 30
0.0
 10
215.6440658423725
 20
202.1300332989306
 30
0.0
 10
215.643730252918
 20
202.1766361061057
 30
0.0
 10
215.6433797628167
 20
202.2077513051444
 30
0.0
 10
215.6419475405551
 20
202.3012316971092
 30
0.0
 10
215.6404850367215
 20
202.3637317016582
 30
0.0
 10
215.6345714780099
 20
202.5517288084891
 30
0.0
 10
215.6285940547514
 20
202.6777232285466
 30
0.0
 10
215.6045442385663
 20
203.0573494725493
 30
0.0
 10
215.5803491296722
 20
203.3126266373234
 30
0.0
 10
215.4833644838145
 20
204.0821588458625
 30
0.0
 10
215.3860975476877
 20
204.6001221284398
 30
0.0
 10
215.0000600144646
 20
206.1449327953433
 30
0.0
 10
214.6160263558865
 20
207.1622074089238
 30
0.0
 10
213.8573533137666
 20
208.6296787727319
 30
0.0
 10
213.554330090107
 20
209.0064319723693
 30
0.0
 10
212.89459088624
 20
209.9487803335635
 30
0.0
 10
212.5316538128195
 20
210.3973173477346
 30
0.0
 10
211.7343223923123
 20
211.2614727758643
 30
0.0
 10
211.3011318520995
 20
211.6752737978453
 30
0.0
 10
209.7811171963409
 20
212.9651019433355
 30
0.0
 10
208.5558533359401
 20
213.7667736501742
 30
0.0
 10
205.8525984880974
 20
215.1619755987391
 30
0.0
 10
204.376173872224
 20
215.754572498424
 30
0.0
 10
201.8499493608813
 20
216.5505291775734
 30
0.0
 10
200.8343519789616
 20
216.8175670813844
 30
0.0
 10
198.7928055761387
 20
217.2637749007602
 30
0.0
 10
197.763609594891
 20
217.4439122004948
 30
0.0
 10
194.1644454644428
 20
217.9457659346059
 30
0.0
 10
191.5342561589147
 20
218.08937156803
 30
0.0
 10
187.7150135545214
 20
218.1644316270225
 30
0.0
 10
186.6641152092944
 20
218.1715471521007
 30
0.0
 10
184.6902997146165
 20
218.1748089634334
 30
0.0
 10
183.8362034120557
 20
218.1732714910623
 30
0.0
 10
182.5082241002834
 20
218.1727825849569
 30
0.0
 10
182.0440405188291
 20
218.1729596948899
 30
0.0
 10
181.5817468367369
 20
218.1729596948899
 30
0.0
  0
SPLINE
  5
2F
330
2
100
AcDbEntity
  8
0
 48
0.1
100
AcDbSpline
210
0.0
220
0.0
230
1.0
 70
     8
 71
     3
 72
    12
 73
     8
 74
     6
 42
0.0000000001
 43
0.0000000001
 44
0.0000000001
 12
0.0
 22
1.0
 32
0.0
 13
-1.0
 23
0.0
 33
0.0
 40
0.0
 40
0.0
 40
0.0
 40
0.0
 40
0.0124523918622054
 40
10.8531682867876
 40
29.13224268850183
 40
47.42235191857651
 40
48.82865765947688
 40
48.82865765947688
 40
48.82865765947688
 40
48.82865765947688
 10
220.3942468367372
 20
202.0479596948897
 30
0.0
 10
220.3942468367372
 20
202.0521104921771
 30
0.0
 10
220.3963333163778
 20
205.6697717021134
 30
0.0
 10
217.0227090060095
 20
215.6675536834055
 30
0.0
 10
201.2069795843476
 20
223.0444036665769
 30
0.0
 10
188.6173086232772
 20
222.9205821422273
 30
0.0
 10
182.050515417037
 20
222.9229596948898
 30
0.0
 10
181.5817468367369
 20
222.9229596948898
 30
0.0
 11
220.3942468367372
 21
202.0479596948897
 31
0.0
 11
220.3942499673197
 21
202.0604120863584
 31
0.0
 11
217.0051393354292
 21
212.3577442767509
 31
0.0
 11
201.2296153580087
 21
221.5912378854147
 31
0.0
 11
182.9880525776373
 21
222.9229596948898
 31
0.0
 11
181.5817468367369
 21
222.9229596948898
 31
0.0
  0
SPLINE
  5
30
330
2
100
AcDbEntity
  8
0
 48
0.1
100
AcDbSpline
210
0.0
220
0.0
230
1.0
 70
     8
 71
     3
 72
    44
 73
    40
 74
     0
 42
0.0000000001
 43
0.0000000001
 40
0.0
 40
0.0
 40
0.0
 40
0.0
 40
0.0372315905762032
 40
0.0372315905762032
 40
0.0744631811524064
 40
0.0744631811524064
 40
0.1489263623048127
 40
0.1489263623048127
 40
0.2978527246096254
 40
0.2978527246096254
 40
0.5957054492192509
 40
0.5957054492192509
 40
1.191410898438501
 40
1.191410898438501
 40
2.382821796877003
 40
2.382821796877003
 40
4.765643593754006
 40
4.765643593754006
 40
10.27683404202779
 40
10.27683404202779
 40
13.31385718964302
 40
13.31385718964302
 40
16.35088033725824
 40
16.35088033725824
 40
21.62185769145444
 40
21.62185769145444
 40
26.89283504565065
 40
26.89283504565065
 40
30.42408765172858
 40
30.42408765172858
 40
33.95534025780652
 40
33.95534025780652
 40
41.01784546996239
 40
41.01784546996239
 40
44.71382998133154
 40
44.71382998133154
 40
47.4197731612029
 40
47.4197731612029
 40
49.00979646262858
 40
49.00979646262858
 40
49.00979646262858
 40
49.00979646262858
 10
147.0192468367372
 20
202.0479596948897
 30
0.0
 10
147.0192468367372
 20
202.0656469007519
 30
0.0
 10
147.019241934222
 20
202.0703023971164
 30
0.0
 10
147.0192666647915
 20
202.0885901599365
 30
0.0
 10
147.0192895838037
 20
202.0977376039415
 30
0.0
 10
147.0193900085229
 20
202.1251905108
 30
0.0
 10
147.01949918181
 20
202.1435065459231
 30
0.0
 10
147.0199534208175
 20
202.1984960360291
 30
0.0
 10
147.020425204008
 20
202.2352108546177
 30
0.0
 10
147.0223477621356
 20
202.3455134774299
 30
0.0
 10
147.0243057183749
 20
202.4192592726634
 30
0.0
 10
147.0322101817038
 20
202.6410695136308
 30
0.0
 10
147.0401868452583
 20
202.7897053421885
 30
0.0
 10
147.0722386946902
 20
203.2374135952291
 30
0.0
 10
147.1044289803213
 20
203.5382751294304
 30
0.0
 10
147.233243719599
 20
204.4439827289219
 30
0.0
 10
147.3620154190928
 20
205.0518847120593
 30
0.0
 10
147.9246901398402
 20
207.0420337206678
 30
0.0
 10
148.5377272480508
 20
208.3908366421919
 30
0.0
 10
149.7386386341672
 20
210.0930247727566
 30
0.0
 10
150.2148739828997
 20
210.6924143170067
 30
0.0
 10
151.2889554158466
 20
211.8354060273072
 30
0.0
 10
151.8832625270502
 20
212.3741132347463
 30
0.0
 10
153.654974621158
 20
213.7586121018041
 30
0.0
 10
154.9380968485273
 20
214.5377965089519
 30
0.0
 10
157.7289348478151
 20
215.8812940287411
 30
0.0
 10
159.2338305199097
 20
216.4455646624411
 30
0.0
 10
161.8205443892691
 20
217.2061961591607
 30
0.0
 10
162.8758732377282
 20
217.4624694720905
 30
0.0
 10
164.9957935399396
 20
217.8852379804709
 30
0.0
 10
166.0641477544088
 20
218.0529230179344
 30
0.0
 10
169.3039349532337
 20
218.4503570429431
 30
0.0
 10
171.5086575497665
 20
218.574496951149
 30
0.0
 10
174.8890965979016
 20
218.6592377573195
 30
0.0
 10
176.0868426238888
 20
218.6695194489943
 30
0.0
 10
178.1881333109666
 20
218.6750542697996
 30
0.0
 10
179.0847014671528
 20
218.6735539514078
 30
0.0
 10
180.5210333949365
 20
218.6727504775294
 30
0.0
 10
181.052972387657
 20
218.6729596948898
 30
0.0
 10
181.5817468367369
 20
218.6729596948898
 30
0.0
  0
SPLINE
  5
31
330
2
100
AcDbEntity
  8
0
 48
0.1
100
AcDbSpline
210
0.0
220
0.0
230
1.0
 70
     8
 71
     3
 72
    32
 73
    28
 74
     0
 42
0.0000000001
 43
0.0000000001
 40
0.0
 40
0.0
 40
0.0
 40
0.0
 40
0.3081579803011284
 40
0.3081579803011284
 40
0.6163159606022568
 40
0.6163159606022568
 40
1.232631921204513
 40
1.232631921204513
 40
2.465263842409027
 40
2.465263842409027
 40
4.930527684818054
 40
4.930527684818054
 40
9.861055369636108
 40
9.861055369636108
 40
14.53709184146529
 40
14.53709184146529
 40
19.21312831329448
 40
19.21312831329448
 40
25.26280148062859
 40
25.26280148062859
 40
29.45064485883369
 40
29.45064485883369
 40
40.89550541833398
 40
40.89550541833398
 40
46.21960319354069
 40
46.21960319354069
 40
49.00979646262858
 40
49.00979646262858
 40
49.00979646262858
 40
49.00979646262858
 10
143.2692468367372
 20
202.0479596948897
 30
0.0
 10
143.2692468367372
 20
202.1553826194819
 30
0.0
 10
143.2700116902954
 20
202.2476037070749
 30
0.0
 10
143.2736145086644
 20
202.4470669191349
 30
0.0
 10
143.2763610108082
 20
202.5468910639277
 30
0.0
 10
143.2874163280864
 20
202.8465806479062
 30
0.0
 10
143.298541017493
 20
203.046663278126
 30
0.0
 10
143.3430205138101
 20
203.6472944668649
 30
0.0
 10
143.3874817613792
 20
204.0482267142944
 30
0.0
 10
143.5639897026769
 20
205.2486548697189
 30
0.0
 10
143.7391755030659
 20
206.0457821051894
 30
0.0
 10
144.4263075920036
 20
208.3963410906873
 30
0.0
 10
145.1000159641961
 20
209.9088169568974
 30
0.0
 10
146.770752981743
 20
212.5878562332097
 30
0.0
 10
147.7513046379509
 20
213.7583728420721
 30
0.0
 10
149.9810489634284
 20
215.7198410766011
 30
0.0
 10
151.2287505287523
 20
216.6375304507131
 30
0.0
 10
154.3018465114527
 20
218.4771694176967
 30
0.0
 10
156.1892089528623
 20
219.3209522490434
 30
0.0
 10
159.4871362294931
 20
220.4577349515043
 30
0.0
 10
160.8655034596365
 20
220.8403424730895
 30
0.0
 10
166.0049320419318
 20
221.9902726778155
 30
0.0
 10
169.7691380297774
 20
222.2790066766425
 30
0.0
 10
175.2542480828134
 20
222.4210856887069
 30
0.0
 10
177.02017623479
 20
222.424750779648
 30
0.0
 10
179.7208523477043
 20
222.4234374414118
 30
0.0
 10
180.6519372025728
 20
222.4229596948898
 30
0.0
 10
181.5817468367369
 20
222.4229596948898
 30
0.0
  0
SPLINE
  5
32
330
2
100
AcDbEntity
  8
0
 48
0.1
100
AcDbSpline
210
0.0
220
0.0
230
1.0
 70
     8
 71
     3
 72
    46
 73
    42
 74
     0
 42
0.0000000001
 43
0.0000000001
 40
0.0
 40
0.0
 40
0.0
 40
0.0
 40
0.0329421752638776
 40
0.0329421752638776
 40
0.0658843505277552
 40
0.0658843505277552
 40
0.1317687010555104
 40
0.1317687010555104
 40
0.2635374021110208
 40
0.2635374021110208
 40
0.5270748042220417
 40
0.5270748042220417
 40
1.054149608444083
 40
1.054149608444083
 40
2.108299216888166
 40
2.108299216888166
 40
4.216598433776333
 40
4.216598433776333
 40
8.433196867552666
 40
8.433196867552666
 40
10.78067188088944
 40
10.78067188088944
 40
13.14530759320114
 40
13.14530759320114
 40
15.50994330551285
 40
15.50994330551285
 40
20.85290796175864
 40
20.85290796175864
 40
26.19587261800443
 40
26.19587261800443
 40
29.6535647659466
 40
29.6535647659466
 40
33.11125691388879
 40
33.11125691388879
 40
41.61119157699688
 40
41.61119157699688
 40
45.04531562953203
 40
45.04531562953203
 40
47.61929663822919
 40
47.61929663822919
 40
49.00979646262858
 40
49.00979646262858
 40
49.00979646262858
 40
49.00979646262858
 10
147.5192468367372
 20
202.0479596948897
 30
0.0
 10
147.5192468367372
 20
202.0637171713889
 30
0.0
 10
147.5192417314845
 20
202.0679934230516
 30
0.0
 10
147.5192585702591
 20
202.0834922151369
 30
0.0
 10
147.5192749042997
 20
202.0912446076908
 30
0.0
 10
147.5193476585961
 20
202.114510694818
 30
0.0
 10
147.5194278311018
 20
202.1300332989306
 30
0.0
 10
147.5197634205563
 20
202.1766361061057
 30
0.0
 10
147.5201139106576
 20
202.2077513051444
 30
0.0
 10
147.5215461329192
 20
202.3012316971092
 30
0.0
 10
147.5230086367529
 20
202.3637317016582
 30
0.0
 10
147.5289221954644
 20
202.5517288084891
 30
0.0
 10
147.5348996187229
 20
202.6777232285466
 30
0.0
 10
147.558949434908
 20
203.0573494725493
 30
0.0
 10
147.5831445438021
 20
203.3126266373234
 30
0.0
 10
147.6801291896599
 20
204.0821588458625
 30
0.0
 10
147.7773961257866
 20
204.6001221284398
 30
0.0
 10
148.1634336590097
 20
206.1449327953433
 30
0.0
 10
148.5474673175878
 20
207.1622074089238
 30
0.0
 10
149.3061403597077
 20
208.6296787727319
 30
0.0
 10
149.6091635833673
 20
209.0064319723693
 30
0.0
 10
150.2689027872343
 20
209.9487803335635
 30
0.0
 10
150.6318398606549
 20
210.3973173477346
 30
0.0
 10
151.4291712811621
 20
211.2614727758643
 30
0.0
 10
151.8623618213749
 20
211.6752737978453
 30
0.0
 10
153.3823764771334
 20
212.9651019433355
 30
0.0
 10
154.6076403375342
 20
213.7667736501742
 30
0.0
 10
157.310895185377
 20
215.1619755987391
 30
0.0
 10
158.7873198012504
 20
215.754572498424
 30
0.0
 10
161.3135443125931
 20
216.5505291775734
 30
0.0
 10
162.3291416945127
 20
216.8175670813844
 30
0.0
 10
164.3706880973356
 20
217.2637749007602
 30
0.0
 10
165.3998840785833
 20
217.4439122004948
 30
0.0
 10
168.9990482090315
 20
217.9457659346059
 30
0.0
 10
171.6292375145597
 20
218.08937156803
 30
0.0
 10
175.3859801189527
 20
218.1644316270225
 30
0.0
 10
176.4993784641794
 20
218.1715471521007
 30
0.0
 10
178.4731939588573
 20
218.1748089634334
 30
0.0
 10
179.3272902614182
 20
218.1732714910623
 30
0.0
 10
180.6552695731905
 20
218.1727825849569
 30
0.0
 10
181.1194531546447
 20
218.1729596948899
 30
0.0
 10
181.5817468367369
 20
218.1729596948899
 30
0.0
  0
SPLINE
  5
33
330
2
100
AcDbEntity
  8
0
 48
0.1
100
AcDbSpline
210
0.0
220
0.0
230
1.0
 70
     8
 71
     3
 72
    12
 73
     8
 74
     6
 42
0.0000000001
 43
0.0000000001
 44
0.0000000001
 12
0.0
 22
1.0
 32
0.0
 13
1.0
 23
0.0
 33
0.0
 40
0.0
 40
0.0
 40
0.0
 40
0.0
 40
0.0124523918622054
 40
10.97197241611932
 40
29.18822374786244
 40
47.4783329779366
 40
48.88463871883694
 40
48.88463871883694
 40
48.88463871883694
 40
48.88463871883694
 10
142.7692468367372
 20
202.0479596948897
 30
0.0
 10
142.7692468367372
 20
202.0521104921771
 30
0.0
 10
142.7671647325264
 20
205.7093615939439
 30
0.0
 10
146.0568224725923
 20
215.7801574894733
 30
0.0
 10
162.0069551913152
 20
223.0069373547841
 30
0.0
 10
174.5456043078767
 20
222.9213128560854
 30
0.0
 10
181.1129782564368
 20
222.9229596948898
 30
0.0
 10
181.5817468367369
 20
222.9229596948898
 30
0.0
 11
142.7692468367372
 21
202.0479596948897
 31
0.0
 11
142.7692437061547
 21
202.0604120863584
 31
0.0
 11
146.1583543380451
 21
212.4827442767513
 31
0.0
 11
161.9338783154657
 21
221.5912378854147
 31
0.0
 11
180.1754410958366
 21
222.9229596948898
 31
0.0
 11
181.5817468367369
 21
222.9229596948898
 31
0.0
  0
3DSOLID
  5
34
330
2
100
AcDbEntity
  8
0
 48
0.1
100
AcDbModelerGeometry
 70
     1
  1
noi knh n o         
  1
=0;& {n {m {rn {rn |
  1
-:9@)+r3(;r>++-6= {rn {rn {rn {o {l {k |
  1
3*2/ {j {rn {i {o |
  1
-:961:2:1+ {rn o o o o oqomogjjglkhohinhhi lo o k o o o |
  1
):-+:'@+:2/3>+: {rn l o n g |
  1
-:9@)+r3(;r>++-6= {rn {rn {rn {m {l {k |
  1
,7:33 {h {rn {rn {g {m |
  1
-:9@)+r3(;r>++-6= {rn {rn {rn {i {l {k |
  1
9><: {f {no {nn {i {rn {nm 90-(>-; ,6183: |
  1
92:,7r3(;r>++-6= {rn {nl {rn {g |
  1
9><: {nk {nj {ni {i {rn {nh 90-(>-; ,6183: |
  1
300/ {rn {ng {nf {g |
  1
<01:r,*-9><: {rn njgqolkllfnkffljff ngjqfmngjggimjkkhj oqfnmjjfihhmohijjoh roqofnkjgnkkhmiooohml roqmfjnhmihfmgmnhmhg roqfjnojijnimgjmilkk roqojimfjgkjmiiilonjl roqngnigfinfnnolkkim oqoingollfgggnohhmjj n V V o n o V V V V |
  1
-:9@)+r3(;r>++-6= {rn {rn {f {g {l {k |
  1
92:,7r3(;r>++-6= {rn {mo {rn {no |
  1
9><: {mn {mm {ml {i {rn {mk 90-(>-; ,6183: |
  1
300/ {rn {mj {mi {no |
  1
<01:r,*-9><: {rn njgqlmlfggnhjfolhi ngiqlkfgjhnjimmnji oqhjnghogkonnigjjnm roqofnkjgnkkhmiooofgh roqmfjnhmihfmgmnhlin roqfjnojijnimgjmilmm roqojimfjgkjmiiilonlm roqngnigfinfnnolkkji oqoingollfgggnohhkmf n V V o n o V V V V |
  1
300/ {rn {rn {mh {g |
  1
<0:;8: {rn {nf {nf {mg {mf o {nn {rn |
  1
-:9@)+r3(;r>++-6= {rn {rn {nk {no {l {k |
  1
92:,7r3(;r>++-6= {rn {lo {rn {nj |
  1
9><: {ln {lm {ll {i {rn {lk 90-(>-; ,6183: |
  1
300/ {rn {lj {li {nj |
  1
<01:r,*-9><: {rn ninqlmommlmnniffll ngkqfolhkookmokgoh oqfnmjjfihhmohijjoh roqofnkjgnkkhmiooohml roqmfjnhmihfmgmnhmhg roqfjnojijnimgjmilkk roqojimfjgkjmiiilonjl roqngnigfinfnnolkkim oqoingollfgggnohhmjj n V V o n o V V V V |
  1
300/ {rn {rn {lh {no |
  1
<0:;8: {rn {mi {mi {lg {lf o {ni {rn |
  1
<0:;8: {rn {mh {mh {ko {kn n {ng {rn |
  1
<0:;8: {rn {mg {mg {nf {mf n {km {rn |
  1
:;8: {kl {kk {kk {mg {kj o |
  1
-:9@)+r3(;r>++-6= {rn {rn {mn {nj {l {k |
  1
92:,7r3(;r>++-6= {rn {ki {rn {mm |
  1
9><: {kh {kg {kf {i {rn {jo 90-(>-; ,6183: |
  1
300/ {rn {jn {jm {mm |
  1
<01:r,*-9><: {rn ninqlmllnmjgnnnhff ngjqkmojmhhihhkkfk oqhjnghogkonnigjjnm roqofnkjgnkkhmiooofgh roqmfjnhmihfmgmnhlin roqfjnojijnimgjmilmm roqojimfjgkjmiiilonlm roqngnigfinfnnolkkji oqoingollfgggnohhkmf n V V o n o V V V V |
  1
300/ {rn {rn {jl {nj |
  1
<0:;8: {rn {li {li {jk {jj o {ml {rn |
  1
<0:;8: {rn {lh {lh {ji {jh n {mj {rn |
  1
<0:;8: {rn {lg {lg {mi {lf n {jg {rn |
  1
:;8: {jf {io {io {lg {in o |
  1
<0:;8: {rn {ko {ko {mh {kn o {im {rn |
  1
:;8: {il {ik {ik {ko {ij o |
  1
300/ {rn {jg {mg {ii |
  1
/+36,+r3(;r>++-6= {rn {rn {rn {mf |
  1
):-+:' {rn {mf {ih |
  1
:336/,:r<*-): {rn njgqolmfihmhhhijn ngjqfnhklnmhmljjjk oqgfgmflgmfkilkiomi oqofnkjgnkkhmjfghggi oqmfjnhmihfmgmoknmm oqfjnojijnimgjlojjm roqojimfjgkjmiiilonjl roqngnigfinfnnolkkim oqoingollfgggnohhmjj n V V |
  1
-:9@)+r3(;r>++-6= {rn {rn {ln {mm {l {k |
  1
92:,7r3(;r>++-6= {rn {ig {rn {lm |
  1
9><: {if {ho {hn {i {rn {hm 90-(>-; ,6183: |
  1
300/ {rn {rn {hl {lm |
  1
<01:r,*-9><: {rn njgqjnnjjkjnnomjim ngjqlngoknlofojngn nqojkohofkjnkgnlol roqofnkjgnkkhmjfimngk roqmfjnhmihfmgmokglg roqfjnojijnimgjlojhk oqomlfjonhiofnlgoiog roqojjhkiionghfgligkf oqonkffgjnkhmhgfmjij n V V o n o V V V V |
  1
300/ {rn {rn {hk {mm |
  1
<0:;8: {rn {jm {jm {hj {hi o {ll {rn |
  1
<0:;8: {rn {jl {jl {hh {hg n {lj {rn |
  1
<0:;8: {rn {jk {jk {li {jj n {hf {rn |
  1
:;8: {go {gn {gn {jk {gm o |
  1
<0:;8: {rn {ji {ji {lh {jh o {gl {rn |
  1
:;8: {gk {gj {gj {ji {gi o |
  1
300/ {rn {hf {lg {ii |
  1
/+36,+r3(;r>++-6= {rn {rn {rn {lf |
  1
):-+:' {rn {lf {gh |
  1
:336/,:r<*-): {rn njgqlmminilolhlmf ngiqlkjkmfjiiolmlg oqhlhiokffmlhmihoog oqofnkjgnkkhmjfghggi oqmfjnhmihfmgmoknmm oqfjnojijnimgjlojjm roqojimfjgkjmiiilonlm roqngnigfinfnnolkkji oqoingollfgggnohhkmf n V V |
  1
300/ {rn {rn {ko {gg |
  1
/+36,+r3(;r>++-6= {rn {rn {rn {kn |
  1
):-+:' {rn {kn {gf |
  1
:336/,:r<*-): {rn njgqolkllfnkffljff ngjqfmngjggimjkkhg oqfnmjjfihhmohgoohl oqofnkjgnkkhmiomonlg oqmfjnhmihfmgmmljlk oqfjnojijnimgjmkmnl roqojimfjgkjmiiilonjl roqngnigfinfnnolkkim oqoingollfgggnohhmjj n V V |
  1
9><: {fo {fn {km {i {rn {fm -:):-,:; ,6183: |
  1
/061+ {rn njgqmmkoohokghfhgl ngjqgjgmlglnhihjkh oqgfgmflgmfkillhin |
  1
-:9@)+r3(;r>++-6= {rn {rn {kh {lm {l {k |
  1
92:,7r3(;r>++-6= {rn {fl {rn {kg |
  1
9><: {fk {fj {fi {i {rn {fh 90-(>-; ,6183: |
  1
300/ {rn {rn {fg {kg |
  1
<01:r,*-9><: {rn nioqfffjmmhnmhngol ngfqihggflimokmfmg roqjlgilogkjjhjnnnhi roqofnkjgnkkhmjfimngk roqmfjnhmihfmgmokglg roqfjnojijnimgjlojhk jqofoglgfgillnnhmf rnqjhhhhggjjkkfkkfm oqooonmkimmhinmnkillhn n V V o n o V V V V |
  1
<0:;8: {rn {ff {noo {non {nom o {kf {rn |
  1
<0:;8: {rn {hk {hk {nol {nok n {jn {rn |
  1
<0:;8: {rn {hj {hj {jm {hi n {noj {rn |
  1
:;8: {noi {noh {noh {hj {nog o |
  1
<0:;8: {rn {hh {hh {jl {hg o {nof {rn |
  1
:;8: {nno {nnn {nnn {hh {nnm o |
  1
300/ {rn {noj {jk {ii |
  1
/+36,+r3(;r>++-6= {rn {rn {rn {jj |
  1
):-+:' {rn {jj {nnl |
  1
:336/,:r<*-): {rn ninqlnggjnllfjmgkk ngkqgfflnmkjngjggi oqgfgmflgmfkilkiomi oqofnkjgnkkhmjfghggi oqmfjnhmihfmgmoknmm oqfjnojijnimgjlojjm roqojimfjgkjmiiilonjl roqngnigfinfnnolkkim oqoingollfgggnohhmjj n V V |
  1
300/ {rn {rn {ji {nnk |
  1
/+36,+r3(;r>++-6= {rn {rn {rn {jh |
  1
):-+:' {rn {jh {nnj |
  1
:336/,:r<*-): {rn njgqlmlfggnhjfolhf ngiqlkfgjhnjimmnim oqhjnghogkonnhonokk oqofnkjgnkkhmiomonlg oqmfjnhmihfmgmmljlk oqfjnojijnimgjmkmnl roqojimfjgkjmiiilonlm roqngnigfinfnnolkkji oqoingollfgggnohhkmf n V V |
  1
/061+ {rn njgqjnlijiohkhijil ngiqmgimliinnljmln oqhlhiokffmlhmjhinj |
  1
9><: {nni {nnh {im {i {rn {nng 90-(>-; ,6183: |
  1
/061+ {rn njgqmmjlhgfmofighm ngjqgimiijfohgikhn oqfnmjjfihhmohijjoh |
  1
92:,7r3(;r>++-6= {rn {nnf {rn {ii |
  1
9><: {nmo {nmn {nmm {i {rn {nng 90-(>-; ,6183: |
  1
/3>1:r,*-9><: {rn njfqhnlhjjigmnoign ngjqjlojnhjmmnijfj oqgjihkkgjhnhnmnmk roqofnkjgnkkhmjfghggi roqmfjnhmihfmgmoknmm roqfjnojijnimgjlojjm oqfjjnfggjjnilhijhf roqmfjfikhhlkoonffoj rmqgoigffkkhjglikfg:ronk o V V V V |
  1
-:9@)+r3(;r>++-6= {rn {rn {if {kg {l {k |
  1
92:,7r3(;r>++-6= {rn {nml {rn {ho |
  1
9><: {nmk {nmj {nmi {i {rn {nmh 90-(>-; ,6183: |
  1
300/ {rn {rn {nmg {ho |
  1
<01:r,*-9><: {rn nioqjgjniolhmlgfkj ngkqihjlhghhjnjgfg nqojknmnhoiimnjlgf roqofnkjgnkkhmjfimngk roqmfjnhmihfmgmokglg roqfjnojijnimgjlojhk oqojnmhihnigkihkljj oqolmklkgijmimlonkn roqonkffhjflfigmnoof n V V o n o V V V V |
  1
<0:;8: {rn {nmf {nlo {nln {nlm o {hn {rn |
  1
<0:;8: {rn {nll {hl {nlo {nlk n {kf {rn |
  1
<0:;8: {rn {hl {nll {nlj {nli o {kf {rn |
  1
<0:;8: {rn {nlh {nln {hl {nom n {nlg {rn |
  1
:;8: {nlf {nko {nkn {non {nkm o |
  1
<0:;8: {rn {nol {nol {hk {nok o {nkl {rn |
  1
:;8: {nkk {nkj {nkj {nol {nki o |
  1
300/ {rn {nlg {hj {ii |
  1
/+36,+r3(;r>++-6= {rn {rn {rn {hi |
  1
):-+:' {rn {hi {nkh |
  1
:336/,:r<*-): {rn ninqlmnfkohogfkhnm ngjqkninoonhhjjjhl oqhlhiokffmlhmihoog oqofnkjgnkkhmjfghggi oqmfjnhmihfmgmoknmm oqfjnojijnimgjlojjm roqojimfjgkjmiiilonlm roqngnigfinfnnolkkji oqoingollfgggnohhkmf n V V |
  1
300/ {rn {rn {hh {nkg |
  1
/+36,+r3(;r>++-6= {rn {rn {rn {hg |
  1
):-+:' {rn {hg {nkf |
  1
:336/,:r<*-): {rn ninqlmommlmnniffli ngkqfolhkookmokgn oqfnmjjfihhmohgoohl oqofnkjgnkkhmiomonlg oqmfjnhmihfmgmmljlk oqfjnojijnimgjmkmnl roqojimfjgkjmiiilonjl roqngnigfinfnnolkkim oqoingollfgggnohhmjj n V V |
  1
/061+ {rn ninqjofgfnnnojinm ngkqgkonnfkfhnhghf oqgfgmflgmfkillhin |
  1
9><: {njo {njn {gl {i {rn {nng 90-(>-; ,6183: |
  1
/061+ {rn njgqjnjomhfkiflijl ngiqmfoiikmonjknjj oqhjnghogkonnigjjnm |
  1
92:,7r3(;r>++-6= {rn {njm {rn {gg |
  1
9><: {njl {njk {njj {i {rn {nji 90-(>-; ,6183: |
  1
/3>1:r,*-9><: {rn njfqhnjnmhjjkmmlmk ngjqjlkfkjnnmlhmok oqghnonohokfnjjikij oqofnkjgnkkhmiomonlg oqmfjnhmihfmgmmljlk oqfjnojijnimgjmkmnl roqfjjnfggjjnilhijhf oqmfjfikhhlkoonffoj mqhjohihffjilfgogk:ronh o V V V V |
  1
-:9@)+r3(;r>++-6= {rn {rn {fo {ii {l {k |
  1
92:,7r3(;r>++-6= {rn {njh {rn {fn |
  1
9><: {njg {njf {nio {i {rn {nng 90-(>-; ,6183: |
  1
300/ {rn {nin {nim {fn |
  1
-:9@)+r3(;r>++-6= {rn {rn {fk {ho {l {k |
  1
92:,7r3(;r>++-6= {rn {nil {rn {fj |
  1
9><: {nik {nij {nii {i {rn {nih 90-(>-; ,6183: |
  1
300/ {rn {rn {nig {fj |
  1
/3>1:r,*-9><: {rn nioqikkgiolooglhnf ngkqijiggofhigmnkk nqojknmnhoiimnjlif oqfjjnfggjjnilhijhf roqmfjfikhhlkoonfflf nqonkjjkofjnflillm:roni rfqifnoofnomloiigjh:ronh lqoomhmmhmggimmhjf:ronh n o V V V V |
  1
<0:;8: {rn {nif {nho {nhn {nhm o {fi {rn |
  1
<0:;8: {rn {nhl {fg {nho {nhk n {hn {rn |
  1
<0:;8: {rn {fg {nhl {ff {nlk o {hn {rn |
  1
<0:;8: {rn {non {nhn {fg {nlm n {nlg {rn |
  1
:;8: {nhj {nkn {nhi {nln {nhh o |
  1
<0:;8: {rn {noo {ff {nhg {nhf n {kf {rn |
  1
:;8: {ngo {ngn {nkn {nlo {ngm o |
  1
<0:;8: {rn {ngl {ngk {noo {nli n {ngj {rn |
  1
:;8: {ngi {ngh {nko {noo {ngg o |
  1
<0:;8: {rn {ngf {non {ngk {nfo n {nlg {rn |
  1
300/ {rn {nfn {non {ii |
  1
/+36,+r3(;r>++-6= {rn {rn {rn {nom |
  1
):-+:' {rn {nom {nfm |
  1
):-+:' {rn {nom {nfl |
  1
:336/,:r<*-): {rn njgqjnongmilggjkh ngjqlnlinlhnggimkl nqolfgojofhkolknlk oqofnkjgnkkhmjfghggi oqmfjnhmihfmgmoknmm oqfjnojijnimgjlojjm oqomlfjonhiofnlgoiog roqojjhkiionghfgligkf oqonkffgjnkhmhgfmjij n V V |
  1
300/ {rn {rn {nol {njf |
  1
/+36,+r3(;r>++-6= {rn {rn {rn {nok |
  1
):-+:' {rn {nok {nfk |
  1
:336/,:r<*-): {rn ninqlmllnmjgnnngom ngjqkmojmhhihhkj oqhjnghogkonnhonokk oqofnkjgnkkhmiomonlg oqmfjnhmihfmgmmljlk oqfjnojijnimgjmkmnl roqojimfjgkjmiiilonlm roqngnigfinfnnolkkji oqoingollfgggnohhkmf n V V |
  1
/061+ {rn ninqjnmfgokhffhfgi ngjqljifohmmmghjii oqhlhiokffmlhmjhinj |
  1
9><: {nfj {nnk {nof {i {rn {nng 90-(>-; ,6183: |
  1
/061+ {rn ninqjnnmimfgmhlmof ngkqgkkjkhoghligol oqfnmjjfihhmohijjoh |
  1
92:,7r3(;r>++-6= {rn {nfi {rn {nnk |
  1
9><: {nfh {gg {nfg {i {rn {nff 90-(>-; ,6183: |
  1
-:9@)+r3(;r>++-6= {rn {rn {nni {gg {l {k |
  1
92:,7r3(;r>++-6= {rn {moo {rn {nnh |
  1
9><: {mon {rn {mom {i {rn {mol -:):-,:; ,6183: |
  1
300/ {rn {rn {mok {nnh |
  1
<01:r,*-9><: {rn njfqhnjnmhjjkmmlmk ngjqjlkfkjnnmlhmok oqghnonohokfnjjilhi roqofnkjgnkkhmiongifj roqmfjnhmihfmgmmlohf roqfjnojijnimgjmklig mqlmloklinjlgfjhnj roqhnfhgilmghfjoknlk rnqokhmignhlmlkiomh:roni oqkijkiojmimhkmgogi V V o n o V V V V |
  1
-:9@)+r3(;r>++-6= {rn {rn {nmo {fn {l {k |
  1
92:,7r3(;r>++-6= {rn {moj {rn {nmn |
  1
9><: {moi {nkg {nkl {i {rn {nng 90-(>-; ,6183: |
  1
300/ {rn {rn {nhg {nmn |
  1
300/ {rn {rn {moh {fn |
  1
<0:;8: {rn {mog {mog {mof {mno o {nmm {rn |
  1
-:9@)+r3(;r>++-6= {rn {rn {nmk {fj {l {k |
  1
92:,7r3(;r>++-6= {rn {mnn {rn {nmj |
  1
9><: {mnm {mnl {mnk {i {rn {mnj 90-(>-; ,6183: |
  1
300/ {rn {rn {mni {nmj |
  1
<01:r,*-9><: {rn nioqfhnljfgnfglkgk ngjqfmngonihnkiokf oqilonlfkigojjiohj roqofnkjgnkkhmjfimngk roqmfjnhmihfmgmokglg roqfjnojijnimgjlojhk roqommfjifmgflfihkkhf oqojinohnmligohmfgmm roqonjmojfmmhmjjokjlh n V V o n o V V V V |
  1
<0:;8: {rn {mnh {mng {mnf {mmo o {nmi {rn |
  1
<0:;8: {rn {mmn {nmg {mng {mmm n {fi {rn |
  1
<0:;8: {rn {nmg {mmn {nmf {nhk o {fi {rn |
  1
<0:;8: {rn {nln {mnf {nmg {nhm n {nlg {rn |
  1
:;8: {mml {nhi {mmk {nhn {mmj o |
  1
<0:;8: {rn {nlo {nmf {mmi {mmh n {hn {rn |
  1
:;8: {mmg {mmf {nhi {nho {mlo o |
  1
/+36,+r3(;r>++-6= {rn {rn {rn {nlm |
  1
):-+:' {rn {nlm {mln |
  1
:336/,:r<*-): {rn nioqffgnjogkojkhnn ngfqihkkiiolomlffl roqjjmgfiifllnfhfhjm oqofnkjgnkkhmjfghggi oqmfjnhmihfmgmoknmm oqfjnojijnimgjlojjm jqofoglgfgillnnhmf rnqjhhhhggjjkkfkkfm oqooonmkimmhinmnkillhn n V V |
  1
<0:;8: {rn {mmi {mlm {nll {nhf o {nio {rn |
  1
:;8: {mll {ngh {ngn {nhg {mlk o |
  1
/+36,+r3(;r>++-6= {rn {rn {rn {nlk |
  1
):-+:' {rn {nhf {mlj |
  1
,+->687+r<*-): {rn njgqkgmolmhlmhojij ngjqmiimfimmgknlmh nqohmfifijjonmjoli roqofnkjgnkkhmjfimngk roqmfjnhmihfmgmokglg roqfjnojijnimgjlojhk V V |
  1
<0:;8: {rn {mli {nlj {mlm {mlh n {ngj {rn |
  1
<0:;8: {rn {nlj {mli {nlh {nfo o {ngj {rn |
  1
300/ {rn {rn {ngk {mlg |
  1
/+36,+r3(;r>++-6= {rn {rn {rn {nli |
  1
):-+:' {rn {nhf {mlf |
  1
,+->687+r<*-): {rn njgqkjngjkjgmjhhgg ngjqllijlfnohlgfln nqojkohofkjnkgnlng roqofnkjgnkkhmjfimngk roqmfjnhmihfmgmokglg roqfjnojijnimgjlojhk V V |
  1
<0:;8: {rn {mko {nlh {mkn {mkm n {nlg {rn |
  1
:;8: {mkl {mkk {nko {nlh {mkj o |
  1
300/ {rn {rn {mki {ii |
  1
/061+ {rn njgqkjokgmhnokohom ngjqllmnnnjnhmooog nqolfgojofhkolgjmm |
  1
/061+ {rn njgqkgoiiogiojlkhj ngjqmingigilgmmkol nqojgholgohmigmmjn |
  1
/061+ {rn ninqjnkljmljmnjohj ngjqlinllkgnloikf oqhjnghogkonnigjjnm |
  1
92:,7r3(;r>++-6= {rn {mkh {rn {nkg |
  1
-:9@)+r3(;r>++-6= {rn {rn {njo {nnk {l {k |
  1
92:,7r3(;r>++-6= {rn {mkg {rn {njn |
  1
300/ {rn {rn {mkf {njn |
  1
<01:r,*-9><: {rn njfqhnjnmhjjkmmlmk ngjqjlkfkjnnmlhmoh oqghnonohokfnjjimgh roqofnkjgnkkhmiongifj roqmfjnhmihfmgmmlohf roqfjnojijnimgjmklig mqlmloklinjlgfjhnj roqhnfhgilmghfjoknlk rnqokhmignhlmlkiomh:roni oqjooknnngkkojmnknj V V o n o V V V V |
  1
-:9@)+r3(;r>++-6= {rn {rn {njl {nnh {l {k |
  1
92:,7r3(;r>++-6= {rn {mjo {rn {njk |
  1
300/ {rn {rn {mjn {njk |
  1
/3>1:r,*-9><: {rn nimqolljfgmimlhij ngkqgookoonkfinmf oqgmlkjhghfnonlonik oqofnkjgnkkhmiongifj oqmfjnhmihfmgmmlohf oqfjnojijnimgjmklig roqfjjnfggjjnilhijhf oqmfjfikhhlkoonffoj o o V V V V |
  1
<0:;8: {rn {mof {mjm {mkf {mjl n {njj {rn |
  1
-:9@)+r3(;r>++-6= {rn {rn {njg {nmn {l {k |
  1
92:,7r3(;r>++-6= {rn {mjk {rn {njf |
  1
<0:;8: {rn {mjj {mjj {mji {mjh o {nin {rn |
  1
<0:;8: {rn {nim {nim {mjg {mjf o {nmm {rn |
  1
<0:;8: {rn {mio {mok {nim {mno n {njj {rn |
  1
:;8: {min {mim {mil {nim {mik o |
  1
-:9@)+r3(;r>++-6= {rn {rn {nik {nmj {l {k |
  1
92:,7r3(;r>++-6= {rn {mij {rn {nij |
  1
9><: {mii {mlg {mih {i {rn {mig 90-(>-; ,6183: |
  1
300/ {rn {rn {mif {nij |
  1
<01:r,*-9><: {rn njgqifjfgfjhhhkfof ngmqmkhglnfnkflgf nqfgfmnlfkjnlofjjg roqofnkjgnkkhmjfimngk roqmfjnhmihfmgmokglg roqfjnojijnimgjlojhk rkqlgihlkjgnjkmkhgg nqljfgkhnmhlmmlifg roqooonfihklokmjkklnjf n V V o n o V V V V |
  1
<0:;8: {rn {mho {mhn {mhm {mhl o {nii {rn |
  1
<0:;8: {rn {mhk {nig {mhn {mhj n {nmi {rn |
  1
<0:;8: {rn {nig {mhk {nif {mmm o {nmi {rn |
  1
<0:;8: {rn {nhn {mhm {nig {mmo n {nlg {rn |
  1
:;8: {mhi {mmk {mhh {mnf {mhg o |
  1
<0:;8: {rn {nho {nif {mhf {mgo n {fi {rn |
  1
:;8: {mgn {mgm {mmk {mng {mgl o |
  1
/+36,+r3(;r>++-6= {rn {rn {rn {nhm |
  1
):-+:' {rn {nhm {mgk |
  1
:336/,:r<*-): {rn nioqjglhggjoomngjl ngkqihofjnngkfifim nqolfgjjgjgghighhn oqofnkjgnkkhmjfghggi oqmfjnhmihfmgmoknmm oqfjnojijnimgjlojjm oqojnmhihnigkihkljj oqolmklkgijmimlonkn roqonkffhjflfigmnoof n V V |
  1
<0:;8: {rn {mhf {nhg {nhl {mmh o {nio {rn |
  1
:;8: {mgj {ngn {mmf {mmi {mgi o |
  1
/+36,+r3(;r>++-6= {rn {rn {rn {nhk |
  1
):-+:' {rn {mmh {mgh |
  1
,+->687+r<*-): {rn nioqjgomklimknfglm ngkqinioohfhhhkngh nqohlomnonggnmlmii roqofnkjgnkkhmjfimngk roqmfjnhmihfmgmokglg roqfjnojijnimgjlojhk V V |
  1
/061+ {rn nioqjhgghnhjmomhkm ngkqinnjgolghjjmii nqojghjjnhnoignolg |
  1
<0:;8: {rn {nhg {mgg {ngl {mlh o {nio {rn |
  1
/+36,+r3(;r>++-6= {rn {rn {rn {nhf |
  1
:336/,:r<*-): {rn njgqjnnjjkjnnomjjf ngjqlngoknlofojnih nqojkohofkjnkhhjkg oqofnkjgnkkhmiomonlg oqmfjnhmihfmgmmljlk oqfjnojijnimgjmkmnl oqomlfjonhiofnlgoiog roqojjhkiionghfgligkf oqonkffgjnkhmhgfmjij n V V |
  1
/061+ {rn njgqkgmolmhlmhojij ngjqmiimfimmgknlmh nqohmfifijjonmjoli |
  1
<0:;8: {rn {ngk {ngl {mgf {mfo o {ngj {rn |
  1
:;8: {mfn {mfm {ngh {mlm {mfl o |
  1
9><: {mfk {mfj {ngj {i {rn {mfi 90-(>-; ,6183: |
  1
/061+ {rn njgqkjngjkjgmjhhgg ngjqllijlfnohlgfln nqojkohofkjnkgnlng |
  1
<0:;8: {rn {mhm {ngf {mif {mfh n {nlg {rn |
  1
<0:;8: {rn {mgf {mfg {ngf {mkm o {mih {rn |
  1
:;8: {mff {loo {mkk {ngf {lon o |
  1
/+36,+r3(;r>++-6= {rn {rn {rn {nfo |
  1
):-+:' {rn {mkm {lom |
  1
,+->687+r<*-): {rn njgqhmifhjnihjninm ngiqmmkkijmhhioglm oqhlimimhlfkijflohf roqmgnkhfmmilllnikkn roqfogkkgofjjjnhimgh oqlofoniffkkojmjihi V V |
  1
<0:;8: {rn {lol {lol {lok {loj n {nfn {rn |
  1
-:9@)+r3(;r>++-6= {rn {rn {nfj {nkg {l {k |
  1
-:9@)+r3(;r>++-6= {rn {rn {nfh {njn {l {k |
  1
<0:;8: {rn {loi {mjg {mok {mjl o {nfg {rn |
  1
-:9@)+r3(;r>++-6= {rn {rn {mon {njk {l {k |
  1
<0:;8: {rn {loh {loh {mjm {log n {mom {rn |
  1
<0:;8: {rn {mok {mio {mjn {log o {njj {rn |
  1
:;8: {lof {mil {lno {mok {lnn o |
  1
-:9@)+r3(;r>++-6= {rn {rn {moi {njf {l {k |
  1
<0:;8: {rn {moh {moh {lnm {lnl o {nin {rn |
  1
<0:;8: {rn {lnk {lnj {moh {mjh n {lni {rn |
  1
:;8: {lnh {lng {lnf {moh {lmo o |
  1
<0:;8: {rn {mkf {lmn {mog {mjf n {nfg {rn |
  1
:;8: {lmm {mil {mim {mog {lml o |
  1
<0:;8: {rn {mjm {mof {lmn {lmk n {njj {rn |
  1
/+36,+r3(;r>++-6= {rn {rn {rn {mno |
  1
):-+:' {rn {mno {lmj |
  1
):-+:' {rn {mno {lmi |
  1
:336/,:r<*-): {rn njfqhnjnmhjjkmmlmk ngjqjlkfkjnnmlhmok oqghnonohokfnjjilhi oqofnkjgnkkhmiomoomh oqmfjnhmihfmgmmljnh oqfjnojijnimgjmkmmk mqlmloklinjlgfjhnj roqhnfhgilmghfjoknlk o oqkijkiojmimhkmgogi V V |
  1
-:9@)+r3(;r>++-6= {rn {rn {mnm {nij {l {k |
  1
92:,7r3(;r>++-6= {rn {lmh {rn {mnl |
  1
300/ {rn {rn {mkn {mnl |
  1
<01:r,*-9><: {rn njgqgfhhfmklnimfmi ngiqjikjgglhlfolnj oqilookikifjojlohng roqofnkjgnkkhmjfimngk roqmfjnhmihfmgmokglg roqfjnojijnimgjlojhk roqolinkfminfnloijlgm oqokfjhkjioiljikmljj roqonnfofgnfjniglgkok n V V o n o V V V V |
  1
<0:;8: {rn {lmg {lmf {mko {mfh o {mnk {rn |
  1
<0:;8: {rn {llo {mni {lmf {lln n {nii {rn |
  1
<0:;8: {rn {mni {llo {mnh {mhj o {nii {rn |
  1
<0:;8: {rn {mnf {mko {mni {mhl n {nlg {rn |
  1
:;8: {llm {mhh {lll {mhm {llk o |
  1
<0:;8: {rn {mng {mnh {llj {lli n {nmi {rn |
  1
:;8: {llh {llg {mhh {mhn {llf o |
  1
/+36,+r3(;r>++-6= {rn {rn {rn {mmo |
  1
):-+:' {rn {mmo {lko |
  1
,+->687+r<*-): {rn nioqhmiggjokkkmfnn ngkqfmniogmmggfflk oqfkglooljgomkonjfn oqmgnkhfmmilllniljm oqfogkkgofjjjnhilof roqlofoniffkkojmjihi V V |
  1
<0:;8: {rn {llj {mmi {mmn {mgo o {nio {rn |
  1
:;8: {lkn {mmf {mgm {mhf {lkm o |
  1
/+36,+r3(;r>++-6= {rn {rn {rn {mmm |
  1
):-+:' {rn {mgo {lkl |
  1
,+->687+r<*-): {rn nioqikkgiolooglhnf ngkqijiggofhigmnkk nqojknmnhoiimnjlif roqofnkjgnkkhmjfimngk roqmfjnhmihfmgmokglg roqfjnojijnimgjlojhk V V |
  1
/061+ {rn nioqiklkggkmgiiil ngkqijmkjllgiilmml nqolfgjjgjgghhlnjf |
  1
/+36,+r3(;r>++-6= {rn {rn {rn {mmh |
  1
:336/,:r<*-): {rn nioqfffjmmhnmhng ngfqihggflimokmfni roqjlgilogkjjhjkjigm oqofnkjgnkkhmiomonlg oqmfjnhmihfmgmmljlk oqfjnojijnimgjmkmnl jqofoglgfgillnnhmf rnqjhhhhggjjkkfkkfm oqooonmkimmhinmnkillhn n V V |
  1
/061+ {rn nioqjgomklimknfglm ngkqinioohfhhhkngh nqohlomnonggnmlmii |
  1
<0:;8: {rn {mlm {lkk {lkj {lki o {nio {rn |
  1
<0:;8: {rn {lkj {mkn {mli {mfo n {mih {rn |
  1
:;8: {lkh {mfm {mkk {mli {lkg o |
  1
/+36,+r3(;r>++-6= {rn {rn {rn {mlh |
  1
):-+:' {rn {lki {lkf |
  1
,+->687+r<*-): {rn njgqhmglkholfighon ngiqmmggfmgihhfhjl oqhjojmgjghmnonhmig roqmgnkhfmmilllnkjij roqfogkkgofjjjnhomli oqlofoniffkkojkjnhh V V |
  1
92:,7r3(;r>++-6= {rn {ljo {rn {mlg |
  1
9><: {ljn {ljm {lni {i {rn {ljl -:):-,:; ,6183: |
  1
/3>1:r,*-9><: {rn njgqglgofmjolngnjn ngiqjgloginhmmkoii oqilookikifjojlofmf roqfjjnfggjjnilhijki oqmfjfikhhlkoomoomm rkqokooikioffmfjkjl:roni lqgjfoijofonfmlkhi:roni rnqnfjhnigoihfffinl:roni rn o V V V V |
  1
:;8: {ljk {lll {loo {mko {ljj o |
  1
<0:;8: {rn {mkn {lkj {lmg {lji o {mih {rn |
  1
/+36,+r3(;r>++-6= {rn {rn {rn {mkm |
  1
):-+:' {rn {mfh {ljh |
  1
:336/,:r<*-): {rn njgqgfikmojjfkjgln ngiqjioniohglhnlhh oqinjhgoimnhiojfnkj oqofnkjgnkkhmjfghggi oqmfjnhmihfmgmoknmm oqfjnojijnimgjlojjm roqolinkfminfnloijlgm oqokfjhkjioiljikmljj roqonnfofgnfjniglgkok n V V |
  1
/061+ {rn njgqglihmoilnonoim ngiqjhgijgjgmojnkm oqinjhgoimnhinoloii |
  1
<0:;8: {rn {mki {mki {ljg {ljf n {nfn {rn |
  1
<0:;8: {rn {lio {lin {mki {loj o {lim {rn |
  1
:;8: {lil {lik {lij {mki {lii o |
  1
<0:;8: {rn {lmn {mkf {loh {lih o {nfg {rn |
  1
<0:;8: {rn {mjn {mjn {loi {lih n {mom {rn |
  1
:;8: {lig {lif {lno {mjm {lho o |
  1
/+36,+r3(;r>++-6= {rn {rn {rn {mjl |
  1
):-+:' {rn {log {lhn |
  1
,+->687+r<*-): {rn nimqolgnhnnifinmgn ngkqgnjnjghgljhh oqghnonohokfnjjilof roqofnkjgnkkhmiongifj roqmfjnhmihfmgmmlohf roqfjnojijnimgjmklig V V |
  1
<0:;8: {rn {lin {lio {mjj {lnl n {lim {rn |
  1
:;8: {lhm {lnf {lng {mjj {lhl o |
  1
<0:;8: {rn {ljg {mji {lio {lhk n {lni {rn |
  1
<0:;8: {rn {mji {ljg {lin {lhj n {lni {rn |
  1
300/ {rn {rn {lnj {mfj |
  1
/+36,+r3(;r>++-6= {rn {rn {rn {mjh |
  1
):-+:' {rn {mjh {lhi |
  1
):-+:' {rn {mjh {lhh |
  1
:336/,:r<*-): {rn njfqhnjnmhjjkmhhh ngjqjlkfkjnnmljjmm oqghnonohokfnjjjkkl roqofnkjgnkkhmiomonlg roqmfjnhmihfmgmmljlk roqfjnojijnimgjmkmnl mqmmhjmlhmfghlngfn roqifongfgjnkjjokmnf riqjifhhkilkjijgomj:ronk oqkigmihjgnihmgkjmn V V |
  1
<0:;8: {rn {mjg {loi {mio {lmk o {nfg {rn |
  1
/+36,+r3(;r>++-6= {rn {rn {rn {mjf |
  1
:336/,:r<*-): {rn njfqhnjnmhjjkmmlmk ngjqjlkfkjnnmlhmoh oqghnonohokfnjjimgh oqofnkjgnkkhmiomoomh oqmfjnhmihfmgmmljnh oqfjnojijnimgjmkmmk mqlmloklinjlgfjhnj roqhnfhgilmghfjoknlk o oqjooknnngkkojmnknj V V |
  1
:;8: {lhg {lif {mim {mio {lhf o |
  1
/061+ {rn njhqlfmoglflggllij ngiqmjkhlnkknnihnn oqghnonohokfnjjiofg |
  1
/061+ {rn nimqolgnhnnifinmgn ngkqgnjnjghgljhh oqghnonohokfnjjilhi |
  1
-:9@)+r3(;r>++-6= {rn {rn {mii {mnl {l {k |
  1
<0:;8: {rn {lgo {mif {mfg {lji n {mnk {rn |
  1
<0:;8: {rn {mif {lgo {mho {lln o {mnk {rn |
  1
<0:;8: {rn {mhn {mho {lgn {lgm n {nii {rn |
  1
:;8: {lgl {lgk {lll {lmf {lgj o |
  1
/+36,+r3(;r>++-6= {rn {rn {rn {mhl |
  1
):-+:' {rn {mhl {lgi |
  1
:336/,:r<*-): {rn nioqfiffghfkhiilfm ngjqfnhlhkognmhnnl oqinjghlimolnofkifj oqofnkjgnkkhmjfghggi oqmfjnhmihfmgmoknmm oqfjnojijnimgjlojjm roqommfjifmgflfihkkhf oqojinohnmligohmfgmm roqonjmojfmmhmjjokjlh n V V |
  1
<0:;8: {rn {lgn {mhf {mhk {lli o {nio {rn |
  1
:;8: {lgh {mgm {llg {llj {lgg o |
  1
/+36,+r3(;r>++-6= {rn {rn {rn {mhj |
  1
):-+:' {rn {lli {lgf |
  1
,+->687+r<*-): {rn ninqolnojfhkgmgmjf ngjqfollolghlnmmfg oqilonlfkigojjiojgl roqofnkjgnkkhmjfimngk roqmfjnhmihfmgmokglg roqfjnojijnimgjlojhk V V |
  1
/061+ {rn ninqomfighghinnnif ngjqgfgghimgmfllhh oqinjghlimolnnlgjkg |
  1
/+36,+r3(;r>++-6= {rn {rn {rn {mgo |
  1
:336/,:r<*-): {rn nioqjgjniolhmlgfkm ngkqihjlhghhjnjggi nqojknmnhoiimnmngj oqofnkjgnkkhmiomonlg oqmfjnhmihfmgmmljlk oqfjnojijnimgjmkmnl oqojnmhihnigkihkljj oqolmklkgijmimlonkn roqonkffhjflfigmnoof n V V |
  1
/061+ {rn nioqikkgiolooglhnf ngkqijiggofhigmnkk nqojknmnhoiimnjlif |
  1
<0:;8: {rn {mgg {lgn {lgo {lfo o {nio {rn |
  1
<0:;8: {rn {mfg {mgf {mgg {lki n {mih {rn |
  1
:;8: {lfn {lfm {mfm {mgg {lfl o |
  1
/+36,+r3(;r>++-6= {rn {rn {rn {mfo |
  1
,+->687+r<*-): {rn njgqglgofmjolngnjn ngiqjgloginhmmkoii oqilookikifjojlofmf roqofnkjgnkkhmjfimngk roqmfjnhmihfmgmokglg roqfjnojijnimgjlojhk V V |
  1
/061+ {rn njgqglgofmjolngnjn ngiqjgloginhmmkoii oqilookikifjojlofmf |
  1
-:9@)+r3(;r>++-6= {rn {rn {mfk {mlg {l {k |
  1
92:,7r3(;r>++-6= {rn {lfk {rn {mfj |
  1
9><: {lfj {ii {lim {i {rn {lfi -:):-,:; ,6183: |
  1
<01:r,*-9><: {rn njfqhnlhjjigmnoihg ngjqjlojnhjmmnijfj oqgjihkkgjhnhnmnlmf oqofnkjgnkkhmjffokih oqmfjnhmihfmgmolfin oqfjnojijnimgjlojhk mqmmhjmlhmfghlngfn roqifongfgjnkjjokmnf riqjifhhkilkjijgomj:ronk oqkigmihjgnihmgkjmn V V o n o V V V V |
  1
/+36,+r3(;r>++-6= {rn {rn {rn {mfh |
  1
:336/,:r<*-): {rn njgqifkinhhojjhgnh ngmqmklkoklmkhkfjm nqfhkfkgofhlgimij oqofnkjgnkkhmjfghggi oqmfjnhmihfmgmoknmm oqfjnojijnimgjlojjm rkqlgihlkjgnjkmkhgg nqljfgkhnmhlmmlifg roqooonfihklokmjkklnjf n V V |
  1
:;8: {lfh {lfm {loo {mfg {lfg o |
  1
/061+ {rn njgqgffmokhnomlojg ngiqinfhniklhnjlmm oqjfhomfonhggjhfhn |
  1
<0:;8: {rn {lnj {lnk {lol {ljf o {lni {rn |
  1
:;8: {lff {lij {lik {lol {koo o |
  1
<0:;8: {rn {lnm {lok {lnk {lhk o {lim {rn |
  1
<0:;8: {rn {lok {lnm {lnj {lhj o {lim {rn |
  1
300/ {rn {rn {lin {ljm |
  1
/+36,+r3(;r>++-6= {rn {rn {rn {loj |
  1
):-+:' {rn {loj {kon |
  1
):-+:' {rn {lhk {kom |
  1
:336/,:r<*-): {rn njfqhnlhjjigmnoihg ngjqjlojnhjmmnijfj oqgjihkkgjhnhnmnmgj roqofnkjgnkkhmjfghf roqmfjnhmihfmgmoknni roqfjnojijnimgjlojjm mqmmhjmlhmfghlngfi roqifongfgjnkjjokonf rjqfmglgkohimmfonig:ronk oqlffijifkihhmjhflj V V |
  1
:;8: {kol {lno {lif {loi {kok o |
  1
/+36,+r3(;r>++-6= {rn {rn {rn {log |
  1
):-+:' {rn {log {koj |
  1
:336/,:r<*-): {rn njfqhnojjkikifgifk ngjqjmongikhgkohfk oqgmlkjhghfnonlonik oqofnkjgnkkhmiomoomh oqmfjnhmihfmgmmljnh oqfjnojijnimgjmkmmk mqlmloklinjlgfjhnj roqhnfhgilmghfjoknlk o oqkijkiojmimhkmgogi V V |
  1
/061+ {rn nimqolljfgmimlhij ngkqgookoonkfinmf oqgmlkjhghfnonlonik |
  1
/+36,+r3(;r>++-6= {rn {rn {rn {lnl |
  1
:336/,:r<*-): {rn njfqhnjnmhjjkmhhh ngjqjlkfkjnnmljjmm oqghnonohokfnjjjklm roqofnkjgnkkhmiomonlg roqmfjnhmihfmgmmljlk roqfjnojijnimgjmkmnl mqmmhjmlhmfghlngfn roqifongfgjnkjjokmnf riqjifhhkilkjijgomj:ronk oqlffijifkihhmjhfk V V |
  1
:;8: {koi {lij {lng {lio {koh o |
  1
:;8: {kog {lnf {lik {lin {kof o |
  1
/061+ {rn njhqkghiolgmkkokkf ngiqmmjnlkfilgnoml oqghnonohokfnjjjnff |
  1
/061+ {rn ninqfkmijnmgknjogg ngkqgkkhjjmiofoonk oqghnonohokfnjkllkm |
  1
/+36,+r3(;r>++-6= {rn {rn {rn {lmk |
  1
,+->687+r<*-): {rn njhqlfmoglflggllij ngiqmjkhlnkknnihnn oqghnonohokfnjjinn oqofnkjgnkkhmiongifj oqmfjnhmihfmgmmlohf oqfjnojijnimgjmklig V V |
  1
<0:;8: {rn {lmf {lmg {lkk {lfo n {mnk {rn |
  1
<0:;8: {rn {lkk {llj {llo {lgm o {nio {rn |
  1
:;8: {kno {llg {lgk {lgn {knn o |
  1
/+36,+r3(;r>++-6= {rn {rn {rn {lln |
  1
):-+:' {rn {lgm {knm |
  1
,+->687+r<*-): {rn ninqoomhjnhnlfmhjm ngjqfhmkgfngfnfkmm oqinnlgfnkhmmkjfijf roqofnkjgnkkhmjfimngk roqmfjnhmihfmgmokglg roqfjnojijnimgjlojhk V V |
  1
/061+ {rn ninqoonlhfgknhjiii ngjqfigoinjffoojon oqjfhnmlmffkgolhjon |
  1
/+36,+r3(;r>++-6= {rn {rn {rn {lli |
  1
,+->687+r<*-): {rn nioqhmgmjifnii ngkqfmioljgnfoggjg oqfimjiimojhigkkfhi oqmgnkhfmmilllnkkhi oqfogkkgofjjjnhomjg roqlofoniffkkojkjnhh V V |
  1
/061+ {rn ninqolnojfhkgmgmjf ngjqfollolghlnmmfg oqilonlfkigojjiojgl |
  1
:;8: {knl {lgk {lfm {lkk {knk o |
  1
/+36,+r3(;r>++-6= {rn {rn {rn {lki |
  1
):-+:' {rn {lfo {knj |
  1
:336/,:r<*-): {rn njgqgfhhfmklnimfm ngiqjikjgglhlfolok oqilookikifjokfllok oqofnkjgnkkhmiomonlg oqmfjnhmihfmgmmljlk oqfjnojijnimgjmkmnl roqolinkfminfnloijlgm oqokfjhkjioiljikmljj roqonnfofgnfjniglgkok n V V |
  1
-:9@)+r3(;r>++-6= {rn {rn {ljn {mfj {l {k |
  1
92:,7r3(;r>++-6= {rn {kni {rn {ljm |
  1
<01:r,*-9><: {rn njfqhnlhjjigmnoihg ngjqjlojnhjmmnijfj oqgjihkkgjhnhnmnmgj oqofnkjgnkkhmjffokih oqmfjnhmihfmgmolfin oqfjnojijnimgjlojhk mqmmhjmlhmfghlngfn roqifongfgjnkjjokmnf riqjifhhkilkjijgomj:ronk oqlffijifkihhmjhfk V V o n o V V V V |
  1
/+36,+r3(;r>++-6= {rn {rn {rn {lji |
  1
,+->687+r<*-): {rn njgqfoojhijgmkonkh ngiqimknkkomhlkmkj oqinnmfkgijiloohkjn roqofnkjgnkkhmjfimngk roqmfjnhmihfmgmokglg roqfjnojijnimgjlojhk V V |
  1
/+36,+r3(;r>++-6= {rn {rn {rn {ljf |
  1
:336/,:r<*-): {rn njfqhnlhjjigmnoihg ngjqjlojnhjmmnijfj oqgjihkkgjhnhnmnlmf roqofnkjgnkkhmjfghf roqmfjnhmihfmgmoknni roqfjnojijnimgjlojjm mqmmhjmlhmfghlngfi roqifongfgjnkjjokonf rjqfmglgkohimmfonig:ronk oqkigmihjgnihmgkjmn V V |
  1
/061+ {rn ninqfknmhfknnfhfff ngkqgkolmhihohnofl oqgjihkkgjhnhnnjlhg |
  1
/061+ {rn njhqkgimlnfjmmlli ngiqmmohohlhlimn oqgjihkkgjhnhnmhlmk |
  1
/+36,+r3(;r>++-6= {rn {rn {rn {lih |
  1
:336/,:r<*-): {rn njfqhnojjkikifgifk ngjqjmongikhgkohfk oqgmlkjhghfnonlonnf oqofnkjgnkkhmiomoomh oqmfjnhmihfmgmmljnh oqfjnojijnimgjmkmmk mqlmloklinjlgfjhnj roqhnfhgilmghfjoknlk o oqjooknnngkkojmnknj V V |
  1
/061+ {rn njhqlghjnnolnjfhlh ngiqmlffhmgohmol oqgmlkjhghfnonmffln |
  1
/+36,+r3(;r>++-6= {rn {rn {rn {lhk |
  1
,+->687+r<*-): {rn njhqkgimlnfjmmlli ngiqmmohohlhlimn oqgjihkkgjhnhnmhffn oqofnkjgnkkhmjffokih oqmfjnhmihfmgmolfin oqfjnojijnimgjlojil V V |
  1
/+36,+r3(;r>++-6= {rn {rn {rn {lhj |
  1
,+->687+r<*-): {rn ninqfknmhfknnfhfff ngkqgkolmhihohnofn oqgjihkkgjhnhnnkgki roqofnkjgnkkhmjffokih roqmfjnhmihfmgmolfin roqfjnojijnimgjlojil V V |
  1
/+36,+r3(;r>++-6= {rn {rn {rn {lgm |
  1
:336/,:r<*-): {rn nioqfhnljfgnfglkgm ngjqfmngonihnkiok oqilonlfkigojjmggm oqofnkjgnkkhmiomonlg oqmfjnhmihfmgmmljlk oqfjnojijnimgjmkmnl roqommfjifmgflfihkkhf oqojinohnmligohmfgmm roqonjmojfmmhmjjokjlh n V V |
  1
/061+ {rn ninqoomhjnhnlfmhjm ngjqfhmkgfngfnfkmm oqinnlgfnkhmmkjfijf |
  1
/+36,+r3(;r>++-6= {rn {rn {rn {lfo |
  1
:336/,:r<*-): {rn njgqifjfgfjhhhkfoi ngmqmkhglnfnkflghf nqfgfmnlfkjnloioil oqofnkjgnkkhmiomonlg oqmfjnhmihfmgmmljlk oqfjnojijnimgjmkmnl rkqlgihlkjgnjkmkhgg nqljfgkhnmhlmmlifg roqooonfihklokmjkklnjf n V V |
  1
/061+ {rn njgqfoojhijgmkonkh ngiqimknkkomhlkmkj oqinnmfkgijiloohkjn |
  1
-:9@)+r3(;r>++-6= {rn {rn {lfj {ljm {l {k |
  0
3DSOLID
  5
35
330
2
100
AcDbEntity
  8
0
 48
0.1
100
AcDbModelerGeometry
 70
     1
  1
noi lkg n o         
  1
=0;& {n {m {rn {rn |
  1
-:9@)+r3(;r>++-6= {rn {rn {rn {o {l {k |
  1
3*2/ {j {rn {i {o |
  1
-:961:2:1+ {rn o o o o oqomogjjglkhohinhhi lo o k o o o |
  1
):-+:'@+:2/3>+: {rn l o n g |
  1
-:9@)+r3(;r>++-6= {rn {rn {rn {m {l {k |
  1
,7:33 {h {rn {rn {g {m |
  1
-:9@)+r3(;r>++-6= {rn {rn {rn {i {l {k |
  1
9><: {f {no {nn {i {rn {nm -:):-,:; ,6183: |
  1
92:,7r3(;r>++-6= {rn {nl {rn {g |
  1
9><: {nk {nj {ni {i {rn {nh -:):-,:; ,6183: |
  1
300/ {rn {ng {nf {g |
  1
<01:r,*-9><: {rn njgqolkllfnkffnjhm ngjqfmngjggimjjnon oqfnmjjfihhmohhmmnl roqofnkjgnkkhmiooohml roqmfjnhmihfmgmnhmhg roqfjnojijnimgjmilkk roqojimfjgkjmiiilonjl roqngnigfinfnnolkkim oqoingollfgggnohhmjj n V V o n o V V V V |
  1
-:9@)+r3(;r>++-6= {rn {rn {f {g {l {k |
  1
92:,7r3(;r>++-6= {rn {mo {rn {no |
  1
9><: {mn {mm {ml {i {rn {mk -:):-,:; ,6183: |
  1
300/ {rn {mj {mi {no |
  1
<01:r,*-9><: {rn njgqlmlfggnhjgglj ngiqlkfgjhnjimmhgk oqhjnghogkonnifmmng roqofnkjgnkkhmiooofgh roqmfjnhmihfmgmnhlin roqfjnojijnimgjmilmm roqojimfjgkjmiiilonlm roqngnigfinfnnolkkji oqoingollfgggnohhkmf n V V o n o V V V V |
  1
300/ {rn {rn {mh {g |
  1
<0:;8: {rn {nf {nf {mg {mf n {nn {rn |
  1
-:9@)+r3(;r>++-6= {rn {rn {nk {no {l {k |
  1
92:,7r3(;r>++-6= {rn {lo {rn {nj |
  1
9><: {ln {lm {ll {i {rn {lk -:):-,:; ,6183: |
  1
300/ {rn {lj {li {nj |
  1
<01:r,*-9><: {rn ninqlmommlmnnihfoi ngkqfolhkookmojklm oqfnmjjfihhmohhmmnl roqofnkjgnkkhmiooohml roqmfjnhmihfmgmnhmhg roqfjnojijnimgjmilkk roqojimfjgkjmiiilonjl roqngnigfinfnnolkkim oqoingollfgggnohhmjj n V V o n o V V V V |
  1
300/ {rn {rn {lh {no |
  1
<0:;8: {rn {mi {mi {lg {lf n {ni {rn |
  1
<0:;8: {rn {mh {mh {ko {kn n {ng {rn |
  1
<0:;8: {rn {mg {mg {nf {mf o {km {rn |
  1
:;8: {kl {kk {kk {mg {kj o |
  1
-:9@)+r3(;r>++-6= {rn {rn {mn {nj {l {k |
  1
92:,7r3(;r>++-6= {rn {ki {rn {mm |
  1
9><: {kh {kg {kf {i {rn {jo -:):-,:; ,6183: |
  1
300/ {rn {jn {jm {mm |
  1
<01:r,*-9><: {rn ninqlmllnmjgnofhhm ngjqkmojmhhihhjnmm oqhjnghogkonnifmmng roqofnkjgnkkhmiooofgh roqmfjnhmihfmgmnhlin roqfjnojijnimgjmilmm roqojimfjgkjmiiilonlm roqngnigfinfnnolkkji oqoingollfgggnohhkmf n V V o n o V V V V |
  1
300/ {rn {rn {jl {nj |
  1
<0:;8: {rn {li {li {jk {jj n {ml {rn |
  1
<0:;8: {rn {lh {lh {ji {jh n {mj {rn |
  1
<0:;8: {rn {lg {lg {mi {lf o {jg {rn |
  1
:;8: {jf {io {io {lg {in o |
  1
<0:;8: {rn {ko {ko {mh {kn o {im {rn |
  1
:;8: {il {ik {ik {ko {ij o |
  1
300/ {rn {jg {mg {ii |
  1
/+36,+r3(;r>++-6= {rn {rn {rn {mf |
  1
):-+:' {rn {mf {ih |
  1
:336/,:r<*-): {rn njgqolmfihmhhhkkgl ngjqfnhklnmhmling oqgfgmflgmfkiljmhlm oqofnkjgnkkhmjfghggi oqmfjnhmihfmgmoknmm oqfjnojijnimgjlojjm roqojimfjgkjmiiilonjl roqngnigfinfnnolkkim oqoingollfgggnohhmjj n V V |
  1
-:9@)+r3(;r>++-6= {rn {rn {ln {mm {l {k |
  1
92:,7r3(;r>++-6= {rn {ig {rn {lm |
  1
9><: {if {ho {hn {i {rn {hm -:):-,:; ,6183: |
  1
300/ {rn {rn {hl {lm |
  1
<01:r,*-9><: {rn njgqjnnjjkjnnoojli ngjqlngoknlofojgoi nqojkohofkjnkgnfhl roqofnkjgnkkhmjfimngk roqmfjnhmihfmgmokglg roqfjnojijnimgjlojhk oqomlfjonhiofnlgoiog roqojjhkiionghfgligkf oqonkffgjnkhmhgfmjij n V V o n o V V V V |
  1
300/ {rn {rn {hk {mm |
  1
<0:;8: {rn {jm {jm {hj {hi n {ll {rn |
  1
<0:;8: {rn {jl {jl {hh {hg n {lj {rn |
  1
<0:;8: {rn {jk {jk {li {jj o {hf {rn |
  1
:;8: {go {gn {gn {jk {gm o |
  1
<0:;8: {rn {ji {ji {lh {jh o {gl {rn |
  1
:;8: {gk {gj {gj {ji {gi o |
  1
300/ {rn {hf {lg {ii |
  1
/+36,+r3(;r>++-6= {rn {rn {rn {lf |
  1
):-+:' {rn {lf {gh |
  1
:336/,:r<*-): {rn njgqlmminilolhnmik ngiqlkjkmfjiiolgil oqhlhiokffmlhmhlhnl oqofnkjgnkkhmjfghggi oqmfjnhmihfmgmoknmm oqfjnojijnimgjlojjm roqojimfjgkjmiiilonlm roqngnigfinfnnolkkji oqoingollfgggnohhkmf n V V |
  1
300/ {rn {gl {ko {gg |
  1
/+36,+r3(;r>++-6= {rn {rn {rn {kn |
  1
):-+:' {rn {kn {gf |
  1
:336/,:r<*-): {rn njgqolkllfnkffnjhm ngjqfmngjggimjjnol oqfnmjjfihhmohhkhnn roqofnkjgnkkhmjffokih roqmfjnhmihfmgmolfin roqfjnojijnimgjlojhk roqojimfjgkjmiiilonjl roqngnigfinfnnolkkim oqoingollfgggnohhmjj n V V |
  1
9><: {fo {rn {km {i {rn {fn 90-(>-; ,6183: |
  1
/061+ {rn njgqmmkoohokghhhjf ngjqgjgmlglnhignhj oqgfgmflgmfkilkklni |
  1
-:9@)+r3(;r>++-6= {rn {rn {kh {lm {l {k |
  1
92:,7r3(;r>++-6= {rn {fm {rn {kg |
  1
9><: {fl {fk {fj {i {rn {fi -:):-,:; ,6183: |
  1
300/ {rn {rn {fh {kg |
  1
<01:r,*-9><: {rn nioqfffjmmhnmifhhh ngfqihggflimokljji roqjlgilogkjjhjokkh roqofnkjgnkkhmjfimngk roqmfjnhmihfmgmokglg roqfjnojijnimgjlojhk jqofoglgfgillnnhmf rnqjhhhhggjjkkfkkfm oqooonmkimmhinmnkillhn n V V o n o V V V V |
  1
<0:;8: {rn {fg {ff {noo {non n {kf {rn |
  1
<0:;8: {rn {hk {hk {nom {nol n {jn {rn |
  1
<0:;8: {rn {hj {hj {jm {hi o {nok {rn |
  1
:;8: {noj {noi {noi {hj {noh o |
  1
<0:;8: {rn {hh {hh {jl {hg o {nog {rn |
  1
:;8: {nof {nno {nno {hh {nnn o |
  1
300/ {rn {nok {jk {ii |
  1
/+36,+r3(;r>++-6= {rn {rn {rn {jj |
  1
):-+:' {rn {jj {nnm |
  1
:336/,:r<*-): {rn ninqlnggjnllfjogm ngkqgfflnmkjngijnn oqgfgmflgmfkiljmhlm oqofnkjgnkkhmjfghggi oqmfjnhmihfmgmoknmm oqfjnojijnimgjlojjm roqojimfjgkjmiiilonjl roqngnigfinfnnolkkim oqoingollfgggnohhmjj n V V |
  1
300/ {rn {nog {ji {gg |
  1
/+36,+r3(;r>++-6= {rn {rn {rn {jh |
  1
):-+:' {rn {jh {nnl |
  1
:336/,:r<*-): {rn njgqlmlfggnhjggljl ngiqlkfgjhnjimmhgk oqhjnghogkonnifjigm roqofnkjgnkkhmjffokih roqmfjnhmihfmgmolfin roqfjnojijnimgjlojhk roqojimfjgkjmiiilonlm roqngnigfinfnnolkkji oqoingollfgggnohhkmf n V V |
  1
/061+ {rn njgqjnlijiohkhkjlh ngiqmgimliinnljgji oqhlhiokffmlhmiklmn |
  1
9><: {nnk {nnj {im {i {rn {nni -:):-,:; ,6183: |
  1
/061+ {rn njgqmmjlhgfmofkgkf ngjqgimiijfohghofi oqfnmjjfihhmohhmmnl |
  1
92:,7r3(;r>++-6= {rn {nnh {rn {ii |
  1
/3>1:r,*-9><: {rn njfqhnlhjjigmogijk ngjqjlojnhjmmnhmml oqgjihkkgjhnhnmhfki roqofnkjgnkkhmjfghggi roqmfjnhmihfmgmoknmm roqfjnojijnimgjlojjm oqfjjnfggjjnilhijhf roqmfjfikhhlkoonffoj rmqgoigffkkhjglikfg:ronk o V V V V |
  1
-:9@)+r3(;r>++-6= {rn {rn {if {kg {l {k |
  1
92:,7r3(;r>++-6= {rn {nng {rn {ho |
  1
9><: {nnf {nmo {nmn {i {rn {nmm -:):-,:; ,6183: |
  1
300/ {rn {rn {nml {ho |
  1
<01:r,*-9><: {rn nioqjgjniolhmlifmm ngkqihjlhghhjnijml nqojknmnhoiimnioi roqofnkjgnkkhmjfimngk roqmfjnhmihfmgmokglg roqfjnojijnimgjlojhk oqojnmhihnigkihkljj oqolmklkgijmimlonkn roqonkffhjflfigmnoof n V V o n o V V V V |
  1
<0:;8: {rn {nmk {nmj {nmi {nmh n {hn {rn |
  1
<0:;8: {rn {nmg {hl {nmf {nlo n {kf {rn |
  1
<0:;8: {rn {hl {nmg {nmk {nln o {kf {rn |
  1
<0:;8: {rn {nmi {nlm {hl {non o {nll {rn |
  1
:;8: {nlk {nlj {nli {noo {nlh o |
  1
<0:;8: {rn {nom {nom {hk {nol o {nlg {rn |
  1
:;8: {nlf {nko {nko {nom {nkn o |
  1
300/ {rn {nll {hj {ii |
  1
/+36,+r3(;r>++-6= {rn {rn {rn {hi |
  1
):-+:' {rn {hi {nkm |
  1
:336/,:r<*-): {rn ninqlmnfkohogfmigi ngjqkninoonhhjimom oqhlhiokffmlhmhlhnl oqofnkjgnkkhmjfghggi oqmfjnhmihfmgmoknmm oqfjnojijnimgjlojjm roqojimfjgkjmiiilonlm roqngnigfinfnnolkkji oqoingollfgggnohhkmf n V V |
  1
300/ {rn {nlg {hh {gg |
  1
/+36,+r3(;r>++-6= {rn {rn {rn {hg |
  1
):-+:' {rn {hg {nkl |
  1
:336/,:r<*-): {rn ninqlmommlmnnihfoi ngkqfolhkookmojklm oqfnmjjfihhmohhkhnn roqofnkjgnkkhmjffokih roqmfjnhmihfmgmolfin roqfjnojijnimgjlojhk roqojimfjgkjmiiilonjl roqngnigfinfnnolkkim oqoingollfgggnohhmjj n V V |
  1
/061+ {rn ninqjofgfnnnojkofl ngkqgkonnfkfhngjok oqgfgmflgmfkilkklni |
  1
/061+ {rn njgqjnjomhfkifnimi ngiqmfoiikmonjkhg oqhjnghogkonnifmmng |
  1
92:,7r3(;r>++-6= {rn {nkk {rn {gg |
  1
9><: {nkj {ii {nki {i {rn {nkh 90-(>-; ,6183: |
  1
/3>1:r,*-9><: {rn ninqfkmijnmgknloim ngkqgkkhjjmiofoikm oqghnonohokfnjjookg roqofnkjgnkkhmjffokih roqmfjnhmihfmgmolfin roqfjnojijnimgjlojhk oqfjjnfggjjnilhijhf roqmfjfikhhlkoonffoj rlqnnmfjljmmljffijj:ronk o V V V V |
  1
-:9@)+r3(;r>++-6= {rn {rn {fo {ii {l {k |
  1
-:9@)+r3(;r>++-6= {rn {rn {fl {ho {l {k |
  1
92:,7r3(;r>++-6= {rn {nkg {rn {fk |
  1
9><: {nkf {njo {njn {i {rn {njm -:):-,:; ,6183: |
  1
300/ {rn {rn {njl {fk |
  1
/3>1:r,*-9><: {rn nioqikkgioloognifl ngkqijiggofhigmhhm nqojknmnhoiimniok oqfjjnfggjjnilhijhf roqmfjfikhhlkoonfflf nqonkjjkofjnflillm:roni rfqifnoofnomloiigjh:ronh lqoomhmmhmggimmhjf:ronh n o V V V V |
  1
<0:;8: {rn {njk {njj {nji {njh n {fj {rn |
  1
<0:;8: {rn {njg {fh {ff {nln n {hn {rn |
  1
<0:;8: {rn {fh {njg {njk {njf o {hn {rn |
  1
<0:;8: {rn {nji {noo {fh {nmh o {nll {rn |
  1
:;8: {nio {nli {nin {nmi {nim o |
  1
<0:;8: {rn {ff {fg {nil {nik n {kf {rn |
  1
<0:;8: {rn {nij {nii {fg {nlo o {nih {rn |
  1
:;8: {nig {nif {nlj {fg {nho o |
  1
:;8: {nhn {nhm {nli {nmk {nhl o |
  1
<0:;8: {rn {noo {nhk {nij {nhj o {nll {rn |
  1
300/ {rn {nhi {noo {ii |
  1
/+36,+r3(;r>++-6= {rn {rn {rn {non |
  1
):-+:' {rn {non {nhh |
  1
):-+:' {rn {non {nhg |
  1
:336/,:r<*-): {rn njgqjnongmilgglkkk ngjqlnlinlhnggighn nqolfgojofhkolkgoj oqofnkjgnkkhmjfghggi oqmfjnhmihfmgmoknmm oqfjnojijnimgjlojjm oqomlfjonhiofnlgoiog roqojjhkiionghfgligkf oqonkffgjnkhmhgfmjij n V V |
  1
300/ {rn {nhf {nom {gg |
  1
/+36,+r3(;r>++-6= {rn {rn {rn {nol |
  1
):-+:' {rn {nol {ngo |
  1
:336/,:r<*-): {rn ninqlmllnmjgnofhhj ngjqkmojmhhihhjnmm oqhjnghogkonnifjigm roqofnkjgnkkhmjffokih roqmfjnhmihfmgmolfin roqfjnojijnimgjlojhk roqojimfjgkjmiiilonlm roqngnigfinfnnolkkji oqoingollfgggnohhkmf n V V |
  1
/061+ {rn ninqjnmfgokhffjfjf ngjqljifohmmmggnfk oqhlhiokffmlhmiklmn |
  1
/061+ {rn ninqjnnmimfgmhnngl ngkqgkkjkhoghlhkmg oqfnmjjfihhmohhmmnl |
  1
-:9@)+r3(;r>++-6= {rn {rn {nnk {gg {l {k |
  1
92:,7r3(;r>++-6= {rn {ngn {rn {nnj |
  1
300/ {rn {rn {ngm {nnj |
  1
<01:r,*-9><: {rn njfqhnlhjjigmogijk ngjqjlojnhjmmnhmml oqgjihkkgjhnhnmhffn oqofnkjgnkkhmjffokih oqmfjnhmihfmgmolfin oqfjnojijnimgjlojhk mqmmhjmlhmfghlngfn roqifongfgjnkjjokmnf riqjifhhkilkjijgomj:ronk oqlffijifkihhmjhfk V V o n o V V V V |
  1
-:9@)+r3(;r>++-6= {rn {rn {nnf {fk {l {k |
  1
92:,7r3(;r>++-6= {rn {ngl {rn {nmo |
  1
9><: {ngk {ngj {ngi {i {rn {ngh -:):-,:; ,6183: |
  1
300/ {rn {rn {ngg {nmo |
  1
<01:r,*-9><: {rn nioqfhnljfgnfgnkjg ngjqfmngonihnkiihh oqilonlfkigojjihkji roqofnkjgnkkhmjfimngk roqmfjnhmihfmgmokglg roqfjnojijnimgjlojhk roqommfjifmgflfihkkhf oqojinohnmligohmfgmm roqonjmojfmmhmjjokjlh n V V o n o V V V V |
  1
<0:;8: {rn {ngf {nfo {nfn {nfm n {nmn {rn |
  1
<0:;8: {rn {nfl {nml {nmj {njf n {fj {rn |
  1
<0:;8: {rn {nml {nfl {ngf {nfk o {fj {rn |
  1
<0:;8: {rn {nfn {nmi {nml {njh o {nll {rn |
  1
:;8: {nfj {nin {nfi {nji {nfh o |
  1
<0:;8: {rn {nmj {nmk {nfg {nff n {hn {rn |
  1
:;8: {moo {mon {nin {njk {mom o |
  1
/+36,+r3(;r>++-6= {rn {rn {rn {nmh |
  1
):-+:' {rn {nmh {mol |
  1
:336/,:r<*-): {rn nioqffgnjogkojmigj ngfqihkkiiolomkimn roqjjmgfiifllnfhloki oqofnkjgnkkhmjfghggi oqmfjnhmihfmgmoknmm oqfjnojijnimgjlojjm jqofoglgfgillnnhmf rnqjhhhhggjjkkfkkfm oqooonmkimmhinmnkillhn n V V |
  1
<0:;8: {rn {mok {nfg {nmg {nik o {nhf {rn |
  1
:;8: {moj {nhm {nif {nil {moi o |
  1
<0:;8: {rn {moh {nmf {nlm {nhj n {nih {rn |
  1
<0:;8: {rn {nmf {moh {mok {mog n {nih {rn |
  1
300/ {rn {rn {nij {mof |
  1
/+36,+r3(;r>++-6= {rn {rn {rn {nlo |
  1
):-+:' {rn {nik {mno |
  1
,+->687+r<*-): {rn njgqkjngjkjgmjjhik ngjqllijlfnohlfjjh nqojkohofkjnkgnfgf roqofnkjgnkkhmjfimngk roqmfjnhmihfmgmokglg roqfjnojijnimgjlojhk V V |
  1
/+36,+r3(;r>++-6= {rn {rn {rn {nln |
  1
):-+:' {rn {nik {mnn |
  1
,+->687+r<*-): {rn njgqkgmolmhlmigjlg ngjqmiimfimmgknfjj nqohmfifijjonmjhoh roqofnkjgnkkhmjfimngk roqmfjnhmihfmgmokglg roqfjnojijnimgjlojhk V V |
  1
<0:;8: {rn {nlm {mnm {mnl {mnk o {nll {rn |
  1
:;8: {mnj {mni {nlj {nlm {mnh o |
  1
300/ {rn {rn {mng {ii |
  1
/061+ {rn njgqkjokgmhnolgihj ngjqllmnnnjnhmoili nqolfgojofhkolfnfm |
  1
/061+ {rn njgqkgoiiogiojnkkf ngjqmingigilgmloln nqojgholgohmigmfmm |
  1
300/ {rn {mnf {nil {gg |
  1
/061+ {rn ninqjnkljmljmnlokf ngjqlinllkgnlohnng oqhjnghogkonnifmmng |
  1
-:9@)+r3(;r>++-6= {rn {rn {nkj {nnj {l {k |
  1
<0:;8: {rn {mmo {mmn {mmm {mml n {nki {rn |
  1
-:9@)+r3(;r>++-6= {rn {rn {nkf {nmo {l {k |
  1
92:,7r3(;r>++-6= {rn {mmk {rn {njo |
  1
9><: {mmj {mof {mmi {i {rn {mmh -:):-,:; ,6183: |
  1
300/ {rn {rn {mmg {njo |
  1
<01:r,*-9><: {rn njgqifjfgfjhhhmggj ngmqmkhglnfnkfkjnj nqfgfmnlfkjnlnommf roqofnkjgnkkhmjfimngk roqmfjnhmihfmgmokglg roqfjnojijnimgjlojhk rkqlgihlkjgnjkmkhgg nqljfgkhnmhlmmlifg roqooonfihklokmjkklnjf n V V o n o V V V V |
  1
<0:;8: {rn {mmf {mlo {mln {mlm n {njn {rn |
  1
<0:;8: {rn {mll {njl {njj {nfk n {nmn {rn |
  1
<0:;8: {rn {njl {mll {mmf {mlk o {nmn {rn |
  1
<0:;8: {rn {mln {nji {njl {nfm o {nll {rn |
  1
:;8: {mlj {nfi {mli {nfn {mlh o |
  1
<0:;8: {rn {njj {njk {mlg {mlf n {fj {rn |
  1
:;8: {mko {mkn {nfi {ngf {mkm o |
  1
/+36,+r3(;r>++-6= {rn {rn {rn {njh |
  1
):-+:' {rn {njh {mkl |
  1
:336/,:r<*-): {rn nioqjglhggjoonfgmh ngkqihofjnngkfhjgg nqolfgjjgjgghifkkm oqofnkjgnkkhmjfghggi oqmfjnhmihfmgmoknmm oqfjnojijnimgjlojjm oqojnmhihnigkihkljj oqolmklkgijmimlonkn roqonkffhjflfigmnoof n V V |
  1
<0:;8: {rn {nil {mlg {njg {nff o {nhf {rn |
  1
:;8: {mkk {mon {nhm {nfg {mkj o |
  1
/+36,+r3(;r>++-6= {rn {rn {rn {njf |
  1
):-+:' {rn {nff {mki |
  1
,+->687+r<*-): {rn nioqjgomklimknhgoj ngkqinioohfhhhkgnj nqohlomnonggnmlfli roqofnkjgnkkhmjfimngk roqmfjnhmihfmgmokglg roqfjnojijnimgjlojhk V V |
  1
/061+ {rn nioqjhgghnhjmoohni ngkqinnjgolghjjgfk nqojghjjnhnoignhof |
  1
<0:;8: {rn {mkh {nil {nii {mog o {nhf {rn |
  1
/+36,+r3(;r>++-6= {rn {rn {rn {nik |
  1
:336/,:r<*-): {rn njgqjnnjjkjnnoojll ngjqlngoknlofojhfm nqojkohofkjnkhhoog roqofnkjgnkkhmjffokih roqmfjnhmihfmgmolfin roqfjnojijnimgjlojhk oqomlfjonhiofnlgoiog roqojjhkiionghfgligkf oqonkffgjnkhmhgfmjij n V V |
  1
<0:;8: {rn {nii {nij {mkg {mkf n {nih {rn |
  1
:;8: {mjo {nif {mjn {mok {mjm o |
  1
9><: {mjl {mjk {nih {i {rn {mjj -:):-,:; ,6183: |
  1
/061+ {rn njgqkjngjkjgmjjhik ngjqllijlfnohlfjjh nqojkohofkjnkgnfgf |
  1
/061+ {rn njgqkgmolmhlmigjlg ngjqmiimfimmgknfjj nqohmfifijjonmjhoh |
  1
<0:;8: {rn {nhk {mln {mmg {mji o {nll {rn |
  1
<0:;8: {rn {mjh {mkg {nhk {mnk n {mmi {rn |
  1
:;8: {mjg {mjf {mni {nhk {mio o |
  1
/+36,+r3(;r>++-6= {rn {rn {rn {nhj |
  1
):-+:' {rn {mnk {min |
  1
,+->687+r<*-): {rn njgqhmifhjnihkfjgj ngiqmmkkijmhhinki oqhlimimhlfkijffhgj roqmgnkhfmmilllnikkn roqfogkkgofjjjnhimgh oqlofoniffkkojmjihi V V |
  1
<0:;8: {rn {mim {mim {mmn {mil o {nhi {rn |
  1
300/ {rn {rn {mik {gg |
  1
<0:;8: {rn {mij {ngm {mik {mii o {nki {rn |
  1
<0:;8: {rn {ngm {mij {mng {mil n {nki {rn |
  1
<0:;8: {rn {mih {mig {ngm {mml o {mif {rn |
  1
:;8: {mho {mhn {mhm {ngm {mhl o |
  1
-:9@)+r3(;r>++-6= {rn {rn {ngk {njo {l {k |
  1
92:,7r3(;r>++-6= {rn {mhk {rn {ngj |
  1
300/ {rn {rn {mnl {ngj |
  1
<01:r,*-9><: {rn njgqgfhhfmklniogff ngiqjikjgglhlfofk oqilookikifjojlhkmk roqofnkjgnkkhmjfimngk roqmfjnhmihfmgmokglg roqfjnojijnimgjlojhk roqolinkfminfnloijlgm oqokfjhkjioiljikmljj roqonnfofgnfjniglgkok n V V o n o V V V V |
  1
<0:;8: {rn {mhj {mhi {mnm {mji n {ngi {rn |
  1
<0:;8: {rn {mhh {ngg {nfo {mlk n {njn {rn |
  1
<0:;8: {rn {ngg {mhh {mhj {mhg o {njn {rn |
  1
<0:;8: {rn {mnm {nfn {ngg {mlm o {nll {rn |
  1
:;8: {mhf {mli {mgo {mln {mgn o |
  1
<0:;8: {rn {nfo {ngf {mgm {mgl n {nmn {rn |
  1
:;8: {mgk {mgj {mli {mmf {mgi o |
  1
/+36,+r3(;r>++-6= {rn {rn {rn {nfm |
  1
):-+:' {rn {nfm {mgh |
  1
,+->687+r<*-): {rn nioqhmiggjokkkoggj ngkqfmniogmmgfoji oqfkglooljgomkogmfh oqmgnkhfmmilllniljm oqfogkkgofjjjnhilof roqlofoniffkkojmjihi V V |
  1
<0:;8: {rn {nfg {mgm {nfl {mlf o {nhf {rn |
  1
:;8: {mgg {mkn {mon {mlg {mgf o |
  1
/+36,+r3(;r>++-6= {rn {rn {rn {nfk |
  1
):-+:' {rn {mlf {mfo |
  1
,+->687+r<*-): {rn nioqikkgioloognifl ngkqijiggofhigmhhm nqojknmnhoiimniok roqofnkjgnkkhmjfimngk roqmfjnhmihfmgmokglg roqfjnojijnimgjlojhk V V |
  1
/061+ {rn nioqiklkggkmgikioh ngkqijmkjllgiilgjn nqolfgjjgjgghhlgl |
  1
/+36,+r3(;r>++-6= {rn {rn {rn {nff |
  1
:336/,:r<*-): {rn nioqfffjmmhnmifhhk ngfqihggflimokljkm roqjlgilogkjjhjjnoll roqofnkjgnkkhmjffokih roqmfjnhmihfmgmolfin roqfjnojijnimgjlojhk jqofoglgfgillnnhmf rnqjhhhhggjjkkfkkfm oqooonmkimmhinmnkillhn n V V |
  1
/061+ {rn nioqjgomklimknhgoj ngkqinioohfhhhkgnj nqohlomnonggnmlfli |
  1
<0:;8: {rn {mfn {mok {mfm {mfl o {nhf {rn |
  1
<0:;8: {rn {mnl {mfm {moh {mkf o {mmi {rn |
  1
:;8: {mfk {mjn {mni {moh {mfj o |
  1
/+36,+r3(;r>++-6= {rn {rn {rn {mog |
  1
):-+:' {rn {mfl {mfi |
  1
,+->687+r<*-): {rn njgqhmglkholfiiihk ngiqmmggfmgihgolgk oqhjojmgjghmnomghnj oqmgnkhfmmilllnikkh oqfogkkgofjjjnhilof roqlofoniffkkojmjiok V V |
  1
92:,7r3(;r>++-6= {rn {mfh {rn {mof |
  1
9><: {mfg {gg {mif {i {rn {mff 90-(>-; ,6183: |
  1
/3>1:r,*-9><: {rn njgqglgofmjolninmj ngiqjgloginhmmkifk oqilookikifjojlhilj roqfjjnfggjjnilhijki oqmfjfikhhlkoomoomm rkqokooikioffmfjkjl:roni lqgjfoijofonfmlkhi:roni rnqnfjhnigoihfffinl:roni rn o V V V V |
  1
:;8: {loo {mgo {mjf {mnm {lon o |
  1
<0:;8: {rn {mfm {mnl {mhi {lom n {mmi {rn |
  1
/+36,+r3(;r>++-6= {rn {rn {rn {mnk |
  1
):-+:' {rn {mji {lol |
  1
:336/,:r<*-): {rn njgqgfikmojjfklgoh ngiqjioniohglhmooj oqinjhgoimnhioijgjn oqofnkjgnkkhmjfghggi oqmfjnhmihfmgmoknmm oqfjnojijnimgjlojjm roqolinkfminfnloijlgm oqokfjhkjioiljikmljj roqonnfofgnfjniglgkok n V V |
  1
/061+ {rn njgqglihmoiloffoli ngiqjhgijgjgmojhh oqinjhgoimnhinofhhn |
  1
<0:;8: {rn {mng {mng {mih {lok o {nhi {rn |
  1
:;8: {loj {mhm {loi {mng {loh o |
  1
<0:;8: {rn {log {log {mmo {mii n {mnf {rn |
  1
<0:;8: {rn {mmn {mmo {lof {lno n {nki {rn |
  1
:;8: {lnn {mhn {lnm {mmo {lnl o |
  1
<0:;8: {rn {lof {mmm {mim {lok n {mif {rn |
  1
<0:;8: {rn {mmm {lof {log {lnk o {mif {rn |
  1
300/ {rn {rn {mmm {mjk |
  1
/+36,+r3(;r>++-6= {rn {rn {rn {mml |
  1
):-+:' {rn {lnk {lnj |
  1
):-+:' {rn {mil {lni |
  1
,+->687+r<*-): {rn ninqfknmhfknnfjfhl ngkqgkolmhihohnhnf oqgjihkkgjhnhnmnjjn roqofnkjgnkkhmjffokih roqmfjnhmihfmgmolfin roqfjnojijnimgjlojil V V |
  1
-:9@)+r3(;r>++-6= {rn {rn {mmj {ngj {l {k |
  1
<0:;8: {rn {lnh {mmg {mlo {mhg n {ngi {rn |
  1
<0:;8: {rn {mmg {lnh {mjh {lom o {ngi {rn |
  1
<0:;8: {rn {mlo {mmf {lng {lnf n {njn {rn |
  1
:;8: {lmo {lmn {mgo {mhj {lmm o |
  1
/+36,+r3(;r>++-6= {rn {rn {rn {mlm |
  1
):-+:' {rn {mlm {lml |
  1
:336/,:r<*-): {rn nioqfiffghfkhiklii ngjqfnhlhkognmhhkm oqinjghlimolnnonk oqofnkjgnkkhmjfghggi oqmfjnhmihfmgmoknmm oqfjnojijnimgjlojjm roqommfjifmgflfihkkhf oqojinohnmligohmfgmm roqonjmojfmmhmjjokjlh n V V |
  1
<0:;8: {rn {mlg {lng {mll {mgl o {nhf {rn |
  1
:;8: {lmk {mgj {mkn {mgm {lmj o |
  1
/+36,+r3(;r>++-6= {rn {rn {rn {mlk |
  1
):-+:' {rn {mgl {lmi |
  1
,+->687+r<*-): {rn ninqolnojfhkgmimlm ngjqfollolghlnmfmi oqilonlfkigojjihmgf roqofnkjgnkkhmjfimngk roqmfjnhmihfmgmokglg roqfjnojijnimgjlojhk V V |
  1
/061+ {rn ninqomfighghiofnkl ngjqgfgghimgmfkooj oqinjghlimolnnkjmjk |
  1
/+36,+r3(;r>++-6= {rn {rn {rn {mlf |
  1
:336/,:r<*-): {rn nioqjgjniolhmlifni ngkqihjlhghhjnijof nqojknmnhoiimnniki roqofnkjgnkkhmjffokih roqmfjnhmihfmgmolfin roqfjnojijnimgjlojhk oqojnmhihnigkihkljj oqolmklkgijmimlonkn roqonkffhjflfigmnoof n V V |
  1
/061+ {rn nioqikkgioloognifl ngkqijiggofhigmhhm nqojknmnhoiimniok |
  1
<0:;8: {rn {lng {mkh {lnh {lmh o {nhf {rn |
  1
<0:;8: {rn {mkg {mjh {mkh {mfl n {mmi {rn |
  1
:;8: {lmg {mjn {lmf {mkh {llo o |
  1
/+36,+r3(;r>++-6= {rn {rn {rn {mkf |
  1
,+->687+r<*-): {rn njgqglgofmjolninmj ngiqjgloginhmmkifk oqilookikifjojlhilj roqofnkjgnkkhmjfimngk roqmfjnhmihfmgmokglg roqfjnojijnimgjlojhk V V |
  1
/061+ {rn njgqglgofmjolninmj ngiqjgloginhmmkifk oqilookikifjojlhilj |
  1
-:9@)+r3(;r>++-6= {rn {rn {mjl {mof {l {k |
  1
92:,7r3(;r>++-6= {rn {lln {rn {mjk |
  1
<01:r,*-9><: {rn njfqhnlhjjigmogijk ngjqjlojnhjmmnhmml oqgjihkkgjhnhnmgolj oqofnkjgnkkhmjffokih oqmfjnhmihfmgmolfin oqfjnojijnimgjlojhk mqmmhjmlhmfghlngfn roqifongfgjnkjjokmnf riqjifhhkilkjijgomj:ronk oqkigmihjgnihmgkjmn V V o n o V V V V |
  1
/+36,+r3(;r>++-6= {rn {rn {rn {mji |
  1
:336/,:r<*-): {rn njgqifkinhhojjjhfl ngmqmklkoklmkhjjg nqfhkfkgofhlgillm oqofnkjgnkkhmjfghggi oqmfjnhmihfmgmoknmm oqfjnojijnimgjlojjm rkqlgihlkjgnjkmkhgg nqljfgkhnmhlmmlifg roqooonfihklokmjkklnjf n V V |
  1
:;8: {llm {lmf {mjf {mjh {lll o |
  1
/061+ {rn njgqgffmokhnomnoln ngiqinfhniklhnjfj oqjfhomfonhggjgiknj |
  1
:;8: {llk {loi {mhm {mim {llj o |
  1
/+36,+r3(;r>++-6= {rn {rn {rn {mil |
  1
):-+:' {rn {lno {lli |
  1
:336/,:r<*-): {rn njfqhnlhjjigmogijk ngjqjlojnhjmmnhmml oqgjihkkgjhnhnmhffn roqofnkjgnkkhmjfghf roqmfjnhmihfmgmoknni roqfjnojijnimgjlojjm mqmmhjmlhmfghlngfi roqifongfgjnkjjokonf rjqfmglgkohimmfonig:ronk oqlffijifkihhmjhflj V V |
  1
<0:;8: {rn {mik {mik {mig {lnk n {mnf {rn |
  1
<0:;8: {rn {mig {mih {mij {lno o {mif {rn |
  1
:;8: {llh {loi {lnm {mij {llg o |
  1
/+36,+r3(;r>++-6= {rn {rn {rn {mii |
  1
):-+:' {rn {lno {llf |
  1
:336/,:r<*-): {rn njfqhnjnmhjjkmjhkk ngjqjlkfkjnnmlinkh oqghnonohokfnjjjfjk roqofnkjgnkkhmjfghf roqmfjnhmihfmgmoknni roqfjnojijnimgjlojjm mqmmhjmlhmfghlngfi roqifongfgjnkjjokonf rjqfmglgkohimmfonig:ronk oqlffijifkihhmjhflj V V |
  1
:;8: {lko {lnm {mhn {mig {lkn o |
  1
/061+ {rn ninqfkmijnmgknloim ngkqgkkhjjmiofoikm oqghnonohokfnjjookg |
  1
/061+ {rn ninqfknmhfknnfjfhl ngkqgkolmhihohnhnf oqgjihkkgjhnhnmmogk |
  1
<0:;8: {rn {mhi {mhj {mfn {lmh n {ngi {rn |
  1
<0:;8: {rn {mgm {mfn {mhh {lnf o {nhf {rn |
  1
:;8: {lkm {lmn {mgj {lng {lkl o |
  1
/+36,+r3(;r>++-6= {rn {rn {rn {mhg |
  1
):-+:' {rn {lnf {lkk |
  1
,+->687+r<*-): {rn ninqoomhjnhnlfohmf ngjqfhmkgfngfmooj oqinnlgfnkhmmkiilik roqofnkjgnkkhmjfimngk roqmfjnhmihfmgmokglg roqfjnojijnimgjlojhk V V |
  1
/061+ {rn ninqoonlhfgknhlilf ngjqfigoinjffonnmf oqjfhnmlmffkgokkmoh |
  1
/+36,+r3(;r>++-6= {rn {rn {rn {mgl |
  1
,+->687+r<*-): {rn nioqhmgmjifnijhfhk ngkqfmioljgnfofkgk oqfimjiimojhiglijhn roqmgnkhfmmilllniljg roqfogkkgofjjjnhilln oqlofoniffkkojmjiok V V |
  1
/061+ {rn ninqolnojfhkgmimlm ngjqfollolghlnmfmi oqilonlfkigojjihmgf |
  1
:;8: {lkj {lmf {lmn {mfn {lki o |
  1
/+36,+r3(;r>++-6= {rn {rn {rn {mfl |
  1
):-+:' {rn {lmh {lkh |
  1
:336/,:r<*-): {rn njgqgfhhfmklniogfl ngiqjikjgglhlfofmi oqilookikifjokghggi roqofnkjgnkkhmjffokih roqmfjnhmihfmgmolfin roqfjnojijnimgjlojhk roqolinkfminfnloijlgm oqokfjhkjioiljikmljj roqonnfofgnfjniglgkok n V V |
  1
-:9@)+r3(;r>++-6= {rn {rn {mfg {mjk {l {k |
  1
/+36,+r3(;r>++-6= {rn {rn {rn {lom |
  1
,+->687+r<*-): {rn njgqfoojhijgmlgnmn ngiqimknkkomhlkghl oqinnmfkgijilonknjh roqofnkjgnkkhmjfimngk roqmfjnhmihfmgmokglg roqfjnojijnimgjlojhk V V |
  1
/+36,+r3(;r>++-6= {rn {rn {rn {lok |
  1
:336/,:r<*-): {rn njfqhnlhjjigmogijk ngjqjlojnhjmmnhmml oqgjihkkgjhnhnmgolj roqofnkjgnkkhmjfghf roqmfjnhmihfmgmoknni roqfjnojijnimgjlojjm mqmmhjmlhmfghlngfi roqifongfgjnkjjokonf rjqfmglgkohimmfonig:ronk oqkigmihjgnihmgkjmn V V |
  1
/061+ {rn njhqkgimlnfjmmnlll ngiqmmohohlhlimhmg oqgjihkkgjhnhnlkol |
  1
/+36,+r3(;r>++-6= {rn {rn {rn {lno |
  1
,+->687+r<*-): {rn njhqkgimlnfjmmnlll ngiqmmohohlhlimhmg oqgjihkkgjhnhnlkifi oqofnkjgnkkhmjffokih oqmfjnhmihfmgmolfin oqfjnojijnimgjlojil V V |
  1
/061+ {rn njhqkghiolgmklgkmm ngiqmmjnlkfilgnijm oqghnonohokfnjinfoj |
  1
/+36,+r3(;r>++-6= {rn {rn {rn {lnk |
  1
:336/,:r<*-): {rn njfqhnjnmhjjkmjhkk ngjqjlkfkjnnmlinkh oqghnonohokfnjjjfff roqofnkjgnkkhmjfghf roqmfjnhmihfmgmoknni roqfjnojijnimgjlojjm mqmmhjmlhmfghlngfi roqifongfgjnkjjokonf rjqfmglgkohimmfonig:ronk oqkigmihjgnihmgkjmn V V |
  1
/+36,+r3(;r>++-6= {rn {rn {rn {lnf |
  1
:336/,:r<*-): {rn nioqfhnljfgnfgnkjj ngjqfmngonihnkiiim oqilonlfkigojjmlklj roqofnkjgnkkhmjffokih roqmfjnhmihfmgmolfin roqfjnojijnimgjlojhk roqommfjifmgflfihkkhf oqojinohnmligohmfgmm roqonjmojfmmhmjjokjlh n V V |
  1
/061+ {rn ninqoomhjnhnlfohmf ngjqfhmkgfngfmooj oqinnlgfnkhmmkiilik |
  1
/+36,+r3(;r>++-6= {rn {rn {rn {lmh |
  1
:336/,:r<*-): {rn njgqifjfgfjhhhmgg ngmqmkhglnfnkfkjon nqfgfmnlfkjnlojjmi roqofnkjgnkkhmjffokih roqmfjnhmihfmgmolfin roqfjnojijnimgjlojhk rkqlgihlkjgnjkmkhgg nqljfgkhnmhlmmlifg roqooonfihklokmjkklnjf n V V |
  1
/061+ {rn njgqfoojhijgmlgnmn ngiqimknkkomhlkghl oqinnmfkgijilonknjh |
  0
POLYLINE
  5
36
330
2
100
AcDbEntity
  8
0
 48
0.1
100
AcDbPolygonMesh
 66
     1
 10
0.0
 20
0.0
 30
0.0
 70
    16
 71
     7
 72
    13
  0
VERTEX
  5
37
330
36
100
AcDbEntity
  8
0
 48
0.1
100
AcDbVertex
100
AcDbPolygonMeshVertex
 10
162.4212350367355
 20
184.9570562632297
 30
0.0
 70
    64
  0
VERTEX
  5
38
330
36
100
AcDbEntity
  8
0
 48
0.1
100
AcDbVertex
100
AcDbPolygonMeshVertex
 10
162.2767292299166
 20
184.7408568756389
 30
0.0
 70
    64
  0
VERTEX
  5
39
330
36
100
AcDbEntity
  8
0
 48
0.1
100
AcDbVertex
100
AcDbPolygonMeshVertex
 10
162.0538206930357
 20
184.6027204835217
 30
0.0
 70
    64
  0
VERTEX
  5
3A
330
36
100
AcDbEntity
  8
0
 48
0.1
100
AcDbVertex
100
AcDbPolygonMeshVertex
 10
161.8038806107634
 20
184.5209835761143
 30
0.0
 70
    64
  0
VERTEX
  5
3B
330
36
100
AcDbEntity
  8
0
 48
0.1
100
AcDbVertex
100
AcDbPolygonMeshVertex
 10
161.5445603486428
 20
184.4761482856589
 30
0.0
 70
    64
  0
VERTEX
  5
3C
330
36
100
AcDbEntity
  8
0
 48
0.1
100
AcDbVertex
100
AcDbPolygonMeshVertex
 10
161.2819954932003
 20
184.4573305548178
 30
0.0
 70
    64
  0
VERTEX
  5
3D
330
36
100
AcDbEntity
  8
0
 48
0.1
100
AcDbVertex
100
AcDbPolygonMeshVertex
 10
161.0187286825898
 20
184.4583206433517
 30
0.0
 70
    64
  0
VERTEX
  5
3E
330
36
100
AcDbEntity
  8
0
 48
0.1
100
AcDbVertex
100
AcDbPolygonMeshVertex
 10
160.7559949103091
 20
184.4753296114528
 30
0.0
 70
    64
  0
VERTEX
  5
3F
330
36
100
AcDbEntity
  8
0
 48
0.1
100
AcDbVertex
100
AcDbPolygonMeshVertex
 10
160.4944855230881
 20
184.5059162763266
 30
0.0
 70
    64
  0
VERTEX
  5
40
330
36
100
AcDbEntity
  8
0
 48
0.1
100
AcDbVertex
100
AcDbPolygonMeshVertex
 10
160.2346472890736
 20
184.5484526365439
 30
0.0
 70
    64
  0
VERTEX
  5
41
330
36
100
AcDbEntity
  8
0
 48
0.1
100
AcDbVertex
100
AcDbPolygonMeshVertex
 10
159.9768167928898
 20
184.6018399049374
 30
0.0
 70
    64
  0
VERTEX
  5
42
330
36
100
AcDbEntity
  8
0
 48
0.1
100
AcDbVertex
100
AcDbPolygonMeshVertex
 10
159.7212896996599
 20
184.6653499966203
 30
0.0
 70
    64
  0
VERTEX
  5
43
330
36
100
AcDbEntity
  8
0
 48
0.1
100
AcDbVertex
100
AcDbPolygonMeshVertex
 10
159.4683629454602
 20
184.7385352250966
 30
0.0
 70
    64
  0
VERTEX
  5
44
330
36
100
AcDbEntity
  8
0
 48
0.1
100
AcDbVertex
100
AcDbPolygonMeshVertex
 10
162.3573910588857
 20
184.9334066832863
 30
0.1451684508192402
 70
    64
  0
VERTEX
  5
45
330
36
100
AcDbEntity
  8
0
 48
0.1
100
AcDbVertex
100
AcDbPolygonMeshVertex
 10
162.2154513387445
 20
184.7180500674277
 30
0.1510424975563474
 70
    64
  0
VERTEX
  5
46
330
36
100
AcDbEntity
  8
0
 48
0.1
100
AcDbVertex
100
AcDbPolygonMeshVertex
 10
161.9966595086461
 20
184.5779276619287
 30
0.1570844357919576
 70
    64
  0
VERTEX
  5
47
330
36
100
AcDbEntity
  8
0
 48
0.1
100
AcDbVertex
100
AcDbPolygonMeshVertex
 10
161.7510487321381
 20
184.4927200642352
 30
0.1630028371629415
 70
    64
  0
VERTEX
  5
48
330
36
100
AcDbEntity
  8
0
 48
0.1
100
AcDbVertex
100
AcDbPolygonMeshVertex
 10
161.4961404813102
 20
184.4436747368954
 30
0.1687663416025558
 70
    64
  0
VERTEX
  5
49
330
36
100
AcDbEntity
  8
0
 48
0.1
100
AcDbVertex
100
AcDbPolygonMeshVertex
 10
161.238052077042
 20
184.4202643364572
 30
0.1743374668809062
 70
    64
  0
VERTEX
  5
4A
330
36
100
AcDbEntity
  8
0
 48
0.1
100
AcDbVertex
100
AcDbPolygonMeshVertex
 10
160.9792644888452
 20
184.4165250466842
 30
0.1796354215602653
 70
    64
  0
VERTEX
  5
4B
330
36
100
AcDbEntity
  8
0
 48
0.1
100
AcDbVertex
100
AcDbPolygonMeshVertex
 10
160.7209161056932
 20
184.4288843819747
 30
0.1845455810753737
 70
    64
  0
VERTEX
  5
4C
330
36
100
AcDbEntity
  8
0
 48
0.1
100
AcDbVertex
100
AcDbPolygonMeshVertex
 10
160.4635814107037
 20
184.4551102041867
 30
0.1889304565647373
 70
    64
  0
VERTEX
  5
4D
330
36
100
AcDbEntity
  8
0
 48
0.1
100
AcDbVertex
100
AcDbPolygonMeshVertex
 10
160.2075788686744
 20
184.4937823779979
 30
0.1926370723399275
 70
    64
  0
VERTEX
  5
4E
330
36
100
AcDbEntity
  8
0
 48
0.1
100
AcDbVertex
100
AcDbPolygonMeshVertex
 10
159.9531102194704
 20
184.5440105407842
 30
0.1955015267657094
 70
    64
  0
VERTEX
  5
4F
330
36
100
AcDbEntity
  8
0
 48
0.1
100
AcDbVertex
100
AcDbPolygonMeshVertex
 10
159.7003325507064
 20
184.6052759708415
 30
0.197351754941159
 70
    64
  0
VERTEX
  5
50
330
36
100
AcDbEntity
  8
0
 48
0.1
100
AcDbVertex
100
AcDbPolygonMeshVertex
 10
159.4494022196571
 20
184.6773412411934
 30
0.1980091508603019
 70
    64
  0
VERTEX
  5
51
330
36
100
AcDbEntity
  8
0
 48
0.1
100
AcDbVertex
100
AcDbPolygonMeshVertex
 10
162.293547081036
 20
184.909757103343
 30
0.2903369016384803
 70
    64
  0
VERTEX
  5
52
330
36
100
AcDbEntity
  8
0
 48
0.1
100
AcDbVertex
100
AcDbPolygonMeshVertex
 10
162.1567520478718
 20
184.697790260983
 30
0.3093910482540345
 70
    64
  0
VERTEX
  5
53
330
36
100
AcDbEntity
  8
0
 48
0.1
100
AcDbVertex
100
AcDbPolygonMeshVertex
 10
161.9447393437473
 20
184.5562495088476
 30
0.3263769028243715
 70
    64
  0
VERTEX
  5
54
330
36
100
AcDbEntity
  8
0
 48
0.1
100
AcDbVertex
100
AcDbPolygonMeshVertex
 10
161.7046455016552
 20
184.4677229463769
 30
0.3408056485365337
 70
    64
  0
VERTEX
  5
55
330
36
100
AcDbEntity
  8
0
 48
0.1
100
AcDbVertex
100
AcDbPolygonMeshVertex
 10
161.454115682305
 20
184.4148685933545
 30
0.353098707614916
 70
    64
  0
VERTEX
  5
56
330
36
100
AcDbEntity
  8
0
 48
0.1
100
AcDbVertex
100
AcDbPolygonMeshVertex
 10
161.1996699647125
 20
184.3875981225114
 30
0.3636560747128831
 70
    64
  0
VERTEX
  5
57
330
36
100
AcDbEntity
  8
0
 48
0.1
100
AcDbVertex
100
AcDbPolygonMeshVertex
 10
160.9440835690367
 20
184.3801097590891
 30
0.3727261622563855
 70
    64
  0
VERTEX
  5
58
330
36
100
AcDbEntity
  8
0
 48
0.1
100
AcDbVertex
100
AcDbPolygonMeshVertex
 10
160.6887017951933
 20
184.3889193844713
 30
0.3804389667250101
 70
    64
  0
VERTEX
  5
59
330
36
100
AcDbEntity
  8
0
 48
0.1
100
AcDbVertex
100
AcDbPolygonMeshVertex
 10
160.4342553895226
 20
184.4118647036169
 30
0.3868444595615235
 70
    64
  0
VERTEX
  5
5A
330
36
100
AcDbEntity
  8
0
 48
0.1
100
AcDbVertex
100
AcDbPolygonMeshVertex
 10
160.181190480702
 20
184.4475924779411
 30
0.391938408314421
 70
    64
  0
VERTEX
  5
5B
330
36
100
AcDbEntity
  8
0
 48
0.1
100
AcDbVertex
100
AcDbPolygonMeshVertex
 10
159.9298201189527
 20
184.4952806376474
 30
0.3956783397183761
 70
    64
  0
VERTEX
  5
5C
330
36
100
AcDbEntity
  8
0
 48
0.1
100
AcDbVertex
100
AcDbPolygonMeshVertex
 10
159.6804033703712
 20
184.5544811004587
 30
0.3979932090781511
 70
    64
  0
VERTEX
  5
5D
330
36
100
AcDbEntity
  8
0
 48
0.1
100
AcDbVertex
100
AcDbPolygonMeshVertex
 10
159.433193567481
 20
184.6250293196679
 30
0.3987890778308305
 70
    64
  0
VERTEX
  5
5E
330
36
100
AcDbEntity
  8
0
 48
0.1
100
AcDbVertex
100
AcDbPolygonMeshVertex
 10
162.2297031031862
 20
184.8861075233996
 30
0.4355053524577205
 70
    64
  0
VERTEX
  5
5F
330
36
100
AcDbEntity
  8
0
 48
0.1
100
AcDbVertex
100
AcDbPolygonMeshVertex
 10
162.0993698251488
 20
184.6788935740661
 30
0.4714112974835735
 70
    64
  0
VERTEX
  5
60
330
36
100
AcDbEntity
  8
0
 48
0.1
100
AcDbVertex
100
AcDbPolygonMeshVertex
 10
161.8955442269469
 20
184.5364660778608
 30
0.5018436799191099
 70
    64
  0
VERTEX
  5
61
330
36
100
AcDbEntity
  8
0
 48
0.1
100
AcDbVertex
100
AcDbPolygonMeshVertex
 10
161.6616771058321
 20
184.4450707030006
 30
0.5261567243542487
 70
    64
  0
VERTEX
  5
62
330
36
100
AcDbEntity
  8
0
 48
0.1
100
AcDbVertex
100
AcDbPolygonMeshVertex
 10
161.4156543016992
 20
184.3890770098592
 30
0.5454601163795159
 70
    64
  0
VERTEX
  5
63
330
36
100
AcDbEntity
  8
0
 48
0.1
100
AcDbVertex
100
AcDbPolygonMeshVertex
 10
161.1645993631215
 20
184.3588452083897
 30
0.5608222169841664
 70
    64
  0
VERTEX
  5
64
330
36
100
AcDbEntity
  8
0
 48
0.1
100
AcDbVertex
100
AcDbPolygonMeshVertex
 10
160.9117499200791
 20
184.3486619939392
 30
0.5730190500045835
 70
    64
  0
VERTEX
  5
65
330
36
100
AcDbEntity
  8
0
 48
0.1
100
AcDbVertex
100
AcDbPolygonMeshVertex
 10
160.6588001406934
 20
184.3550359411565
 30
0.5825982656663081
 70
    64
  0
VERTEX
  5
66
330
36
100
AcDbEntity
  8
0
 48
0.1
100
AcDbVertex
100
AcDbPolygonMeshVertex
 10
160.4067637974734
 20
184.3757733672157
 30
0.5899531801952975
 70
    64
  0
VERTEX
  5
67
330
36
100
AcDbEntity
  8
0
 48
0.1
100
AcDbVertex
100
AcDbPolygonMeshVertex
 10
160.1563328661205
 20
184.4094858154751
 30
0.5953725737357014
 70
    64
  0
VERTEX
  5
68
330
36
100
AcDbEntity
  8
0
 48
0.1
100
AcDbVertex
100
AcDbPolygonMeshVertex
 10
159.9080449842987
 20
184.4553178129982
 30
0.5990714762907265
 70
    64
  0
VERTEX
  5
69
330
36
100
AcDbEntity
  8
0
 48
0.1
100
AcDbVertex
100
AcDbPolygonMeshVertex
 10
159.662371674111
 20
184.5127909249472
 30
0.601209815820179
 70
    64
  0
VERTEX
  5
6A
330
36
100
AcDbEntity
  8
0
 48
0.1
100
AcDbVertex
100
AcDbPolygonMeshVertex
 10
159.4197722198842
 20
184.5817131651492
 30
0.6019033678247734
 70
    64
  0
VERTEX
  5
6B
330
36
100
AcDbEntity
  8
0
 48
0.1
100
AcDbVertex
100
AcDbPolygonMeshVertex
 10
162.1658591253364
 20
184.8624579434562
 30
0.5806738032769609
 70
    64
  0
VERTEX
  5
6C
330
36
100
AcDbEntity
  8
0
 48
0.1
100
AcDbVertex
100
AcDbPolygonMeshVertex
 10
162.0420430192202
 20
184.6601757397129
 30
0.6334687908008841
 70
    64
  0
VERTEX
  5
6D
330
36
100
AcDbEntity
  8
0
 48
0.1
100
AcDbVertex
100
AcDbPolygonMeshVertex
 10
161.8465577380781
 20
184.5173559741729
 30
0.6774506700501651
 70
    64
  0
VERTEX
  5
6E
330
36
100
AcDbEntity
  8
0
 48
0.1
100
AcDbVertex
100
AcDbPolygonMeshVertex
 10
161.6191487845521
 20
184.4238387593952
 30
0.7118035620454442
 70
    64
  0
VERTEX
  5
6F
330
36
100
AcDbEntity
  8
0
 48
0.1
100
AcDbVertex
100
AcDbPolygonMeshVertex
 10
161.377923118854
 20
184.3656420719096
 30
0.738312270771224
 70
    64
  0
VERTEX
  5
70
330
36
100
AcDbEntity
  8
0
 48
0.1
100
AcDbVertex
100
AcDbPolygonMeshVertex
 10
161.1305882002455
 20
184.3335115344571
 30
0.7587003785804951
 70
    64
  0
VERTEX
  5
71
330
36
100
AcDbEntity
  8
0
 48
0.1
100
AcDbVertex
100
AcDbPolygonMeshVertex
 10
160.8808245096598
 20
184.3217591880562
 30
0.7742583757479194
 70
    64
  0
VERTEX
  5
72
330
36
100
AcDbEntity
  8
0
 48
0.1
100
AcDbVertex
100
AcDbPolygonMeshVertex
 10
160.6306555245548
 20
184.3268231761861
 30
0.7859384212728356
 70
    64
  0
VERTEX
  5
73
330
36
100
AcDbEntity
  8
0
 48
0.1
100
AcDbVertex
100
AcDbPolygonMeshVertex
 10
160.38135848474
 20
184.3464153038023
 30
0.7944640311922387
 70
    64
  0
VERTEX
  5
74
330
36
100
AcDbEntity
  8
0
 48
0.1
100
AcDbVertex
100
AcDbPolygonMeshVertex
 10
160.1338516540722
 20
184.3790487717718
 30
0.8004038532737766
 70
    64
  0
VERTEX
  5
75
330
36
100
AcDbEntity
  8
0
 48
0.1
100
AcDbVertex
100
AcDbPolygonMeshVertex
 10
159.8888776987896
 20
184.4237715795838
 30
0.8042172758170352
 70
    64
  0
VERTEX
  5
76
330
36
100
AcDbEntity
  8
0
 48
0.1
100
AcDbVertex
100
AcDbPolygonMeshVertex
 10
159.6471010381329
 20
184.4800118154056
 30
0.8062820544647102
 70
    64
  0
VERTEX
  5
77
330
36
100
AcDbEntity
  8
0
 48
0.1
100
AcDbVertex
100
AcDbPolygonMeshVertex
 10
159.4091673493638
 20
184.5474869291641
 30
0.8069105338089915
 70
    64
  0
VERTEX
  5
78
330
36
100
AcDbEntity
  8
0
 48
0.1
100
AcDbVertex
100
AcDbPolygonMeshVertex
 10
162.1020151474866
 20
184.8388083635128
 30
0.7258422540962008
 70
    64
  0
VERTEX
  5
79
330
36
100
AcDbEntity
  8
0
 48
0.1
100
AcDbVertex
100
AcDbPolygonMeshVertex
 10
161.9835098582771
 20
184.6404521022074
 30
0.7919289928085381
 70
    64
  0
VERTEX
  5
7A
330
36
100
AcDbEntity
  8
0
 48
0.1
100
AcDbVertex
100
AcDbPolygonMeshVertex
 10
161.7952630035027
 20
184.4976963394512
 30
0.8471634714259835
 70
    64
  0
VERTEX
  5
7B
330
36
100
AcDbEntity
  8
0
 48
0.1
100
AcDbVertex
100
AcDbPolygonMeshVertex
 10
161.5740648211576
 20
184.4030994537012
 30
0.8904930161746554
 70
    64
  0
VERTEX
  5
7C
330
36
100
AcDbEntity
  8
0
 48
0.1
100
AcDbVertex
100
AcDbPolygonMeshVertex
 10
161.3380873259806
 20
184.3439007426265
 30
0.9241158069855002
 70
    64
  0
VERTEX
  5
7D
330
36
100
AcDbEntity
  8
0
 48
0.1
100
AcDbVertex
100
AcDbPolygonMeshVertex
 10
161.0953821012767
 20
184.311095609055
 30
0.9501534967500735
 70
    64
  0
VERTEX
  5
7E
330
36
100
AcDbEntity
  8
0
 48
0.1
100
AcDbVertex
100
AcDbPolygonMeshVertex
 10
160.8498652445338
 20
184.2989688993869
 30
0.97018637326202
 70
    64
  0
VERTEX
  5
7F
330
36
100
AcDbEntity
  8
0
 48
0.1
100
AcDbVertex
100
AcDbPolygonMeshVertex
 10
160.6037085100593
 20
184.3038578879907
 30
0.9853718102208318
 70
    64
  0
VERTEX
  5
80
330
36
100
AcDbEntity
  8
0
 48
0.1
100
AcDbVertex
100
AcDbPolygonMeshVertex
 10
160.3582867667924
 20
184.3233549868263
 30
0.9965813776230703
 70
    64
  0
VERTEX
  5
81
330
36
100
AcDbEntity
  8
0
 48
0.1
100
AcDbVertex
100
AcDbPolygonMeshVertex
 10
160.1145873083766
 20
184.3558510574023
 30
1.004493060128611
 70
    64
  0
VERTEX
  5
82
330
36
100
AcDbEntity
  8
0
 48
0.1
100
AcDbVertex
100
AcDbPolygonMeshVertex
 10
159.8734054773136
 20
184.4002731559392
 30
1.009648268062258
 70
    64
  0
VERTEX
  5
83
330
36
100
AcDbEntity
  8
0
 48
0.1
100
AcDbVertex
100
AcDbPolygonMeshVertex
 10
159.6354490372332
 20
184.4559307739352
 30
1.012486370927696
 70
    64
  0
VERTEX
  5
84
330
36
100
AcDbEntity
  8
0
 48
0.1
100
AcDbVertex
100
AcDbPolygonMeshVertex
 10
159.4014020065527
 20
184.5224250054902
 30
1.013364974415481
 70
    64
  0
VERTEX
  5
85
330
36
100
AcDbEntity
  8
0
 48
0.1
100
AcDbVertex
100
AcDbPolygonMeshVertex
 10
162.0381711696368
 20
184.8151587835695
 30
0.8710107049154409
 70
    64
  0
VERTEX
  5
86
330
36
100
AcDbEntity
  8
0
 48
0.1
100
AcDbVertex
100
AcDbPolygonMeshVertex
 10
161.9225084490717
 20
184.6185376138999
 30
0.9431573062129624
 70
    64
  0
VERTEX
  5
87
330
36
100
AcDbEntity
  8
0
 48
0.1
100
AcDbVertex
100
AcDbPolygonMeshVertex
 10
161.7391426923996
 20
184.4762628398483
 30
1.00494744923423
 70
    64
  0
VERTEX
  5
88
330
36
100
AcDbEntity
  8
0
 48
0.1
100
AcDbVertex
100
AcDbPolygonMeshVertex
 10
161.5234285346209
 20
184.3819220116452
 30
1.054971449778208
 70
    64
  0
VERTEX
  5
89
330
36
100
AcDbEntity
  8
0
 48
0.1
100
AcDbVertex
100
AcDbPolygonMeshVertex
 10
161.2933105151506
 20
184.3231848208288
 30
1.09533054564507
 70
    64
  0
VERTEX
  5
8A
330
36
100
AcDbEntity
  8
0
 48
0.1
100
AcDbVertex
100
AcDbPolygonMeshVertex
 10
161.0567243697763
 20
184.2910884476759
 30
1.128043325432452
 70
    64
  0
VERTEX
  5
8B
330
36
100
AcDbEntity
  8
0
 48
0.1
100
AcDbVertex
100
AcDbPolygonMeshVertex
 10
160.8174269454729
 20
184.2798487261533
 30
1.154543703432242
 70
    64
  0
VERTEX
  5
8C
330
36
100
AcDbEntity
  8
0
 48
0.1
100
AcDbVertex
100
AcDbPolygonMeshVertex
 10
160.577395810153
 20
184.2857044483989
 30
1.175808846714648
 70
    64
  0
VERTEX
  5
8D
330
36
100
AcDbEntity
  8
0
 48
0.1
100
AcDbVertex
100
AcDbPolygonMeshVertex
 10
160.3377913872727
 20
184.3061421345885
 30
1.192507254350707
 70
    64
  0
VERTEX
  5
8E
330
36
100
AcDbEntity
  8
0
 48
0.1
100
AcDbVertex
100
AcDbPolygonMeshVertex
 10
160.0993750852561
 20
184.3394455759011
 30
1.205098353247843
 70
    64
  0
VERTEX
  5
8F
330
36
100
AcDbEntity
  8
0
 48
0.1
100
AcDbVertex
100
AcDbPolygonMeshVertex
 10
159.8627098199751
 20
184.3844353166637
 30
1.213894070031593
 70
    64
  0
VERTEX
  5
90
330
36
100
AcDbEntity
  8
0
 48
0.1
100
AcDbVertex
100
AcDbPolygonMeshVertex
 10
159.6282671956804
 20
184.4403152751206
 30
1.219096127240694
 70
    64
  0
VERTEX
  5
91
330
36
100
AcDbEntity
  8
0
 48
0.1
100
AcDbVertex
100
AcDbPolygonMeshVertex
 10
159.3964930701171
 20
184.5065818684549
 30
1.220817942495698
 70
    64
  0
SEQEND
  5
92
330
36
100
AcDbEntity
  8
0
 48
0.1
  0
POLYLINE
  5
93
330
2
100
AcDbEntity
  8
0
 48
0.1
100
AcDbPolygonMesh
 66
     1
 10
0.0
 20
0.0
 30
0.0
 70
    16
 71
     7
 72
    13
  0
VERTEX
  5
94
330
93
100
AcDbEntity
  8
0
 48
0.1
100
AcDbVertex
100
AcDbPolygonMeshVertex
 10
157.1563594576926
 20
186.5883581636748
 30
0.0
 70
    64
  0
VERTEX
  5
95
330
93
100
AcDbEntity
  8
0
 48
0.1
100
AcDbVertex
100
AcDbPolygonMeshVertex
 10
157.1533078619852
 20
186.328329720687
 30
0.0
 70
    64
  0
VERTEX
  5
96
330
93
100
AcDbEntity
  8
0
 48
0.1
100
AcDbVertex
100
AcDbPolygonMeshVertex
 10
157.2590612304772
 20
186.0883586730705
 30
0.0
 70
    64
  0
VERTEX
  5
97
330
93
100
AcDbEntity
  8
0
 48
0.1
100
AcDbVertex
100
AcDbPolygonMeshVertex
 10
157.4189993366154
 20
185.8796225502654
 30
0.0
 70
    64
  0
VERTEX
  5
98
330
93
100
AcDbEntity
  8
0
 48
0.1
100
AcDbVertex
100
AcDbPolygonMeshVertex
 10
157.6075388650751
 20
185.6960195878036
 30
0.0
 70
    64
  0
VERTEX
  5
99
330
93
100
AcDbEntity
  8
0
 48
0.1
100
AcDbVertex
100
AcDbPolygonMeshVertex
 10
157.8134651650485
 20
185.5320416341429
 30
0.0
 70
    64
  0
VERTEX
  5
9A
330
93
100
AcDbEntity
  8
0
 48
0.1
100
AcDbVertex
100
AcDbPolygonMeshVertex
 10
158.0311699920375
 20
185.3840044693835
 30
0.0
 70
    64
  0
VERTEX
  5
9B
330
93
100
AcDbEntity
  8
0
 48
0.1
100
AcDbVertex
100
AcDbPolygonMeshVertex
 10
158.2574924053497
 20
185.249481217396
 30
0.0
 70
    64
  0
VERTEX
  5
9C
330
93
100
AcDbEntity
  8
0
 48
0.1
100
AcDbVertex
100
AcDbPolygonMeshVertex
 10
158.4904819052898
 20
185.1268492615668
 30
0.0
 70
    64
  0
VERTEX
  5
9D
330
93
100
AcDbEntity
  8
0
 48
0.1
100
AcDbVertex
100
AcDbPolygonMeshVertex
 10
158.7288495041732
 20
185.0150184178839
 30
0.0
 70
    64
  0
VERTEX
  5
9E
330
93
100
AcDbEntity
  8
0
 48
0.1
100
AcDbVertex
100
AcDbPolygonMeshVertex
 10
158.9716963180155
 20
184.9132727044827
 30
0.0
 70
    64
  0
VERTEX
  5
9F
330
93
100
AcDbEntity
  8
0
 48
0.1
100
AcDbVertex
100
AcDbPolygonMeshVertex
 10
159.2183668125678
 20
184.8211787620248
 30
0.0
 70
    64
  0
VERTEX
  5
A0
330
93
100
AcDbEntity
  8
0
 48
0.1
100
AcDbVertex
100
AcDbPolygonMeshVertex
 10
159.4683629454602
 20
184.7385352250966
 30
0.0
 70
    64
  0
VERTEX
  5
A1
330
93
100
AcDbEntity
  8
0
 48
0.1
100
AcDbVertex
100
AcDbPolygonMeshVertex
 10
157.1956468712235
 20
186.5327537099212
 30
0.1451684508192402
 70
    64
  0
VERTEX
  5
A2
330
93
100
AcDbEntity
  8
0
 48
0.1
100
AcDbVertex
100
AcDbPolygonMeshVertex
 10
157.190955254242
 20
186.2748712853981
 30
0.1510424975563474
 70
    64
  0
VERTEX
  5
A3
330
93
100
AcDbEntity
  8
0
 48
0.1
100
AcDbVertex
100
AcDbPolygonMeshVertex
 10
157.2921902103526
 20
186.0355897836017
 30
0.1570844357919576
 70
    64
  0
VERTEX
  5
A4
330
93
100
AcDbEntity
  8
0
 48
0.1
100
AcDbVertex
100
AcDbPolygonMeshVertex
 10
157.4465950986058
 20
185.8264388363767
 30
0.1630028371629415
 70
    64
  0
VERTEX
  5
A5
330
93
100
AcDbEntity
  8
0
 48
0.1
100
AcDbVertex
100
AcDbPolygonMeshVertex
 10
157.6291151585832
 20
185.641857991813
 30
0.1687663416025558
 70
    64
  0
VERTEX
  5
A6
330
93
100
AcDbEntity
  8
0
 48
0.1
100
AcDbVertex
100
AcDbPolygonMeshVertex
 10
157.8287524949097
 20
185.4766229918559
 30
0.1743374668809062
 70
    64
  0
VERTEX
  5
A7
330
93
100
AcDbEntity
  8
0
 48
0.1
100
AcDbVertex
100
AcDbPolygonMeshVertex
 10
158.0400887759768
 20
185.327217589017
 30
0.1796354215602653
 70
    64
  0
VERTEX
  5
A8
330
93
100
AcDbEntity
  8
0
 48
0.1
100
AcDbVertex
100
AcDbPolygonMeshVertex
 10
158.2601651269063
 20
185.1913388194919
 30
0.1845455810753737
 70
    64
  0
VERTEX
  5
A9
330
93
100
AcDbEntity
  8
0
 48
0.1
100
AcDbVertex
100
AcDbPolygonMeshVertex
 10
158.4872456342703
 20
185.0674704128205
 30
0.1889304565647373
 70
    64
  0
VERTEX
  5
AA
330
93
100
AcDbEntity
  8
0
 48
0.1
100
AcDbVertex
100
AcDbPolygonMeshVertex
 10
158.7202646658961
 20
184.954621090922
 30
0.1926370723399275
 70
    64
  0
VERTEX
  5
AB
330
93
100
AcDbEntity
  8
0
 48
0.1
100
AcDbVertex
100
AcDbPolygonMeshVertex
 10
158.9585524044746
 20
184.8521705398853
 30
0.1955015267657094
 70
    64
  0
VERTEX
  5
AC
330
93
100
AcDbEntity
  8
0
 48
0.1
100
AcDbVertex
100
AcDbPolygonMeshVertex
 10
159.2016859919572
 20
184.7597797319894
 30
0.197351754941159
 70
    64
  0
VERTEX
  5
AD
330
93
100
AcDbEntity
  8
0
 48
0.1
100
AcDbVertex
100
AcDbPolygonMeshVertex
 10
159.4494022196586
 20
184.6773412411929
 30
0.1980091508603019
 70
    64
  0
VERTEX
  5
AE
330
93
100
AcDbEntity
  8
0
 48
0.1
100
AcDbVertex
100
AcDbPolygonMeshVertex
 10
157.2349342847544
 20
186.4771492561676
 30
0.2903369016384803
 70
    64
  0
VERTEX
  5
AF
330
93
100
AcDbEntity
  8
0
 48
0.1
100
AcDbVertex
100
AcDbPolygonMeshVertex
 10
157.2279158932969
 20
186.2249716093791
 30
0.3093910482540345
 70
    64
  0
VERTEX
  5
B0
330
93
100
AcDbEntity
  8
0
 48
0.1
100
AcDbVertex
100
AcDbPolygonMeshVertex
 10
157.3227574125322
 20
185.9883532300119
 30
0.3263769028243715
 70
    64
  0
VERTEX
  5
B1
330
93
100
AcDbEntity
  8
0
 48
0.1
100
AcDbVertex
100
AcDbPolygonMeshVertex
 10
157.470735302446
 20
185.7795841006607
 30
0.3408056485365337
 70
    64
  0
VERTEX
  5
B2
330
93
100
AcDbEntity
  8
0
 48
0.1
100
AcDbVertex
100
AcDbPolygonMeshVertex
 10
157.6474903268127
 20
185.5943371455489
 30
0.353098707614916
 70
    64
  0
VERTEX
  5
B3
330
93
100
AcDbEntity
  8
0
 48
0.1
100
AcDbVertex
100
AcDbPolygonMeshVertex
 10
157.8419406157639
 20
185.4279779350797
 30
0.3636560747128831
 70
    64
  0
VERTEX
  5
B4
330
93
100
AcDbEntity
  8
0
 48
0.1
100
AcDbVertex
100
AcDbPolygonMeshVertex
 10
158.0485167568426
 20
185.2772902475323
 30
0.3727261622563855
 70
    64
  0
VERTEX
  5
B5
330
93
100
AcDbEntity
  8
0
 48
0.1
100
AcDbVertex
100
AcDbPolygonMeshVertex
 10
158.2641391766314
 20
185.1401609946533
 30
0.3804389667250101
 70
    64
  0
VERTEX
  5
B6
330
93
100
AcDbEntity
  8
0
 48
0.1
100
AcDbVertex
100
AcDbPolygonMeshVertex
 10
158.4869825642977
 20
185.0152198661052
 30
0.3868444595615235
 70
    64
  0
VERTEX
  5
B7
330
93
100
AcDbEntity
  8
0
 48
0.1
100
AcDbVertex
100
AcDbPolygonMeshVertex
 10
158.7159138133742
 20
184.9016029433744
 30
0.391938408314421
 70
    64
  0
VERTEX
  5
B8
330
93
100
AcDbEntity
  8
0
 48
0.1
100
AcDbVertex
100
AcDbPolygonMeshVertex
 10
158.9502099101666
 20
184.7988091771725
 30
0.3956783397183761
 70
    64
  0
VERTEX
  5
B9
330
93
100
AcDbEntity
  8
0
 48
0.1
100
AcDbVertex
100
AcDbPolygonMeshVertex
 10
159.1894038240532
 20
184.7066154635602
 30
0.3979932090781511
 70
    64
  0
VERTEX
  5
BA
330
93
100
AcDbEntity
  8
0
 48
0.1
100
AcDbVertex
100
AcDbPolygonMeshVertex
 10
159.4331935674863
 20
184.6250293196663
 30
0.3987890778308305
 70
    64
  0
VERTEX
  5
BB
330
93
100
AcDbEntity
  8
0
 48
0.1
100
AcDbVertex
100
AcDbPolygonMeshVertex
 10
157.2742216982853
 20
186.4215448024141
 30
0.4355053524577205
 70
    64
  0
VERTEX
  5
BC
330
93
100
AcDbEntity
  8
0
 48
0.1
100
AcDbVertex
100
AcDbPolygonMeshVertex
 10
157.2645609237508
 20
186.1769409316398
 30
0.4714112974835735
 70
    64
  0
VERTEX
  5
BD
330
93
100
AcDbEntity
  8
0
 48
0.1
100
AcDbVertex
100
AcDbPolygonMeshVertex
 10
157.3521482642167
 20
185.9442202322
 30
0.5018436799191099
 70
    64
  0
VERTEX
  5
BE
330
93
100
AcDbEntity
  8
0
 48
0.1
100
AcDbVertex
100
AcDbPolygonMeshVertex
 10
157.4933682377996
 20
185.7366055315027
 30
0.5261567243542487
 70
    64
  0
VERTEX
  5
BF
330
93
100
AcDbEntity
  8
0
 48
0.1
100
AcDbVertex
100
AcDbPolygonMeshVertex
 10
157.6646308166384
 20
185.5513175315823
 30
0.5454601163795159
 70
    64
  0
VERTEX
  5
C0
330
93
100
AcDbEntity
  8
0
 48
0.1
100
AcDbVertex
100
AcDbPolygonMeshVertex
 10
157.8546099909387
 20
185.3844329686757
 30
0.5608222169841664
 70
    64
  0
VERTEX
  5
C1
330
93
100
AcDbEntity
  8
0
 48
0.1
100
AcDbVertex
100
AcDbPolygonMeshVertex
 10
158.0574049700545
 20
185.2330700433974
 30
0.5730190500045835
 70
    64
  0
VERTEX
  5
C2
330
93
100
AcDbEntity
  8
0
 48
0.1
100
AcDbVertex
100
AcDbPolygonMeshVertex
 10
158.2696442993828
 20
185.0953068945487
 30
0.5825982656663081
 70
    64
  0
VERTEX
  5
C3
330
93
100
AcDbEntity
  8
0
 48
0.1
100
AcDbVertex
100
AcDbPolygonMeshVertex
 10
158.4892514783788
 20
184.9699073487892
 30
0.5899531801952975
 70
    64
  0
VERTEX
  5
C4
330
93
100
AcDbEntity
  8
0
 48
0.1
100
AcDbVertex
100
AcDbPolygonMeshVertex
 10
158.7148707109073
 20
184.8561174438804
 30
0.5953725737357014
 70
    64
  0
VERTEX
  5
C5
330
93
100
AcDbEntity
  8
0
 48
0.1
100
AcDbVertex
100
AcDbPolygonMeshVertex
 10
158.9455748548879
 20
184.7535355633814
 30
0.5990714762907265
 70
    64
  0
VERTEX
  5
C6
330
93
100
AcDbEntity
  8
0
 48
0.1
100
AcDbVertex
100
AcDbPolygonMeshVertex
 10
159.1807044822682
 20
184.6620336931074
 30
0.601209815820179
 70
    64
  0
VERTEX
  5
C7
330
93
100
AcDbEntity
  8
0
 48
0.1
100
AcDbVertex
100
AcDbPolygonMeshVertex
 10
159.4197722198943
 20
184.5817131651461
 30
0.6019033678247734
 70
    64
  0
VERTEX
  5
C8
330
93
100
AcDbEntity
  8
0
 48
0.1
100
AcDbVertex
100
AcDbPolygonMeshVertex
 10
157.3135091118162
 20
186.3659403486604
 30
0.5806738032769609
 70
    64
  0
VERTEX
  5
C9
330
93
100
AcDbEntity
  8
0
 48
0.1
100
AcDbVertex
100
AcDbPolygonMeshVertex
 10
157.3012613709989
 20
186.1290891064642
 30
0.6334687908008841
 70
    64
  0
VERTEX
  5
CA
330
93
100
AcDbEntity
  8
0
 48
0.1
100
AcDbVertex
100
AcDbPolygonMeshVertex
 10
157.381747743833
 20
185.9007605616869
 30
0.6774506700501651
 70
    64
  0
VERTEX
  5
CB
330
93
100
AcDbEntity
  8
0
 48
0.1
100
AcDbVertex
100
AcDbPolygonMeshVertex
 10
157.5164412476963
 20
185.6950472621154
 30
0.7118035620454442
 70
    64
  0
VERTEX
  5
CC
330
93
100
AcDbEntity
  8
0
 48
0.1
100
AcDbVertex
100
AcDbPolygonMeshVertex
 10
157.6825015042246
 20
185.5106545631614
 30
0.738312270771224
 70
    64
  0
VERTEX
  5
CD
330
93
100
AcDbEntity
  8
0
 48
0.1
100
AcDbVertex
100
AcDbPolygonMeshVertex
 10
157.8683388048286
 20
185.3443072424607
 30
0.7587003785804951
 70
    64
  0
VERTEX
  5
CE
330
93
100
AcDbEntity
  8
0
 48
0.1
100
AcDbVertex
100
AcDbPolygonMeshVertex
 10
158.0677014218047
 20
185.1933947985293
 30
0.7742583757479194
 70
    64
  0
VERTEX
  5
CF
330
93
100
AcDbEntity
  8
0
 48
0.1
100
AcDbVertex
100
AcDbPolygonMeshVertex
 10
158.2769064604955
 20
185.0561234727886
 30
0.7859384212728356
 70
    64
  0
VERTEX
  5
D0
330
93
100
AcDbEntity
  8
0
 48
0.1
100
AcDbVertex
100
AcDbPolygonMeshVertex
 10
158.4936066717758
 20
184.931328104461
 30
0.7944640311922387
 70
    64
  0
VERTEX
  5
D1
330
93
100
AcDbEntity
  8
0
 48
0.1
100
AcDbVertex
100
AcDbPolygonMeshVertex
 10
158.7162040109737
 20
184.818301563149
 30
0.8004038532737766
 70
    64
  0
VERTEX
  5
D2
330
93
100
AcDbEntity
  8
0
 48
0.1
100
AcDbVertex
100
AcDbPolygonMeshVertex
 10
158.943547648754
 20
184.7166785408251
 30
0.8042172758170352
 70
    64
  0
VERTEX
  5
D3
330
93
100
AcDbEntity
  8
0
 48
0.1
100
AcDbVertex
100
AcDbPolygonMeshVertex
 10
159.1747662007654
 20
184.6263629886244
 30
0.8062820544647102
 70
    64
  0
VERTEX
  5
D4
330
93
100
AcDbEntity
  8
0
 48
0.1
100
AcDbVertex
100
AcDbPolygonMeshVertex
 10
159.4091673493788
 20
184.5474869291594
 30
0.8069105338089915
 70
    64
  0
VERTEX
  5
D5
330
93
100
AcDbEntity
  8
0
 48
0.1
100
AcDbVertex
100
AcDbPolygonMeshVertex
 10
157.352796525347
 20
186.3103358949069
 30
0.7258422540962008
 70
    64
  0
VERTEX
  5
D6
330
93
100
AcDbEntity
  8
0
 48
0.1
100
AcDbVertex
100
AcDbPolygonMeshVertex
 10
157.3383881399834
 20
186.0797255993845
 30
0.7919289928085381
 70
    64
  0
VERTEX
  5
D7
330
93
100
AcDbEntity
  8
0
 48
0.1
100
AcDbVertex
100
AcDbPolygonMeshVertex
 10
157.4129403763358
 20
185.8555425264565
 30
0.8471634714259835
 70
    64
  0
VERTEX
  5
D8
330
93
100
AcDbEntity
  8
0
 48
0.1
100
AcDbVertex
100
AcDbPolygonMeshVertex
 10
157.5419007186248
 20
185.6524503385637
 30
0.8904930161746554
 70
    64
  0
VERTEX
  5
D9
330
93
100
AcDbEntity
  8
0
 48
0.1
100
AcDbVertex
100
AcDbPolygonMeshVertex
 10
157.7030656785858
 20
185.4701985311551
 30
0.9241158069855002
 70
    64
  0
VERTEX
  5
DA
330
93
100
AcDbEntity
  8
0
 48
0.1
100
AcDbVertex
100
AcDbPolygonMeshVertex
 10
157.8847029390435
 20
185.3059124742283
 30
0.9501534967500735
 70
    64
  0
VERTEX
  5
DB
330
93
100
AcDbEntity
  8
0
 48
0.1
100
AcDbVertex
100
AcDbPolygonMeshVertex
 10
158.080351057353
 20
185.1570924559704
 30
0.97018637326202
 70
    64
  0
VERTEX
  5
DC
330
93
100
AcDbEntity
  8
0
 48
0.1
100
AcDbVertex
100
AcDbPolygonMeshVertex
 10
158.286147806225
 20
185.0219453572579
 30
0.9853718102208318
 70
    64
  0
VERTEX
  5
DD
330
93
100
AcDbEntity
  8
0
 48
0.1
100
AcDbVertex
100
AcDbPolygonMeshVertex
 10
158.4995979050366
 20
184.8992627413395
 30
0.9965813776230703
 70
    64
  0
VERTEX
  5
DE
330
93
100
AcDbEntity
  8
0
 48
0.1
100
AcDbVertex
100
AcDbPolygonMeshVertex
 10
158.7189772007286
 20
184.7882756012888
 30
1.004493060128611
 70
    64
  0
VERTEX
  5
DF
330
93
100
AcDbEntity
  8
0
 48
0.1
100
AcDbVertex
100
AcDbPolygonMeshVertex
 10
158.9430230334878
 20
184.6885486576045
 30
1.009648268062258
 70
    64
  0
VERTEX
  5
E0
330
93
100
AcDbEntity
  8
0
 48
0.1
100
AcDbVertex
100
AcDbPolygonMeshVertex
 10
159.1707612122968
 20
184.5999125491076
 30
1.012486370927696
 70
    64
  0
VERTEX
  5
E1
330
93
100
AcDbEntity
  8
0
 48
0.1
100
AcDbVertex
100
AcDbPolygonMeshVertex
 10
159.4014020065715
 20
184.5224250054844
 30
1.013364974415481
 70
    64
  0
VERTEX
  5
E2
330
93
100
AcDbEntity
  8
0
 48
0.1
100
AcDbVertex
100
AcDbPolygonMeshVertex
 10
157.3920839388779
 20
186.2547314411533
 30
0.8710107049154409
 70
    64
  0
VERTEX
  5
E3
330
93
100
AcDbEntity
  8
0
 48
0.1
100
AcDbVertex
100
AcDbPolygonMeshVertex
 10
157.376312014207
 20
186.0271594839992
 30
0.9431573062129624
 70
    64
  0
VERTEX
  5
E4
330
93
100
AcDbEntity
  8
0
 48
0.1
100
AcDbVertex
100
AcDbPolygonMeshVertex
 10
157.4471102294977
 20
185.8061329589779
 30
1.00494744923423
 70
    64
  0
VERTEX
  5
E5
330
93
100
AcDbEntity
  8
0
 48
0.1
100
AcDbVertex
100
AcDbPolygonMeshVertex
 10
157.5716920727039
 20
185.6063526944982
 30
1.054971449778208
 70
    64
  0
VERTEX
  5
E6
330
93
100
AcDbEntity
  8
0
 48
0.1
100
AcDbVertex
100
AcDbPolygonMeshVertex
 10
157.7282850285966
 20
185.4277945621302
 30
1.09533054564507
 70
    64
  0
VERTEX
  5
E7
330
93
100
AcDbEntity
  8
0
 48
0.1
100
AcDbVertex
100
AcDbPolygonMeshVertex
 10
157.9052759535625
 20
185.2675528889228
 30
1.128043325432452
 70
    64
  0
VERTEX
  5
E8
330
93
100
AcDbEntity
  8
0
 48
0.1
100
AcDbVertex
100
AcDbPolygonMeshVertex
 10
158.096295735976
 20
185.1229809990379
 30
1.154543703432242
 70
    64
  0
VERTEX
  5
E9
330
93
100
AcDbEntity
  8
0
 48
0.1
100
AcDbVertex
100
AcDbPolygonMeshVertex
 10
158.2975866324911
 20
184.9920947492402
 30
1.175808846714648
 70
    64
  0
VERTEX
  5
EA
330
93
100
AcDbEntity
  8
0
 48
0.1
100
AcDbVertex
100
AcDbPolygonMeshVertex
 10
158.5067703668818
 20
184.8734771124954
 30
1.192507254350707
 70
    64
  0
VERTEX
  5
EB
330
93
100
AcDbEntity
  8
0
 48
0.1
100
AcDbVertex
100
AcDbPolygonMeshVertex
 10
158.7222485597303
 20
184.7661430513716
 30
1.205098353247843
 70
    64
  0
VERTEX
  5
EC
330
93
100
AcDbEntity
  8
0
 48
0.1
100
AcDbVertex
100
AcDbPolygonMeshVertex
 10
158.9428900360278
 20
184.6694380178848
 30
1.213894070031593
 70
    64
  0
VERTEX
  5
ED
330
93
100
AcDbEntity
  8
0
 48
0.1
100
AcDbVertex
100
AcDbPolygonMeshVertex
 10
159.1678556990869
 20
184.5829720460364
 30
1.219096127240694
 70
    64
  0
VERTEX
  5
EE
330
93
100
AcDbEntity
  8
0
 48
0.1
100
AcDbVertex
100
AcDbPolygonMeshVertex
 10
159.3964930701374
 20
184.5065818684486
 30
1.220817942495698
 70
    64
  0
SEQEND
  5
EF
330
93
100
AcDbEntity
  8
0
 48
0.1
  0
POLYLINE
  5
F0
330
2
100
AcDbEntity
  8
0
 48
0.1
100
AcDbPolygonMesh
 66
     1
 10
0.0
 20
0.0
 30
0.0
 70
    16
 71
     7
 72
    13
  0
VERTEX
  5
F1
330
F0
100
AcDbEntity
  8
0
 48
0.1
100
AcDbVertex
100
AcDbPolygonMeshVertex
 10
162.0381711696368
 20
184.8151587835695
 30
0.8710107049154409
 70
    64
  0
VERTEX
  5
F2
330
F0
100
AcDbEntity
  8
0
 48
0.1
100
AcDbVertex
100
AcDbPolygonMeshVertex
 10
162.0700931585617
 20
184.8269835735412
 30
0.7984264795058209
 70
    64
  0
VERTEX
  5
F3
330
F0
100
AcDbEntity
  8
0
 48
0.1
100
AcDbVertex
100
AcDbPolygonMeshVertex
 10
162.1020151474866
 20
184.8388083635128
 30
0.7258422540962008
 70
    64
  0
VERTEX
  5
F4
330
F0
100
AcDbEntity
  8
0
 48
0.1
100
AcDbVertex
100
AcDbPolygonMeshVertex
 10
162.1339371364115
 20
184.8506331534845
 30
0.6532580286865808
 70
    64
  0
VERTEX
  5
F5
330
F0
100
AcDbEntity
  8
0
 48
0.1
100
AcDbVertex
100
AcDbPolygonMeshVertex
 10
162.1658591253364
 20
184.8624579434562
 30
0.5806738032769607
 70
    64
  0
VERTEX
  5
F6
330
F0
100
AcDbEntity
  8
0
 48
0.1
100
AcDbVertex
100
AcDbPolygonMeshVertex
 10
162.1977811142613
 20
184.8742827334279
 30
0.5080895778673408
 70
    64
  0
VERTEX
  5
F7
330
F0
100
AcDbEntity
  8
0
 48
0.1
100
AcDbVertex
100
AcDbPolygonMeshVertex
 10
162.2297031031862
 20
184.8861075233996
 30
0.4355053524577206
 70
    64
  0
VERTEX
  5
F8
330
F0
100
AcDbEntity
  8
0
 48
0.1
100
AcDbVertex
100
AcDbPolygonMeshVertex
 10
162.2616250921111
 20
184.8979323133713
 30
0.3629211270481005
 70
    64
  0
VERTEX
  5
F9
330
F0
100
AcDbEntity
  8
0
 48
0.1
100
AcDbVertex
100
AcDbPolygonMeshVertex
 10
162.293547081036
 20
184.909757103343
 30
0.2903369016384803
 70
    64
  0
VERTEX
  5
FA
330
F0
100
AcDbEntity
  8
0
 48
0.1
100
AcDbVertex
100
AcDbPolygonMeshVertex
 10
162.3254690699608
 20
184.9215818933146
 30
0.2177526762288601
 70
    64
  0
VERTEX
  5
FB
330
F0
100
AcDbEntity
  8
0
 48
0.1
100
AcDbVertex
100
AcDbPolygonMeshVertex
 10
162.3573910588857
 20
184.9334066832863
 30
0.1451684508192402
 70
    64
  0
VERTEX
  5
FC
330
F0
100
AcDbEntity
  8
0
 48
0.1
100
AcDbVertex
100
AcDbPolygonMeshVertex
 10
162.3893130478106
 20
184.945231473258
 30
0.0725842254096201
 70
    64
  0
VERTEX
  5
FD
330
F0
100
AcDbEntity
  8
0
 48
0.1
100
AcDbVertex
100
AcDbPolygonMeshVertex
 10
162.4212350367355
 20
184.9570562632297
 30
0.0
 70
    64
  0
VERTEX
  5
FE
330
F0
100
AcDbEntity
  8
0
 48
0.1
100
AcDbVertex
100
AcDbPolygonMeshVertex
 10
162.000296186927
 20
185.2747316703081
 30
0.7320185605050693
 70
    64
  0
VERTEX
  5
FF
330
F0
100
AcDbEntity
  8
0
 48
0.1
100
AcDbVertex
100
AcDbPolygonMeshVertex
 10
162.0294403674616
 20
185.2876639380159
 30
0.6640197280071676
 70
    64
  0
VERTEX
  5
100
330
F0
100
AcDbEntity
  8
0
 48
0.1
100
AcDbVertex
100
AcDbPolygonMeshVertex
 10
162.0571753843348
 20
185.3019018014362
 30
0.599864157887351
 70
    64
  0
VERTEX
  5
101
330
F0
100
AcDbEntity
  8
0
 48
0.1
100
AcDbVertex
100
AcDbPolygonMeshVertex
 10
162.0837808324503
 20
185.3171769190429
 30
0.5387805366314354
 70
    64
  0
VERTEX
  5
102
330
F0
100
AcDbEntity
  8
0
 48
0.1
100
AcDbVertex
100
AcDbPolygonMeshVertex
 10
162.109536308383
 20
185.3332209547021
 30
0.4799975530308476
 70
    64
  0
VERTEX
  5
103
330
F0
100
AcDbEntity
  8
0
 48
0.1
100
AcDbVertex
100
AcDbPolygonMeshVertex
 10
162.1347214103867
 20
185.3497655776997
 30
0.4227438981127573
 70
    64
  0
VERTEX
  5
104
330
F0
100
AcDbEntity
  8
0
 48
0.1
100
AcDbVertex
100
AcDbPolygonMeshVertex
 10
162.1596157384025
 20
185.3665424627666
 30
0.3662482650698708
 70
    64
  0
VERTEX
  5
105
330
F0
100
AcDbEntity
  8
0
 48
0.1
100
AcDbVertex
100
AcDbPolygonMeshVertex
 10
162.1844988940665
 20
185.3832832901044
 30
0.3097393491898956
 70
    64
  0
VERTEX
  5
106
330
F0
100
AcDbEntity
  8
0
 48
0.1
100
AcDbVertex
100
AcDbPolygonMeshVertex
 10
162.2096504807174
 20
185.3997197454095
 30
0.252445847784681
 70
    64
  0
VERTEX
  5
107
330
F0
100
AcDbEntity
  8
0
 48
0.1
100
AcDbVertex
100
AcDbPolygonMeshVertex
 10
162.2353501034036
 20
185.4155835198962
 30
0.1935964601190565
 70
    64
  0
VERTEX
  5
108
330
F0
100
AcDbEntity
  8
0
 48
0.1
100
AcDbVertex
100
AcDbPolygonMeshVertex
 10
162.2618773688904
 20
185.43060631032
 30
0.1324198873393686
 70
    64
  0
VERTEX
  5
109
330
F0
100
AcDbEntity
  8
0
 48
0.1
100
AcDbVertex
100
AcDbPolygonMeshVertex
 10
162.2895118856666
 20
185.4445198189988
 30
0.0681448324017306
 70
    64
  0
VERTEX
  5
10A
330
F0
100
AcDbEntity
  8
0
 48
0.1
100
AcDbVertex
100
AcDbPolygonMeshVertex
 10
162.318533263951
 20
185.457055753834
 30
0.0
 70
    64
  0
VERTEX
  5
10B
330
F0
100
AcDbEntity
  8
0
 48
0.1
100
AcDbVertex
100
AcDbPolygonMeshVertex
 10
161.7346444331188
 20
185.6728735922556
 30
0.6339964138786472
 70
    64
  0
VERTEX
  5
10C
330
F0
100
AcDbEntity
  8
0
 48
0.1
100
AcDbVertex
100
AcDbPolygonMeshVertex
 10
161.7584032345814
 20
185.686471800961
 30
0.5725527423119022
 70
    64
  0
VERTEX
  5
10D
330
F0
100
AcDbEntity
  8
0
 48
0.1
100
AcDbVertex
100
AcDbPolygonMeshVertex
 10
161.7799813901177
 20
185.7009288534681
 30
0.5158987455129167
 70
    64
  0
VERTEX
  5
10E
330
F0
100
AcDbEntity
  8
0
 48
0.1
100
AcDbVertex
100
AcDbPolygonMeshVertex
 10
161.7998071965134
 20
185.7160477026732
 30
0.4630671748931556
 70
    64
  0
VERTEX
  5
10F
330
F0
100
AcDbEntity
  8
0
 48
0.1
100
AcDbVertex
100
AcDbPolygonMeshVertex
 10
161.8183089564023
 20
185.7316313203469
 30
0.4130907899337176
 70
    64
  0
VERTEX
  5
110
330
F0
100
AcDbEntity
  8
0
 48
0.1
100
AcDbVertex
100
AcDbPolygonMeshVertex
 10
161.8359149782952
 20
185.7474826972276
 30
0.3650023579408054
 70
    64
  0
VERTEX
  5
111
330
F0
100
AcDbEntity
  8
0
 48
0.1
100
AcDbVertex
100
AcDbPolygonMeshVertex
 10
161.8530535766082
 20
185.7634048431127
 30
0.3178346537999999
 70
    64
  0
VERTEX
  5
112
330
F0
100
AcDbEntity
  8
0
 48
0.1
100
AcDbVertex
100
AcDbPolygonMeshVertex
 10
161.87015307169
 20
185.7792007869458
 30
0.2706204597293824
 70
    64
  0
VERTEX
  5
113
330
F0
100
AcDbEntity
  8
0
 48
0.1
100
AcDbVertex
100
AcDbPolygonMeshVertex
 10
161.8876417898481
 20
185.7946735769028
 30
0.222392565031536
 70
    64
  0
VERTEX
  5
114
330
F0
100
AcDbEntity
  8
0
 48
0.1
100
AcDbVertex
100
AcDbPolygonMeshVertex
 10
161.9059480633744
 20
185.8096262804728
 30
0.1721837658444703
 70
    64
  0
VERTEX
  5
115
330
F0
100
AcDbEntity
  8
0
 48
0.1
100
AcDbVertex
100
AcDbPolygonMeshVertex
 10
161.9255002305695
 20
185.8238619845379
 30
0.1190268648915048
 70
    64
  0
VERTEX
  5
116
330
F0
100
AcDbEntity
  8
0
 48
0.1
100
AcDbVertex
100
AcDbPolygonMeshVertex
 10
161.9467266357663
 20
185.8371837954495
 30
0.0619546712301451
 70
    64
  0
VERTEX
  5
117
330
F0
100
AcDbEntity
  8
0
 48
0.1
100
AcDbVertex
100
AcDbPolygonMeshVertex
 10
161.9700556293531
 20
185.8493948391009
 30
0.0
 70
    64
  0
VERTEX
  5
118
330
F0
100
AcDbEntity
  8
0
 48
0.1
100
AcDbVertex
100
AcDbPolygonMeshVertex
 10
161.3717868703356
 20
185.9959073503847
 30
0.5686328320839276
 70
    64
  0
VERTEX
  5
119
330
F0
100
AcDbEntity
  8
0
 48
0.1
100
AcDbVertex
100
AcDbPolygonMeshVertex
 10
161.3894674815211
 20
186.0103029094885
 30
0.5144896792763749
 70
    64
  0
VERTEX
  5
11A
330
F0
100
AcDbEntity
  8
0
 48
0.1
100
AcDbVertex
100
AcDbPolygonMeshVertex
 10
161.4055929948656
 20
186.0248558768533
 30
0.4642114953702546
 70
    64
  0
VERTEX
  5
11B
330
F0
100
AcDbEntity
  8
0
 48
0.1
100
AcDbVertex
100
AcDbPolygonMeshVertex
 10
161.4204593245952
 20
186.0394860197362
 30
0.4170073245749543
 70
    64
  0
VERTEX
  5
11C
330
F0
100
AcDbEntity
  8
0
 48
0.1
100
AcDbVertex
100
AcDbPolygonMeshVertex
 10
161.4343623962144
 20
186.0541131417947
 30
0.3720862266627298
 70
    64
  0
VERTEX
  5
11D
330
F0
100
AcDbEntity
  8
0
 48
0.1
100
AcDbVertex
100
AcDbPolygonMeshVertex
 10
161.4475981465623
 20
186.068657083267
 30
0.3286572764971066
 70
    64
  0
VERTEX
  5
11E
330
F0
100
AcDbEntity
  8
0
 48
0.1
100
AcDbVertex
100
AcDbPolygonMeshVertex
 10
161.4604625238667
 20
186.0830377211478
 30
0.2859295635589829
 70
    64
  0
VERTEX
  5
11F
330
F0
100
AcDbEntity
  8
0
 48
0.1
100
AcDbVertex
100
AcDbPolygonMeshVertex
 10
161.4732514877966
 20
186.0971749693572
 30
0.243112191470507
 70
    64
  0
VERTEX
  5
120
330
F0
100
AcDbEntity
  8
0
 48
0.1
100
AcDbVertex
100
AcDbPolygonMeshVertex
 10
161.4862610095132
 20
186.1109887789051
 30
0.1994142775167958
 70
    64
  0
VERTEX
  5
121
330
F0
100
AcDbEntity
  8
0
 48
0.1
100
AcDbVertex
100
AcDbPolygonMeshVertex
 10
161.4997870717189
 20
186.1243991380493
 30
0.1540449521655753
 70
    64
  0
VERTEX
  5
122
330
F0
100
AcDbEntity
  8
0
 48
0.1
100
AcDbVertex
100
AcDbPolygonMeshVertex
 10
161.5141256687043
 20
186.1373260724481
 30
0.10621335858481
 70
    64
  0
VERTEX
  5
123
330
F0
100
AcDbEntity
  8
0
 48
0.1
100
AcDbVertex
100
AcDbPolygonMeshVertex
 10
161.5295728063941
 20
186.1496896453072
 30
0.0551286521583961
 70
    64
  0
VERTEX
  5
124
330
F0
100
AcDbEntity
  8
0
 48
0.1
100
AcDbVertex
100
AcDbPolygonMeshVertex
 10
161.5464245023906
 20
186.161409957521
 30
0.0
 70
    64
  0
VERTEX
  5
125
330
F0
100
AcDbEntity
  8
0
 48
0.1
100
AcDbVertex
100
AcDbPolygonMeshVertex
 10
160.9600709582838
 20
186.2593361076795
 30
0.5264668851253872
 70
    64
  0
VERTEX
  5
126
330
F0
100
AcDbEntity
  8
0
 48
0.1
100
AcDbVertex
100
AcDbPolygonMeshVertex
 10
160.9719326599454
 20
186.2746223812255
 30
0.479167816132333
 70
    64
  0
VERTEX
  5
127
330
F0
100
AcDbEntity
  8
0
 48
0.1
100
AcDbVertex
100
AcDbPolygonMeshVertex
 10
160.9833223661212
 20
186.2895293875694
 30
0.4340035367425724
 70
    64
  0
VERTEX
  5
128
330
F0
100
AcDbEntity
  8
0
 48
0.1
100
AcDbVertex
100
AcDbPolygonMeshVertex
 10
160.9943120976238
 20
186.3040607563135
 30
0.3905204786497789
 70
    64
  0
VERTEX
  5
129
330
F0
100
AcDbEntity
  8
0
 48
0.1
100
AcDbVertex
100
AcDbPolygonMeshVertex
 10
161.0049738919747
 20
186.3182201709866
 30
0.3482650966037265
 70
    64
  0
VERTEX
  5
12A
330
F0
100
AcDbEntity
  8
0
 48
0.1
100
AcDbVertex
100
AcDbPolygonMeshVertex
 10
161.0153798034869
 20
186.3320113693113
 30
0.3067838677116257
 70
    64
  0
VERTEX
  5
12B
330
F0
100
AcDbEntity
  8
0
 48
0.1
100
AcDbVertex
100
AcDbPolygonMeshVertex
 10
161.025601903346
 20
186.345438143464
 30
0.2656232907360552
 70
    64
  0
VERTEX
  5
12C
330
F0
100
AcDbEntity
  8
0
 48
0.1
100
AcDbVertex
100
AcDbPolygonMeshVertex
 10
161.0357122796874
 20
186.3585043403259
 30
0.2243298853895922
 70
    64
  0
VERTEX
  5
12D
330
F0
100
AcDbEntity
  8
0
 48
0.1
100
AcDbVertex
100
AcDbPolygonMeshVertex
 10
161.0457830376718
 20
186.3712138617255
 30
0.1824501916262502
 70
    64
  0
VERTEX
  5
12E
330
F0
100
AcDbEntity
  8
0
 48
0.1
100
AcDbVertex
100
AcDbPolygonMeshVertex
 10
161.0558862995582
 20
186.3835706646737
 30
0.1395307689298333
 70
    64
  0
VERTEX
  5
12F
330
F0
100
AcDbEntity
  8
0
 48
0.1
100
AcDbVertex
100
AcDbPolygonMeshVertex
 10
161.0660942047732
 20
186.3955787615894
 30
0.0951181955993136
 70
    64
  0
VERTEX
  5
130
330
F0
100
AcDbEntity
  8
0
 48
0.1
100
AcDbVertex
100
AcDbPolygonMeshVertex
 10
161.0764789099791
 20
186.4072422205175
 30
0.0487590680313404
 70
    64
  0
VERTEX
  5
131
330
F0
100
AcDbEntity
  8
0
 48
0.1
100
AcDbVertex
100
AcDbPolygonMeshVertex
 10
161.0871125891384
 20
186.4185651653377
 30
0.0
 70
    64
  0
VERTEX
  5
132
330
F0
100
AcDbEntity
  8
0
 48
0.1
100
AcDbVertex
100
AcDbPolygonMeshVertex
 10
160.5188362177743
 20
186.4727780801025
 30
0.5026536545466507
 70
    64
  0
VERTEX
  5
133
330
F0
100
AcDbEntity
  8
0
 48
0.1
100
AcDbVertex
100
AcDbPolygonMeshVertex
 10
160.5261555791899
 20
186.4888471189087
 30
0.4604496173495562
 70
    64
  0
VERTEX
  5
134
330
F0
100
AcDbEntity
  8
0
 48
0.1
100
AcDbVertex
100
AcDbPolygonMeshVertex
 10
160.5337191784304
 20
186.504296299065
 30
0.4187500836715513
 70
    64
  0
VERTEX
  5
135
330
F0
100
AcDbEntity
  8
0
 48
0.1
100
AcDbVertex
100
AcDbPolygonMeshVertex
 10
160.5414501950752
 20
186.519159312504
 30
0.3774208898267341
 70
    64
  0
VERTEX
  5
136
330
F0
100
AcDbEntity
  8
0
 48
0.1
100
AcDbVertex
100
AcDbPolygonMeshVertex
 10
160.5492718295895
 20
186.5334699185658
 30
0.3363279009493267
 70
    64
  0
VERTEX
  5
137
330
F0
100
AcDbEntity
  8
0
 48
0.1
100
AcDbVertex
100
AcDbPolygonMeshVertex
 10
160.5571073034283
 20
186.5472619443333
 30
0.2953370101203483
 70
    64
  0
VERTEX
  5
138
330
F0
100
AcDbEntity
  8
0
 48
0.1
100
AcDbVertex
100
AcDbPolygonMeshVertex
 10
160.5648798591371
 20
186.5605692849564
 30
0.2543141374900273
 70
    64
  0
VERTEX
  5
139
330
F0
100
AcDbEntity
  8
0
 48
0.1
100
AcDbVertex
100
AcDbPolygonMeshVertex
 10
160.5725127604488
 20
186.5734259039659
 30
0.2131252293960907
 70
    64
  0
VERTEX
  5
13A
330
F0
100
AcDbEntity
  8
0
 48
0.1
100
AcDbVertex
100
AcDbPolygonMeshVertex
 10
160.5799292923779
 20
186.5858658335771
 30
0.1716362574780607
 70
    64
  0
VERTEX
  5
13B
330
F0
100
AcDbEntity
  8
0
 48
0.1
100
AcDbVertex
100
AcDbPolygonMeshVertex
 10
160.5870527613115
 20
186.5979231749828
 30
0.1297132177876979
 70
    64
  0
VERTEX
  5
13C
330
F0
100
AcDbEntity
  8
0
 48
0.1
100
AcDbVertex
100
AcDbPolygonMeshVertex
 10
160.5938064950967
 20
186.6096320986363
 30
0.0872221298957228
 70
    64
  0
VERTEX
  5
13D
330
F0
100
AcDbEntity
  8
0
 48
0.1
100
AcDbVertex
100
AcDbPolygonMeshVertex
 10
160.6001138431248
 20
186.6210268445229
 30
0.0440290359949525
 70
    64
  0
VERTEX
  5
13E
330
F0
100
AcDbEntity
  8
0
 48
0.1
100
AcDbVertex
100
AcDbPolygonMeshVertex
 10
160.6058981764126
 20
186.6321417224218
 30
0.0
 70
    64
  0
VERTEX
  5
13F
330
F0
100
AcDbEntity
  8
0
 48
0.1
100
AcDbVertex
100
AcDbPolygonMeshVertex
 10
160.0576877727736
 20
186.6405264449056
 30
0.4949370226373825
 70
    64
  0
VERTEX
  5
140
330
F0
100
AcDbEntity
  8
0
 48
0.1
100
AcDbVertex
100
AcDbPolygonMeshVertex
 10
160.0628059997916
 20
186.6570450478855
 30
0.4547354110921466
 70
    64
  0
VERTEX
  5
141
330
F0
100
AcDbEntity
  8
0
 48
0.1
100
AcDbVertex
100
AcDbPolygonMeshVertex
 10
160.0677769609603
 20
186.6730883639949
 30
0.4143233879266857
 70
    64
  0
VERTEX
  5
142
330
F0
100
AcDbEntity
  8
0
 48
0.1
100
AcDbVertex
100
AcDbPolygonMeshVertex
 10
160.0725998987654
 20
186.6886539484263
 30
0.3737071114443946
 70
    64
  0
VERTEX
  5
143
330
F0
100
AcDbEntity
  8
0
 48
0.1
100
AcDbVertex
100
AcDbPolygonMeshVertex
 10
160.0772740782494
 20
186.7037394291732
 30
0.3328927710744012
 70
    64
  0
VERTEX
  5
144
330
F0
100
AcDbEntity
  8
0
 48
0.1
100
AcDbVertex
100
AcDbPolygonMeshVertex
 10
160.0817987871239
 20
186.7183425073907
 30
0.2918865864283744
 70
    64
  0
VERTEX
  5
145
330
F0
100
AcDbEntity
  8
0
 48
0.1
100
AcDbVertex
100
AcDbPolygonMeshVertex
 10
160.0861733358779
 20
186.7324609577466
 30
0.2506948063527294
 70
    64
  0
VERTEX
  5
146
330
F0
100
AcDbEntity
  8
0
 48
0.1
100
AcDbVertex
100
AcDbPolygonMeshVertex
 10
160.0903970578829
 20
186.7460926287596
 30
0.2093237079763794
 70
    64
  0
VERTEX
  5
147
330
F0
100
AcDbEntity
  8
0
 48
0.1
100
AcDbVertex
100
AcDbPolygonMeshVertex
 10
160.0944693094949
 20
186.7592354431283
 30
0.167779595754177
 70
    64
  0
VERTEX
  5
148
330
F0
100
AcDbEntity
  8
0
 48
0.1
100
AcDbVertex
100
AcDbPolygonMeshVertex
 10
160.0983894701519
 20
186.7718873980466
 30
0.1260688005061917
 70
    64
  0
VERTEX
  5
149
330
F0
100
AcDbEntity
  8
0
 48
0.1
100
AcDbVertex
100
AcDbPolygonMeshVertex
 10
160.1021569424686
 20
186.7840465655098
 30
0.08419767845297
 70
    64
  0
VERTEX
  5
14A
330
F0
100
AcDbEntity
  8
0
 48
0.1
100
AcDbVertex
100
AcDbPolygonMeshVertex
 10
160.105771152328
 20
186.7957110926078
 30
0.0421726102469226
 70
    64
  0
VERTEX
  5
14B
330
F0
100
AcDbEntity
  8
0
 48
0.1
100
AcDbVertex
100
AcDbPolygonMeshVertex
 10
160.109231548968
 20
186.8068792018079
 30
0.0
 70
    64
  0
SEQEND
  5
14C
330
F0
100
AcDbEntity
  8
0
 48
0.1
  0
POLYLINE
  5
14D
330
2
100
AcDbEntity
  8
0
 48
0.1
100
AcDbPolygonMesh
 66
     1
 10
0.0
 20
0.0
 30
0.0
 70
    16
 71
     7
 72
    13
  0
VERTEX
  5
14E
330
14D
100
AcDbEntity
  8
0
 48
0.1
100
AcDbVertex
100
AcDbPolygonMeshVertex
 10
157.3920839388779
 20
186.2547314411533
 30
0.8710107049154409
 70
    64
  0
VERTEX
  5
14F
330
14D
100
AcDbEntity
  8
0
 48
0.1
100
AcDbVertex
100
AcDbPolygonMeshVertex
 10
157.3724402321125
 20
186.2825336680301
 30
0.7984264795058209
 70
    64
  0
VERTEX
  5
150
330
14D
100
AcDbEntity
  8
0
 48
0.1
100
AcDbVertex
100
AcDbPolygonMeshVertex
 10
157.352796525347
 20
186.3103358949069
 30
0.7258422540962008
 70
    64
  0
VERTEX
  5
151
330
14D
100
AcDbEntity
  8
0
 48
0.1
100
AcDbVertex
100
AcDbPolygonMeshVertex
 10
157.3331528185816
 20
186.3381381217837
 30
0.6532580286865808
 70
    64
  0
VERTEX
  5
152
330
14D
100
AcDbEntity
  8
0
 48
0.1
100
AcDbVertex
100
AcDbPolygonMeshVertex
 10
157.3135091118162
 20
186.3659403486604
 30
0.5806738032769607
 70
    64
  0
VERTEX
  5
153
330
14D
100
AcDbEntity
  8
0
 48
0.1
100
AcDbVertex
100
AcDbPolygonMeshVertex
 10
157.2938654050507
 20
186.3937425755372
 30
0.5080895778673408
 70
    64
  0
VERTEX
  5
154
330
14D
100
AcDbEntity
  8
0
 48
0.1
100
AcDbVertex
100
AcDbPolygonMeshVertex
 10
157.2742216982853
 20
186.4215448024141
 30
0.4355053524577206
 70
    64
  0
VERTEX
  5
155
330
14D
100
AcDbEntity
  8
0
 48
0.1
100
AcDbVertex
100
AcDbPolygonMeshVertex
 10
157.2545779915198
 20
186.4493470292909
 30
0.3629211270481005
 70
    64
  0
VERTEX
  5
156
330
14D
100
AcDbEntity
  8
0
 48
0.1
100
AcDbVertex
100
AcDbPolygonMeshVertex
 10
157.2349342847544
 20
186.4771492561676
 30
0.2903369016384803
 70
    64
  0
VERTEX
  5
157
330
14D
100
AcDbEntity
  8
0
 48
0.1
100
AcDbVertex
100
AcDbPolygonMeshVertex
 10
157.215290577989
 20
186.5049514830444
 30
0.2177526762288601
 70
    64
  0
VERTEX
  5
158
330
14D
100
AcDbEntity
  8
0
 48
0.1
100
AcDbVertex
100
AcDbPolygonMeshVertex
 10
157.1956468712235
 20
186.5327537099212
 30
0.1451684508192402
 70
    64
  0
VERTEX
  5
159
330
14D
100
AcDbEntity
  8
0
 48
0.1
100
AcDbVertex
100
AcDbPolygonMeshVertex
 10
157.1760031644581
 20
186.560555936798
 30
0.0725842254096201
 70
    64
  0
VERTEX
  5
15A
330
14D
100
AcDbEntity
  8
0
 48
0.1
100
AcDbVertex
100
AcDbPolygonMeshVertex
 10
157.1563594576926
 20
186.5883581636748
 30
0.0
 70
    64
  0
VERTEX
  5
15B
330
14D
100
AcDbEntity
  8
0
 48
0.1
100
AcDbVertex
100
AcDbPolygonMeshVertex
 10
157.6831708936367
 20
186.6123767085759
 30
0.7320185605050693
 70
    64
  0
VERTEX
  5
15C
330
14D
100
AcDbEntity
  8
0
 48
0.1
100
AcDbVertex
100
AcDbPolygonMeshVertex
 10
157.6664445296503
 20
186.6395217920147
 30
0.6640197280071676
 70
    64
  0
VERTEX
  5
15D
330
14D
100
AcDbEntity
  8
0
 48
0.1
100
AcDbVertex
100
AcDbPolygonMeshVertex
 10
157.6516186549564
 20
186.6669469876437
 30
0.599864157887351
 70
    64
  0
VERTEX
  5
15E
330
14D
100
AcDbEntity
  8
0
 48
0.1
100
AcDbVertex
100
AcDbPolygonMeshVertex
 10
157.6383109338678
 20
186.6945890506412
 30
0.5387805366314354
 70
    64
  0
VERTEX
  5
15F
330
14D
100
AcDbEntity
  8
0
 48
0.1
100
AcDbVertex
100
AcDbPolygonMeshVertex
 10
157.6261390323686
 20
186.7223847415779
 30
0.4799975530308476
 70
    64
  0
VERTEX
  5
160
330
14D
100
AcDbEntity
  8
0
 48
0.1
100
AcDbVertex
100
AcDbPolygonMeshVertex
 10
157.6147206181219
 20
186.7502708264439
 30
0.4227438981127573
 70
    64
  0
VERTEX
  5
161
330
14D
100
AcDbEntity
  8
0
 48
0.1
100
AcDbVertex
100
AcDbPolygonMeshVertex
 10
157.6036733604781
 20
186.7781840766749
 30
0.3662482650698708
 70
    64
  0
VERTEX
  5
162
330
14D
100
AcDbEntity
  8
0
 48
0.1
100
AcDbVertex
100
AcDbPolygonMeshVertex
 10
157.5926149304825
 20
186.8060612691768
 30
0.3097393491898956
 70
    64
  0
VERTEX
  5
163
330
14D
100
AcDbEntity
  8
0
 48
0.1
100
AcDbVertex
100
AcDbPolygonMeshVertex
 10
157.581163000883
 20
186.8338391863504
 30
0.252445847784681
 70
    64
  0
VERTEX
  5
164
330
14D
100
AcDbEntity
  8
0
 48
0.1
100
AcDbVertex
100
AcDbPolygonMeshVertex
 10
157.5689352461374
 20
186.8614546161146
 30
0.1935964601190565
 70
    64
  0
VERTEX
  5
165
330
14D
100
AcDbEntity
  8
0
 48
0.1
100
AcDbVertex
100
AcDbPolygonMeshVertex
 10
157.55554934242
 20
186.8888443519292
 30
0.1324198873393686
 70
    64
  0
VERTEX
  5
166
330
14D
100
AcDbEntity
  8
0
 48
0.1
100
AcDbVertex
100
AcDbPolygonMeshVertex
 10
157.5406229676291
 20
186.9159451928167
 30
0.0681448324017306
 70
    64
  0
VERTEX
  5
167
330
14D
100
AcDbEntity
  8
0
 48
0.1
100
AcDbVertex
100
AcDbPolygonMeshVertex
 10
157.5237738013925
 20
186.9426939433828
 30
0.0
 70
    64
  0
VERTEX
  5
168
330
14D
100
AcDbEntity
  8
0
 48
0.1
100
AcDbVertex
100
AcDbPolygonMeshVertex
 10
158.1273966320181
 20
186.7905657589492
 30
0.6339964138786472
 70
    64
  0
VERTEX
  5
169
330
14D
100
AcDbEntity
  8
0
 48
0.1
100
AcDbVertex
100
AcDbPolygonMeshVertex
 10
158.1154887109427
 20
186.815215167514
 30
0.5725527423119022
 70
    64
  0
VERTEX
  5
16A
330
14D
100
AcDbEntity
  8
0
 48
0.1
100
AcDbVertex
100
AcDbPolygonMeshVertex
 10
158.1058650070314
 20
186.8393399988413
 30
0.5158987455129167
 70
    64
  0
VERTEX
  5
16B
330
14D
100
AcDbEntity
  8
0
 48
0.1
100
AcDbVertex
100
AcDbPolygonMeshVertex
 10
158.0980608444519
 20
186.8630198900353
 30
0.4630671748931556
 70
    64
  0
VERTEX
  5
16C
330
14D
100
AcDbEntity
  8
0
 48
0.1
100
AcDbVertex
100
AcDbPolygonMeshVertex
 10
158.0916115532198
 20
186.8863344970743
 30
0.4130907899337176
 70
    64
  0
VERTEX
  5
16D
330
14D
100
AcDbEntity
  8
0
 48
0.1
100
AcDbVertex
100
AcDbPolygonMeshVertex
 10
158.0860524692277
 20
186.9093634949048
 30
0.3650023579408054
 70
    64
  0
VERTEX
  5
16E
330
14D
100
AcDbEntity
  8
0
 48
0.1
100
AcDbVertex
100
AcDbPolygonMeshVertex
 10
158.080918934274
 20
186.9321865775318
 30
0.3178346537999999
 70
    64
  0
VERTEX
  5
16F
330
14D
100
AcDbEntity
  8
0
 48
0.1
100
AcDbVertex
100
AcDbPolygonMeshVertex
 10
158.075746296089
 20
186.954883458107
 30
0.2706204597293824
 70
    64
  0
VERTEX
  5
170
330
14D
100
AcDbEntity
  8
0
 48
0.1
100
AcDbVertex
100
AcDbPolygonMeshVertex
 10
158.0700699083622
 20
186.9775338690136
 30
0.222392565031536
 70
    64
  0
VERTEX
  5
171
330
14D
100
AcDbEntity
  8
0
 48
0.1
100
AcDbVertex
100
AcDbPolygonMeshVertex
 10
158.0634251307675
 20
187.000217561949
 30
0.1721837658444703
 70
    64
  0
VERTEX
  5
172
330
14D
100
AcDbEntity
  8
0
 48
0.1
100
AcDbVertex
100
AcDbPolygonMeshVertex
 10
158.0553473289873
 20
187.0230143080031
 30
0.1190268648915048
 70
    64
  0
VERTEX
  5
173
330
14D
100
AcDbEntity
  8
0
 48
0.1
100
AcDbVertex
100
AcDbPolygonMeshVertex
 10
158.0453718747366
 20
187.0460038977349
 30
0.0619546712301451
 70
    64
  0
VERTEX
  5
174
330
14D
100
AcDbEntity
  8
0
 48
0.1
100
AcDbVertex
100
AcDbPolygonMeshVertex
 10
158.0330341457854
 20
187.0692661412457
 30
0.0
 70
    64
  0
VERTEX
  5
175
330
14D
100
AcDbEntity
  8
0
 48
0.1
100
AcDbVertex
100
AcDbPolygonMeshVertex
 10
158.6093317262448
 20
186.8518436890112
 30
0.5686328320839276
 70
    64
  0
VERTEX
  5
176
330
14D
100
AcDbEntity
  8
0
 48
0.1
100
AcDbVertex
100
AcDbPolygonMeshVertex
 10
158.6028879857316
 20
186.873714087773
 30
0.5144896792763749
 70
    64
  0
VERTEX
  5
177
330
14D
100
AcDbEntity
  8
0
 48
0.1
100
AcDbVertex
100
AcDbPolygonMeshVertex
 10
158.597815905283
 20
186.8948350498645
 30
0.4642114953702546
 70
    64
  0
VERTEX
  5
178
330
14D
100
AcDbEntity
  8
0
 48
0.1
100
AcDbVertex
100
AcDbPolygonMeshVertex
 10
158.593826047544
 20
186.9153077115289
 30
0.4170073245749543
 70
    64
  0
VERTEX
  5
179
330
14D
100
AcDbEntity
  8
0
 48
0.1
100
AcDbVertex
100
AcDbPolygonMeshVertex
 10
158.5906289864379
 20
186.93523324541
 30
0.3720862266627298
 70
    64
  0
VERTEX
  5
17A
330
14D
100
AcDbEntity
  8
0
 48
0.1
100
AcDbVertex
100
AcDbPolygonMeshVertex
 10
158.5879353072227
 20
186.9547128607323
 30
0.3286572764971066
 70
    64
  0
VERTEX
  5
17B
330
14D
100
AcDbEntity
  8
0
 48
0.1
100
AcDbVertex
100
AcDbPolygonMeshVertex
 10
158.5854556065451
 20
186.9738478034769
 30
0.2859295635589829
 70
    64
  0
VERTEX
  5
17C
330
14D
100
AcDbEntity
  8
0
 48
0.1
100
AcDbVertex
100
AcDbPolygonMeshVertex
 10
158.5829004924931
 20
186.99273935655
 30
0.243112191470507
 70
    64
  0
VERTEX
  5
17D
330
14D
100
AcDbEntity
  8
0
 48
0.1
100
AcDbVertex
100
AcDbPolygonMeshVertex
 10
158.5799805846467
 20
187.011488839948
 30
0.1994142775167958
 70
    64
  0
VERTEX
  5
17E
330
14D
100
AcDbEntity
  8
0
 48
0.1
100
AcDbVertex
100
AcDbPolygonMeshVertex
 10
158.576406514127
 20
187.0301976109148
 30
0.1540449521655753
 70
    64
  0
VERTEX
  5
17F
330
14D
100
AcDbEntity
  8
0
 48
0.1
100
AcDbVertex
100
AcDbPolygonMeshVertex
 10
158.5718889236438
 20
187.0489670640951
 30
0.10621335858481
 70
    64
  0
VERTEX
  5
180
330
14D
100
AcDbEntity
  8
0
 48
0.1
100
AcDbVertex
100
AcDbPolygonMeshVertex
 10
158.5661384675405
 20
187.0678986316808
 30
0.0551286521583961
 70
    64
  0
VERTEX
  5
181
330
14D
100
AcDbEntity
  8
0
 48
0.1
100
AcDbVertex
100
AcDbPolygonMeshVertex
 10
158.5588658118383
 20
187.0870937835528
 30
0.0
 70
    64
  0
VERTEX
  5
182
330
14D
100
AcDbEntity
  8
0
 48
0.1
100
AcDbVertex
100
AcDbPolygonMeshVertex
 10
159.097864372278
 20
186.8363338158238
 30
0.5264668851253872
 70
    64
  0
VERTEX
  5
183
330
14D
100
AcDbEntity
  8
0
 48
0.1
100
AcDbVertex
100
AcDbPolygonMeshVertex
 10
159.0967237440492
 20
186.8556488123932
 30
0.479167816132333
 70
    64
  0
VERTEX
  5
184
330
14D
100
AcDbEntity
  8
0
 48
0.1
100
AcDbVertex
100
AcDbPolygonMeshVertex
 10
159.0957579806479
 20
186.8743841145247
 30
0.4340035367425724
 70
    64
  0
VERTEX
  5
185
330
14D
100
AcDbEntity
  8
0
 48
0.1
100
AcDbVertex
100
AcDbPolygonMeshVertex
 10
159.0949097308241
 20
186.892583437268
 30
0.3905204786497789
 70
    64
  0
VERTEX
  5
186
330
14D
100
AcDbEntity
  8
0
 48
0.1
100
AcDbVertex
100
AcDbPolygonMeshVertex
 10
159.0941216600365
 20
186.9102905495989
 30
0.3482650966037265
 70
    64
  0
VERTEX
  5
187
330
14D
100
AcDbEntity
  8
0
 48
0.1
100
AcDbVertex
100
AcDbPolygonMeshVertex
 10
159.0933364505355
 20
186.9275492746871
 30
0.3067838677116257
 70
    64
  0
VERTEX
  5
188
330
14D
100
AcDbEntity
  8
0
 48
0.1
100
AcDbVertex
100
AcDbPolygonMeshVertex
 10
159.092496801444
 20
186.9444034901563
 30
0.2656232907360552
 70
    64
  0
VERTEX
  5
189
330
14D
100
AcDbEntity
  8
0
 48
0.1
100
AcDbVertex
100
AcDbPolygonMeshVertex
 10
159.0915454288347
 20
186.9608971283345
 30
0.2243298853895922
 70
    64
  0
VERTEX
  5
18A
330
14D
100
AcDbEntity
  8
0
 48
0.1
100
AcDbVertex
100
AcDbPolygonMeshVertex
 10
159.090425065806
 20
186.9770741764977
 30
0.1824501916262502
 70
    64
  0
VERTEX
  5
18B
330
14D
100
AcDbEntity
  8
0
 48
0.1
100
AcDbVertex
100
AcDbPolygonMeshVertex
 10
159.0890784625538
 20
186.9929786771037
 30
0.1395307689298333
 70
    64
  0
VERTEX
  5
18C
330
14D
100
AcDbEntity
  8
0
 48
0.1
100
AcDbVertex
100
AcDbPolygonMeshVertex
 10
159.0874483864423
 20
187.0086547280186
 30
0.0951181955993136
 70
    64
  0
VERTEX
  5
18D
330
14D
100
AcDbEntity
  8
0
 48
0.1
100
AcDbVertex
100
AcDbPolygonMeshVertex
 10
159.0854776220711
 20
187.0241464827344
 30
0.0487590680313404
 70
    64
  0
VERTEX
  5
18E
330
14D
100
AcDbEntity
  8
0
 48
0.1
100
AcDbVertex
100
AcDbPolygonMeshVertex
 10
159.0831089713401
 20
187.0394981505779
 30
0.0
 70
    64
  0
VERTEX
  5
18F
330
14D
100
AcDbEntity
  8
0
 48
0.1
100
AcDbVertex
100
AcDbPolygonMeshVertex
 10
159.5824813852265
 20
186.7629041039551
 30
0.5026536545466507
 70
    64
  0
VERTEX
  5
190
330
14D
100
AcDbEntity
  8
0
 48
0.1
100
AcDbVertex
100
AcDbPolygonMeshVertex
 10
159.5855299069585
 20
186.7802964463774
 30
0.4604496173495562
 70
    64
  0
VERTEX
  5
191
330
14D
100
AcDbEntity
  8
0
 48
0.1
100
AcDbVertex
100
AcDbPolygonMeshVertex
 10
159.5880265044189
 20
186.7973156179817
 30
0.4187500836715513
 70
    64
  0
VERTEX
  5
192
330
14D
100
AcDbEntity
  8
0
 48
0.1
100
AcDbVertex
100
AcDbPolygonMeshVertex
 10
159.5900535896064
 20
186.813945973134
 30
0.3774208898267341
 70
    64
  0
VERTEX
  5
193
330
14D
100
AcDbEntity
  8
0
 48
0.1
100
AcDbVertex
100
AcDbPolygonMeshVertex
 10
159.5916935954054
 20
186.8301719336081
 30
0.3363279009493267
 70
    64
  0
VERTEX
  5
194
330
14D
100
AcDbEntity
  8
0
 48
0.1
100
AcDbVertex
100
AcDbPolygonMeshVertex
 10
159.5930289756904
 20
186.8459779889208
 30
0.2953370101203483
 70
    64
  0
VERTEX
  5
195
330
14D
100
AcDbEntity
  8
0
 48
0.1
100
AcDbVertex
100
AcDbPolygonMeshVertex
 10
159.594142205426
 20
186.8613486966554
 30
0.2543141374900273
 70
    64
  0
VERTEX
  5
196
330
14D
100
AcDbEntity
  8
0
 48
0.1
100
AcDbVertex
100
AcDbPolygonMeshVertex
 10
159.5951157807646
 20
186.8762686827763
 30
0.2131252293960907
 70
    64
  0
VERTEX
  5
197
330
14D
100
AcDbEntity
  8
0
 48
0.1
100
AcDbVertex
100
AcDbPolygonMeshVertex
 10
159.5960322191399
 20
186.8907226419325
 30
0.1716362574780607
 70
    64
  0
VERTEX
  5
198
330
14D
100
AcDbEntity
  8
0
 48
0.1
100
AcDbVertex
100
AcDbPolygonMeshVertex
 10
159.5969740593583
 20
186.9046953377506
 30
0.1297132177876979
 70
    64
  0
VERTEX
  5
199
330
14D
100
AcDbEntity
  8
0
 48
0.1
100
AcDbVertex
100
AcDbPolygonMeshVertex
 10
159.5980238616862
 20
186.9181716031175
 30
0.0872221298957228
 70
    64
  0
VERTEX
  5
19A
330
14D
100
AcDbEntity
  8
0
 48
0.1
100
AcDbVertex
100
AcDbPolygonMeshVertex
 10
159.5992642079341
 20
186.931136340452
 30
0.0440290359949525
 70
    64
  0
VERTEX
  5
19B
330
14D
100
AcDbEntity
  8
0
 48
0.1
100
AcDbVertex
100
AcDbPolygonMeshVertex
 10
159.6007777015383
 20
186.9435745219671
 30
0.0
 70
    64
  0
VERTEX
  5
19C
330
14D
100
AcDbEntity
  8
0
 48
0.1
100
AcDbVertex
100
AcDbPolygonMeshVertex
 10
160.0576877727938
 20
186.6405264448993
 30
0.4949370226373825
 70
    64
  0
VERTEX
  5
19D
330
14D
100
AcDbEntity
  8
0
 48
0.1
100
AcDbVertex
100
AcDbPolygonMeshVertex
 10
160.0628059998114
 20
186.6570450478794
 30
0.4547354110921466
 70
    64
  0
VERTEX
  5
19E
330
14D
100
AcDbEntity
  8
0
 48
0.1
100
AcDbVertex
100
AcDbPolygonMeshVertex
 10
160.0677769609791
 20
186.6730883639891
 30
0.4143233879266857
 70
    64
  0
VERTEX
  5
19F
330
14D
100
AcDbEntity
  8
0
 48
0.1
100
AcDbVertex
100
AcDbPolygonMeshVertex
 10
160.0725998987825
 20
186.688653948421
 30
0.3737071114443946
 70
    64
  0
VERTEX
  5
1A0
330
14D
100
AcDbEntity
  8
0
 48
0.1
100
AcDbVertex
100
AcDbPolygonMeshVertex
 10
160.0772740782645
 20
186.7037394291686
 30
0.3328927710744012
 70
    64
  0
VERTEX
  5
1A1
330
14D
100
AcDbEntity
  8
0
 48
0.1
100
AcDbVertex
100
AcDbPolygonMeshVertex
 10
160.0817987871366
 20
186.7183425073869
 30
0.2918865864283744
 70
    64
  0
VERTEX
  5
1A2
330
14D
100
AcDbEntity
  8
0
 48
0.1
100
AcDbVertex
100
AcDbPolygonMeshVertex
 10
160.086173335888
 20
186.7324609577434
 30
0.2506948063527294
 70
    64
  0
VERTEX
  5
1A3
330
14D
100
AcDbEntity
  8
0
 48
0.1
100
AcDbVertex
100
AcDbPolygonMeshVertex
 10
160.0903970578906
 20
186.7460926287573
 30
0.2093237079763794
 70
    64
  0
VERTEX
  5
1A4
330
14D
100
AcDbEntity
  8
0
 48
0.1
100
AcDbVertex
100
AcDbPolygonMeshVertex
 10
160.0944693095002
 20
186.7592354431267
 30
0.167779595754177
 70
    64
  0
VERTEX
  5
1A5
330
14D
100
AcDbEntity
  8
0
 48
0.1
100
AcDbVertex
100
AcDbPolygonMeshVertex
 10
160.098389470155
 20
186.7718873980456
 30
0.1260688005061917
 70
    64
  0
VERTEX
  5
1A6
330
14D
100
AcDbEntity
  8
0
 48
0.1
100
AcDbVertex
100
AcDbPolygonMeshVertex
 10
160.1021569424701
 20
186.7840465655093
 30
0.08419767845297
 70
    64
  0
VERTEX
  5
1A7
330
14D
100
AcDbEntity
  8
0
 48
0.1
100
AcDbVertex
100
AcDbPolygonMeshVertex
 10
160.1057711523284
 20
186.7957110926077
 30
0.0421726102469226
 70
    64
  0
VERTEX
  5
1A8
330
14D
100
AcDbEntity
  8
0
 48
0.1
100
AcDbVertex
100
AcDbPolygonMeshVertex
 10
160.109231548968
 20
186.8068792018079
 30
0.0
 70
    64
  0
SEQEND
  5
1A9
330
14D
100
AcDbEntity
  8
0
 48
0.1
  0
SPLINE
  5
1AA
330
2
100
AcDbEntity
  8
0
 48
0.1
100
AcDbSpline
210
0.0
220
0.0
230
1.0
 70
     8
 71
     3
 72
    32
 73
    28
 74
     0
 42
0.0000000001
 43
0.0000000001
 40
0.0
 40
0.0
 40
0.0
 40
0.0
 40
0.3081579803011284
 40
0.3081579803011284
 40
0.6163159606022568
 40
0.6163159606022568
 40
1.232631921204513
 40
1.232631921204513
 40
2.465263842409027
 40
2.465263842409027
 40
4.930527684818054
 40
4.930527684818054
 40
9.861055369636108
 40
9.861055369636108
 40
14.53709184146529
 40
14.53709184146529
 40
19.21312831329448
 40
19.21312831329448
 40
25.26280148062859
 40
25.26280148062859
 40
29.45064485883369
 40
29.45064485883369
 40
40.89550541833398
 40
40.89550541833398
 40
46.21960319354069
 40
46.21960319354069
 40
49.00979646262858
 40
49.00979646262858
 40
49.00979646262858
 40
49.00979646262858
 10
143.2692468367372
 20
202.0479596948903
 30
0.0
 10
143.2692468367372
 20
201.9405367702981
 30
0.0
 10
143.2700116902954
 20
201.8483156827051
 30
0.0
 10
143.2736145086644
 20
201.6488524706451
 30
0.0
 10
143.2763610108082
 20
201.5490283258523
 30
0.0
 10
143.2874163280864
 20
201.2493387418737
 30
0.0
 10
143.298541017493
 20
201.049256111654
 30
0.0
 10
143.3430205138101
 20
200.448624922915
 30
0.0
 10
143.3874817613792
 20
200.0476926754856
 30
0.0
 10
143.5639897026769
 20
198.847264520061
 30
0.0
 10
143.7391755030659
 20
198.0501372845905
 30
0.0
 10
144.4263075920036
 20
195.6995782990927
 30
0.0
 10
145.1000159641961
 20
194.1871024328825
 30
0.0
 10
146.770752981743
 20
191.5080631565702
 30
0.0
 10
147.7513046379509
 20
190.3375465477078
 30
0.0
 10
149.9810489634284
 20
188.2510783131785
 30
0.0
 10
151.2287505287523
 20
187.3333889390665
 30
0.0
 10
154.3018465114527
 20
185.493749972083
 30
0.0
 10
156.1892089528623
 20
184.6499671407362
 30
0.0
 10
159.4871362294931
 20
183.5131844382754
 30
0.0
 10
160.8655034596365
 20
183.1305769166901
 30
0.0
 10
166.0049320419318
 20
181.9806467119641
 30
0.0
 10
169.7691380297774
 20
181.6919127131371
 30
0.0
 10
175.2542480828134
 20
181.5498337010727
 30
0.0
 10
177.02017623479
 20
181.5461686101317
 30
0.0
 10
179.7208523477043
 20
181.5474819483678
 30
0.0
 10
180.6519372025728
 20
181.5479596948898
 30
0.0
 10
181.5817468367369
 20
181.5479596948898
 30
0.0
  0
SPLINE
  5
1AB
330
2
100
AcDbEntity
  8
0
 48
0.1
100
AcDbSpline
210
0.0
220
0.0
230
1.0
 70
     8
 71
     3
 72
    44
 73
    40
 74
     0
 42
0.0000000001
 43
0.0000000001
 40
0.0
 40
0.0
 40
0.0
 40
0.0
 40
0.0372315905762032
 40
0.0372315905762032
 40
0.0744631811524064
 40
0.0744631811524064
 40
0.1489263623048127
 40
0.1489263623048127
 40
0.2978527246096254
 40
0.2978527246096254
 40
0.5957054492192509
 40
0.5957054492192509
 40
1.191410898438501
 40
1.191410898438501
 40
2.382821796877003
 40
2.382821796877003
 40
4.765643593754006
 40
4.765643593754006
 40
10.27683404202779
 40
10.27683404202779
 40
13.31385718964302
 40
13.31385718964302
 40
16.35088033725824
 40
16.35088033725824
 40
21.62185769145444
 40
21.62185769145444
 40
26.89283504565065
 40
26.89283504565065
 40
30.42408765172858
 40
30.42408765172858
 40
33.95534025780652
 40
33.95534025780652
 40
41.01784546996239
 40
41.01784546996239
 40
44.71382998133154
 40
44.71382998133154
 40
47.4197731612029
 40
47.4197731612029
 40
49.00979646262858
 40
49.00979646262858
 40
49.00979646262858
 40
49.00979646262858
 10
147.0192468367372
 20
202.0479596948903
 30
0.0
 10
147.0192468367372
 20
202.030272489028
 30
0.0
 10
147.019241934222
 20
202.0256169926636
 30
0.0
 10
147.0192666647915
 20
202.0073292298434
 30
0.0
 10
147.0192895838037
 20
201.9981817858385
 30
0.0
 10
147.0193900085229
 20
201.9707288789799
 30
0.0
 10
147.01949918181
 20
201.9524128438568
 30
0.0
 10
147.0199534208175
 20
201.8974233537508
 30
0.0
 10
147.020425204008
 20
201.8607085351622
 30
0.0
 10
147.0223477621356
 20
201.75040591235
 30
0.0
 10
147.0243057183749
 20
201.6766601171166
 30
0.0
 10
147.0322101817038
 20
201.4548498761491
 30
0.0
 10
147.0401868452583
 20
201.3062140475915
 30
0.0
 10
147.0722386946902
 20
200.8585057945508
 30
0.0
 10
147.1044289803213
 20
200.5576442603496
 30
0.0
 10
147.233243719599
 20
199.651936660858
 30
0.0
 10
147.3620154190928
 20
199.0440346777206
 30
0.0
 10
147.9246901398402
 20
197.0538856691121
 30
0.0
 10
148.5377272480508
 20
195.7050827475881
 30
0.0
 10
149.7386386341672
 20
193.877894617023
 30
0.0
 10
150.2148739828997
 20
193.278505072773
 30
0.0
 10
151.2889554158466
 20
192.1355133624724
 30
0.0
 10
151.8832625270502
 20
191.5968061550333
 30
0.0
 10
153.654974621158
 20
190.2123072879755
 30
0.0
 10
154.9380968485273
 20
189.4331228808277
 30
0.0
 10
157.7289348478151
 20
188.0896253610385
 30
0.0
 10
159.2338305199097
 20
187.5253547273386
 30
0.0
 10
161.8205443892691
 20
186.7647232306189
 30
0.0
 10
162.8758732377282
 20
186.5084499176892
 30
0.0
 10
164.9957935399396
 20
186.0856814093087
 30
0.0
 10
166.0641477544088
 20
185.9179963718452
 30
0.0
 10
169.3039349532337
 20
185.5205623468365
 30
0.0
 10
171.5086575497665
 20
185.3964224386306
 30
0.0
 10
174.8890965979016
 20
185.3116816324601
 30
0.0
 10
176.0868426238888
 20
185.3013999407853
 30
0.0
 10
178.1881333109666
 20
185.2958651199801
 30
0.0
 10
179.0847014671528
 20
185.2973654383719
 30
0.0
 10
180.5210333949365
 20
185.2981689122502
 30
0.0
 10
181.052972387657
 20
185.2979596948898
 30
0.0
 10
181.5817468367369
 20
185.2979596948898
 30
0.0
  0
SPLINE
  5
1AC
330
2
100
AcDbEntity
  8
0
 48
0.1
100
AcDbSpline
210
0.0
220
0.0
230
1.0
 70
     8
 71
     3
 72
    12
 73
     8
 74
     6
 42
0.0000000001
 43
0.0000000001
 44
0.0000000001
 40
0.0
 40
0.0
 40
0.0
 40
0.0
 40
0.3932057996606773
 40
5.078146334416583
 40
13.39121325288301
 40
23.90600267665918
 40
31.94347545158445
 40
31.94347545158445
 40
31.94347545158445
 40
31.94347545158445
 10
155.8942468367372
 20
202.0479596948901
 30
0.0
 10
155.8931943656269
 20
201.9169074304303
 30
0.0
 10
155.8796019864826
 20
200.2244029532377
 30
0.0
 10
157.2324850787033
 20
195.7396670743154
 30
0.0
 10
163.7511929341696
 20
190.5148858213149
 30
0.0
 10
172.7298165424156
 20
188.848157337686
 30
0.0
 10
178.9060094208992
 20
188.7695256318643
 30
0.0
 10
181.581746836737
 20
188.7354596948901
 30
0.0
 11
155.8942468367372
 21
202.0479596948901
 31
0.0
 11
155.8942468367372
 21
201.6547538952294
 31
0.0
 11
157.163500647547
 21
197.1450241275001
 31
0.0
 11
163.3498838579967
 21
191.5920299473873
 31
0.0
 11
173.550005134939
 21
189.0389293692619
 31
0.0
 11
181.581746836737
 21
188.7354596948901
 31
0.0
  0
SPLINE
  5
1AD
330
2
100
AcDbEntity
  8
0
 48
0.1
100
AcDbSpline
210
0.0
220
0.0
230
1.0
 70
     8
 71
     3
 72
    46
 73
    42
 74
     0
 42
0.0000000001
 43
0.0000000001
 40
0.0
 40
0.0
 40
0.0
 40
0.0
 40
0.0329421752638776
 40
0.0329421752638776
 40
0.0658843505277552
 40
0.0658843505277552
 40
0.1317687010555104
 40
0.1317687010555104
 40
0.2635374021110208
 40
0.2635374021110208
 40
0.5270748042220417
 40
0.5270748042220417
 40
1.054149608444083
 40
1.054149608444083
 40
2.108299216888166
 40
2.108299216888166
 40
4.216598433776333
 40
4.216598433776333
 40
8.433196867552666
 40
8.433196867552666
 40
10.78067188088944
 40
10.78067188088944
 40
13.14530759320114
 40
13.14530759320114
 40
15.50994330551285
 40
15.50994330551285
 40
20.85290796175864
 40
20.85290796175864
 40
26.19587261800443
 40
26.19587261800443
 40
29.6535647659466
 40
29.6535647659466
 40
33.11125691388879
 40
33.11125691388879
 40
41.61119157699688
 40
41.61119157699688
 40
45.04531562953203
 40
45.04531562953203
 40
47.61929663822919
 40
47.61929663822919
 40
49.00979646262858
 40
49.00979646262858
 40
49.00979646262858
 40
49.00979646262858
 10
147.5192468367372
 20
202.0479596948903
 30
0.0
 10
147.5192468367372
 20
202.032202218391
 30
0.0
 10
147.5192417314845
 20
202.0279259667283
 30
0.0
 10
147.5192585702591
 20
202.012427174643
 30
0.0
 10
147.5192749042997
 20
202.0046747820891
 30
0.0
 10
147.5193476585961
 20
201.981408694962
 30
0.0
 10
147.5194278311018
 20
201.9658860908494
 30
0.0
 10
147.5197634205563
 20
201.9192832836743
 30
0.0
 10
147.5201139106576
 20
201.8881680846356
 30
0.0
 10
147.5215461329192
 20
201.7946876926707
 30
0.0
 10
147.5230086367529
 20
201.7321876881218
 30
0.0
 10
147.5289221954644
 20
201.5441905812909
 30
0.0
 10
147.5348996187229
 20
201.4181961612334
 30
0.0
 10
147.558949434908
 20
201.0385699172306
 30
0.0
 10
147.5831445438021
 20
200.7832927524566
 30
0.0
 10
147.6801291896599
 20
200.0137605439174
 30
0.0
 10
147.7773961257866
 20
199.4957972613401
 30
0.0
 10
148.1634336590097
 20
197.9509865944367
 30
0.0
 10
148.5474673175878
 20
196.9337119808562
 30
0.0
 10
149.3061403597077
 20
195.466240617048
 30
0.0
 10
149.6091635833673
 20
194.9644874174103
 30
0.0
 10
150.2689027872343
 20
194.0221390562161
 30
0.0
 10
150.6318398606549
 20
193.5736020420451
 30
0.0
 10
151.4291712811621
 20
192.7094466139153
 30
0.0
 10
151.8623618213749
 20
192.2956455919343
 30
0.0
 10
153.3823764771334
 20
191.0058174464441
 30
0.0
 10
154.6076403375342
 20
190.2041457396054
 30
0.0
 10
157.310895185377
 20
188.8089437910405
 30
0.0
 10
158.7873198012504
 20
188.2163468913556
 30
0.0
 10
161.3135443125931
 20
187.4203902122062
 30
0.0
 10
162.3291416945127
 20
187.1533523083952
 30
0.0
 10
164.3706880973356
 20
186.7071444890194
 30
0.0
 10
165.3998840785833
 20
186.5270071892848
 30
0.0
 10
168.9990482090315
 20
186.0251534551738
 30
0.0
 10
171.6292375145597
 20
185.8815478217496
 30
0.0
 10
175.3859801189527
 20
185.8064877627572
 30
0.0
 10
176.4993784641794
 20
185.799372237679
 30
0.0
 10
178.4731939588573
 20
185.7961104263463
 30
0.0
 10
179.3272902614182
 20
185.7976478987173
 30
0.0
 10
180.6552695731905
 20
185.7981368048228
 30
0.0
 10
181.1194531546447
 20
185.7979596948898
 30
0.0
 10
181.5817468367369
 20
185.7979596948898
 30
0.0
  0
SPLINE
  5
1AE
330
2
100
AcDbEntity
  8
0
 48
0.1
100
AcDbSpline
210
0.0
220
0.0
230
1.0
 70
     8
 71
     3
 72
    12
 73
     8
 74
     6
 42
0.0000000001
 43
0.0000000001
 44
0.0000000001
 40
0.0
 40
0.0
 40
0.0
 40
0.0
 40
0.3932057996606488
 40
5.078146334416582
 40
13.30824099036491
 40
23.82303041414108
 40
31.86050318906636
 40
31.86050318906636
 40
31.86050318906636
 40
31.86050318906636
 10
155.8942468367372
 20
202.0479596948899
 30
0.0
 10
155.8932068560259
 20
202.1789987002524
 30
0.0
 10
155.8797757869997
 20
203.8713319397963
 30
0.0
 10
157.2083202708302
 20
208.3452183962096
 30
0.0
 10
163.8085622809021
 20
213.4294688341339
 30
0.0
 10
172.7238499969607
 20
215.1291459112059
 30
0.0
 10
178.9042058697656
 20
215.2033234534865
 30
0.0
 10
181.581746836737
 20
215.2354596948895
 30
0.0
 11
155.8942468367372
 21
202.0479596948899
 31
0.0
 11
155.8942468367372
 21
202.4411654945505
 31
0.0
 11
157.163500647547
 21
206.9508952622798
 31
0.0
 11
163.3498838579967
 21
212.3788894423924
 31
0.0
 11
173.550005134939
 21
214.9319900205178
 31
0.0
 11
181.581746836737
 21
215.2354596948895
 31
0.0
  0
LINE
  5
1AF
330
2
100
AcDbEntity
  8
CENTER
 48
0.05
100
AcDbLine
 10
162.4212350367355
 20
184.9570562632297
 30
0.0
 11
157.1563594576926
 21
186.5883581636748
 31
0.0
  0
LINE
  5
1B2
330
2
100
AcDbEntity
  8
CENTER
 48
0.05
100
AcDbLine
 10
160.109231548968
 20
186.8068792018079
 30
0.0
 11
159.4683629454602
 21
184.7385352250966
 31
0.0
  0
SPLINE
  5
1B3
330
2
100
AcDbEntity
  8
0
 48
0.1
100
AcDbSpline
210
0.0
220
0.0
230
1.0
 70
     8
 71
     3
 72
    32
 73
    28
 74
     0
 42
0.0000000001
 43
0.0000000001
 40
0.0
 40
0.0
 40
0.0
 40
0.0
 40
0.3081579803011284
 40
0.3081579803011284
 40
0.6163159606022568
 40
0.6163159606022568
 40
1.232631921204513
 40
1.232631921204513
 40
2.465263842409027
 40
2.465263842409027
 40
4.930527684818054
 40
4.930527684818054
 40
9.861055369636108
 40
9.861055369636108
 40
14.53709184146529
 40
14.53709184146529
 40
19.21312831329448
 40
19.21312831329448
 40
25.26280148062859
 40
25.26280148062859
 40
29.45064485883369
 40
29.45064485883369
 40
40.89550541833398
 40
40.89550541833398
 40
46.21960319354069
 40
46.21960319354069
 40
49.00979646262858
 40
49.00979646262858
 40
49.00979646262858
 40
49.00979646262858
 10
219.8942468367372
 20
202.0479596948903
 30
0.0
 10
219.8942468367372
 20
201.9405367702981
 30
0.0
 10
219.8934819831789
 20
201.8483156827051
 30
0.0
 10
219.88987916481
 20
201.6488524706451
 30
0.0
 10
219.8871326626662
 20
201.5490283258523
 30
0.0
 10
219.876077345388
 20
201.2493387418737
 30
0.0
 10
219.8649526559814
 20
201.049256111654
 30
0.0
 10
219.8204731596643
 20
200.448624922915
 30
0.0
 10
219.7760119120951
 20
200.0476926754856
 30
0.0
 10
219.5995039707975
 20
198.847264520061
 30
0.0
 10
219.4243181704085
 20
198.0501372845905
 30
0.0
 10
218.7371860814707
 20
195.6995782990927
 30
0.0
 10
218.0634777092782
 20
194.1871024328825
 30
0.0
 10
216.3927406917314
 20
191.5080631565702
 30
0.0
 10
215.4121890355234
 20
190.3375465477078
 30
0.0
 10
213.1824447100459
 20
188.2510783131785
 30
0.0
 10
211.9347431447221
 20
187.3333889390665
 30
0.0
 10
208.8616471620217
 20
185.493749972083
 30
0.0
 10
206.9742847206121
 20
184.6499671407362
 30
0.0
 10
203.6763574439812
 20
183.5131844382754
 30
0.0
 10
202.2979902138379
 20
183.1305769166901
 30
0.0
 10
197.1585616315426
 20
181.9806467119641
 30
0.0
 10
193.394355643697
 20
181.6919127131371
 30
0.0
 10
187.8467455906607
 20
181.5498337010727
 30
0.0
 10
186.1433174386838
 20
181.5461686101317
 30
0.0
 10
183.4426413257696
 20
181.5474819483678
 30
0.0
 10
182.511556470901
 20
181.5479596948898
 30
0.0
 10
181.5817468367369
 20
181.5479596948898
 30
0.0
  0
SPLINE
  5
1B4
330
2
100
AcDbEntity
  8
0
 48
0.1
100
AcDbSpline
210
0.0
220
0.0
230
1.0
 70
     8
 71
     3
 72
    44
 73
    40
 74
     0
 42
0.0000000001
 43
0.0000000001
 40
0.0
 40
0.0
 40
0.0
 40
0.0
 40
0.0372315905762032
 40
0.0372315905762032
 40
0.0744631811524064
 40
0.0744631811524064
 40
0.1489263623048127
 40
0.1489263623048127
 40
0.2978527246096254
 40
0.2978527246096254
 40
0.5957054492192509
 40
0.5957054492192509
 40
1.191410898438501
 40
1.191410898438501
 40
2.382821796877003
 40
2.382821796877003
 40
4.765643593754006
 40
4.765643593754006
 40
10.27683404202779
 40
10.27683404202779
 40
13.31385718964302
 40
13.31385718964302
 40
16.35088033725824
 40
16.35088033725824
 40
21.62185769145444
 40
21.62185769145444
 40
26.89283504565065
 40
26.89283504565065
 40
30.42408765172858
 40
30.42408765172858
 40
33.95534025780652
 40
33.95534025780652
 40
41.01784546996239
 40
41.01784546996239
 40
44.71382998133154
 40
44.71382998133154
 40
47.4197731612029
 40
47.4197731612029
 40
49.00979646262858
 40
49.00979646262858
 40
49.00979646262858
 40
49.00979646262858
 10
216.1442468367372
 20
202.0479596948903
 30
0.0
 10
216.1442468367372
 20
202.030272489028
 30
0.0
 10
216.1442517392524
 20
202.0256169926636
 30
0.0
 10
216.1442270086828
 20
202.0073292298434
 30
0.0
 10
216.1442040896706
 20
201.9981817858385
 30
0.0
 10
216.1441036649514
 20
201.9707288789799
 30
0.0
 10
216.1439944916643
 20
201.9524128438568
 30
0.0
 10
216.1435402526568
 20
201.8974233537508
 30
0.0
 10
216.1430684694664
 20
201.8607085351622
 30
0.0
 10
216.1411459113388
 20
201.75040591235
 30
0.0
 10
216.1391879550994
 20
201.6766601171166
 30
0.0
 10
216.1312834917706
 20
201.4548498761491
 30
0.0
 10
216.123306828216
 20
201.3062140475915
 30
0.0
 10
216.0912549787842
 20
200.8585057945508
 30
0.0
 10
216.0590646931531
 20
200.5576442603496
 30
0.0
 10
215.9302499538754
 20
199.651936660858
 30
0.0
 10
215.8014782543815
 20
199.0440346777206
 30
0.0
 10
215.2388035336342
 20
197.0538856691121
 30
0.0
 10
214.6257664254235
 20
195.7050827475881
 30
0.0
 10
213.4248550393071
 20
193.877894617023
 30
0.0
 10
212.9486196905746
 20
193.278505072773
 30
0.0
 10
211.8745382576278
 20
192.1355133624724
 30
0.0
 10
211.2802311464241
 20
191.5968061550333
 30
0.0
 10
209.5085190523163
 20
190.2123072879755
 30
0.0
 10
208.225396824947
 20
189.4331228808277
 30
0.0
 10
205.4345588256593
 20
188.0896253610385
 30
0.0
 10
203.9296631535647
 20
187.5253547273386
 30
0.0
 10
201.3429492842052
 20
186.7647232306189
 30
0.0
 10
200.2876204357462
 20
186.5084499176892
 30
0.0
 10
198.1677001335347
 20
186.0856814093087
 30
0.0
 10
197.0993459190655
 20
185.9179963718452
 30
0.0
 10
193.8595587202406
 20
185.5205623468365
 30
0.0
 10
191.6548361237078
 20
185.3964224386306
 30
0.0
 10
188.2118970755725
 20
185.3116816324601
 30
0.0
 10
187.076651049585
 20
185.3013999407853
 30
0.0
 10
184.9753603625073
 20
185.2958651199801
 30
0.0
 10
184.0787922063211
 20
185.2973654383719
 30
0.0
 10
182.6424602785373
 20
185.2981689122502
 30
0.0
 10
182.1105212858169
 20
185.2979596948898
 30
0.0
 10
181.5817468367369
 20
185.2979596948898
 30
0.0
  0
SPLINE
  5
1B5
330
2
100
AcDbEntity
  8
0
 48
0.1
100
AcDbSpline
210
0.0
220
0.0
230
1.0
 70
     8
 71
     3
 72
    12
 73
     8
 74
     6
 42
0.0000000001
 43
0.0000000001
 44
0.0000000001
 40
0.0
 40
0.0
 40
0.0
 40
0.0
 40
0.3932057996606773
 40
5.078146334416583
 40
13.39121325288301
 40
23.966643174923
 40
31.94166086424156
 40
31.94166086424156
 40
31.94166086424156
 40
31.94166086424156
 10
207.2692468367371
 20
202.0479596948901
 30
0.0
 10
207.2702993441033
 20
201.9169072231376
 30
0.0
 10
207.2838921914825
 20
200.2244000688162
 30
0.0
 10
205.9309624946763
 20
195.7399306511426
 30
0.0
 10
199.395827869284
 20
190.4994717830439
 30
0.0
 10
190.4111020658289
 20
188.8568894887596
 30
0.0
 10
184.2363379377452
 20
188.7719681875082
 30
0.0
 10
181.5817468367368
 20
188.7354596948901
 30
0.0
 11
207.2692468367371
 21
202.0479596948901
 31
0.0
 11
207.2692468367371
 21
201.6547538952294
 31
0.0
 11
205.9999930259273
 21
197.1450241275001
 31
0.0
 11
199.8136098154776
 21
191.5920299473873
 31
0.0
 11
189.5509885385351
 21
189.0389293692619
 31
0.0
 11
181.5817468367368
 21
188.7354596948901
 31
0.0
  0
SPLINE
  5
1B6
330
2
100
AcDbEntity
  8
0
 48
0.1
100
AcDbSpline
210
0.0
220
0.0
230
1.0
 70
     8
 71
     3
 72
    46
 73
    42
 74
     0
 42
0.0000000001
 43
0.0000000001
 40
0.0
 40
0.0
 40
0.0
 40
0.0
 40
0.0329421752638776
 40
0.0329421752638776
 40
0.0658843505277552
 40
0.0658843505277552
 40
0.1317687010555104
 40
0.1317687010555104
 40
0.2635374021110208
 40
0.2635374021110208
 40
0.5270748042220417
 40
0.5270748042220417
 40
1.054149608444083
 40
1.054149608444083
 40
2.108299216888166
 40
2.108299216888166
 40
4.216598433776333
 40
4.216598433776333
 40
8.433196867552666
 40
8.433196867552666
 40
10.78067188088944
 40
10.78067188088944
 40
13.14530759320114
 40
13.14530759320114
 40
15.50994330551285
 40
15.50994330551285
 40
20.85290796175864
 40
20.85290796175864
 40
26.19587261800443
 40
26.19587261800443
 40
29.6535647659466
 40
29.6535647659466
 40
33.11125691388879
 40
33.11125691388879
 40
41.61119157699688
 40
41.61119157699688
 40
45.04531562953203
 40
45.04531562953203
 40
47.61929663822919
 40
47.61929663822919
 40
49.00979646262858
 40
49.00979646262858
 40
49.00979646262858
 40
49.00979646262858
 10
215.6442468367372
 20
202.0479596948903
 30
0.0
 10
215.6442468367372
 20
202.032202218391
 30
0.0
 10
215.6442519419898
 20
202.0279259667283
 30
0.0
 10
215.6442351032152
 20
202.012427174643
 30
0.0
 10
215.6442187691747
 20
202.0046747820891
 30
0.0
 10
215.6441460148783
 20
201.981408694962
 30
0.0
 10
215.6440658423725
 20
201.9658860908494
 30
0.0
 10
215.643730252918
 20
201.9192832836743
 30
0.0
 10
215.6433797628167
 20
201.8881680846356
 30
0.0
 10
215.6419475405551
 20
201.7946876926707
 30
0.0
 10
215.6404850367215
 20
201.7321876881218
 30
0.0
 10
215.6345714780099
 20
201.5441905812909
 30
0.0
 10
215.6285940547514
 20
201.4181961612334
 30
0.0
 10
215.6045442385663
 20
201.0385699172306
 30
0.0
 10
215.5803491296722
 20
200.7832927524566
 30
0.0
 10
215.4833644838145
 20
200.0137605439174
 30
0.0
 10
215.3860975476877
 20
199.4957972613401
 30
0.0
 10
215.0000600144646
 20
197.9509865944367
 30
0.0
 10
214.6160263558865
 20
196.9337119808562
 30
0.0
 10
213.8573533137666
 20
195.466240617048
 30
0.0
 10
213.554330090107
 20
194.9644874174103
 30
0.0
 10
212.89459088624
 20
194.0221390562161
 30
0.0
 10
212.5316538128195
 20
193.5736020420451
 30
0.0
 10
211.7343223923123
 20
192.7094466139153
 30
0.0
 10
211.3011318520995
 20
192.2956455919343
 30
0.0
 10
209.7811171963409
 20
191.0058174464441
 30
0.0
 10
208.5558533359401
 20
190.2041457396054
 30
0.0
 10
205.8525984880974
 20
188.8089437910405
 30
0.0
 10
204.376173872224
 20
188.2163468913556
 30
0.0
 10
201.8499493608813
 20
187.4203902122062
 30
0.0
 10
200.8343519789616
 20
187.1533523083952
 30
0.0
 10
198.7928055761387
 20
186.7071444890194
 30
0.0
 10
197.763609594891
 20
186.5270071892848
 30
0.0
 10
194.1644454644428
 20
186.0251534551738
 30
0.0
 10
191.5342561589147
 20
185.8815478217496
 30
0.0
 10
187.7150135545214
 20
185.8064877627572
 30
0.0
 10
186.6641152092944
 20
185.799372237679
 30
0.0
 10
184.6902997146165
 20
185.7961104263463
 30
0.0
 10
183.8362034120557
 20
185.7976478987173
 30
0.0
 10
182.5082241002834
 20
185.7981368048228
 30
0.0
 10
182.0440405188291
 20
185.7979596948898
 30
0.0
 10
181.5817468367369
 20
185.7979596948898
 30
0.0
  0
LINE
  5
1B7
330
2
100
AcDbEntity
  8
CENTER
 48
0.05
100
AcDbLine
 10
181.5817468367372
 20
197.4934399955154
 30
0.0
 11
181.5817468367372
 21
189.1024793942642
 31
0.0
  0
LINE
  5
1B8
330
2
100
AcDbEntity
  8
CENTER
 48
0.05
100
AcDbLine
 10
185.7772271373628
 20
193.2979596948898
 30
0.0
 11
177.3862665361116
 21
193.2979596948898
 31
0.0
  0
CIRCLE
  5
1B9
330
2
100
AcDbEntity
  8
0
 48
0.1
100
AcDbCircle
 10
181.5817468367372
 20
193.2979596948898
 30
0.0
 40
1.89014635623478
  0
CIRCLE
  5
1BA
330
2
100
AcDbEntity
  8
0
 48
0.1
100
AcDbCircle
 10
181.5817468367372
 20
193.2979596948898
 30
0.0
 40
1.25
  0
SPLINE
  5
1BB
330
2
100
AcDbEntity
  8
0
 48
0.1
100
AcDbSpline
210
0.0
220
0.0
230
1.0
 70
     8
 71
     3
 72
    12
 73
     8
 74
     6
 42
0.0000000001
 43
0.0000000001
 44
0.0000000001
 40
0.0
 40
0.0
 40
0.0
 40
0.0
 40
0.3932057996606488
 40
5.078146334416582
 40
13.30824099036491
 40
23.8836709124049
 40
31.85868860172346
 40
31.85868860172346
 40
31.85868860172346
 40
31.85868860172346
 10
207.2692468367371
 20
202.0479596948899
 30
0.0
 10
207.2702868604009
 20
202.1789989148769
 30
0.0
 10
207.283718484147
 20
203.8713349262379
 30
0.0
 10
205.9551191297813
 20
208.3449472062326
 30
0.0
 10
199.3382458183962
 20
213.4446115440729
 30
0.0
 10
190.4170260291145
 20
215.1203665485566
 30
0.0
 10
184.2381190078022
 20
215.2008563479729
 30
0.0
 10
181.5817468367368
 20
215.2354596948895
 30
0.0
 11
207.2692468367371
 21
202.0479596948899
 31
0.0
 11
207.2692468367371
 21
202.4411654945505
 31
0.0
 11
205.9999930259273
 21
206.9508952622798
 31
0.0
 11
199.8136098154776
 21
212.3788894423924
 31
0.0
 11
189.5509885385351
 21
214.9319900205178
 31
0.0
 11
181.5817468367368
 21
215.2354596948895
 31
0.0
  0
ENDSEC
  0
SECTION
  2
OBJECTS
  0
DICTIONARY
  5
7
330
0
100
AcDbDictionary
  3
ACAD_GROUP
350
25
  3
ACAD_LAYOUT
350
B
  3
ACAD_MLINESTYLE
350
26
  3
ACAD_PLOTSETTINGS
350
27
  3
ACAD_PLOTSTYLENAME
350
6
  3
ACDBHEADERROUNDTRIPXREC
350
24E
  3
ACDBVARIABLEDICTIONARY
350
1BC
  0
DICTIONARY
  5
11
330
10
100
AcDbDictionary
280
     1
  3
ACAD_LAYERFILTERS
360
12
  0
DICTIONARY
  5
1C4
330
2
100
AcDbDictionary
280
     1
  3
ACAD_LAYOUTSELFREF
360
26F
  0
DICTIONARY
  5
1C6
330
C
100
AcDbDictionary
280
     1
  3
ACAD_LAYOUTSELFREF
360
270
  0
DICTIONARY
  5
25
102
{ACAD_REACTORS
330
7
102
}
330
7
100
AcDbDictionary
  0
DICTIONARY
  5
B
102
{ACAD_REACTORS
330
7
102
}
330
7
100
AcDbDictionary
  0
DICTIONARY
  5
26
102
{ACAD_REACTORS
330
7
102
}
330
7
100
AcDbDictionary
  3
STANDARD
350
29
  0
DICTIONARY
  5
27
102
{ACAD_REACTORS
330
7
102
}
330
7
100
AcDbDictionary
  0
ACDBDICTIONARYWDFLT
  5
6
102
{ACAD_REACTORS
330
7
102
}
330
7
100
AcDbDictionary
281
     1
  3
Normal
350
5
100
AcDbDictionaryWithDefault
340
5
  0
DICTIONARY
  5
24E
102
{ACAD_REACTORS
330
7
102
}
330
7
100
AcDbDictionary
  3
CEPSNTYPE
350
258
  3
DIMSTYLEDATA
350
25C
  3
FINGERPRINTGUID
350
259
  3
HYPERLINKBASE
350
251
  3
INSUNITS
350
257
  3
LAYOUTDICT
350
253
  3
LWETCUNION
350
256
  3
PLOTSETDICT
350
254
  3
PLOTSTYLNAMDICT
350
255
  3
PSVPSCALE
350
25B
  3
PUCSBASE
350
25F
  3
PUCSORGBACK
350
265
  3
PUCSORGBOTTOM
350
261
  3
PUCSORGFRONT
350
264
  3
PUCSORGLEFT
350
262
  3
PUCSORGRIGHT
350
263
  3
PUCSORGTOP
350
260
  3
PUCSORTHOREF
350
25D
  3
PUCSORTHOVIEW
350
25E
  3
STYLESHEET
350
252
  3
TSTACKALIGN
350
24F
  3
TSTACKSIZE
350
250
  3
UCSBASE
350
268
  3
UCSORGBACK
350
26E
  3
UCSORGBOTTOM
350
26A
  3
UCSORGFRONT
350
26D
  3
UCSORGLEFT
350
26B
  3
UCSORGRIGHT
350
26C
  3
UCSORGTOP
350
269
  3
UCSORTHOREF
350
266
  3
UCSORTHOVIEW
350
267
  3
VERSIONGUID
350
25A
  0
DICTIONARY
  5
1BC
102
{ACAD_REACTORS
330
7
102
}
330
7
100
AcDbDictionary
  3
DIMASSOC
350
1BE
  3
HIDETEXT
350
1BD
  0
DICTIONARY
  5
12
102
{ACAD_REACTORS
330
11
102
}
330
11
100
AcDbDictionary
280
     1
  3
DIM-1_12
360
13
  3
DIM-1_16
360
14
  0
XRECORD
  5
26F
102
{ACAD_REACTORS
330
1C4
102
}
330
1C4
100
AcDbXrecord
340
2
  0
XRECORD
  5
270
102
{ACAD_REACTORS
330
1C6
102
}
330
1C6
100
AcDbXrecord
340
C
  0
MLINESTYLE
  5
29
102
{ACAD_REACTORS
330
26
102
}
330
26
100
AcDbMlineStyle
  2
STANDARD
 70
     0
  3

 62
   256
 51
90.0
 52
90.0
 71
     2
 49
0.5
 62
   256
  6
BYLAYER
 49
-0.5
 62
   256
  6
BYLAYER
  0
ACDBPLACEHOLDER
  5
5
102
{ACAD_REACTORS
330
6
102
}
330
6
100
AcDbPlaceHolder
280
     0
  0
XRECORD
  5
258
102
{ACAD_REACTORS
330
24E
102
}
330
24E
100
AcDbXrecord
 90
        0
  0
XRECORD
  5
25C
102
{ACAD_REACTORS
330
24E
102
}
330
24E
100
AcDbXrecord
1000
DSTYLE
1002
{
1070
    79
 70
     1
1070
   276
 70
     1
1070
   277
 70
     5
1070
   289
 70
     1
1002
}
  0
XRECORD
  5
259
102
{ACAD_REACTORS
330
24E
102
}
330
24E
100
AcDbXrecord
  1
{6A4AC8E0-4F58-11D5-8420-0003476D26AB}
  0
XRECORD
  5
251
102
{ACAD_REACTORS
330
24E
102
}
330
24E
100
AcDbXrecord
  1

  0
XRECORD
  5
257
102
{ACAD_REACTORS
330
24E
102
}
330
24E
100
AcDbXrecord
 90
        1
  0
XRECORD
  5
253
102
{ACAD_REACTORS
330
24E
102
}
330
24E
100
AcDbXrecord
340
B
  0
XRECORD
  5
256
102
{ACAD_REACTORS
330
24E
102
}
330
24E
100
AcDbXrecord
 90
    10781
  0
XRECORD
  5
254
102
{ACAD_REACTORS
330
24E
102
}
330
24E
100
AcDbXrecord
340
27
  0
XRECORD
  5
255
102
{ACAD_REACTORS
330
24E
102
}
330
24E
100
AcDbXrecord
340
6
  0
XRECORD
  5
25B
102
{ACAD_REACTORS
330
24E
102
}
330
24E
100
AcDbXrecord
 40
0.0
  0
XRECORD
  5
25F
102
{ACAD_REACTORS
330
24E
102
}
330
24E
100
AcDbXrecord
340
0
  0
XRECORD
  5
265
102
{ACAD_REACTORS
330
24E
102
}
330
24E
100
AcDbXrecord
 10
0.0
 20
0.0
 30
0.0
  0
XRECORD
  5
261
102
{ACAD_REACTORS
330
24E
102
}
330
24E
100
AcDbXrecord
 10
0.0
 20
0.0
 30
0.0
  0
XRECORD
  5
264
102
{ACAD_REACTORS
330
24E
102
}
330
24E
100
AcDbXrecord
 10
0.0
 20
0.0
 30
0.0
  0
XRECORD
  5
262
102
{ACAD_REACTORS
330
24E
102
}
330
24E
100
AcDbXrecord
 10
0.0
 20
0.0
 30
0.0
  0
XRECORD
  5
263
102
{ACAD_REACTORS
330
24E
102
}
330
24E
100
AcDbXrecord
 10
0.0
 20
0.0
 30
0.0
  0
XRECORD
  5
260
102
{ACAD_REACTORS
330
24E
102
}
330
24E
100
AcDbXrecord
 10
0.0
 20
0.0
 30
0.0
  0
XRECORD
  5
25D
102
{ACAD_REACTORS
330
24E
102
}
330
24E
100
AcDbXrecord
340
0
  0
XRECORD
  5
25E
102
{ACAD_REACTORS
330
24E
102
}
330
24E
100
AcDbXrecord
 70
     0
  0
XRECORD
  5
252
102
{ACAD_REACTORS
330
24E
102
}
330
24E
100
AcDbXrecord
  1

  0
XRECORD
  5
24F
102
{ACAD_REACTORS
330
24E
102
}
330
24E
100
AcDbXrecord
 90
        1
  0
XRECORD
  5
250
102
{ACAD_REACTORS
330
24E
102
}
330
24E
100
AcDbXrecord
 90
       70
  0
XRECORD
  5
268
102
{ACAD_REACTORS
330
24E
102
}
330
24E
100
AcDbXrecord
340
0
  0
XRECORD
  5
26E
102
{ACAD_REACTORS
330
24E
102
}
330
24E
100
AcDbXrecord
 10
0.0
 20
0.0
 30
0.0
  0
XRECORD
  5
26A
102
{ACAD_REACTORS
330
24E
102
}
330
24E
100
AcDbXrecord
 10
0.0
 20
0.0
 30
0.0
  0
XRECORD
  5
26D
102
{ACAD_REACTORS
330
24E
102
}
330
24E
100
AcDbXrecord
 10
0.0
 20
0.0
 30
0.0
  0
XRECORD
  5
26B
102
{ACAD_REACTORS
330
24E
102
}
330
24E
100
AcDbXrecord
 10
0.0
 20
0.0
 30
0.0
  0
XRECORD
  5
26C
102
{ACAD_REACTORS
330
24E
102
}
330
24E
100
AcDbXrecord
 10
0.0
 20
0.0
 30
0.0
  0
XRECORD
  5
269
102
{ACAD_REACTORS
330
24E
102
}
330
24E
100
AcDbXrecord
 10
0.0
 20
0.0
 30
0.0
  0
XRECORD
  5
266
102
{ACAD_REACTORS
330
24E
102
}
330
24E
100
AcDbXrecord
340
0
  0
XRECORD
  5
267
102
{ACAD_REACTORS
330
24E
102
}
330
24E
100
AcDbXrecord
 70
     1
  0
XRECORD
  5
25A
102
{ACAD_REACTORS
330
24E
102
}
330
24E
100
AcDbXrecord
  1
{85EC75BC-4F0A-4851-AC94-E2622CC43D38}
  0
DICTIONARYVAR
  5
1BE
102
{ACAD_REACTORS
330
1BC
102
}
330
1BC
100
DictionaryVariables
280
     0
  1
1
  0
DICTIONARYVAR
  5
1BD
102
{ACAD_REACTORS
330
1BC
102
}
330
1BC
100
DictionaryVariables
280
     0
  1
1
  0
XRECORD
  5
13
102
{ACAD_REACTORS
330
12
102
}
330
12
100
AcDbXrecord
  1
DIM-1_12
  1
DIM-1_12
  1
*
  1
*
 70
     0
  1
*
  1
*
  0
XRECORD
  5
14
102
{ACAD_REACTORS
330
12
102
}
330
12
100
AcDbXrecord
  1
dim-1_16
  1
*
  1
*
  1
*
 70
     0
  1
*
  1
*
  0
ENDSEC
  0
EOF
