  0
SECTION
  2
HEADER
  9
$ACADVER
  1
AC1018
  9
$ACADMAINTVER
 70
   104
  9
$DWGCODEPAGE
  3
ANSI_1252
  9
$LASTSAVEDBY
  1
francoisbu
  9
$INSBASE
 10
0.0
 20
0.0
 30
0.0
  9
$EXTMIN
 10
13.04052778112839
 20
14.17610706052045
 30
-0.0015258207003583
  9
$EXTMAX
 10
85.06363963302801
 20
39.84098325588036
 30
0.0000000349246037
  9
$LIMMIN
 10
0.0
 20
0.0
  9
$LIMMAX
 10
181.3333333333
 20
117.3333333333
  9
$ORTHOMODE
 70
     0
  9
$REGENMODE
 70
     1
  9
$FILLMODE
 70
     1
  9
$QTEXTMODE
 70
     0
  9
$MIRRTEXT
 70
     0
  9
$LTSCALE
 40
9.973333333300001
  9
$ATTMODE
 70
     1
  9
$TEXTSIZE
 40
0.2
  9
$TRACEWID
 40
0.05
  9
$TEXTSTYLE
  7
STANDARD
  9
$CLAYER
  8
0
  9
$CELTYPE
  6
BYLAYER
  9
$CECOLOR
 62
   256
  9
$CELTSCALE
 40
1.0
  9
$DISPSILH
 70
     0
  9
$DIMSCALE
 40
1.0
  9
$DIMASZ
 40
2.0
  9
$DIMEXO
 40
0.0625
  9
$DIMDLI
 40
6.890666666699999
  9
$DIMRND
 40
0.0
  9
$DIMDLE
 40
0.0
  9
$DIMEXE
 40
0.125
  9
$DIMTP
 40
0.00001
  9
$DIMTM
 40
0.00001
  9
$DIMTXT
 40
1.333333333299999
  9
$DIMCEN
 40
1.631999999999999
  9
$DIMTSZ
 40
0.0
  9
$DIMTOL
 70
     1
  9
$DIMLIM
 70
     0
  9
$DIMTIH
 70
     1
  9
$DIMTOH
 70
     1
  9
$DIMSE1
 70
     0
  9
$DIMSE2
 70
     0
  9
$DIMTAD
 70
     0
  9
$DIMZIN
 70
     0
  9
$DIMBLK
  1
_FILLED
  9
$DIMASO
 70
     1
  9
$DIMSHO
 70
     1
  9
$DIMPOST
  1

  9
$DIMAPOST
  1

  9
$DIMALT
 70
     0
  9
$DIMALTD
 70
     2
  9
$DIMALTF
 40
25.4
  9
$DIMLFAC
 40
1.0
  9
$DIMTOFL
 70
     0
  9
$DIMTVP
 40
0.0
  9
$DIMTIX
 70
     0
  9
$DIMSOXD
 70
     0
  9
$DIMSAH
 70
     0
  9
$DIMBLK1
  1

  9
$DIMBLK2
  1

  9
$DIMSTYLE
  2
STANDARD
  9
$DIMCLRD
 70
     0
  9
$DIMCLRE
 70
     0
  9
$DIMCLRT
 70
     0
  9
$DIMTFAC
 40
1.0
  9
$DIMGAP
 40
0.09
  9
$DIMJUST
 70
     0
  9
$DIMSD1
 70
     0
  9
$DIMSD2
 70
     0
  9
$DIMTOLJ
 70
     1
  9
$DIMTZIN
 70
     0
  9
$DIMALTZ
 70
     0
  9
$DIMALTTZ
 70
     0
  9
$DIMUPT
 70
     0
  9
$DIMDEC
 70
     4
  9
$DIMTDEC
 70
     4
  9
$DIMALTU
 70
     2
  9
$DIMALTTD
 70
     2
  9
$DIMTXSTY
  7
STANDARD
  9
$DIMAUNIT
 70
     0
  9
$DIMADEC
 70
     0
  9
$DIMALTRND
 40
0.0
  9
$DIMAZIN
 70
     0
  9
$DIMDSEP
 70
    46
  9
$DIMATFIT
 70
     3
  9
$DIMFRAC
 70
     0
  9
$DIMLDRBLK
  1

  9
$DIMLUNIT
 70
     2
  9
$DIMLWD
 70
    -2
  9
$DIMLWE
 70
    -2
  9
$DIMTMOVE
 70
     0
  9
$LUNITS
 70
     2
  9
$LUPREC
 70
     4
  9
$SKETCHINC
 40
0.1
  9
$FILLETRAD
 40
0.0
  9
$AUNITS
 70
     0
  9
$AUPREC
 70
     0
  9
$MENU
  1
.
  9
$ELEVATION
 40
0.0
  9
$PELEVATION
 40
0.0
  9
$THICKNESS
 40
0.0
  9
$LIMCHECK
 70
     0
  9
$CHAMFERA
 40
0.0
  9
$CHAMFERB
 40
0.0
  9
$CHAMFERC
 40
0.0
  9
$CHAMFERD
 40
0.0
  9
$SKPOLY
 70
     0
  9
$TDCREATE
 40
2457498.493016435
  9
$TDUCREATE
 40
2457498.659683102
  9
$TDUPDATE
 40
2457498.500337639
  9
$TDUUPDATE
 40
2457498.667004305
  9
$TDINDWG
 40
0.0054411227
  9
$TDUSRTIMER
 40
0.0054411227
  9
$USRTIMER
 70
     1
  9
$ANGBASE
 50
0.0
  9
$ANGDIR
 70
     0
  9
$PDMODE
 70
     3
  9
$PDSIZE
 40
0.03125
  9
$PLINEWID
 40
0.0
  9
$SPLFRAME
 70
     0
  9
$SPLINETYPE
 70
     6
  9
$SPLINESEGS
 70
     8
  9
$HANDSEED
  5
1744
  9
$SURFTAB1
 70
     6
  9
$SURFTAB2
 70
     6
  9
$SURFTYPE
 70
     6
  9
$SURFU
 70
     6
  9
$SURFV
 70
     6
  9
$UCSBASE
  2

  9
$UCSNAME
  2

  9
$UCSORG
 10
0.0
 20
0.0
 30
0.0
  9
$UCSXDIR
 10
1.0
 20
0.0
 30
0.0
  9
$UCSYDIR
 10
0.0
 20
1.0
 30
0.0
  9
$UCSORTHOREF
  2

  9
$UCSORTHOVIEW
 70
     0
  9
$UCSORGTOP
 10
0.0
 20
0.0
 30
0.0
  9
$UCSORGBOTTOM
 10
0.0
 20
0.0
 30
0.0
  9
$UCSORGLEFT
 10
0.0
 20
0.0
 30
0.0
  9
$UCSORGRIGHT
 10
0.0
 20
0.0
 30
0.0
  9
$UCSORGFRONT
 10
0.0
 20
0.0
 30
0.0
  9
$UCSORGBACK
 10
0.0
 20
0.0
 30
0.0
  9
$PUCSBASE
  2

  9
$PUCSNAME
  2

  9
$PUCSORG
 10
0.0
 20
0.0
 30
0.0
  9
$PUCSXDIR
 10
1.0
 20
0.0
 30
0.0
  9
$PUCSYDIR
 10
0.0
 20
1.0
 30
0.0
  9
$PUCSORTHOREF
  2

  9
$PUCSORTHOVIEW
 70
     0
  9
$PUCSORGTOP
 10
0.0
 20
0.0
 30
0.0
  9
$PUCSORGBOTTOM
 10
0.0
 20
0.0
 30
0.0
  9
$PUCSORGLEFT
 10
0.0
 20
0.0
 30
0.0
  9
$PUCSORGRIGHT
 10
0.0
 20
0.0
 30
0.0
  9
$PUCSORGFRONT
 10
0.0
 20
0.0
 30
0.0
  9
$PUCSORGBACK
 10
0.0
 20
0.0
 30
0.0
  9
$USERI1
 70
     0
  9
$USERI2
 70
     0
  9
$USERI3
 70
     0
  9
$USERI4
 70
     0
  9
$USERI5
 70
     0
  9
$USERR1
 40
0.0
  9
$USERR2
 40
0.0
  9
$USERR3
 40
0.0
  9
$USERR4
 40
0.0
  9
$USERR5
 40
0.0
  9
$WORLDVIEW
 70
     1
  9
$SHADEDGE
 70
     3
  9
$SHADEDIF
 70
    70
  9
$TILEMODE
 70
     1
  9
$MAXACTVP
 70
    64
  9
$PINSBASE
 10
0.0
 20
0.0
 30
0.0
  9
$PLIMCHECK
 70
     0
  9
$PEXTMIN
 10
1.000000000000000E+20
 20
1.000000000000000E+20
 30
1.000000000000000E+20
  9
$PEXTMAX
 10
-1.000000000000000E+20
 20
-1.000000000000000E+20
 30
-1.000000000000000E+20
  9
$PLIMMIN
 10
0.0
 20
0.0
  9
$PLIMMAX
 10
12.0
 20
9.0
  9
$UNITMODE
 70
     0
  9
$VISRETAIN
 70
     1
  9
$PLINEGEN
 70
     0
  9
$PSLTSCALE
 70
     1
  9
$TREEDEPTH
 70
  3020
  9
$CMLSTYLE
  2
Standard
  9
$CMLJUST
 70
     0
  9
$CMLSCALE
 40
1.0
  9
$PROXYGRAPHICS
 70
     1
  9
$MEASUREMENT
 70
     0
  9
$CELWEIGHT
370
    -1
  9
$ENDCAPS
280
     0
  9
$JOINSTYLE
280
     0
  9
$LWDISPLAY
290
     0
  9
$INSUNITS
 70
     1
  9
$HYPERLINKBASE
  1

  9
$STYLESHEET
  1

  9
$XEDIT
290
     1
  9
$CEPSNTYPE
380
     0
  9
$PSTYLEMODE
290
     1
  9
$FINGERPRINTGUID
  2
{C809E7A1-8C45-4305-ADBB-385DD0A04F1C}
  9
$VERSIONGUID
  2
{5EB8FBED-0B80-4DC0-A2DE-12D39E956EDD}
  9
$EXTNAMES
290
     1
  9
$PSVPSCALE
 40
0.0
  9
$OLESTARTUP
290
     0
  9
$SORTENTS
280
   127
  9
$INDEXCTL
280
     0
  9
$HIDETEXT
280
     0
  9
$XCLIPFRAME
290
     0
  9
$HALOGAP
280
     0
  9
$OBSCOLOR
 70
   257
  9
$OBSLTYPE
280
     0
  9
$INTERSECTIONDISPLAY
280
     0
  9
$INTERSECTIONCOLOR
 70
   257
  9
$DIMASSOC
280
     1
  9
$PROJECTNAME
  1

  0
ENDSEC
  0
SECTION
  2
CLASSES
  0
CLASS
  1
ACDBDICTIONARYWDFLT
  2
AcDbDictionaryWithDefault
  3
ObjectDBX Classes
 90
        0
 91
        1
280
     0
281
     0
  0
CLASS
  1
ACDBPLACEHOLDER
  2
AcDbPlaceHolder
  3
ObjectDBX Classes
 90
        0
 91
        1
280
     0
281
     0
  0
CLASS
  1
LAYOUT
  2
AcDbLayout
  3
ObjectDBX Classes
 90
        0
 91
        2
280
     0
281
     0
  0
CLASS
  1
MATERIAL
  2
AcDbMaterial
  3
ObjectDBX Classes
 90
     1153
 91
        3
280
     0
281
     0
  0
CLASS
  1
VISUALSTYLE
  2
AcDbVisualStyle
  3
ObjectDBX Classes
 90
     4095
 91
       26
280
     0
281
     0
  0
CLASS
  1
TABLESTYLE
  2
AcDbTableStyle
  3
ObjectDBX Classes
 90
     4095
 91
        1
280
     0
281
     0
  0
CLASS
  1
SCALE
  2
AcDbScale
  3
ObjectDBX Classes
 90
     1153
 91
       17
280
     0
281
     0
  0
CLASS
  1
MLEADERSTYLE
  2
AcDbMLeaderStyle
  3
ACDB_MLEADERSTYLE_CLASS
 90
     4095
 91
        1
280
     0
281
     0
  0
CLASS
  1
ACDBSECTIONVIEWSTYLE
  2
AcDbSectionViewStyle
  3
ObjectDBX Classes
 90
     1025
 91
        1
280
     0
281
     0
  0
CLASS
  1
ACDBDETAILVIEWSTYLE
  2
AcDbDetailViewStyle
  3
ObjectDBX Classes
 90
     1025
 91
        1
280
     0
281
     0
  0
CLASS
  1
CELLSTYLEMAP
  2
AcDbCellStyleMap
  3
ObjectDBX Classes
 90
     1152
 91
        5
280
     0
281
     0
  0
CLASS
  1
DICTIONARYVAR
  2
AcDbDictionaryVar
  3
ObjectDBX Classes
 90
        0
 91
        9
280
     0
281
     0
  0
ENDSEC
  0
SECTION
  2
TABLES
  0
TABLE
  2
VPORT
  5
8
102
{ACAD_XDICTIONARY
360
16B4
102
}
330
0
100
AcDbSymbolTable
 70
     1
  0
VPORT
  5
1F4
330
8
100
AcDbSymbolTableRecord
100
AcDbViewportTableRecord
  2
*ACTIVE
 70
     0
 10
0.0
 20
0.0
 11
1.0
 21
1.0
 12
49.61605905040254
 22
24.85455972370945
 13
0.0
 23
0.0
 14
1.0
 24
1.0
 15
0.0
 25
0.0
 16
0.0
 26
0.0
 36
1.0
 17
0.0
 27
0.0
 37
0.0
 40
66.36605748139086
 41
1.954075774971297
 42
50.0
 43
0.0
 44
0.0
 50
0.0
 51
0.0
 71
     0
 72
   100
 73
     1
 74
     1
 75
     0
 76
     0
 77
     0
 78
     0
281
     0
 65
     1
110
0.0
120
0.0
130
0.0
111
1.0
121
0.0
131
0.0
112
0.0
122
1.0
132
0.0
 79
     0
146
0.0
  0
ENDTAB
  0
TABLE
  2
LTYPE
  5
5
330
0
100
AcDbSymbolTable
 70
     7
  0
LTYPE
  5
14
330
5
100
AcDbSymbolTableRecord
100
AcDbLinetypeTableRecord
  2
BYBLOCK
 70
     0
  3

 72
    65
 73
     0
 40
0.0
  0
LTYPE
  5
15
330
5
100
AcDbSymbolTableRecord
100
AcDbLinetypeTableRecord
  2
BYLAYER
 70
     0
  3

 72
    65
 73
     0
 40
0.0
  0
LTYPE
  5
16
330
5
100
AcDbSymbolTableRecord
100
AcDbLinetypeTableRecord
  2
CONTINUOUS
 70
     0
  3
Solid line
 72
    65
 73
     0
 40
0.0
  0
LTYPE
  5
1F5
330
5
100
AcDbSymbolTableRecord
100
AcDbLinetypeTableRecord
  2
CENTER
 70
     0
  3
____ _ ____ _ ____ _ ____ _ ____ _ ____ _ ____
 72
    65
 73
     4
 40
0.6
 49
0.375
 74
     0
 49
-0.075
 74
     0
 49
0.075
 74
     0
 49
-0.075
 74
     0
  0
LTYPE
  5
1F6
330
5
100
AcDbSymbolTableRecord
100
AcDbLinetypeTableRecord
  2
HIDDEN
 70
     0
  3
- - - - - - - - - - - - - - - - - - - -
 72
    65
 73
     2
 40
0.2
 49
0.1
 74
     0
 49
-0.1
 74
     0
  0
LTYPE
  5
1F7
330
5
100
AcDbSymbolTableRecord
100
AcDbLinetypeTableRecord
  2
PHANTOM
 70
     0
  3
_____ _ _ _____ _ _ _____ _ _ _____
 72
    65
 73
     6
 40
0.8
 49
0.45
 74
     0
 49
-0.05
 74
     0
 49
0.1
 74
     0
 49
-0.05
 74
     0
 49
0.1
 74
     0
 49
-0.05
 74
     0
  0
LTYPE
  5
1F8
330
5
100
AcDbSymbolTableRecord
100
AcDbLinetypeTableRecord
  2
DOT
 70
     0
  3
. . . . . . . . . . . . . . . . . . . .
 72
    65
 73
     2
 40
0.2
 49
0.1
 74
     0
 49
-0.1
 74
     0
  0
LTYPE
  5
1F9
330
5
100
AcDbSymbolTableRecord
100
AcDbLinetypeTableRecord
  2
DASHED
 70
     0
  3
- - - - - - - - - - - - - - - - - - - -
 72
    65
 73
     2
 40
0.2
 49
0.1
 74
     0
 49
-0.1
 74
     0
  0
LTYPE
  5
16AD
330
5
100
AcDbSymbolTableRecord
100
AcDbLinetypeTableRecord
  2
PHANTOM2
 70
     0
  3
___ _ _ ___ _ _ ___ _ _ ___ _ _
 72
    65
 73
     6
 40
1.25
 49
0.625
 74
     0
 49
-0.125
 74
     0
 49
0.125
 74
     0
 49
-0.125
 74
     0
 49
0.125
 74
     0
 49
-0.125
 74
     0
  0
ENDTAB
  0
TABLE
  2
LAYER
  5
2
330
0
100
AcDbSymbolTable
 70
    21
  0
LAYER
  5
10
102
{ACAD_XDICTIONARY
360
1703
102
}
330
2
100
AcDbSymbolTableRecord
100
AcDbLayerTableRecord
  2
0
 70
     0
 62
     7
  6
CONTINUOUS
370
    -3
390
F
  0
LAYER
  5
1FA
102
{ACAD_XDICTIONARY
360
1705
102
}
330
2
100
AcDbSymbolTableRecord
100
AcDbLayerTableRecord
  2
DEFAULT_1
 70
     0
 62
     7
  6
CENTER
370
    -3
390
F
  0
LAYER
  5
1FB
102
{ACAD_XDICTIONARY
360
1707
102
}
330
2
100
AcDbSymbolTableRecord
100
AcDbLayerTableRecord
  2
DEFAULT_2
 70
     0
 62
     7
  6
HIDDEN
370
    -3
390
F
  0
LAYER
  5
1FC
102
{ACAD_XDICTIONARY
360
1709
102
}
330
2
100
AcDbSymbolTableRecord
100
AcDbLayerTableRecord
  2
DEFAULT_3
 70
     0
 62
     7
  6
PHANTOM
370
    -3
390
F
  0
LAYER
  5
1FD
102
{ACAD_XDICTIONARY
360
170B
102
}
330
2
100
AcDbSymbolTableRecord
100
AcDbLayerTableRecord
  2
1_CURVES
 70
     0
 62
     7
  6
CONTINUOUS
370
    -3
390
F
  0
LAYER
  5
1FE
102
{ACAD_XDICTIONARY
360
170D
102
}
330
2
100
AcDbSymbolTableRecord
100
AcDbLayerTableRecord
  2
1_CURVES_JETS
 70
     0
 62
     7
  6
CONTINUOUS
370
    -3
390
F
  0
LAYER
  5
1FF
102
{ACAD_XDICTIONARY
360
170F
102
}
330
2
100
AcDbSymbolTableRecord
100
AcDbLayerTableRecord
  2
1_CURVES_SPEC_FRONT
 70
     0
 62
     7
  6
CONTINUOUS
370
    -3
390
F
  0
LAYER
  5
200
102
{ACAD_XDICTIONARY
360
1711
102
}
330
2
100
AcDbSymbolTableRecord
100
AcDbLayerTableRecord
  2
1_CURVES_SPEC_RIGHT
 70
     0
 62
     7
  6
CONTINUOUS
370
    -3
390
F
  0
LAYER
  5
201
102
{ACAD_XDICTIONARY
360
1713
102
}
330
2
100
AcDbSymbolTableRecord
100
AcDbLayerTableRecord
  2
2_PLANES
 70
     0
 62
     7
  6
CONTINUOUS
370
    -3
390
F
  0
LAYER
  5
202
102
{ACAD_XDICTIONARY
360
1715
102
}
330
2
100
AcDbSymbolTableRecord
100
AcDbLayerTableRecord
  2
2_PLANES_JETS
 70
     0
 62
     7
  6
CONTINUOUS
370
    -3
390
F
  0
LAYER
  5
203
102
{ACAD_XDICTIONARY
360
1717
102
}
330
2
100
AcDbSymbolTableRecord
100
AcDbLayerTableRecord
  2
3_POINTS
 70
     0
 62
     7
  6
CONTINUOUS
370
    -3
390
F
  0
LAYER
  5
204
102
{ACAD_XDICTIONARY
360
1719
102
}
330
2
100
AcDbSymbolTableRecord
100
AcDbLayerTableRecord
  2
3_POINTS_JETS
 70
     0
 62
     7
  6
CONTINUOUS
370
    -3
390
F
  0
LAYER
  5
205
102
{ACAD_XDICTIONARY
360
171B
102
}
330
2
100
AcDbSymbolTableRecord
100
AcDbLayerTableRecord
  2
4_CSYS
 70
     0
 62
     7
  6
CONTINUOUS
370
    -3
390
F
  0
LAYER
  5
206
102
{ACAD_XDICTIONARY
360
171D
102
}
330
2
100
AcDbSymbolTableRecord
100
AcDbLayerTableRecord
  2
5_AXIS
 70
     0
 62
     7
  6
CONTINUOUS
370
    -3
390
F
  0
LAYER
  5
207
102
{ACAD_XDICTIONARY
360
171F
102
}
330
2
100
AcDbSymbolTableRecord
100
AcDbLayerTableRecord
  2
5_AXIS_JETS
 70
     0
 62
     7
  6
CONTINUOUS
370
    -3
390
F
  0
LAYER
  5
208
102
{ACAD_XDICTIONARY
360
1721
102
}
330
2
100
AcDbSymbolTableRecord
100
AcDbLayerTableRecord
  2
6_SURFACES
 70
     0
 62
     7
  6
CONTINUOUS
370
    -3
390
F
  0
LAYER
  5
209
102
{ACAD_XDICTIONARY
360
1723
102
}
330
2
100
AcDbSymbolTableRecord
100
AcDbLayerTableRecord
  2
6_SURFACES-OFFSET_FIBRE
 70
     0
 62
     7
  6
CONTINUOUS
370
    -3
390
F
  0
LAYER
  5
20A
102
{ACAD_XDICTIONARY
360
1725
102
}
330
2
100
AcDbSymbolTableRecord
100
AcDbLayerTableRecord
  2
6_SURFACES_TOOLING
 70
     0
 62
     7
  6
CONTINUOUS
370
    -3
390
F
  0
LAYER
  5
20B
102
{ACAD_XDICTIONARY
360
1727
102
}
330
2
100
AcDbSymbolTableRecord
100
AcDbLayerTableRecord
  2
7_NOTES
 70
     0
 62
     7
  6
CONTINUOUS
370
    -3
390
F
  0
LAYER
  5
20C
102
{ACAD_XDICTIONARY
360
1729
102
}
330
2
100
AcDbSymbolTableRecord
100
AcDbLayerTableRecord
  2
9-COMPONENTS
 70
     0
 62
     7
  6
CONTINUOUS
370
    -3
390
F
  0
LAYER
  5
20D
102
{ACAD_XDICTIONARY
360
172B
102
}
330
2
100
AcDbSymbolTableRecord
100
AcDbLayerTableRecord
  2
XSEC_DATUMS
 70
     0
 62
     7
  6
CONTINUOUS
370
    -3
390
F
  0
ENDTAB
  0
TABLE
  2
STYLE
  5
3
330
0
100
AcDbSymbolTable
 70
     8
  0
STYLE
  5
11
330
3
100
AcDbSymbolTableRecord
100
AcDbTextStyleTableRecord
  2
STANDARD
 70
     0
 40
0.0
 41
0.8
 50
0.0
 71
     0
 42
0.2
  3
txt
  4

  0
STYLE
  5
20E
330
3
100
AcDbSymbolTableRecord
100
AcDbTextStyleTableRecord
  2
TEXTSTYLE_1
 70
     0
 40
0.0
 41
0.8
 50
0.0
 71
     0
 42
0.2
  3
gdt
  4

  0
STYLE
  5
20F
330
3
100
AcDbSymbolTableRecord
100
AcDbTextStyleTableRecord
  2
TEXTSTYLE_2
 70
     0
 40
0.0
 41
1.0
 50
0.0
 71
     0
 42
0.2
  3
trium.ttf
  4

  0
STYLE
  5
210
330
3
100
AcDbSymbolTableRecord
100
AcDbTextStyleTableRecord
  2
TEXTSTYLE_3
 70
     0
 40
0.0
 41
1.0
 50
0.0
 71
     0
 42
0.2
  3
trium.ttf
  4

  0
STYLE
  5
211
330
3
100
AcDbSymbolTableRecord
100
AcDbTextStyleTableRecord
  2
TEXTSTYLE_4
 70
     0
 40
0.0
 41
1.0
 50
0.0
 71
     0
 42
0.2
  3
txt
  4

1001
ACAD
1000
txt
1071
        2
  0
STYLE
  5
212
330
3
100
AcDbSymbolTableRecord
100
AcDbTextStyleTableRecord
  2
TEXTSTYLE_5
 70
     0
 40
0.0
 41
1.0
 50
0.0
 71
     0
 42
0.2
  3
txt
  4

  0
STYLE
  5
213
330
3
100
AcDbSymbolTableRecord
100
AcDbTextStyleTableRecord
  2
TEXTSTYLE_6
 70
     0
 40
0.0
 41
1.0
 50
0.0
 71
     0
 42
0.2
  3
trium.ttf
  4

  0
STYLE
  5
214
330
3
100
AcDbSymbolTableRecord
100
AcDbTextStyleTableRecord
  2
TEXTSTYLE_7
 70
     0
 40
0.0
 41
0.8
 50
0.0
 71
     0
 42
0.2
  3
txt
  4

  0
ENDTAB
  0
TABLE
  2
VIEW
  5
6
330
0
100
AcDbSymbolTable
 70
     0
  0
ENDTAB
  0
TABLE
  2
UCS
  5
7
330
0
100
AcDbSymbolTable
 70
     0
  0
ENDTAB
  0
TABLE
  2
APPID
  5
9
330
0
100
AcDbSymbolTable
 70
     2
  0
APPID
  5
215
330
9
100
AcDbSymbolTableRecord
100
AcDbRegAppTableRecord
  2
ACAD
 70
     0
  0
APPID
  5
16EF
330
9
100
AcDbSymbolTableRecord
100
AcDbRegAppTableRecord
  2
ACAD_MLEADERVER
 70
     0
  0
ENDTAB
  0
TABLE
  2
DIMSTYLE
  5
A
330
0
100
AcDbSymbolTable
 70
     7
100
AcDbDimStyleTable
 71
     0
  0
DIMSTYLE
105
22E
330
A
100
AcDbSymbolTableRecord
100
AcDbDimStyleTableRecord
  2
STANDARD
 70
     0
 41
2.0
 44
0.125
 47
0.00001
 48
0.00001
 71
     1
 78
     4
140
1.333333333299999
271
     5
272
     5
284
     4
340
11
341
218
342
218
343
218
344
218
  0
DIMSTYLE
105
22F
330
A
100
AcDbSymbolTableRecord
100
AcDbDimStyleTableRecord
  2
DIMSTYLE_1
 70
     0
 41
2.0
 44
0.125
 47
0.00001
 48
0.00001
 78
     4
140
1.333333333299999
147
0.0625
271
     3
272
     3
284
     4
340
11
341
218
342
218
343
218
344
218
  0
DIMSTYLE
105
230
330
A
100
AcDbSymbolTableRecord
100
AcDbDimStyleTableRecord
  2
DIMSTYLE_2
 70
     0
 41
2.0
 44
0.125
 47
0.001
 48
0.001
 78
     4
140
1.333333333299999
147
0.0625
271
     3
272
     3
284
     4
340
11
341
218
342
218
343
218
344
218
  0
DIMSTYLE
105
231
330
A
100
AcDbSymbolTableRecord
100
AcDbDimStyleTableRecord
  2
DIMSTYLE_3
 70
     0
 41
2.0
 44
0.125
 47
0.001
 48
0.001
 78
     4
140
1.333333333299999
147
0.0625
271
     0
272
     0
284
     4
340
11
341
218
342
218
343
218
344
218
  0
DIMSTYLE
105
232
330
A
100
AcDbSymbolTableRecord
100
AcDbDimStyleTableRecord
  2
DIMSTYLE_4
 70
     0
 41
2.0
 44
0.125
 47
0.001
 48
0.001
 78
     4
140
1.333333333299999
147
0.0625
271
     1
272
     1
284
     4
340
11
341
218
342
218
343
218
344
218
  0
DIMSTYLE
105
233
330
A
100
AcDbSymbolTableRecord
100
AcDbDimStyleTableRecord
  2
DIMSTYLE_5
 70
     0
 41
2.0
 44
0.125
 47
1.0
 48
1.0
 78
     4
140
1.333333333299999
147
0.0625
271
     0
272
     0
284
     4
340
11
341
218
342
218
343
218
344
218
  0
DIMSTYLE
105
234
330
A
100
AcDbSymbolTableRecord
100
AcDbDimStyleTableRecord
  2
DIMSTYLE_6
 70
     0
 41
2.0
 44
0.125
 47
0.5
 48
0.5
 78
     4
140
1.333333333299999
147
0.0625
271
     0
272
     0
284
     4
340
11
341
218
342
218
343
218
344
218
  0
ENDTAB
  0
TABLE
  2
BLOCK_RECORD
  5
1
330
0
100
AcDbSymbolTable
 70
    22
  0
BLOCK_RECORD
  5
216
330
1
100
AcDbSymbolTableRecord
100
AcDbBlockTableRecord
  2
*Model_Space
340
165F
  0
BLOCK_RECORD
  5
217
330
1
100
AcDbSymbolTableRecord
100
AcDbBlockTableRecord
  2
*Paper_Space
340
1660
  0
BLOCK_RECORD
  5
218
330
1
100
AcDbSymbolTableRecord
100
AcDbBlockTableRecord
  2
_FILLED
340
0
102
{BLKREFS
331
30E
331
30F
331
318
331
319
331
321
331
322
331
32A
331
32B
331
333
331
334
331
33C
331
33D
331
346
331
347
331
34F
331
350
331
359
331
35A
331
362
331
363
331
36B
331
36C
331
374
331
375
331
37D
331
37E
331
386
331
387
102
}
  0
BLOCK_RECORD
  5
219
330
1
100
AcDbSymbolTableRecord
100
AcDbBlockTableRecord
  2
*D1
340
0
  0
BLOCK_RECORD
  5
21A
330
1
100
AcDbSymbolTableRecord
100
AcDbBlockTableRecord
  2
*D2
340
0
  0
BLOCK_RECORD
  5
21B
330
1
100
AcDbSymbolTableRecord
100
AcDbBlockTableRecord
  2
*D3
340
0
  0
BLOCK_RECORD
  5
21C
330
1
100
AcDbSymbolTableRecord
100
AcDbBlockTableRecord
  2
*D4
340
0
  0
BLOCK_RECORD
  5
21D
330
1
100
AcDbSymbolTableRecord
100
AcDbBlockTableRecord
  2
*D5
340
0
  0
BLOCK_RECORD
  5
21E
330
1
100
AcDbSymbolTableRecord
100
AcDbBlockTableRecord
  2
*D6
340
0
  0
BLOCK_RECORD
  5
21F
330
1
100
AcDbSymbolTableRecord
100
AcDbBlockTableRecord
  2
*D7
340
0
  0
BLOCK_RECORD
  5
220
330
1
100
AcDbSymbolTableRecord
100
AcDbBlockTableRecord
  2
*D8
340
0
  0
BLOCK_RECORD
  5
221
330
1
100
AcDbSymbolTableRecord
100
AcDbBlockTableRecord
  2
*D9
340
0
  0
BLOCK_RECORD
  5
222
330
1
100
AcDbSymbolTableRecord
100
AcDbBlockTableRecord
  2
*D10
340
0
  0
BLOCK_RECORD
  5
223
330
1
100
AcDbSymbolTableRecord
100
AcDbBlockTableRecord
  2
*D11
340
0
  0
BLOCK_RECORD
  5
224
330
1
100
AcDbSymbolTableRecord
100
AcDbBlockTableRecord
  2
*D12
340
0
  0
BLOCK_RECORD
  5
225
330
1
100
AcDbSymbolTableRecord
100
AcDbBlockTableRecord
  2
*D13
340
0
  0
BLOCK_RECORD
  5
226
330
1
100
AcDbSymbolTableRecord
100
AcDbBlockTableRecord
  2
*D14
340
0
  0
BLOCK_RECORD
  5
227
330
1
100
AcDbSymbolTableRecord
100
AcDbBlockTableRecord
  2
*D15
340
0
  0
BLOCK_RECORD
  5
228
330
1
100
AcDbSymbolTableRecord
100
AcDbBlockTableRecord
  2
*D16
340
0
  0
BLOCK_RECORD
  5
229
330
1
100
AcDbSymbolTableRecord
100
AcDbBlockTableRecord
  2
*D17
340
0
  0
BLOCK_RECORD
  5
22A
330
1
100
AcDbSymbolTableRecord
100
AcDbBlockTableRecord
  2
L03-USAGE_INTERNE_SEULEM_BL3
340
0
  0
BLOCK_RECORD
  5
22B
330
1
100
AcDbSymbolTableRecord
100
AcDbBlockTableRecord
  2
L03-MOTEUR-CONTROLE-LED_BL2
340
0
  0
BLOCK_RECORD
  5
22C
330
1
100
AcDbSymbolTableRecord
100
AcDbBlockTableRecord
  2
L03-MOTEUR-CONTROLE-LED_BL1
340
0
  0
BLOCK_RECORD
  5
22D
330
1
100
AcDbSymbolTableRecord
100
AcDbBlockTableRecord
  2
L03-NOTE_SPECS_BAINS_BL0
340
0
  0
ENDTAB
  0
ENDSEC
  0
SECTION
  2
BLOCKS
  0
BLOCK
  5
20
330
216
100
AcDbEntity
  8
0
100
AcDbBlockBegin
  2
*Model_Space
 70
     0
 10
0.0
 20
0.0
 30
0.0
  3
*Model_Space
  1

  0
ENDBLK
  5
21
330
216
100
AcDbEntity
  8
0
100
AcDbBlockEnd
  0
BLOCK
  5
1C
330
217
100
AcDbEntity
 67
     1
  8
0
100
AcDbBlockBegin
  2
*Paper_Space
 70
     0
 10
0.0
 20
0.0
 30
0.0
  3
*Paper_Space
  1

  0
ENDBLK
  5
1D
330
217
100
AcDbEntity
 67
     1
  8
0
100
AcDbBlockEnd
  0
BLOCK
  5
305
330
218
100
AcDbEntity
  8
0
100
AcDbBlockBegin
  2
_FILLED
 70
     0
 10
0.0
 20
0.0
 30
0.0
  3
_FILLED
  1

  0
SOLID
  5
306
330
218
100
AcDbEntity
  8
0
  6
ByBlock
 62
     0
100
AcDbTrace
 10
0.0
 20
0.0
 30
0.0
 11
-1.0
 21
0.1666666667
 31
0.0
 12
-1.0
 22
-0.1666666667
 32
0.0
 13
-1.0
 23
-0.1666666667
 33
0.0
  0
ENDBLK
  5
307
330
218
100
AcDbEntity
  8
0
  6
ByBlock
 62
     0
100
AcDbBlockEnd
  0
BLOCK
  5
308
330
219
100
AcDbEntity
  8
0
  6
Continuous
 62
     7
100
AcDbBlockBegin
  2
*D1
 70
     1
 10
0.0
 20
0.0
 30
0.0
  3
*D1
  1

  0
MTEXT
  5
309
330
219
100
AcDbEntity
  8
0
  6
Continuous
 62
     7
100
AcDbMText
 10
46.3848509147
 20
109.2045310862
 30
0.0
 40
1.333333333299999
 41
7.466666666699999
 71
     2
 72
     1
  1
72\P[182,9]
 73
     1
 44
0.9
  0
LINE
  5
30A
330
219
100
AcDbEntity
  8
0
  6
Continuous
 62
     7
100
AcDbLine
 10
85.05086800939999
 20
78.30352391899999
 30
0.0
 11
85.05086800939999
 21
109.8711977529
 31
0.0
  0
LINE
  5
30B
330
219
100
AcDbEntity
  8
0
  6
Continuous
 62
     7
100
AcDbLine
 10
13.0521671534
 20
78.30352391899999
 30
0.0
 11
13.0521671534
 21
109.8711977529
 31
0.0
  0
LINE
  5
30C
330
219
100
AcDbEntity
  8
0
  6
Continuous
 62
     7
100
AcDbLine
 10
85.05086800939999
 20
108.5378644195
 30
0.0
 11
53.4515175814
 21
108.5378644195
 31
0.0
  0
LINE
  5
30D
330
219
100
AcDbEntity
  8
0
  6
Continuous
 62
     7
100
AcDbLine
 10
13.0521671534
 20
108.5378644195
 30
0.0
 11
44.6515175814
 21
108.5378644195
 31
0.0
  0
INSERT
  5
30E
330
219
100
AcDbEntity
  8
0
  6
Continuous
 62
     7
100
AcDbBlockReference
  2
_FILLED
 10
85.05086800939999
 20
108.5378644195
 30
0.0
 41
2.0
 42
2.0
 43
2.0
  0
INSERT
  5
30F
330
219
100
AcDbEntity
  8
0
  6
Continuous
 62
     7
100
AcDbBlockReference
  2
_FILLED
 10
13.0521671534
 20
108.5378644195
 30
0.0
 41
2.0
 42
2.0
 43
2.0
 50
180.0
  0
ENDBLK
  5
310
330
219
100
AcDbEntity
  8
0
  6
ByBlock
 62
     0
100
AcDbBlockEnd
  0
BLOCK
  5
311
330
21A
100
AcDbEntity
  8
0
  6
Continuous
 62
     7
100
AcDbBlockBegin
  2
*D2
 70
     1
 10
0.0
 20
0.0
 30
0.0
  3
*D2
  1

  0
MTEXT
  5
312
330
21A
100
AcDbEntity
  8
0
  6
Continuous
 62
     7
100
AcDbMText
 10
115.2131721961
 20
78.3035239238
 30
0.0
 40
1.333333333299999
 41
6.4
 71
     2
 72
     1
  1
36\P[91,4]
 73
     1
 44
0.9
  0
LINE
  5
313
330
21A
100
AcDbEntity
  8
0
  6
Continuous
 62
     7
100
AcDbLine
 10
52.71781030909999
 20
59.6372517237
 30
0.0
 11
118.679838864
 21
59.6372517286
 31
0.0
  0
LINE
  5
314
330
21A
100
AcDbEntity
  8
0
  6
Continuous
 62
     7
100
AcDbLine
 10
52.7178103064
 20
95.63646278110001
 30
0.0
 11
81.04627218620001
 21
95.6364627832
 31
0.0
  0
LINE
  5
315
330
21A
100
AcDbEntity
  8
0
  6
Continuous
 62
     7
100
AcDbLine
 10
85.82978158059999
 20
95.63646278350001
 30
0.0
 11
118.6798388614
 21
95.63646278590001
 31
0.0
  0
LINE
  5
316
330
21A
100
AcDbEntity
  8
0
  6
Continuous
 62
     7
100
AcDbLine
 10
117.3465055307
 20
59.63725172850001
 30
0.0
 11
117.3465055307
 21
74.3035239238
 31
0.0
  0
LINE
  5
317
330
21A
100
AcDbEntity
  8
0
  6
Continuous
 62
     7
100
AcDbLine
 10
117.3465055281
 20
95.6364627858
 30
0.0
 11
117.3465055307
 21
78.97019059049999
 31
0.0
  0
INSERT
  5
318
330
21A
100
AcDbEntity
  8
0
  6
Continuous
 62
     7
100
AcDbBlockReference
  2
_FILLED
 10
117.3465055307
 20
59.63725172850001
 30
0.0
 41
2.0
 42
2.0
 43
2.0
 50
270.0
  0
INSERT
  5
319
330
21A
100
AcDbEntity
  8
0
  6
Continuous
 62
     7
100
AcDbBlockReference
  2
_FILLED
 10
117.3465055281
 20
95.6364627858
 30
0.0
 41
2.0
 42
2.0
 43
2.0
 50
90.00000000909999
  0
ENDBLK
  5
31A
330
21A
100
AcDbEntity
  8
0
  6
ByBlock
 62
     0
100
AcDbBlockEnd
  0
BLOCK
  5
31B
330
21B
100
AcDbEntity
  8
0
  6
Continuous
 62
     7
100
AcDbBlockBegin
  2
*D3
 70
     1
 10
0.0
 20
0.0
 30
0.0
  3
*D3
  1

  0
MTEXT
  5
31C
330
21B
100
AcDbEntity
  8
0
  6
Continuous
 62
     7
100
AcDbMText
 10
28.3016858789
 20
101.0766003928
 30
0.0
 40
1.333333333299999
 41
6.4
 71
     2
 72
     1
  1
30-1/2\P[77,5]
 73
     1
 44
0.9
  0
LINE
  5
31D
330
21B
100
AcDbEntity
  8
0
  6
Continuous
 62
     7
100
AcDbLine
 10
43.5512046044
 20
82.9335992588
 30
0.0
 11
43.5512046044
 21
101.7432670595
 31
0.0
  0
LINE
  5
31E
330
21B
100
AcDbEntity
  8
0
  6
Continuous
 62
     7
100
AcDbLine
 10
13.0521671534
 20
78.30352391899999
 30
0.0
 11
13.0521671534
 21
101.7432670595
 31
0.0
  0
LINE
  5
31F
330
21B
100
AcDbEntity
  8
0
  6
Continuous
 62
     7
100
AcDbLine
 10
43.5512046044
 20
100.4099337262
 30
0.0
 11
32.1683525455
 21
100.4099337262
 31
0.0
  0
LINE
  5
320
330
21B
100
AcDbEntity
  8
0
  6
Continuous
 62
     7
100
AcDbLine
 10
13.0521671534
 20
100.4099337262
 30
0.0
 11
24.4350192122
 21
100.4099337262
 31
0.0
  0
INSERT
  5
321
330
21B
100
AcDbEntity
  8
0
  6
Continuous
 62
     7
100
AcDbBlockReference
  2
_FILLED
 10
43.5512046044
 20
100.4099337262
 30
0.0
 41
2.0
 42
2.0
 43
2.0
  0
INSERT
  5
322
330
21B
100
AcDbEntity
  8
0
  6
Continuous
 62
     7
100
AcDbBlockReference
  2
_FILLED
 10
13.0521671534
 20
100.4099337262
 30
0.0
 41
2.0
 42
2.0
 43
2.0
 50
180.0
  0
ENDBLK
  5
323
330
21B
100
AcDbEntity
  8
0
  6
ByBlock
 62
     0
100
AcDbBlockEnd
  0
BLOCK
  5
324
330
21C
100
AcDbEntity
  8
0
  6
Continuous
 62
     7
100
AcDbBlockBegin
  2
*D4
 70
     1
 10
0.0
 20
0.0
 30
0.0
  3
*D4
  1

  0
MTEXT
  5
325
330
21C
100
AcDbEntity
  8
0
  6
Continuous
 62
     7
100
AcDbMText
 10
54.71841902689999
 20
56.46846856319999
 30
0.0
 40
1.333333333299999
 41
7.466666666699999
 71
     2
 72
     1
  1
44-7/8\P[114,1]
 73
     1
 44
0.9
  0
LINE
  5
326
330
21C
100
AcDbEntity
  8
0
  6
Continuous
 62
     7
100
AcDbLine
 10
73.60388244800001
 20
58.50594513689999
 30
0.0
 11
73.60388244800001
 21
54.4684685632
 31
0.0
  0
LINE
  5
327
330
21C
100
AcDbEntity
  8
0
  6
Continuous
 62
     7
100
AcDbLine
 10
28.6749499447
 20
61.2559391399
 30
0.0
 11
28.6749499447
 21
54.4684685632
 31
0.0
  0
LINE
  5
328
330
21C
100
AcDbEntity
  8
0
  6
Continuous
 62
     7
100
AcDbLine
 10
73.60388244800001
 20
55.8018018966
 30
0.0
 11
59.65175236020001
 21
55.8018018966
 31
0.0
  0
LINE
  5
329
330
21C
100
AcDbEntity
  8
0
  6
Continuous
 62
     7
100
AcDbLine
 10
28.6749499447
 20
55.8018018966
 30
0.0
 11
50.8517523602
 21
55.8018018966
 31
0.0
  0
INSERT
  5
32A
330
21C
100
AcDbEntity
  8
0
  6
Continuous
 62
     7
100
AcDbBlockReference
  2
_FILLED
 10
73.60388244800001
 20
55.8018018966
 30
0.0
 41
2.0
 42
2.0
 43
2.0
  0
INSERT
  5
32B
330
21C
100
AcDbEntity
  8
0
  6
Continuous
 62
     7
100
AcDbBlockReference
  2
_FILLED
 10
28.6749499447
 20
55.8018018966
 30
0.0
 41
2.0
 42
2.0
 43
2.0
 50
180.0
  0
ENDBLK
  5
32C
330
21C
100
AcDbEntity
  8
0
  6
ByBlock
 62
     0
100
AcDbBlockEnd
  0
BLOCK
  5
32D
330
21D
100
AcDbEntity
  8
0
  6
Continuous
 62
     7
100
AcDbBlockBegin
  2
*D5
 70
     1
 10
0.0
 20
0.0
 30
0.0
  3
*D5
  1

  0
MTEXT
  5
32E
330
21D
100
AcDbEntity
  8
0
  6
Continuous
 62
     7
100
AcDbMText
 10
92.80242451499999
 20
78.30352374749999
 30
0.0
 40
1.333333333299999
 41
6.4
 71
     2
 72
     1
  1
22-5/8\P[58]
 73
     1
 44
0.9
  0
LINE
  5
32F
330
21D
100
AcDbEntity
  8
0
  6
Continuous
 62
     7
100
AcDbLine
 10
80.88489836710001
 20
66.3106093202
 30
0.0
 11
94.1357577908
 21
66.31060925289999
 31
0.0
  0
LINE
  5
330
330
21D
100
AcDbEntity
  8
0
  6
Continuous
 62
     7
100
AcDbLine
 10
86.045678709
 20
88.96310493639999
 30
0.0
 11
94.1357579059
 21
88.9631048953
 31
0.0
  0
LINE
  5
331
330
21D
100
AcDbEntity
  8
0
  6
Continuous
 62
     7
100
AcDbLine
 10
92.80242445749999
 20
66.3106092597
 30
0.0
 11
92.80242445749999
 21
74.30352374749999
 31
0.0
  0
LINE
  5
332
330
21D
100
AcDbEntity
  8
0
  6
Continuous
 62
     7
100
AcDbLine
 10
92.80242457259999
 20
88.96310490209998
 30
0.0
 11
92.80242445749999
 21
78.9701904142
 31
0.0
  0
INSERT
  5
333
330
21D
100
AcDbEntity
  8
0
  6
Continuous
 62
     7
100
AcDbBlockReference
  2
_FILLED
 10
92.80242445749999
 20
66.3106092597
 30
0.0
 41
2.0
 42
2.0
 43
2.0
 50
270.0
  0
INSERT
  5
334
330
21D
100
AcDbEntity
  8
0
  6
Continuous
 62
     7
100
AcDbBlockReference
  2
_FILLED
 10
92.80242457259999
 20
88.96310490209998
 30
0.0
 41
2.0
 42
2.0
 43
2.0
 50
89.99999934020001
  0
ENDBLK
  5
335
330
21D
100
AcDbEntity
  8
0
  6
ByBlock
 62
     0
100
AcDbBlockEnd
  0
BLOCK
  5
336
330
21E
100
AcDbEntity
  8
0
  6
Continuous
 62
     7
100
AcDbBlockBegin
  2
*D6
 70
     1
 10
0.0
 20
0.0
 30
0.0
  3
*D6
  1

  0
MTEXT
  5
337
330
21E
100
AcDbEntity
  8
0
  6
Continuous
 62
     7
100
AcDbMText
 10
90.69869989879999
 20
99.97774292889999
 30
0.0
 40
1.333333333299999
 41
5.333333333299999
 71
     1
 72
     1
  1
3-1/2\P[8,8]
 73
     1
 44
0.9
  0
LINE
  5
338
330
21E
100
AcDbEntity
  8
0
  6
Continuous
 62
     7
100
AcDbLine
 10
85.05086800939999
 20
83.8647095059
 30
0.0
 11
85.05086800939999
 21
100.6444095955
 31
0.0
  0
LINE
  5
339
330
21E
100
AcDbEntity
  8
0
  6
Continuous
 62
     7
100
AcDbLine
 10
81.58935329270001
 20
88.98100024580001
 30
0.0
 11
81.58935329270001
 21
100.6444095955
 31
0.0
  0
LINE
  5
33A
330
21E
100
AcDbEntity
  8
0
  6
Continuous
 62
     7
100
AcDbLine
 10
85.05086800939999
 20
99.31107626219999
 30
0.0
 11
90.0320332321
 21
99.31107626219999
 31
0.0
  0
LINE
  5
33B
330
21E
100
AcDbEntity
  8
0
  6
Continuous
 62
     7
100
AcDbLine
 10
81.58935329270001
 20
99.31107626219999
 30
0.0
 11
76.25601995939999
 21
99.31107626219999
 31
0.0
  0
INSERT
  5
33C
330
21E
100
AcDbEntity
  8
0
  6
Continuous
 62
     7
100
AcDbBlockReference
  2
_FILLED
 10
85.05086800939999
 20
99.31107626219999
 30
0.0
 41
2.0
 42
2.0
 43
2.0
 50
180.0
  0
INSERT
  5
33D
330
21E
100
AcDbEntity
  8
0
  6
Continuous
 62
     7
100
AcDbBlockReference
  2
_FILLED
 10
81.58935329270001
 20
99.31107626219999
 30
0.0
 41
2.0
 42
2.0
 43
2.0
  0
ENDBLK
  5
33E
330
21E
100
AcDbEntity
  8
0
  6
ByBlock
 62
     0
100
AcDbBlockEnd
  0
BLOCK
  5
33F
330
21F
100
AcDbEntity
  8
0
  6
Continuous
 62
     7
100
AcDbBlockBegin
  2
*D7
 70
     1
 10
0.0
 20
0.0
 30
0.0
  3
*D7
  1

  0
MTEXT
  5
340
330
21F
100
AcDbEntity
  8
0
  6
Continuous
 62
     7
100
AcDbMText
 10
100.0359825576
 20
55.7843858242
 30
0.0
 40
1.333333333299999
 41
5.333333333299999
 71
     1
 72
     1
  1
3-1/8\P[7,8]
 73
     1
 44
0.9
  0
LINE
  5
341
330
21F
100
AcDbEntity
  8
0
  6
Continuous
 62
     7
100
AcDbLine
 10
52.71785756919999
 20
59.6378137074
 30
0.0
 11
98.70266569180001
 21
59.6376461702
 31
0.0
  0
LINE
  5
342
330
21F
100
AcDbEntity
  8
0
  6
Continuous
 62
     7
100
AcDbLine
 10
75.3185305339
 20
62.7047299271
 30
0.0
 11
98.7026768659
 21
62.7046447313
 31
0.0
  0
LINE
  5
343
330
21F
100
AcDbEntity
  8
0
  6
Continuous
 62
     7
100
AcDbLine
 10
97.36933235850001
 20
59.6376510279
 30
0.0
 11
97.36931589100001
 21
55.11771915749999
 31
0.0
  0
LINE
  5
344
330
21F
100
AcDbEntity
  8
0
  6
Continuous
 62
     7
100
AcDbLine
 10
97.36931589100001
 20
55.11771915749999
 30
0.0
 11
99.369315891
 21
55.11771915749999
 31
0.0
  0
LINE
  5
345
330
21F
100
AcDbEntity
  8
0
  6
Continuous
 62
     7
100
AcDbLine
 10
97.36934353249999
 20
62.70464958899999
 30
0.0
 11
97.36936296360001
 21
68.03798292229998
 31
0.0
  0
INSERT
  5
346
330
21F
100
AcDbEntity
  8
0
  6
Continuous
 62
     7
100
AcDbBlockReference
  2
_FILLED
 10
97.36933235850001
 20
59.6376510279
 30
0.0
 41
2.0
 42
2.0
 43
2.0
 50
89.9997912533
  0
INSERT
  5
347
330
21F
100
AcDbEntity
  8
0
  6
Continuous
 62
     7
100
AcDbBlockReference
  2
_FILLED
 10
97.36934353249999
 20
62.70464958899999
 30
0.0
 41
2.0
 42
2.0
 43
2.0
 50
269.9997912533
  0
ENDBLK
  5
348
330
21F
100
AcDbEntity
  8
0
  6
ByBlock
 62
     0
100
AcDbBlockEnd
  0
BLOCK
  5
349
330
220
100
AcDbEntity
  8
0
  6
Continuous
 62
     7
100
AcDbBlockBegin
  2
*D8
 70
     1
 10
0.0
 20
0.0
 30
0.0
  3
*D8
  1

  0
MTEXT
  5
34A
330
220
100
AcDbEntity
  8
0
  6
Continuous
 62
     7
100
AcDbMText
 10
91.45597134299999
 20
105.6824707143
 30
0.0
 40
1.333333333299999
 41
5.333333333299999
 71
     1
 72
     1
  1
1-5/8\P[4]
 73
     1
 44
0.9
  0
LINE
  5
34B
330
220
100
AcDbEntity
  8
0
  6
Continuous
 62
     7
100
AcDbLine
 10
85.0507694991
 20
78.30352391169999
 30
0.0
 11
85.04662546490001
 21
106.3481903153
 31
0.0
  0
LINE
  5
34C
330
220
100
AcDbEntity
  8
0
  6
Continuous
 62
     7
100
AcDbLine
 10
83.46994537569999
 20
86.16171094329999
 30
0.0
 11
83.46696254500001
 21
106.3479568956
 31
0.0
  0
LINE
  5
34D
330
220
100
AcDbEntity
  8
0
  6
Continuous
 62
     7
100
AcDbLine
 10
85.04682248559999
 20
105.0148569965
 30
0.0
 11
90.7893046763
 21
105.0157055373
 31
0.0
  0
LINE
  5
34E
330
220
100
AcDbEntity
  8
0
  6
Continuous
 62
     7
100
AcDbLine
 10
83.46715956569999
 20
105.0146235768
 30
0.0
 11
78.1338262906
 21
105.0138354942
 31
0.0
  0
INSERT
  5
34F
330
220
100
AcDbEntity
  8
0
  6
Continuous
 62
     7
100
AcDbBlockReference
  2
_FILLED
 10
85.04682248559999
 20
105.0148569965
 30
0.0
 41
2.0
 42
2.0
 43
2.0
 50
180.0084663395
  0
INSERT
  5
350
330
220
100
AcDbEntity
  8
0
  6
Continuous
 62
     7
100
AcDbBlockReference
  2
_FILLED
 10
83.46715956569999
 20
105.0146235768
 30
0.0
 41
2.0
 42
2.0
 43
2.0
 50
0.0084663395
  0
ENDBLK
  5
351
330
220
100
AcDbEntity
  8
0
  6
ByBlock
 62
     0
100
AcDbBlockEnd
  0
BLOCK
  5
352
330
221
100
AcDbEntity
  8
0
  6
Continuous
 62
     7
100
AcDbBlockBegin
  2
*D9
 70
     1
 10
0.0
 20
0.0
 30
0.0
  3
*D9
  1

  0
MTEXT
  5
353
330
221
100
AcDbEntity
  8
0
  6
Continuous
 62
     7
100
AcDbMText
 10
113.8423843384
 20
55.40333464109999
 30
0.0
 40
1.333333333299999
 41
5.333333333299999
 71
     1
 72
     1
  1
1-5/8\P[4]
 73
     1
 44
0.9
  0
LINE
  5
354
330
221
100
AcDbEntity
  8
0
  6
Continuous
 62
     7
100
AcDbLine
 10
52.71781014470001
 20
59.6372512774
 30
0.0
 11
112.5090830321
 21
59.63686048949999
 31
0.0
  0
LINE
  5
355
330
221
100
AcDbEntity
  8
0
  6
Continuous
 62
     7
100
AcDbLine
 10
72.1152416104
 20
61.2167223107
 30
0.0
 11
112.5090933561
 21
61.2164583018
 31
0.0
  0
LINE
  5
356
330
221
100
AcDbEntity
  8
0
  6
Continuous
 62
     7
100
AcDbLine
 10
111.1757496988
 20
59.63686920399999
 30
0.0
 11
111.1757176717
 21
54.7366679745
 31
0.0
  0
LINE
  5
357
330
221
100
AcDbEntity
  8
0
  6
Continuous
 62
     7
100
AcDbLine
 10
111.1757176717
 20
54.7366679745
 30
0.0
 11
113.1757176717
 21
54.7366679745
 31
0.0
  0
LINE
  5
358
330
221
100
AcDbEntity
  8
0
  6
Continuous
 62
     7
100
AcDbLine
 10
111.1757600228
 20
61.2164670163
 30
0.0
 11
111.1757948808
 21
66.5498003495
 31
0.0
  0
INSERT
  5
359
330
221
100
AcDbEntity
  8
0
  6
Continuous
 62
     7
100
AcDbBlockReference
  2
_FILLED
 10
111.1757496988
 20
59.63686920399999
 30
0.0
 41
2.0
 42
2.0
 43
2.0
 50
89.9996255223
  0
INSERT
  5
35A
330
221
100
AcDbEntity
  8
0
  6
Continuous
 62
     7
100
AcDbBlockReference
  2
_FILLED
 10
111.1757600228
 20
61.2164670163
 30
0.0
 41
2.0
 42
2.0
 43
2.0
 50
269.9996255223
  0
ENDBLK
  5
35B
330
221
100
AcDbEntity
  8
0
  6
ByBlock
 62
     0
100
AcDbBlockEnd
  0
BLOCK
  5
35C
330
222
100
AcDbEntity
  8
0
  6
Continuous
 62
     7
100
AcDbBlockBegin
  2
*D10
 70
     1
 10
0.0
 20
0.0
 30
0.0
  3
*D10
  1

  0
MTEXT
  5
35D
330
222
100
AcDbEntity
  8
0
  6
Continuous
 62
     7
100
AcDbMText
 10
54.43673400689999
 20
10.1604870652
 30
0.0
 40
1.333333333299999
 41
6.4
 71
     2
 72
     1
  1
32-3/8\P[82]
 73
     1
 44
0.9
  0
LINE
  5
35E
330
222
100
AcDbEntity
  8
0
  6
Continuous
 62
     7
100
AcDbLine
 10
38.2467304001
 20
15.1709863042
 30
0.0
 11
38.2467304001
 21
8.160487065199999
 31
0.0
  0
LINE
  5
35F
330
222
100
AcDbEntity
  8
0
  6
Continuous
 62
     7
100
AcDbLine
 10
70.6267376136
 20
15.1733479982
 30
0.0
 11
70.6267376136
 21
8.160487065199999
 31
0.0
  0
LINE
  5
360
330
222
100
AcDbEntity
  8
0
  6
Continuous
 62
     7
100
AcDbLine
 10
38.2467304001
 20
9.4938203986
 30
0.0
 11
50.5700673402
 21
9.4938203986
 31
0.0
  0
LINE
  5
361
330
222
100
AcDbEntity
  8
0
  6
Continuous
 62
     7
100
AcDbLine
 10
70.6267376136
 20
9.4938203986
 30
0.0
 11
58.30340067359999
 21
9.4938203986
 31
0.0
  0
INSERT
  5
362
330
222
100
AcDbEntity
  8
0
  6
Continuous
 62
     7
100
AcDbBlockReference
  2
_FILLED
 10
38.2467304001
 20
9.4938203986
 30
0.0
 41
2.0
 42
2.0
 43
2.0
 50
180.0
  0
INSERT
  5
363
330
222
100
AcDbEntity
  8
0
  6
Continuous
 62
     7
100
AcDbBlockReference
  2
_FILLED
 10
70.6267376136
 20
9.4938203986
 30
0.0
 41
2.0
 42
2.0
 43
2.0
  0
ENDBLK
  5
364
330
222
100
AcDbEntity
  8
0
  6
ByBlock
 62
     0
100
AcDbBlockEnd
  0
BLOCK
  5
365
330
223
100
AcDbEntity
  8
0
  6
Continuous
 62
     7
100
AcDbBlockBegin
  2
*D11
 70
     1
 10
0.0
 20
0.0
 30
0.0
  3
*D11
  1

  0
MTEXT
  5
366
330
223
100
AcDbEntity
  8
0
  6
Continuous
 62
     7
100
AcDbMText
 10
140.0817359731
 20
29.8544170609
 30
0.0
 40
1.333333333299999
 41
6.4
 71
     2
 72
     1
  1
16-5/8\P[42]
 73
     1
 44
0.9
  0
LINE
  5
367
330
223
100
AcDbEntity
  8
0
  6
Continuous
 62
     7
100
AcDbLine
 10
132.9375685523
 20
20.5867206771
 30
0.0
 11
141.4150693065
 21
20.5867206771
 31
0.0
  0
LINE
  5
368
330
223
100
AcDbEntity
  8
0
  6
Continuous
 62
     7
100
AcDbLine
 10
137.6103363886
 20
37.1520692234
 30
0.0
 11
141.4150693065
 21
37.1520692234
 31
0.0
  0
LINE
  5
369
330
223
100
AcDbEntity
  8
0
  6
Continuous
 62
     7
100
AcDbLine
 10
140.0817359731
 20
20.5867206771
 30
0.0
 11
140.0817359731
 21
25.8544170609
 31
0.0
  0
LINE
  5
36A
330
223
100
AcDbEntity
  8
0
  6
Continuous
 62
     7
100
AcDbLine
 10
140.0817359731
 20
37.1520692234
 30
0.0
 11
140.0817359731
 21
30.5210837276
 31
0.0
  0
INSERT
  5
36B
330
223
100
AcDbEntity
  8
0
  6
Continuous
 62
     7
100
AcDbBlockReference
  2
_FILLED
 10
140.0817359731
 20
20.5867206771
 30
0.0
 41
2.0
 42
2.0
 43
2.0
 50
270.0
  0
INSERT
  5
36C
330
223
100
AcDbEntity
  8
0
  6
Continuous
 62
     7
100
AcDbBlockReference
  2
_FILLED
 10
140.0817359731
 20
37.1520692234
 30
0.0
 41
2.0
 42
2.0
 43
2.0
 50
90.0
  0
ENDBLK
  5
36D
330
223
100
AcDbEntity
  8
0
  6
ByBlock
 62
     0
100
AcDbBlockEnd
  0
BLOCK
  5
36E
330
224
100
AcDbEntity
  8
0
  6
Continuous
 62
     7
100
AcDbBlockBegin
  2
*D12
 70
     1
 10
0.0
 20
0.0
 30
0.0
  3
*D12
  1

  0
MTEXT
  5
36F
330
224
100
AcDbEntity
  8
0
  6
Continuous
 62
     7
100
AcDbMText
 10
97.87238635740001
 20
32.347055345
 30
0.0
 40
1.333333333299999
 41
6.4
 71
     2
 72
     1
  1
19-1/4\P[49]
 73
     1
 44
0.9
  0
LINE
  5
370
330
224
100
AcDbEntity
  8
0
  6
Continuous
 62
     7
100
AcDbLine
 10
105.30768852
 20
20.5867206771
 30
0.0
 11
96.539053024
 21
20.5867206771
 31
0.0
  0
LINE
  5
371
330
224
100
AcDbEntity
  8
0
  6
Continuous
 62
     7
100
AcDbLine
 10
100.7657581831
 20
39.8367206771
 30
0.0
 11
96.539053024
 21
39.8367206771
 31
0.0
  0
LINE
  5
372
330
224
100
AcDbEntity
  8
0
  6
Continuous
 62
     7
100
AcDbLine
 10
97.87238635740001
 20
20.5867206771
 30
0.0
 11
97.87238635740001
 21
28.347055345
 31
0.0
  0
LINE
  5
373
330
224
100
AcDbEntity
  8
0
  6
Continuous
 62
     7
100
AcDbLine
 10
97.87238635740001
 20
39.8367206771
 30
0.0
 11
97.87238635740001
 21
33.01372201159999
 31
0.0
  0
INSERT
  5
374
330
224
100
AcDbEntity
  8
0
  6
Continuous
 62
     7
100
AcDbBlockReference
  2
_FILLED
 10
97.87238635740001
 20
20.5867206771
 30
0.0
 41
2.0
 42
2.0
 43
2.0
 50
270.0
  0
INSERT
  5
375
330
224
100
AcDbEntity
  8
0
  6
Continuous
 62
     7
100
AcDbBlockReference
  2
_FILLED
 10
97.87238635740001
 20
39.8367206771
 30
0.0
 41
2.0
 42
2.0
 43
2.0
 50
90.0
  0
ENDBLK
  5
376
330
224
100
AcDbEntity
  8
0
  6
ByBlock
 62
     0
100
AcDbBlockEnd
  0
BLOCK
  5
377
330
225
100
AcDbEntity
  8
0
  6
Continuous
 62
     7
100
AcDbBlockBegin
  2
*D13
 70
     1
 10
0.0
 20
0.0
 30
0.0
  3
*D13
  1

  0
MTEXT
  5
378
330
225
100
AcDbEntity
  8
0
  6
Continuous
 62
     7
100
AcDbMText
 10
7.8502170363
 20
27.9942753791
 30
0.0
 40
1.333333333299999
 41
4.266666666699999
 71
     2
 72
     1
  1
24\P[61]
 73
     1
 44
0.9
  0
LINE
  5
379
330
225
100
AcDbEntity
  8
0
  6
Continuous
 62
     7
100
AcDbLine
 10
35.89912579510001
 20
15.8367206771
 30
0.0
 11
7.5835503697
 21
15.8367206771
 31
0.0
  0
LINE
  5
37A
330
225
100
AcDbEntity
  8
0
  6
Continuous
 62
     7
100
AcDbLine
 10
12.2432386238
 20
39.8367206771
 30
0.0
 11
7.5835503697
 21
39.8367206771
 31
0.0
  0
LINE
  5
37B
330
225
100
AcDbEntity
  8
0
  6
Continuous
 62
     7
100
AcDbLine
 10
8.916883702999999
 20
15.8367206771
 30
0.0
 11
8.916883702999999
 21
23.9942753791
 31
0.0
  0
LINE
  5
37C
330
225
100
AcDbEntity
  8
0
  6
Continuous
 62
     7
100
AcDbLine
 10
8.916883702999999
 20
39.8367206771
 30
0.0
 11
8.916883702999999
 21
28.6609420458
 31
0.0
  0
INSERT
  5
37D
330
225
100
AcDbEntity
  8
0
  6
Continuous
 62
     7
100
AcDbBlockReference
  2
_FILLED
 10
8.916883702999999
 20
15.8367206771
 30
0.0
 41
2.0
 42
2.0
 43
2.0
 50
270.0
  0
INSERT
  5
37E
330
225
100
AcDbEntity
  8
0
  6
Continuous
 62
     7
100
AcDbBlockReference
  2
_FILLED
 10
8.916883702999999
 20
39.8367206771
 30
0.0
 41
2.0
 42
2.0
 43
2.0
 50
90.0
  0
ENDBLK
  5
37F
330
225
100
AcDbEntity
  8
0
  6
ByBlock
 62
     0
100
AcDbBlockEnd
  0
BLOCK
  5
380
330
226
100
AcDbEntity
  8
0
  6
Continuous
 62
     7
100
AcDbBlockBegin
  2
*D14
 70
     1
 10
0.0
 20
0.0
 30
0.0
  3
*D14
  1

  0
MTEXT
  5
381
330
226
100
AcDbEntity
  8
0
  6
Continuous
 62
     7
100
AcDbMText
 10
118.1021707016
 20
14.5191905338
 30
0.0
 40
1.333333333299999
 41
4.266666666699999
 71
     2
 72
     1
  1
19\P[48]
 73
     1
 44
0.9
  0
LINE
  5
382
330
226
100
AcDbEntity
  8
0
  6
Continuous
 62
     7
100
AcDbLine
 10
128.5645701656
 20
15.1818704283
 30
0.0
 11
128.5645701656
 21
12.5191905338
 31
0.0
  0
LINE
  5
383
330
226
100
AcDbEntity
  8
0
  6
Continuous
 62
     7
100
AcDbLine
 10
109.7731045709
 20
15.2105695579
 30
0.0
 11
109.7731045709
 21
12.5191905338
 31
0.0
  0
LINE
  5
384
330
226
100
AcDbEntity
  8
0
  6
Continuous
 62
     7
100
AcDbLine
 10
128.5645701656
 20
13.8525238672
 30
0.0
 11
121.9688373682
 21
13.8525238672
 31
0.0
  0
LINE
  5
385
330
226
100
AcDbEntity
  8
0
  6
Continuous
 62
     7
100
AcDbLine
 10
109.7731045709
 20
13.8525238672
 30
0.0
 11
116.3688373682
 21
13.8525238672
 31
0.0
  0
INSERT
  5
386
330
226
100
AcDbEntity
  8
0
  6
Continuous
 62
     7
100
AcDbBlockReference
  2
_FILLED
 10
128.5645701656
 20
13.8525238672
 30
0.0
 41
2.0
 42
2.0
 43
2.0
  0
INSERT
  5
387
330
226
100
AcDbEntity
  8
0
  6
Continuous
 62
     7
100
AcDbBlockReference
  2
_FILLED
 10
109.7731045709
 20
13.8525238672
 30
0.0
 41
2.0
 42
2.0
 43
2.0
 50
180.0
  0
ENDBLK
  5
388
330
226
100
AcDbEntity
  8
0
  6
ByBlock
 62
     0
100
AcDbBlockEnd
  0
BLOCK
  5
389
330
227
100
AcDbEntity
  8
0
  6
Continuous
 62
     7
100
AcDbBlockBegin
  2
*D15
 70
     1
 10
0.0
 20
0.0
 30
0.0
  3
*D15
  1

  0
MTEXT
  5
38A
330
227
100
AcDbEntity
  8
0
  6
Continuous
 62
     7
100
AcDbMText
 10
60.42999744439999
 20
13.6572405184
 30
0.0
 40
1.333333333299999
 41
1.955555555599999
 71
     2
 72
     1
  1
2\Fgdt;{\Fgdt;~}
 73
     1
 44
0.9
  0
LINE
  5
38B
330
227
100
AcDbEntity
  8
0
  6
Continuous
 62
     7
100
AcDbLine
 10
46.092871271
 20
20.5867206771
 30
0.0
 11
63.576649645
 21
20.5867206771
 31
0.0
  0
ARC
  5
38C
330
227
100
AcDbEntity
  8
0
  6
Continuous
 62
     7
100
AcDbCircle
 10
45.4262046043
 20
20.5867206771
 30
0.0
 40
16.8171117074
100
AcDbArc
 50
333.1477376952
 51
360.0
  0
ARC
  5
38D
330
227
100
AcDbEntity
  8
0
  6
Continuous
 62
     7
100
AcDbCircle
 10
45.4262046043
 20
20.5867206771
 30
0.0
 40
16.8171117074
100
AcDbArc
 50
1.9020172515
 51
20.0726458382
  0
SOLID
  5
38E
330
227
100
AcDbEntity
  8
0
  6
Continuous
 62
     7
100
AcDbTrace
 10
62.45720409229999
 20
18.5704461103
 30
0.0
 11
62.2433163117
 21
20.5867206771
 31
0.0
 12
61.7917157042
 22
18.6100649148
 32
0.0
 13
61.7917157042
 23
18.6100649148
 33
0.0
  0
SOLID
  5
38F
330
227
100
AcDbEntity
  8
0
  6
Continuous
 62
     7
100
AcDbTrace
 10
61.7170931636
 20
23.1054647114
 30
0.0
 11
62.2340508905
 21
21.1448867813
 31
0.0
 12
62.380899937
 22
23.1671494914
 32
0.0
 13
62.380899937
 23
23.1671494914
 33
0.0
  0
ENDBLK
  5
390
330
227
100
AcDbEntity
  8
0
  6
ByBlock
 62
     0
100
AcDbBlockEnd
  0
BLOCK
  5
391
330
228
100
AcDbEntity
  8
0
  6
Continuous
 62
     7
100
AcDbBlockBegin
  2
*D16
 70
     1
 10
0.0
 20
0.0
 30
0.0
  3
*D16
  1

  0
MTEXT
  5
392
330
228
100
AcDbEntity
  8
0
  6
Continuous
 62
     7
100
AcDbMText
 10
87.75624420280001
 20
26.3315598369
 30
0.0
 40
1.333333333299999
 41
3.0222222222
 71
     2
 72
     1
  1
29\Fgdt;{\Fgdt;~}
 73
     1
 44
0.9
  0
LINE
  5
393
330
228
100
AcDbEntity
  8
0
  6
Continuous
 62
     7
100
AcDbLine
 10
75.5766330008
 20
26.6903084416
 30
0.0
 11
74.45438402509999
 21
24.671916637
 31
0.0
  0
LINE
  5
394
330
228
100
AcDbEntity
  8
0
  6
Continuous
 62
     7
100
AcDbLine
 10
81.58935329270001
 20
36.837663996
 30
0.0
 11
81.58935329270001
 21
22.8217342923
 31
0.0
  0
ARC
  5
395
330
228
100
AcDbEntity
  8
0
  6
Continuous
 62
     7
100
AcDbCircle
 10
81.58935329270001
 20
37.5043306627
 30
0.0
 40
13.3492630371
100
AcDbArc
 50
240.9254390377
 51
287.3871317461
  0
SOLID
  5
396
330
228
100
AcDbEntity
  8
0
  6
Continuous
 62
     7
100
AcDbTrace
 10
77.0578498517
 20
25.3015194655
 30
0.0
 11
75.10231386779999
 21
25.8372340602
 31
0.0
 12
76.7783999299
 22
24.6962491245
 32
0.0
 13
76.7783999299
 23
24.6962491245
 33
0.0
  0
SOLID
  5
397
330
228
100
AcDbEntity
  8
0
  6
Continuous
 62
     7
100
AcDbTrace
 10
79.57001543210001
 20
23.9723500407
 30
0.0
 11
81.58935329270001
 21
24.1550676256
 31
0.0
 12
79.61990907270001
 22
24.6371470541
 32
0.0
 13
79.61990907270001
 23
24.6371470541
 33
0.0
  0
ENDBLK
  5
398
330
228
100
AcDbEntity
  8
0
  6
ByBlock
 62
     0
100
AcDbBlockEnd
  0
BLOCK
  5
399
330
229
100
AcDbEntity
  8
0
  6
Continuous
 62
     7
100
AcDbBlockBegin
  2
*D17
 70
     1
 10
0.0
 20
0.0
 30
0.0
  3
*D17
  1

  0
MTEXT
  5
39A
330
229
100
AcDbEntity
  8
0
  6
Continuous
 62
     7
100
AcDbMText
 10
12.6363787376
 20
22.0769829537
 30
0.0
 40
1.333333333299999
 41
3.0222222222
 71
     2
 72
     1
  1
40\Fgdt;{\Fgdt;~}
 73
     1
 44
0.9
  0
LINE
  5
39B
330
229
100
AcDbEntity
  8
0
  6
Continuous
 62
     7
100
AcDbLine
 10
16.6562707909
 20
35.8654200746
 30
0.0
 11
16.6562707909
 21
19.5517896836
 31
0.0
  0
LINE
  5
39C
330
229
100
AcDbEntity
  8
0
  6
Continuous
 62
     7
100
AcDbLine
 10
26.2209523106
 20
25.2221856048
 30
0.0
 11
27.62106433
 21
23.5666021453
 31
0.0
  0
ARC
  5
39D
330
229
100
AcDbEntity
  8
0
  6
Continuous
 62
     7
100
AcDbCircle
 10
16.6562707909
 20
36.5320867412
 30
0.0
 40
15.6469637243
100
AcDbArc
 50
263.2388977251
 51
310.2209002863
  0
SOLID
  5
39E
330
229
100
AcDbEntity
  8
0
  6
Continuous
 62
     7
100
AcDbTrace
 10
18.6308987838
 20
21.3455091601
 30
0.0
 11
16.6562707909
 21
20.885123017
 31
0.0
 12
18.6734765603
 22
20.6802035331
 32
0.0
 13
18.6734765603
 23
20.6802035331
 33
0.0
  0
SOLID
  5
39F
330
229
100
AcDbEntity
  8
0
  6
Continuous
 62
     7
100
AcDbTrace
 10
25.3521478861
 20
23.1256315085
 30
0.0
 11
26.7600826482
 21
24.58468285
 31
0.0
 12
24.9550466274
 22
23.661126639
 32
0.0
 13
24.9550466274
 23
23.661126639
 33
0.0
  0
ENDBLK
  5
3A0
330
229
100
AcDbEntity
  8
0
  6
ByBlock
 62
     0
100
AcDbBlockEnd
  0
BLOCK
  5
235
330
22A
100
AcDbEntity
  8
0
  6
Continuous
 62
     7
100
AcDbBlockBegin
  2
L03-USAGE_INTERNE_SEULEM_BL3
 70
     0
 10
120.401880998
 20
44.6769857358
 30
0.0
  3
L03-USAGE_INTERNE_SEULEM_BL3
  1

  0
TEXT
  5
236
330
22A
100
AcDbEntity
  8
0
  6
Continuous
 62
     7
100
AcDbText
 10
114.0878206962
 20
46.9220197216
 30
0.0
 40
1.1626666667
  1
INTERNAL USE 
 50
10.0
  7
TEXTSTYLE_3
100
AcDbText
  0
TEXT
  5
237
330
22A
100
AcDbEntity
  8
0
  6
Continuous
 62
     7
100
AcDbText
 10
113.3441364922
 20
44.9204985439
 30
0.0
 40
1.1626666667
  1
DOCUMENT ONLY
 50
10.0
  7
TEXTSTYLE_3
100
AcDbText
  0
TEXT
  5
238
330
22A
100
AcDbEntity
  8
0
  6
Continuous
 62
     7
100
AcDbText
 10
119.1288640555
 20
44.67207049339999
 30
0.0
 40
1.1626666667
  1
 
 50
10.0
  7
TEXTSTYLE_5
100
AcDbText
  0
TEXT
  5
239
330
22A
100
AcDbEntity
  8
0
  6
Continuous
 62
     7
100
AcDbText
 10
110.6842161725
 20
40.4949760871
 30
0.0
 40
1.1626666667
  1
DOCUMENT POUR USAGE
 50
10.0
  7
TEXTSTYLE_3
100
AcDbText
  0
TEXT
  5
23A
330
22A
100
AcDbEntity
  8
0
  6
Continuous
 62
     7
100
AcDbText
 10
111.1133156185
 20
38.47822762670001
 30
0.0
 40
1.1626666667
  1
A L'INTERNE SEULEMENT
 50
10.0
  7
TEXTSTYLE_3
100
AcDbText
  0
LINE
  5
23B
330
22A
100
AcDbEntity
  8
0
  6
Continuous
 62
     7
100
AcDbLine
 10
134.2584327213
 20
40.3334521178
 30
0.0
 11
134.265191654
 21
40.3402110505
 31
0.0
  0
LINE
  5
23C
330
22A
100
AcDbEntity
  8
0
  6
Continuous
 62
     7
100
AcDbLine
 10
133.5258631549
 20
40.204280338
 30
0.0
 11
134.1747446
 21
40.8531617831
 31
0.0
  0
LINE
  5
23D
330
22A
100
AcDbEntity
  8
0
  6
Continuous
 62
     7
100
AcDbLine
 10
132.7932935885
 20
40.0751085582
 30
0.0
 11
134.0842975461
 21
41.36611251579999
 31
0.0
  0
LINE
  5
23E
330
22A
100
AcDbEntity
  8
0
  6
Continuous
 62
     7
100
AcDbLine
 10
132.0607240221
 20
39.94593677840001
 30
0.0
 11
133.9938504921
 21
41.8790632485
 31
0.0
  0
LINE
  5
23F
330
22A
100
AcDbEntity
  8
0
  6
Continuous
 62
     7
100
AcDbLine
 10
131.3281544556
 20
39.8167649986
 30
0.0
 11
133.9034034382
 21
42.3920139811
 31
0.0
  0
LINE
  5
240
330
22A
100
AcDbEntity
  8
0
  6
Continuous
 62
     7
100
AcDbLine
 10
130.5955848892
 20
39.6875932188
 30
0.0
 11
132.136588704
 21
41.2285970336
 31
0.0
  0
LINE
  5
241
330
22A
100
AcDbEntity
  8
0
  6
Continuous
 62
     7
100
AcDbLine
 10
132.7339338967
 20
41.8259422263
 30
0.0
 11
133.8129563842
 21
42.9049647138
 31
0.0
  0
LINE
  5
242
330
22A
100
AcDbEntity
  8
0
  6
Continuous
 62
     7
100
AcDbLine
 10
129.8630153228
 20
39.558421439
 30
0.0
 11
131.4040191376
 21
41.0994252538
 31
0.0
  0
LINE
  5
243
330
22A
100
AcDbEntity
  8
0
  6
Continuous
 62
     7
100
AcDbLine
 10
132.6434868428
 20
42.3388929589
 30
0.0
 11
133.7225093303
 21
43.41791544649999
 31
0.0
  0
LINE
  5
244
330
22A
100
AcDbEntity
  8
0
  6
Continuous
 62
     7
100
AcDbLine
 10
129.1304457564
 20
39.42924965920001
 30
0.0
 11
130.6714495712
 21
40.9702534739
 31
0.0
  0
LINE
  5
245
330
22A
100
AcDbEntity
  8
0
  6
Continuous
 62
     7
100
AcDbLine
 10
132.5530397888
 20
42.85184369159999
 30
0.0
 11
133.6320622764
 21
43.93086617909999
 31
0.0
  0
LINE
  5
246
330
22A
100
AcDbEntity
  8
0
  6
Continuous
 62
     7
100
AcDbLine
 10
128.39787619
 20
39.3000778794
 30
0.0
 11
129.9388800048
 21
40.8410816941
 31
0.0
  0
LINE
  5
247
330
22A
100
AcDbEntity
  8
0
  6
Continuous
 62
     7
100
AcDbLine
 10
132.4625927349
 20
43.36479442429999
 30
0.0
 11
133.5416152224
 21
44.44381691180001
 31
0.0
  0
LINE
  5
248
330
22A
100
AcDbEntity
  8
0
  6
Continuous
 62
     7
100
AcDbLine
 10
127.6653066236
 20
39.17090609960001
 30
0.0
 11
129.2063104383
 21
40.71190991429999
 31
0.0
  0
LINE
  5
249
330
22A
100
AcDbEntity
  8
0
  6
Continuous
 62
     7
100
AcDbLine
 10
132.372145681
 20
43.877745157
 30
0.0
 11
133.4511681685
 21
44.95676764449999
 31
0.0
  0
LINE
  5
24A
330
22A
100
AcDbEntity
  8
0
  6
Continuous
 62
     7
100
AcDbLine
 10
126.9327370571
 20
39.0417343198
 30
0.0
 11
128.4737408719
 21
40.58273813449999
 31
0.0
  0
LINE
  5
24B
330
22A
100
AcDbEntity
  8
0
  6
Continuous
 62
     7
100
AcDbLine
 10
132.281698627
 20
44.3906958896
 30
0.0
 11
133.3607211145
 21
45.4697183771
 31
0.0
  0
LINE
  5
24C
330
22A
100
AcDbEntity
  8
0
  6
Continuous
 62
     7
100
AcDbLine
 10
126.2001674907
 20
38.91256253989999
 30
0.0
 11
127.7411713055
 21
40.4535663547
 31
0.0
  0
LINE
  5
24D
330
22A
100
AcDbEntity
  8
0
  6
Continuous
 62
     7
100
AcDbLine
 10
132.1912515731
 20
44.90364662229999
 30
0.0
 11
133.2702740606
 21
45.98266910979999
 31
0.0
  0
LINE
  5
24E
330
22A
100
AcDbEntity
  8
0
  6
Continuous
 62
     7
100
AcDbLine
 10
125.4675979243
 20
38.7833907601
 30
0.0
 11
127.0086017391
 21
40.32439457489999
 31
0.0
  0
LINE
  5
24F
330
22A
100
AcDbEntity
  8
0
  6
Continuous
 62
     7
100
AcDbLine
 10
132.1008045191
 20
45.416597355
 30
0.0
 11
133.1798270066
 21
46.4956198425
 31
0.0
  0
LINE
  5
250
330
22A
100
AcDbEntity
  8
0
  6
Continuous
 62
     7
100
AcDbLine
 10
124.7350283579
 20
38.6542189803
 30
0.0
 11
126.2760321727
 21
40.1952227951
 31
0.0
  0
LINE
  5
251
330
22A
100
AcDbEntity
  8
0
  6
Continuous
 62
     7
100
AcDbLine
 10
132.0103574652
 20
45.9295480876
 30
0.0
 11
133.0893799527
 21
47.0085705751
 31
0.0
  0
LINE
  5
252
330
22A
100
AcDbEntity
  8
0
  6
Continuous
 62
     7
100
AcDbLine
 10
124.0024587915
 20
38.52504720050001
 30
0.0
 11
125.5434626062
 21
40.0660510153
 31
0.0
  0
LINE
  5
253
330
22A
100
AcDbEntity
  8
0
  6
Continuous
 62
     7
100
AcDbLine
 10
131.7074778654
 20
46.23006627439999
 30
0.0
 11
132.9989328988
 21
47.52152130779999
 31
0.0
  0
LINE
  5
254
330
22A
100
AcDbEntity
  8
0
  6
Continuous
 62
     7
100
AcDbLine
 10
123.269889225
 20
38.3958754207
 30
0.0
 11
124.8108930398
 21
39.9368792355
 31
0.0
  0
LINE
  5
255
330
22A
100
AcDbEntity
  8
0
  6
Continuous
 62
     7
100
AcDbLine
 10
130.9749082989
 20
46.1008944946
 30
0.0
 11
132.9084858448
 21
48.0344720405
 31
0.0
  0
LINE
  5
256
330
22A
100
AcDbEntity
  8
0
  6
Continuous
 62
     7
100
AcDbLine
 10
122.5373196586
 20
38.26670364090001
 30
0.0
 11
124.0783234734
 21
39.8077074557
 31
0.0
  0
LINE
  5
257
330
22A
100
AcDbEntity
  8
0
  6
Continuous
 62
     7
100
AcDbLine
 10
130.2423387325
 20
45.97172271479999
 30
0.0
 11
131.2696810308
 21
46.9990650131
 31
0.0
  0
LINE
  5
258
330
22A
100
AcDbEntity
  8
0
  6
Continuous
 62
     7
100
AcDbLine
 10
131.7390163033
 20
47.4684002856
 30
0.0
 11
132.8180387909
 21
48.54742277319999
 31
0.0
  0
LINE
  5
259
330
22A
100
AcDbEntity
  8
0
  6
Continuous
 62
     7
100
AcDbLine
 10
121.8047500922
 20
38.1375318611
 30
0.0
 11
123.345753907
 21
39.6785356759
 31
0.0
  0
LINE
  5
25A
330
22A
100
AcDbEntity
  8
0
  6
Continuous
 62
     7
100
AcDbLine
 10
129.5097691661
 20
45.842550935
 30
0.0
 11
130.5371112547
 21
46.8698930237
 31
0.0
  0
LINE
  5
25B
330
22A
100
AcDbEntity
  8
0
  6
Continuous
 62
     7
100
AcDbLine
 10
131.6485692494
 20
47.98135101829999
 30
0.0
 11
132.7275917369
 21
49.0603735058
 31
0.0
  0
LINE
  5
25C
330
22A
100
AcDbEntity
  8
0
  6
Continuous
 62
     7
100
AcDbLine
 10
121.0721805258
 20
38.0083600813
 30
0.0
 11
122.6131843406
 21
39.54936389610001
 31
0.0
  0
LINE
  5
25D
330
22A
100
AcDbEntity
  8
0
  6
Continuous
 62
     7
100
AcDbLine
 10
128.7771995997
 20
45.7133791552
 30
0.0
 11
129.8045414787
 21
46.7407210342
 31
0.0
  0
LINE
  5
25E
330
22A
100
AcDbEntity
  8
0
  6
Continuous
 62
     7
100
AcDbLine
 10
131.5581221955
 20
48.494301751
 30
0.0
 11
132.637144683
 21
49.57332423850001
 31
0.0
  0
LINE
  5
25F
330
22A
100
AcDbEntity
  8
0
  6
Continuous
 62
     7
100
AcDbLine
 10
120.3396109594
 20
37.8791883015
 30
0.0
 11
121.8806147742
 21
39.4201921163
 31
0.0
  0
LINE
  5
260
330
22A
100
AcDbEntity
  8
0
  6
Continuous
 62
     7
100
AcDbLine
 10
128.0446300333
 20
45.58420737539999
 30
0.0
 11
129.0719717027
 21
46.61154904479999
 31
0.0
  0
LINE
  5
261
330
22A
100
AcDbEntity
  8
0
  6
Continuous
 62
     7
100
AcDbLine
 10
131.4676751415
 20
49.0072524836
 30
0.0
 11
132.546697629
 21
50.08627497119999
 31
0.0
  0
LINE
  5
262
330
22A
100
AcDbEntity
  8
0
  6
Continuous
 62
     7
100
AcDbLine
 10
119.607041393
 20
37.7500165217
 30
0.0
 11
121.1480452077
 21
39.2910203365
 31
0.0
  0
LINE
  5
263
330
22A
100
AcDbEntity
  8
0
  6
Continuous
 62
     7
100
AcDbLine
 10
127.3120604668
 20
45.4550355956
 30
0.0
 11
128.3394019267
 21
46.4823770554
 31
0.0
  0
LINE
  5
264
330
22A
100
AcDbEntity
  8
0
  6
Continuous
 62
     7
100
AcDbLine
 10
131.3772280876
 20
49.5202032163
 30
0.0
 11
132.4562505751
 21
50.5992257038
 31
0.0
  0
LINE
  5
265
330
22A
100
AcDbEntity
  8
0
  6
Continuous
 62
     7
100
AcDbLine
 10
118.8744718265
 20
37.6208447419
 30
0.0
 11
120.4154756413
 21
39.1618485567
 31
0.0
  0
LINE
  5
266
330
22A
100
AcDbEntity
  8
0
  6
Continuous
 62
     7
100
AcDbLine
 10
126.5794909004
 20
45.32586381579999
 30
0.0
 11
127.6068321506
 21
46.353205066
 31
0.0
  0
LINE
  5
267
330
22A
100
AcDbEntity
  8
0
  6
Continuous
 62
     7
100
AcDbLine
 10
131.2867810336
 20
50.03315394899999
 30
0.0
 11
132.3658035211
 21
51.11217643649999
 31
0.0
  0
LINE
  5
268
330
22A
100
AcDbEntity
  8
0
  6
Continuous
 62
     7
100
AcDbLine
 10
118.1419022601
 20
37.4916729621
 30
0.0
 11
119.6829060749
 21
39.0326767769
 31
0.0
  0
LINE
  5
269
330
22A
100
AcDbEntity
  8
0
  6
Continuous
 62
     7
100
AcDbLine
 10
125.846921334
 20
45.196692036
 30
0.0
 11
126.8742623746
 21
46.22403307659999
 31
0.0
  0
LINE
  5
26A
330
22A
100
AcDbEntity
  8
0
  6
Continuous
 62
     7
100
AcDbLine
 10
131.1963339797
 20
50.5461046817
 30
0.0
 11
132.2753564672
 21
51.6251271692
 31
0.0
  0
LINE
  5
26B
330
22A
100
AcDbEntity
  8
0
  6
Continuous
 62
     7
100
AcDbLine
 10
117.4093326937
 20
37.3625011823
 30
0.0
 11
118.9503365085
 21
38.9035049971
 31
0.0
  0
LINE
  5
26C
330
22A
100
AcDbEntity
  8
0
  6
Continuous
 62
     7
100
AcDbLine
 10
125.1143517676
 20
45.06752025619999
 30
0.0
 11
126.1416925986
 21
46.0948610872
 31
0.0
  0
LINE
  5
26D
330
22A
100
AcDbEntity
  8
0
  6
Continuous
 62
     7
100
AcDbLine
 10
131.1058869257
 20
51.05905541430001
 30
0.0
 11
132.1849094133
 21
52.1380779018
 31
0.0
  0
LINE
  5
26E
330
22A
100
AcDbEntity
  8
0
  6
Continuous
 62
     7
100
AcDbLine
 10
116.6767631273
 20
37.2333294025
 30
0.0
 11
118.2177669420999
 21
38.7743332173
 31
0.0
  0
LINE
  5
26F
330
22A
100
AcDbEntity
  8
0
  6
Continuous
 62
     7
100
AcDbLine
 10
124.3817822012
 20
44.9383484764
 30
0.0
 11
125.4091228225
 21
45.96568909770001
 31
0.0
  0
LINE
  5
270
330
22A
100
AcDbEntity
  8
0
  6
Continuous
 62
     7
100
AcDbLine
 10
131.0154398718
 20
51.57200614699999
 30
0.0
 11
132.0944623593
 21
52.6510286345
 31
0.0
  0
LINE
  5
271
330
22A
100
AcDbEntity
  8
0
  6
Continuous
 62
     7
100
AcDbLine
 10
115.9441935609
 20
37.1041576227
 30
0.0
 11
117.4851973756
 21
38.6451614374
 31
0.0
  0
LINE
  5
272
330
22A
100
AcDbEntity
  8
0
  6
Continuous
 62
     7
100
AcDbLine
 10
123.6492126348
 20
44.8091766966
 30
0.0
 11
124.6765530465
 21
45.83651710829999
 31
0.0
  0
LINE
  5
273
330
22A
100
AcDbEntity
  8
0
  6
Continuous
 62
     7
100
AcDbLine
 10
130.8405637704
 20
52.0005278322
 30
0.0
 11
132.0040153054
 21
53.1639793672
 31
0.0
  0
LINE
  5
274
330
22A
100
AcDbEntity
  8
0
  6
Continuous
 62
     7
100
AcDbLine
 10
115.2116239945
 20
36.9749858429
 30
0.0
 11
116.7526278092
 21
38.5159896576
 31
0.0
  0
LINE
  5
275
330
22A
100
AcDbEntity
  8
0
  6
Continuous
 62
     7
100
AcDbLine
 10
122.9166430683
 20
44.6800049168
 30
0.0
 11
123.9439832705
 21
45.7073451189
 31
0.0
  0
LINE
  5
276
330
22A
100
AcDbEntity
  8
0
  6
Continuous
 62
     7
100
AcDbLine
 10
130.107994204
 20
51.87135605239999
 30
0.0
 11
131.6489980187
 21
53.4123598672
 31
0.0
  0
LINE
  5
277
330
22A
100
AcDbEntity
  8
0
  6
Continuous
 62
     7
100
AcDbLine
 10
114.479054428
 20
36.8458140631
 30
0.0
 11
116.0200582428
 21
38.3868178778
 31
0.0
  0
LINE
  5
278
330
22A
100
AcDbEntity
  8
0
  6
Continuous
 62
     7
100
AcDbLine
 10
122.1840735019
 20
44.55083313689999
 30
0.0
 11
123.2114134945
 21
45.5781731295
 31
0.0
  0
LINE
  5
279
330
22A
100
AcDbEntity
  8
0
  6
Continuous
 62
     7
100
AcDbLine
 10
129.3754246375
 20
51.7421842726
 30
0.0
 11
130.9164284523
 21
53.28318808729999
 31
0.0
  0
LINE
  5
27A
330
22A
100
AcDbEntity
  8
0
  6
Continuous
 62
     7
100
AcDbLine
 10
113.7464848616
 20
36.7166422833
 30
0.0
 11
115.2874886764
 21
38.257646098
 31
0.0
  0
LINE
  5
27B
330
22A
100
AcDbEntity
  8
0
  6
Continuous
 62
     7
100
AcDbLine
 10
121.4515039355
 20
44.42166135709999
 30
0.0
 11
122.4788437184
 21
45.4490011401
 31
0.0
  0
LINE
  5
27C
330
22A
100
AcDbEntity
  8
0
  6
Continuous
 62
     7
100
AcDbLine
 10
128.6428550711
 20
51.6130124928
 30
0.0
 11
130.1838588859
 21
53.1540163075
 31
0.0
  0
LINE
  5
27D
330
22A
100
AcDbEntity
  8
0
  6
Continuous
 62
     7
100
AcDbLine
 10
113.0139152952
 20
36.5874705035
 30
0.0
 11
114.55491911
 21
38.1284743182
 31
0.0
  0
LINE
  5
27E
330
22A
100
AcDbEntity
  8
0
  6
Continuous
 62
     7
100
AcDbLine
 10
120.7189343691
 20
44.29248957729999
 30
0.0
 11
121.7462739424
 21
45.31982915069999
 31
0.0
  0
LINE
  5
27F
330
22A
100
AcDbEntity
  8
0
  6
Continuous
 62
     7
100
AcDbLine
 10
127.9102855047
 20
51.483840713
 30
0.0
 11
129.4512893195
 21
53.0248445277
 31
0.0
  0
LINE
  5
280
330
22A
100
AcDbEntity
  8
0
  6
Continuous
 62
     7
100
AcDbLine
 10
112.2813457288
 20
36.4582987236
 30
0.0
 11
113.8223495436
 21
37.9993025384
 31
0.0
  0
LINE
  5
281
330
22A
100
AcDbEntity
  8
0
  6
Continuous
 62
     7
100
AcDbLine
 10
119.9863648027
 20
44.1633177975
 30
0.0
 11
121.0137041664
 21
45.1906571612
 31
0.0
  0
LINE
  5
282
330
22A
100
AcDbEntity
  8
0
  6
Continuous
 62
     7
100
AcDbLine
 10
127.1777159383
 20
51.3546689332
 30
0.0
 11
128.7187197531
 21
52.8956727479
 31
0.0
  0
LINE
  5
283
330
22A
100
AcDbEntity
  8
0
  6
Continuous
 62
     7
100
AcDbLine
 10
111.5487761624
 20
36.3291269438
 30
0.0
 11
113.0897799771
 21
37.8701307586
 31
0.0
  0
LINE
  5
284
330
22A
100
AcDbEntity
  8
0
  6
Continuous
 62
     7
100
AcDbLine
 10
119.2537952362
 20
44.0341460177
 30
0.0
 11
120.2811343903
 21
45.0614851718
 31
0.0
  0
LINE
  5
285
330
22A
100
AcDbEntity
  8
0
  6
Continuous
 62
     7
100
AcDbLine
 10
126.4451463719
 20
51.22549715339999
 30
0.0
 11
127.9861501867
 21
52.7665009681
 31
0.0
  0
LINE
  5
286
330
22A
100
AcDbEntity
  8
0
  6
Continuous
 62
     7
100
AcDbLine
 10
110.8162065959
 20
36.199955164
 30
0.0
 11
112.3572104107
 21
37.7409589788
 31
0.0
  0
LINE
  5
287
330
22A
100
AcDbEntity
  8
0
  6
Continuous
 62
     7
100
AcDbLine
 10
118.5212256698
 20
43.9049742379
 30
0.0
 11
119.5485646143
 21
44.93231318239999
 31
0.0
  0
LINE
  5
288
330
22A
100
AcDbEntity
  8
0
  6
Continuous
 62
     7
100
AcDbLine
 10
125.7125768055
 20
51.0963253735
 30
0.0
 11
127.2535806202
 21
52.6373291883
 31
0.0
  0
LINE
  5
289
330
22A
100
AcDbEntity
  8
0
  6
Continuous
 62
     7
100
AcDbLine
 10
110.0836370295
 20
36.0707833842
 30
0.0
 11
111.6246408443
 21
37.611787199
 31
0.0
  0
LINE
  5
28A
330
22A
100
AcDbEntity
  8
0
  6
Continuous
 62
     7
100
AcDbLine
 10
117.7886561034
 20
43.7758024581
 30
0.0
 11
118.8159948383
 21
44.803141193
 31
0.0
  0
LINE
  5
28B
330
22A
100
AcDbEntity
  8
0
  6
Continuous
 62
     7
100
AcDbLine
 10
124.980007239
 20
50.9671535937
 30
0.0
 11
126.5210110538
 21
52.50815740850001
 31
0.0
  0
LINE
  5
28C
330
22A
100
AcDbEntity
  8
0
  6
Continuous
 62
     7
100
AcDbLine
 10
109.3510674631
 20
35.94161160440001
 30
0.0
 11
110.8920712779
 21
37.4826154192
 31
0.0
  0
LINE
  5
28D
330
22A
100
AcDbEntity
  8
0
  6
Continuous
 62
     7
100
AcDbLine
 10
117.056086537
 20
43.6466306783
 30
0.0
 11
118.0834250623
 21
44.67396920359999
 31
0.0
  0
LINE
  5
28E
330
22A
100
AcDbEntity
  8
0
  6
Continuous
 62
     7
100
AcDbLine
 10
124.2474376726
 20
50.8379818139
 30
0.0
 11
125.7884414874
 21
52.3789856287
 31
0.0
  0
LINE
  5
28F
330
22A
100
AcDbEntity
  8
0
  6
Continuous
 62
     7
100
AcDbLine
 10
108.7997466906
 20
35.9936886185
 30
0.0
 11
110.1595017115
 21
37.3534436394
 31
0.0
  0
LINE
  5
290
330
22A
100
AcDbEntity
  8
0
  6
Continuous
 62
     7
100
AcDbLine
 10
116.3235169706
 20
43.5174588985
 30
0.0
 11
117.3508552862
 21
44.5447972142
 31
0.0
  0
LINE
  5
291
330
22A
100
AcDbEntity
  8
0
  6
Continuous
 62
     7
100
AcDbLine
 10
123.5148681062
 20
50.7088100341
 30
0.0
 11
125.055871921
 21
52.2498138489
 31
0.0
  0
LINE
  5
292
330
22A
100
AcDbEntity
  8
0
  6
Continuous
 62
     7
100
AcDbLine
 10
108.7092996366
 20
36.5066393512
 30
0.0
 11
109.7883221242
 21
37.5856618387
 31
0.0
  0
LINE
  5
293
330
22A
100
AcDbEntity
  8
0
  6
Continuous
 62
     7
100
AcDbLine
 10
115.5909474042
 20
43.38828711869999
 30
0.0
 11
116.6182855102
 21
44.41562522469999
 31
0.0
  0
LINE
  5
294
330
22A
100
AcDbEntity
  8
0
  6
Continuous
 62
     7
100
AcDbLine
 10
122.7822985398
 20
50.5796382543
 30
0.0
 11
124.3233023546
 21
52.1206420691
 31
0.0
  0
LINE
  5
295
330
22A
100
AcDbEntity
  8
0
  6
Continuous
 62
     7
100
AcDbLine
 10
108.6188525827
 20
37.0195900839
 30
0.0
 11
109.6978750702
 21
38.0986125714
 31
0.0
  0
LINE
  5
296
330
22A
100
AcDbEntity
  8
0
  6
Continuous
 62
     7
100
AcDbLine
 10
114.8583778377
 20
43.2591153389
 30
0.0
 11
115.8857157342
 21
44.28645323529999
 31
0.0
  0
LINE
  5
297
330
22A
100
AcDbEntity
  8
0
  6
Continuous
 62
     7
100
AcDbLine
 10
122.0497289734
 20
50.4504664745
 30
0.0
 11
123.5907327881
 21
51.9914702893
 31
0.0
  0
LINE
  5
298
330
22A
100
AcDbEntity
  8
0
  6
Continuous
 62
     7
100
AcDbLine
 10
108.5284055288
 20
37.53254081650001
 30
0.0
 11
109.6074280163
 21
38.611563304
 31
0.0
  0
LINE
  5
299
330
22A
100
AcDbEntity
  8
0
  6
Continuous
 62
     7
100
AcDbLine
 10
114.1258082713
 20
43.12994355909999
 30
0.0
 11
115.1531459581
 21
44.1572812459
 31
0.0
  0
LINE
  5
29A
330
22A
100
AcDbEntity
  8
0
  6
Continuous
 62
     7
100
AcDbLine
 10
121.3171594069
 20
50.3212946947
 30
0.0
 11
122.8581632217
 21
51.8622985095
 31
0.0
  0
LINE
  5
29B
330
22A
100
AcDbEntity
  8
0
  6
Continuous
 62
     7
100
AcDbLine
 10
108.4379584748
 20
38.0454915492
 30
0.0
 11
109.5169809623
 21
39.1245140367
 31
0.0
  0
LINE
  5
29C
330
22A
100
AcDbEntity
  8
0
  6
Continuous
 62
     7
100
AcDbLine
 10
113.3932387049
 20
43.0007717793
 30
0.0
 11
114.4205761821
 21
44.02810925649999
 31
0.0
  0
LINE
  5
29D
330
22A
100
AcDbEntity
  8
0
  6
Continuous
 62
     7
100
AcDbLine
 10
120.5845898405
 20
50.19212291489999
 30
0.0
 11
122.1255936553
 21
51.7331267297
 31
0.0
  0
LINE
  5
29E
330
22A
100
AcDbEntity
  8
0
  6
Continuous
 62
     7
100
AcDbLine
 10
108.3475114209
 20
38.5584422819
 30
0.0
 11
109.4265339084
 21
39.6374647694
 31
0.0
  0
LINE
  5
29F
330
22A
100
AcDbEntity
  8
0
  6
Continuous
 62
     7
100
AcDbLine
 10
112.6606691385
 20
42.8715999995
 30
0.0
 11
113.6880064061
 21
43.8989372671
 31
0.0
  0
LINE
  5
2A0
330
22A
100
AcDbEntity
  8
0
  6
Continuous
 62
     7
100
AcDbLine
 10
119.8520202741
 20
50.0629511351
 30
0.0
 11
121.3930240889
 21
51.6039549499
 31
0.0
  0
LINE
  5
2A1
330
22A
100
AcDbEntity
  8
0
  6
Continuous
 62
     7
100
AcDbLine
 10
108.2570643669
 20
39.0713930145
 30
0.0
 11
109.3360868544
 21
40.150415502
 31
0.0
  0
LINE
  5
2A2
330
22A
100
AcDbEntity
  8
0
  6
Continuous
 62
     7
100
AcDbLine
 10
111.9280995721
 20
42.74242821969999
 30
0.0
 11
112.9554366301
 21
43.7697652777
 31
0.0
  0
LINE
  5
2A3
330
22A
100
AcDbEntity
  8
0
  6
Continuous
 62
     7
100
AcDbLine
 10
119.1194507077
 20
49.93377935529999
 30
0.0
 11
120.6604545225
 21
51.4747831701
 31
0.0
  0
LINE
  5
2A4
330
22A
100
AcDbEntity
  8
0
  6
Continuous
 62
     7
100
AcDbLine
 10
108.166617313
 20
39.58434374719999
 30
0.0
 11
109.2456398005
 21
40.66336623469999
 31
0.0
  0
LINE
  5
2A5
330
22A
100
AcDbEntity
  8
0
  6
Continuous
 62
     7
100
AcDbLine
 10
111.1955300057
 20
42.6132564399
 30
0.0
 11
112.222866854
 21
43.64059328829999
 31
0.0
  0
LINE
  5
2A6
330
22A
100
AcDbEntity
  8
0
  6
Continuous
 62
     7
100
AcDbLine
 10
118.3868811413
 20
49.8046075755
 30
0.0
 11
119.9278849561
 21
51.3456113903
 31
0.0
  0
LINE
  5
2A7
330
22A
100
AcDbEntity
  8
0
  6
Continuous
 62
     7
100
AcDbLine
 10
108.076170259
 20
40.09729447989999
 30
0.0
 11
109.1551927466
 21
41.1763169674
 31
0.0
  0
LINE
  5
2A8
330
22A
100
AcDbEntity
  8
0
  6
Continuous
 62
     7
100
AcDbLine
 10
110.4629604392
 20
42.4840846601
 30
0.0
 11
111.490297078
 21
43.5114212988
 31
0.0
  0
LINE
  5
2A9
330
22A
100
AcDbEntity
  8
0
  6
Continuous
 62
     7
100
AcDbLine
 10
117.6543115749
 20
49.6754357957
 30
0.0
 11
119.1953153896
 21
51.21643961050001
 31
0.0
  0
LINE
  5
2AA
330
22A
100
AcDbEntity
  8
0
  6
Continuous
 62
     7
100
AcDbLine
 10
107.9857232051
 20
40.6102452125
 30
0.0
 11
109.0647456926
 21
41.6892677001
 31
0.0
  0
LINE
  5
2AB
330
22A
100
AcDbEntity
  8
0
  6
Continuous
 62
     7
100
AcDbLine
 10
109.7303908728
 20
42.3549128803
 30
0.0
 11
110.757727302
 21
43.3822493094
 31
0.0
  0
LINE
  5
2AC
330
22A
100
AcDbEntity
  8
0
  6
Continuous
 62
     7
100
AcDbLine
 10
116.9217420084
 20
49.5462640159
 30
0.0
 11
118.4627458232
 21
51.0872678307
 31
0.0
  0
LINE
  5
2AD
330
22A
100
AcDbEntity
  8
0
  6
Continuous
 62
     7
100
AcDbLine
 10
107.8952761512
 20
41.1231959452
 30
0.0
 11
108.9742986387
 21
42.2022184327
 31
0.0
  0
LINE
  5
2AE
330
22A
100
AcDbEntity
  8
0
  6
Continuous
 62
     7
100
AcDbLine
 10
108.9978213064
 20
42.2257411004
 30
0.0
 11
110.025157526
 21
43.25307732
 31
0.0
  0
LINE
  5
2AF
330
22A
100
AcDbEntity
  8
0
  6
Continuous
 62
     7
100
AcDbLine
 10
116.189172442
 20
49.4170922361
 30
0.0
 11
117.7301762568
 21
50.9580960509
 31
0.0
  0
LINE
  5
2B0
330
22A
100
AcDbEntity
  8
0
  6
Continuous
 62
     7
100
AcDbLine
 10
107.8048290972
 20
41.6361466779
 30
0.0
 11
109.2925877499
 21
43.1239053306
 31
0.0
  0
LINE
  5
2B1
330
22A
100
AcDbEntity
  8
0
  6
Continuous
 62
     7
100
AcDbLine
 10
115.4566028756
 20
49.2879204563
 30
0.0
 11
116.9976066904
 21
50.828924271
 31
0.0
  0
LINE
  5
2B2
330
22A
100
AcDbEntity
  8
0
  6
Continuous
 62
     7
100
AcDbLine
 10
107.7143820433
 20
42.1490974105
 30
0.0
 11
108.7934045308
 21
43.2281198981
 31
0.0
  0
LINE
  5
2B3
330
22A
100
AcDbEntity
  8
0
  6
Continuous
 62
     7
100
AcDbLine
 10
114.7240333092
 20
49.1587486765
 30
0.0
 11
116.265037124
 21
50.6997524912
 31
0.0
  0
LINE
  5
2B4
330
22A
100
AcDbEntity
  8
0
  6
Continuous
 62
     7
100
AcDbLine
 10
107.6239349893
 20
42.6620481432
 30
0.0
 11
108.7029574768
 21
43.74107063069999
 31
0.0
  0
LINE
  5
2B5
330
22A
100
AcDbEntity
  8
0
  6
Continuous
 62
     7
100
AcDbLine
 10
113.9914637428
 20
49.0295768967
 30
0.0
 11
115.5324675575
 21
50.57058071140001
 31
0.0
  0
LINE
  5
2B6
330
22A
100
AcDbEntity
  8
0
  6
Continuous
 62
     7
100
AcDbLine
 10
107.5334879354
 20
43.1749988759
 30
0.0
 11
108.6125104229
 21
44.25402136339999
 31
0.0
  0
LINE
  5
2B7
330
22A
100
AcDbEntity
  8
0
  6
Continuous
 62
     7
100
AcDbLine
 10
113.2588941764
 20
48.90040511689999
 30
0.0
 11
114.7998979911
 21
50.4414089316
 31
0.0
  0
LINE
  5
2B8
330
22A
100
AcDbEntity
  8
0
  6
Continuous
 62
     7
100
AcDbLine
 10
107.4430408814
 20
43.6879496085
 30
0.0
 11
108.5220633689
 21
44.7669720961
 31
0.0
  0
LINE
  5
2B9
330
22A
100
AcDbEntity
  8
0
  6
Continuous
 62
     7
100
AcDbLine
 10
112.5263246099
 20
48.771233337
 30
0.0
 11
114.0673284247
 21
50.31223715180001
 31
0.0
  0
LINE
  5
2BA
330
22A
100
AcDbEntity
  8
0
  6
Continuous
 62
     7
100
AcDbLine
 10
107.3525938275
 20
44.2009003412
 30
0.0
 11
108.431616315
 21
45.2799228287
 31
0.0
  0
LINE
  5
2BB
330
22A
100
AcDbEntity
  8
0
  6
Continuous
 62
     7
100
AcDbLine
 10
111.7937550435
 20
48.6420615572
 30
0.0
 11
113.3347588583
 21
50.183065372
 31
0.0
  0
LINE
  5
2BC
330
22A
100
AcDbEntity
  8
0
  6
Continuous
 62
     7
100
AcDbLine
 10
107.2621467735
 20
44.7138510739
 30
0.0
 11
108.3411692611
 21
45.7928735614
 31
0.0
  0
LINE
  5
2BD
330
22A
100
AcDbEntity
  8
0
  6
Continuous
 62
     7
100
AcDbLine
 10
111.0611854771
 20
48.5128897774
 30
0.0
 11
112.6021892919
 21
50.0538935922
 31
0.0
  0
LINE
  5
2BE
330
22A
100
AcDbEntity
  8
0
  6
Continuous
 62
     7
100
AcDbLine
 10
107.1716997196
 20
45.2268018066
 30
0.0
 11
108.2507222071
 21
46.3058242941
 31
0.0
  0
LINE
  5
2BF
330
22A
100
AcDbEntity
  8
0
  6
Continuous
 62
     7
100
AcDbLine
 10
110.3286159107
 20
48.3837179976
 30
0.0
 11
111.8696197255
 21
49.9247218124
 31
0.0
  0
LINE
  5
2C0
330
22A
100
AcDbEntity
  8
0
  6
Continuous
 62
     7
100
AcDbLine
 10
107.0812526657
 20
45.73975253919999
 30
0.0
 11
108.1602751532
 21
46.8187750267
 31
0.0
  0
LINE
  5
2C1
330
22A
100
AcDbEntity
  8
0
  6
Continuous
 62
     7
100
AcDbLine
 10
109.5960463443
 20
48.2545462178
 30
0.0
 11
111.137050159
 21
49.7955500326
 31
0.0
  0
LINE
  5
2C2
330
22A
100
AcDbEntity
  8
0
  6
Continuous
 62
     7
100
AcDbLine
 10
106.9908056117
 20
46.25270327189999
 30
0.0
 11
108.0698280992
 21
47.33172575939999
 31
0.0
  0
LINE
  5
2C3
330
22A
100
AcDbEntity
  8
0
  6
Continuous
 62
     7
100
AcDbLine
 10
108.8634767778
 20
48.125374438
 30
0.0
 11
110.4044805926
 21
49.66637825279999
 31
0.0
  0
LINE
  5
2C4
330
22A
100
AcDbEntity
  8
0
  6
Continuous
 62
     7
100
AcDbLine
 10
106.9003585578
 20
46.7656540046
 30
0.0
 11
107.9793810453
 21
47.84467649209999
 31
0.0
  0
LINE
  5
2C5
330
22A
100
AcDbEntity
  8
0
  6
Continuous
 62
     7
100
AcDbLine
 10
108.1309072114
 20
47.99620265819999
 30
0.0
 11
109.6719110262
 21
49.537206473
 31
0.0
  0
LINE
  5
2C6
330
22A
100
AcDbEntity
  8
0
  6
Continuous
 62
     7
100
AcDbLine
 10
106.8099115038
 20
47.2786047372
 30
0.0
 11
108.9393414598
 21
49.40803469319999
 31
0.0
  0
LINE
  5
2C7
330
22A
100
AcDbEntity
  8
0
  6
Continuous
 62
     7
100
AcDbLine
 10
106.7194644499
 20
47.7915554699
 30
0.0
 11
108.2067718934
 21
49.27886291340001
 31
0.0
  0
LINE
  5
2C8
330
22A
100
AcDbEntity
  8
0
  6
Continuous
 62
     7
100
AcDbLine
 10
106.6290173959
 20
48.3045062026
 30
0.0
 11
107.4742023269
 21
49.14969113359999
 31
0.0
  0
LINE
  5
2C9
330
22A
100
AcDbEntity
  8
0
  6
Continuous
 62
     7
100
AcDbLine
 10
106.538570342
 20
48.8174569352
 30
0.0
 11
106.7416327605
 21
49.02051935380001
 31
0.0
  0
ENDBLK
  5
2CA
330
22A
100
AcDbEntity
  8
0
  6
ByBlock
 62
     0
100
AcDbBlockEnd
  0
BLOCK
  5
2CB
330
22B
100
AcDbEntity
  8
0
  6
Continuous
 62
     7
100
AcDbBlockBegin
  2
L03-MOTEUR-CONTROLE-LED_BL2
 70
     0
 10
41.37274066699999
 20
65.95403188569999
 30
0.0
  3
L03-MOTEUR-CONTROLE-LED_BL2
  1

  0
TEXT
  5
2CC
330
22B
100
AcDbEntity
  8
0
  6
Continuous
 62
     7
100
AcDbText
 10
40.8443453997
 20
65.2873649597
 30
0.0
 40
1.333333852099999
  1
L
  7
TEXTSTYLE_2
100
AcDbText
  0
ELLIPSE
  5
2CD
330
22B
100
AcDbEntity
  8
0
  6
Continuous
 62
     7
100
AcDbEllipse
 10
41.37274066699999
 20
65.95403188569999
 30
0.0
 11
-1.942887567899999
 21
0.0
 31
0.0
210
0.0
220
0.0
230
1.0
 40
0.6606458385
 41
0.0
 42
6.283185307179586
  0
ENDBLK
  5
2CE
330
22B
100
AcDbEntity
  8
0
  6
ByBlock
 62
     0
100
AcDbBlockEnd
  0
BLOCK
  5
2CF
330
22C
100
AcDbEntity
  8
0
  6
Continuous
 62
     7
100
AcDbBlockBegin
  2
L03-MOTEUR-CONTROLE-LED_BL1
 70
     0
 10
59.6222354517
 20
90.2045287642
 30
0.0
  3
L03-MOTEUR-CONTROLE-LED_BL1
  1

  0
TEXT
  5
2D0
330
22C
100
AcDbEntity
  8
0
  6
Continuous
 62
     7
100
AcDbText
 10
59.09384018439999
 20
89.5378618382
 30
0.0
 40
1.333333852099999
  1
L
  7
TEXTSTYLE_2
100
AcDbText
  0
ELLIPSE
  5
2D1
330
22C
100
AcDbEntity
  8
0
  6
Continuous
 62
     7
100
AcDbEllipse
 10
59.6222354517
 20
90.2045287642
 30
0.0
 11
-1.942887567899999
 21
0.0
 31
0.0
210
0.0
220
0.0
230
1.0
 40
0.6606458385
 41
0.0
 42
6.283185307179586
  0
ENDBLK
  5
2D2
330
22C
100
AcDbEntity
  8
0
  6
ByBlock
 62
     0
100
AcDbBlockEnd
  0
BLOCK
  5
2D3
330
22D
100
AcDbEntity
  8
0
  6
Continuous
 62
     7
100
AcDbBlockBegin
  2
L03-NOTE_SPECS_BAINS_BL0
 70
     0
 10
160.6668444051
 20
55.3329095399
 30
0.0
  3
L03-NOTE_SPECS_BAINS_BL0
  1

  0
TEXT
  5
2D4
330
22D
100
AcDbEntity
  8
0
  6
Continuous
 62
     7
100
AcDbText
 10
144.4190593289
 20
63.106342931
 30
0.0
 40
0.5
  1
Infomations Techniques/Technical Infomations
  7
TEXTSTYLE_2
100
AcDbText
  0
TEXT
  5
2D5
330
22D
100
AcDbEntity
  8
0
  6
Continuous
 62
     7
100
AcDbText
 10
144.6668444051
 20
61.6662428732
 30
0.0
 40
0.6666666667
  1
NOMBRE DE JETS:     
  7
TEXTSTYLE_2
100
AcDbText
  0
TEXT
  5
2D6
330
22D
100
AcDbEntity
  8
0
  6
Continuous
 62
     7
100
AcDbText
 10
154.5112888495
 20
61.6662428732
 30
0.0
 40
0.6666666667
  1
37
  7
TEXTSTYLE_2
100
AcDbText
  0
TEXT
  5
2D7
330
22D
100
AcDbEntity
  8
0
  6
Continuous
 62
     7
100
AcDbText
 10
144.6668444051
 20
60.66624287319999
 30
0.0
 40
0.6666666667
  1
 
  7
TEXTSTYLE_2
100
AcDbText
  0
TEXT
  5
2D8
330
22D
100
AcDbEntity
  8
0
  6
Continuous
 62
     7
100
AcDbText
 10
144.6668444051
 20
59.6662428732
 30
0.0
 40
0.6666666667
  1
NIVEAU D'EAU              GALLONS(US)        LITRES        GALLONS(UK)
  7
TEXTSTYLE_2
100
AcDbText
  0
TEXT
  5
2D9
330
22D
100
AcDbEntity
  8
0
  6
Continuous
 62
     7
100
AcDbText
 10
144.6668444051
 20
58.6662428732
 30
0.0
 40
0.6666666667
  1
PLEIN
  7
TEXTSTYLE_2
100
AcDbText
  0
TEXT
  5
2DA
330
22D
100
AcDbEntity
  8
0
  6
Continuous
 62
     7
100
AcDbText
 10
144.6668444051
 20
57.66624287319999
 30
0.0
 40
0.6666666667
  1
HAUT T.PLEIN
  7
TEXTSTYLE_2
100
AcDbText
  0
TEXT
  5
2DB
330
22D
100
AcDbEntity
  8
0
  6
Continuous
 62
     7
100
AcDbText
 10
144.6668444051
 20
56.6662428732
 30
0.0
 40
0.6666666667
  1
MILIEU T.PLEIN
  7
TEXTSTYLE_2
100
AcDbText
  0
TEXT
  5
2DC
330
22D
100
AcDbEntity
  8
0
  6
Continuous
 62
     7
100
AcDbText
 10
144.6668444051
 20
55.66624287319999
 30
0.0
 40
0.6666666667
  1
BAS T.PLEIN
  7
TEXTSTYLE_2
100
AcDbText
  0
TEXT
  5
2DD
330
22D
100
AcDbEntity
  8
0
  6
Continuous
 62
     7
100
AcDbText
 10
144.6668444051
 20
54.6662428732
 30
0.0
 40
0.6666666667
  1
3" EN BAS T.PLEIN
  7
TEXTSTYLE_2
100
AcDbText
  0
TEXT
  5
2DE
330
22D
100
AcDbEntity
  8
0
  6
Continuous
 62
     7
100
AcDbText
 10
144.6668444051
 20
53.6662428732
 30
0.0
 40
0.6666666667
  1
 
  7
TEXTSTYLE_2
100
AcDbText
  0
TEXT
  5
2DF
330
22D
100
AcDbEntity
  8
0
  6
Continuous
 62
     7
100
AcDbText
 10
144.4666828994
 20
53.1194559484
 30
0.0
 40
0.5
  1
Legende/Legend
  7
TEXTSTYLE_2
100
AcDbText
  0
TEXT
  5
2E0
330
22D
100
AcDbEntity
  8
0
  6
Continuous
 62
     7
100
AcDbText
 10
150.9955178435
 20
51.6081909707
 30
0.0
 40
0.6666666667
  1
ZONE DE ROBINETTERIE
  7
TEXTSTYLE_2
100
AcDbText
  0
TEXT
  5
2E1
330
22D
100
AcDbEntity
  8
0
  6
Continuous
 62
     7
100
AcDbText
 10
145.9157932765
 20
50.1129464563
 30
0.0
 40
0.6666666667
  1
L   :  SYSTEME LED       DC   :  DOUBLE DOSSIER CHAUFFANT
  7
TEXTSTYLE_2
100
AcDbText
  0
TEXT
  5
2E2
330
22D
100
AcDbEntity
  8
0
  6
Continuous
 62
     7
100
AcDbText
 10
145.9157932765
 20
48.779613123
 30
0.0
 40
0.6666666667
  1
C   :  CONTROLE
  7
TEXTSTYLE_2
100
AcDbText
  0
TEXT
  5
2E3
330
22D
100
AcDbEntity
  8
0
  6
Continuous
 62
     7
100
AcDbText
 10
145.9157932765
 20
47.44627978959999
 30
0.0
 40
0.6666666667
  1
T   :  MOTEUR
  7
TEXTSTYLE_2
100
AcDbText
  0
TEXT
  5
2E4
330
22D
100
AcDbEntity
  8
0
  6
Continuous
 62
     7
100
AcDbText
 10
157.2439855488
 20
58.6662428732
 30
0.0
 40
0.6666666667
  1
115
  7
TEXTSTYLE_2
100
AcDbText
  0
TEXT
  5
2E5
330
22D
100
AcDbEntity
  8
0
  6
Continuous
 62
     7
100
AcDbText
 10
157.4995411044
 20
57.66624287319999
 30
0.0
 40
0.6666666667
  1
75
  7
TEXTSTYLE_2
100
AcDbText
  0
TEXT
  5
2E6
330
22D
100
AcDbEntity
  8
0
  6
Continuous
 62
     7
100
AcDbText
 10
157.4995411044
 20
56.6662428732
 30
0.0
 40
0.6666666667
  1
74
  7
TEXTSTYLE_2
100
AcDbText
  0
TEXT
  5
2E7
330
22D
100
AcDbEntity
  8
0
  6
Continuous
 62
     7
100
AcDbText
 10
157.4995411044
 20
55.66624287319999
 30
0.0
 40
0.6666666667
  1
55
  7
TEXTSTYLE_2
100
AcDbText
  0
TEXT
  5
2E8
330
22D
100
AcDbEntity
  8
0
  6
Continuous
 62
     7
100
AcDbText
 10
164.4197470481
 20
58.6833222753
 30
0.0
 40
0.6666666667
  1
437
  7
TEXTSTYLE_2
100
AcDbText
  0
TEXT
  5
2E9
330
22D
100
AcDbEntity
  8
0
  6
Continuous
 62
     7
100
AcDbText
 10
164.4197470481
 20
57.6833222753
 30
0.0
 40
0.6666666667
  1
284
  7
TEXTSTYLE_2
100
AcDbText
  0
TEXT
  5
2EA
330
22D
100
AcDbEntity
  8
0
  6
Continuous
 62
     7
100
AcDbText
 10
164.4197470481
 20
56.6833222753
 30
0.0
 40
0.6666666667
  1
280
  7
TEXTSTYLE_2
100
AcDbText
  0
TEXT
  5
2EB
330
22D
100
AcDbEntity
  8
0
  6
Continuous
 62
     7
100
AcDbText
 10
164.4197470481
 20
55.6833222753
 30
0.0
 40
0.6666666667
  1
209
  7
TEXTSTYLE_2
100
AcDbText
  0
TEXT
  5
2EC
330
22D
100
AcDbEntity
  8
0
  6
Continuous
 62
     7
100
AcDbText
 10
171.3643859856
 20
58.6662428732
 30
0.0
 40
0.6666666667
  1
96
  7
TEXTSTYLE_2
100
AcDbText
  0
TEXT
  5
2ED
330
22D
100
AcDbEntity
  8
0
  6
Continuous
 62
     7
100
AcDbText
 10
171.3643859856
 20
57.66624287319999
 30
0.0
 40
0.6666666667
  1
63
  7
TEXTSTYLE_2
100
AcDbText
  0
TEXT
  5
2EE
330
22D
100
AcDbEntity
  8
0
  6
Continuous
 62
     7
100
AcDbText
 10
171.3643859856
 20
56.6662428732
 30
0.0
 40
0.6666666667
  1
62
  7
TEXTSTYLE_2
100
AcDbText
  0
TEXT
  5
2EF
330
22D
100
AcDbEntity
  8
0
  6
Continuous
 62
     7
100
AcDbText
 10
171.3643859856
 20
55.66624287319999
 30
0.0
 40
0.6666666667
  1
46
  7
TEXTSTYLE_2
100
AcDbText
  0
LINE
  5
2F0
330
22D
100
AcDbEntity
  8
0
  6
Continuous
 62
     7
100
AcDbLine
 10
144.0001777384
 20
63.9995762066
 30
0.0
 11
144.0001777384
 21
46.6662428732
 31
0.0
  0
LINE
  5
2F1
330
22D
100
AcDbEntity
  8
0
  6
Continuous
 62
     7
100
AcDbLine
 10
144.0001777384
 20
63.9995762066
 30
0.0
 11
177.3335110716999
 21
63.9995762066
 31
0.0
  0
LINE
  5
2F2
330
22D
100
AcDbEntity
  8
0
  6
Continuous
 62
     7
100
AcDbLine
 10
177.3335110716999
 20
63.9995762066
 30
0.0
 11
177.3335110716999
 21
46.6662428732
 31
0.0
  0
LINE
  5
2F3
330
22D
100
AcDbEntity
  8
0
  6
Continuous
 62
     7
100
AcDbLine
 10
144.0001777384
 20
46.6662428732
 30
0.0
 11
177.3335110716999
 21
46.6662428732
 31
0.0
  0
LINE
  5
2F4
330
22D
100
AcDbEntity
  8
0
  6
Continuous
 62
     7
100
AcDbLine
 10
145.3335110717
 20
53.9995762066
 30
0.0
 11
176.0001777384
 21
53.9995762066
 31
0.0
  0
LINE
  5
2F5
330
22D
100
AcDbEntity
  8
0
  6
Continuous
 62
     7
100
AcDbLine
 10
145.3335110717
 20
60.99957620659999
 30
0.0
 11
176.0001777384
 21
60.99957620659999
 31
0.0
  0
LINE
  5
2F6
330
22D
100
AcDbEntity
  8
0
  6
Continuous
 62
     7
100
AcDbLine
 10
144.8090842977
 20
52.3777407109
 30
0.0
 11
144.4400635553
 21
52.0087199686
 31
0.0
  0
LINE
  5
2F7
330
22D
100
AcDbEntity
  8
0
  6
Continuous
 62
     7
100
AcDbLine
 10
145.4757509643
 20
52.3777407109
 30
0.0
 11
144.6777351739
 21
51.57972492049999
 31
0.0
  0
LINE
  5
2F8
330
22D
100
AcDbEntity
  8
0
  6
Continuous
 62
     7
100
AcDbLine
 10
146.142417631
 20
52.3777407109
 30
0.0
 11
145.3444018406
 21
51.57972492049999
 31
0.0
  0
LINE
  5
2F9
330
22D
100
AcDbEntity
  8
0
  6
Continuous
 62
     7
100
AcDbLine
 10
146.8090842977
 20
52.3777407109
 30
0.0
 11
146.0110685072
 21
51.57972492049999
 31
0.0
  0
LINE
  5
2FA
330
22D
100
AcDbEntity
  8
0
  6
Continuous
 62
     7
100
AcDbLine
 10
147.4757509643
 20
52.3777407109
 30
0.0
 11
146.6777351739
 21
51.57972492049999
 31
0.0
  0
LINE
  5
2FB
330
22D
100
AcDbEntity
  8
0
  6
Continuous
 62
     7
100
AcDbLine
 10
148.142417631
 20
52.3777407109
 30
0.0
 11
147.3444018406
 21
51.57972492049999
 31
0.0
  0
LINE
  5
2FC
330
22D
100
AcDbEntity
  8
0
  6
Continuous
 62
     7
100
AcDbLine
 10
148.8090842977
 20
52.3777407109
 30
0.0
 11
148.0110685072
 21
51.57972492049999
 31
0.0
  0
LINE
  5
2FD
330
22D
100
AcDbEntity
  8
0
  6
Continuous
 62
     7
100
AcDbLine
 10
149.4757509643
 20
52.3777407109
 30
0.0
 11
148.6777351739
 21
51.57972492049999
 31
0.0
  0
LINE
  5
2FE
330
22D
100
AcDbEntity
  8
0
  6
Continuous
 62
     7
100
AcDbLine
 10
150.142417631
 20
52.3777407109
 30
0.0
 11
149.3444018406
 21
51.57972492049999
 31
0.0
  0
LINE
  5
2FF
330
22D
100
AcDbEntity
  8
0
  6
Continuous
 62
     7
100
AcDbLine
 10
150.5859050651
 20
52.1545614784
 30
0.0
 11
150.0110685072
 21
51.57972492049999
 31
0.0
  0
ELLIPSE
  5
300
330
22D
100
AcDbEntity
  8
0
  6
Continuous
 62
     7
100
AcDbEllipse
 10
146.1455802206
 20
50.4305239135
 30
0.0
 11
1.0473539356
 21
0.0
 31
0.0
210
0.0
220
0.0
230
1.0
 40
0.4938647983
 41
0.0
 42
6.283185307179586
  0
ELLIPSE
  5
301
330
22D
100
AcDbEntity
  8
0
  6
Continuous
 62
     7
100
AcDbEllipse
 10
146.1455802206
 20
49.09719058020001
 30
0.0
 11
1.0473539356
 21
0.0
 31
0.0
210
0.0
220
0.0
230
1.0
 40
0.4938647983
 41
0.0
 42
6.283185307179586
  0
ELLIPSE
  5
302
330
22D
100
AcDbEntity
  8
0
  6
Continuous
 62
     7
100
AcDbEllipse
 10
146.1455802206
 20
47.76385724679999
 30
0.0
 11
1.0473539356
 21
0.0
 31
0.0
210
0.0
220
0.0
230
1.0
 40
0.4938647983
 41
0.0
 42
6.283185307179586
  0
ELLIPSE
  5
303
330
22D
100
AcDbEntity
  8
0
  6
Continuous
 62
     7
100
AcDbEllipse
 10
157.1642158017
 20
50.45004527060001
 30
0.0
 11
1.0473539356
 21
0.0
 31
0.0
210
0.0
220
0.0
230
1.0
 40
0.4938647983
 41
0.0
 42
6.283185307179586
  0
ENDBLK
  5
304
330
22D
100
AcDbEntity
  8
0
  6
ByBlock
 62
     0
100
AcDbBlockEnd
  0
ENDSEC
  0
SECTION
  2
ENTITIES
  0
LWPOLYLINE
  5
42C
330
216
100
AcDbEntity
  8
DEFAULT_2
  6
HIDDEN
 62
     7
100
AcDbPolyline
 90
       25
 70
     0
 43
0.0
 10
16.6562707909
 20
38.3367206771
 10
17.1040692547
 20
37.5198995814
 10
17.5660710145
 20
36.7110265526
 10
18.0421166749
 20
35.9103360305
 10
18.53204684
 20
35.1180624553
 10
19.0357021142
 20
34.3344402668
 10
19.5529231018
 20
33.5597039051
 10
20.0835504072
 20
32.79408781
 10
20.6274246347
 20
32.0378264215
 10
21.1843863887
 20
31.2911541797
 10
21.7542762735
 20
30.5543055245
 10
22.3369348933
 20
29.8275148959
 10
22.9322028526
 20
29.1110167337
 10
23.5399131036
 20
28.405039179
 10
24.1598679898
 20
27.70978517670001
 10
24.7918622026
 20
27.0254513724
 10
25.4356904336
 20
26.3522344121
 10
26.0911473742
 20
25.6903309416
 10
26.7580277158
 20
25.0399376067
 10
27.4361261499
 20
24.4012510531
 10
28.1252373679
 20
23.7744679268
 10
28.8251560614
 20
23.1597848736
 10
29.5356769217
 20
22.5573985392
 10
30.2565946402
 20
21.9675055695
 10
30.9877039085
 20
21.3903026103
  0
LINE
  5
430
330
216
100
AcDbEntity
  8
DEFAULT_2
  6
HIDDEN
 62
     7
100
AcDbLine
 10
41.7434349011
 20
20.5194903803
 30
0.0
 11
42.1029812996
 21
20.1599439818
 31
0.0
  0
LINE
  5
45F
330
216
100
AcDbEntity
  8
DEFAULT_2
  6
HIDDEN
 62
     7
100
AcDbLine
 10
42.27975799489999
 20
20.0867206771
 30
0.0
 11
44.8226512138
 21
20.0867206771
 31
0.0
  0
LINE
  5
461
330
216
100
AcDbEntity
  8
DEFAULT_2
  6
HIDDEN
 62
     7
100
AcDbLine
 10
32.6038125952
 20
20.8143999302
 30
0.0
 11
41.57633828109999
 21
20.5892269058
 31
0.0
  0
LINE
  5
4CF
330
216
100
AcDbEntity
  8
DEFAULT_2
  6
HIDDEN
 62
     7
100
AcDbLine
 10
45.5248748481
 20
20.5899973839
 30
0.0
 11
70.5374659921
 21
21.4206320958
 31
0.0
  0
LWPOLYLINE
  5
4D4
330
216
100
AcDbEntity
  8
DEFAULT_2
  6
HIDDEN
 62
     7
100
AcDbPolyline
 90
       37
 70
     0
 43
0.0
 10
14.6312046044
 20
39.8367206771
 10
14.7019410222
 20
39.8216867923
 10
14.7722828803
 20
39.8049068773
 10
14.8421904349
 20
39.78639865
 10
14.9116239417
 20
39.766179828
 10
14.9805436567
 20
39.7442681292
 10
15.0489098358
 20
39.7206812714
 10
15.116682735
 20
39.6954369725
 10
15.1838226103
 20
39.66855295030001
 10
15.2502897175
 20
39.6400469225
 10
15.3160443127
 20
39.60993660710001
 10
15.3810466517
 20
39.5782397218
 10
15.4452569904
 20
39.5449739843
 10
15.5086355849
 20
39.5101571127
 10
15.5711426911
 20
39.4738068246
 10
15.6327385649
 20
39.4359408379
 10
15.6933834623
 20
39.3965768704
 10
15.7530376391
 20
39.3557326399
 10
15.8116613513
 20
39.3134258642
 10
15.869216724
 20
39.2696767842
 10
15.9256733583
 20
39.2245157321
 10
15.9810027244
 20
39.1779755634
 10
16.0351762926
 20
39.1300891334
 10
16.088165533
 20
39.0808892974
 10
16.13994191599999
 20
39.0304089109
 10
16.1904769117
 20
38.9786808292
 10
16.2397419904
 20
38.9257379076
 10
16.2877086223
 20
38.8716130015
 10
16.3343482776
 20
38.8163389662
 10
16.3796324265
 20
38.7599486571
 10
16.4235325394
 20
38.7024749296
 10
16.4660200863
 20
38.643950639
 10
16.5070665377
 20
38.58440864070001
 10
16.5466433635
 20
38.52388179
 10
16.5847220342
 20
38.4624029422
 10
16.6212740199
 20
38.4000049528
 10
16.6562707909
 20
38.3367206771
  0
LWPOLYLINE
  5
543
330
216
100
AcDbEntity
  8
DEFAULT_2
  6
HIDDEN
 62
     7
100
AcDbPolyline
 90
      121
 70
     0
 43
0.0
 10
31.053788263
 20
36.9058672851
 10
31.0648239841
 20
36.9060147589
 10
31.0758526255
 20
36.9064577547
 10
31.08683922
 20
36.9071949677
 10
31.0978017736
 20
36.9082275451
 10
31.1087085292
 20
36.9095525266
 10
31.1195755462
 20
36.9111718053
 10
31.1303728067
 20
36.91308098469999
 10
31.1411142629
 20
36.9152824655
 10
31.1517724359
 20
36.9177706802
 10
31.1623588876
 20
36.9205482584
 10
31.17284881030001
 20
36.9236087665
 10
31.1832511902
 20
36.9269547511
 10
31.193544132
 20
36.93057924730001
 10
31.2037339065
 20
36.9344843837
 10
31.2138016669
 20
36.93866302030001
 10
31.2237508946
 20
36.9431165179
 10
31.2335658748
 20
36.9478379293
 10
31.2432472894
 20
36.9528274939
 10
31.2527825695
 20
36.9580788251
 10
31.2621696527
 20
36.9635906943
 10
31.2713990653
 20
36.9693576339
 10
31.2804661196
 20
36.9753766181
 10
31.2893643224
 20
36.9816434352
 10
31.2980865407
 20
36.9881529609
 10
31.3066290877
 20
36.99490254590001
 10
31.3149826197
 20
37.0018847035
 10
31.3231460292
 20
37.0090986134
 10
31.3311080456
 20
37.0165342083
 10
31.3388698669
 20
37.0241927155
 10
31.3464186197
 20
37.0320613219
 10
31.3537574967
 20
37.0401434671
 10
31.3608723768
 20
37.0484234857
 10
31.3677681088
 20
37.0569071344
 10
31.3744297002
 20
37.065575852
 10
31.3808632995
 20
37.0744377554
 10
31.3870534302
 20
37.0834714074
 10
31.3930071768
 20
37.0926872655
 10
31.398708966
 20
37.1020611014
 10
31.4041664584
 20
37.1116056305
 10
31.4093643606
 20
37.1212939811
 10
31.4143105629
 20
37.1311409837
 10
31.4189904083
 20
37.14111733030001
 10
31.4234116933
 20
37.1512397683
 10
31.4275607248
 20
37.1614768148
 10
31.4314449132
 20
37.1718468848
 10
31.4350518195
 20
37.1823166304
 10
31.4383882146
 20
37.1929058421
 10
31.4414431597
 20
37.20357965690001
 10
31.4442225777
 20
37.2143589124
 10
31.4467172272
 20
37.2252076136
 10
31.4489320235
 20
37.2361472899
 10
31.4508595663
 20
37.2471412198
 10
31.4525036561
 20
37.2582112515
 10
31.453858823
 20
37.26932035719999
 10
31.4549276989
 20
37.2804903208
 10
31.4557067766
 20
37.2916842341
 10
31.4561975202
 20
37.302923434
 10
31.456398362
 20
37.31417155280001
 10
31.4563096515
 20
37.3254491067
 10
31.4559316835
 20
37.3367206771
 10
31.45526379670001
 20
37.3480056026
 10
31.4543080204
 20
37.3592698013
 10
31.4530628326
 20
37.37053110260001
 10
31.4515318229
 20
37.38175712
 10
31.4497128008
 20
37.3929638737
 10
31.4476107004
 20
37.4041209969
 10
31.4452228911
 20
37.4152424384
 10
31.4425554005
 20
37.4263001343
 10
31.4396054163
 20
37.4373057428
 10
31.4363797794
 20
37.4482337405
 10
31.4328757779
 20
37.45909332340001
 10
31.429100764
 20
37.4698616973
 10
31.4250524244
 20
37.4805454734
 10
31.4207383056
 20
37.4911247237
 10
31.4161568003
 20
37.5016034052
 10
31.4113153251
 20
37.5119645394
 10
31.4062132873
 20
37.5222094119
 10
31.4008576503
 20
37.5323240238
 10
31.395249138
 20
37.542307025
 10
31.3893939449
 20
37.55214737300001
 10
31.38329440070001
 20
37.5618411692
 10
31.3769556301
 20
37.57138025270001
 10
31.3703818373
 20
37.58075831260001
 10
31.3635767985
 20
37.5899699467
 10
31.3565468339
 20
37.5990066141
 10
31.3492941206
 20
37.6078655022
 10
31.3418273033
 20
37.6165360644
 10
31.3341467441
 20
37.62501786850001
 10
31.326263582
 20
37.6332986236
 10
31.318176187
 20
37.6413800322
 10
31.3098983191
 20
37.6492483523
 10
31.3014262234
 20
37.6569071458
 10
31.2927763602
 20
37.6643415377
 10
31.2839427639
 20
37.6715566506
 10
31.2749446241
 20
37.6785368131
 10
31.2657737294
 20
37.6852883932
 10
31.2564519748
 20
37.6917952712
 10
31.2469689199
 20
37.698064736
 10
31.2373490877
 20
37.7040805709
 10
31.2275798781
 20
37.7098506598
 10
31.2176883111
 20
37.7153590364
 10
31.2076597481
 20
37.72061386030001
 10
31.1975235225
 20
37.7255997502
 10
31.1872631295
 20
37.7303248362
 10
31.1769099818
 20
37.7347746374
 10
31.1664459281
 20
37.7389569705
 10
31.1559041793
 20
37.7428585428
 10
31.1452652023
 20
37.746486603
 10
31.1345636832
 20
37.7498293
 10
31.1237790071
 20
37.75289309570001
 10
31.1129469747
 20
37.7556677924
 10
31.1020462345
 20
37.7581588887
 10
31.0911133147
 20
37.7603580058
 10
31.0801264528
 20
37.7622695488
 10
31.0691224823
 20
37.7638870723
 10
31.0580797423
 20
37.765213809
 10
31.0470349805
 20
37.7662453062
 10
31.0359665317
 20
37.7669835994
 10
31.0249104974
 20
37.7674262301
 10
31.0138474317
 20
37.767574069
  0
LINE
  5
569
330
216
100
AcDbEntity
  8
DEFAULT_2
  6
HIDDEN
 62
     7
100
AcDbLine
 10
31.053788263
 20
36.9058672851
 30
0.0
 11
28.0386894331
 21
36.9058672851
 31
0.0
  0
LINE
  5
56B
330
216
100
AcDbEntity
  8
DEFAULT_2
  6
HIDDEN
 62
     7
100
AcDbLine
 10
30.8268076309
 20
37.1388045074
 30
0.0
 11
28.2941246138
 21
37.1388045074
 31
0.0
  0
LINE
  5
56C
330
216
100
AcDbEntity
  8
DEFAULT_2
  6
HIDDEN
 62
     7
100
AcDbLine
 10
28.2742683148
 20
37.56719588
 30
0.0
 11
30.8069513319
 21
37.56719588
 31
0.0
  0
LINE
  5
56E
330
216
100
AcDbEntity
  8
DEFAULT_2
  6
HIDDEN
 62
     7
100
AcDbLine
 10
28.0080921519
 20
37.77276167050001
 30
0.0
 11
31.0231909817
 21
37.77276167050001
 31
0.0
  0
LWPOLYLINE
  5
581
330
216
100
AcDbEntity
  8
DEFAULT_2
  6
HIDDEN
 62
     7
100
AcDbPolyline
 90
      121
 70
     0
 43
0.0
 10
28.0386894331
 20
36.9058672851
 10
28.0276263674
 20
36.906015124
 10
28.0165703331
 20
36.9064577547
 10
28.0055018843
 20
36.9071960479
 10
27.9944571225
 20
36.9082275451
 10
27.9834143824
 20
36.9095542818
 10
27.972410412
 20
36.9111718053
 10
27.9614235501
 20
36.9130833483
 10
27.9504906302
 20
36.9152824655
 10
27.9395898901
 20
36.9177735617
 10
27.9287578577
 20
36.9205482584
 10
27.9179731816
 20
36.9236120541
 10
27.9072716625
 20
36.9269547511
 10
27.8966326854
 20
36.9305828113
 10
27.8860909367
 20
36.9344843837
 10
27.875626883
 20
36.9386667167
 10
27.8652737353
 20
36.9431165179
 10
27.8550133423
 20
36.9478416039
 10
27.8448771167
 20
36.9528274939
 10
27.8348485537
 20
36.9580823177
 10
27.8249569867
 20
36.9635906943
 10
27.815187777
 20
36.9693607833
 10
27.8055679449
 20
36.9753766181
 10
27.79608489
 20
36.9816460829
 10
27.7867631354
 20
36.9881529609
 10
27.7775922407
 20
36.994904541
 10
27.76859410090001
 20
37.0018847035
 10
27.7597605046
 20
37.0090998164
 10
27.7511106414
 20
37.0165342083
 10
27.7426385456
 20
37.0241930018
 10
27.7343606778
 20
37.0320613219
 10
27.7262732828
 20
37.0401427306
 10
27.7183901207
 20
37.0484234857
 10
27.7107095615
 20
37.0569052897
 10
27.7032427442
 20
37.065575852
 10
27.69599003090001
 20
37.07443474010001
 10
27.6889600662
 20
37.0834714074
 10
27.6821550275
 20
37.0926830415
 10
27.6755812346
 20
37.1020611014
 10
27.6692424641
 20
37.111600185
 10
27.6631429199
 20
37.1212939811
 10
27.6572877268
 20
37.1311343291
 10
27.6516792145
 20
37.14111733030001
 10
27.6463235775
 20
37.1512319422
 10
27.6412215396
 20
37.1614768148
 10
27.6363800645
 20
37.1718379489
 10
27.6317985592
 20
37.1823166304
 10
27.6274844404
 20
37.1928958807
 10
27.6234361008
 20
37.20357965690001
 10
27.6196610868
 20
37.2143480307
 10
27.6161570854
 20
37.2252076136
 10
27.6129314485
 20
37.2361356114
 10
27.6099814642
 20
37.2471412198
 10
27.6073139737
 20
37.2581989157
 10
27.6049261643
 20
37.26932035719999
 10
27.602824064
 20
37.2804774804
 10
27.6010050419
 20
37.2916842341
 10
27.5994740322
 20
37.3029102516
 10
27.5982288444
 20
37.31417155280001
 10
27.5972730681
 20
37.3254357515
 10
27.5966051813
 20
37.3367206771
 10
27.5962272132
 20
37.34799224750001
 10
27.5961385028
 20
37.3592698013
 10
27.5963393445
 20
37.3705179202
 10
27.5968300882
 20
37.38175712
 10
27.5976091658
 20
37.3929510333
 10
27.5986780418
 20
37.4041209969
 10
27.6000332086
 20
37.4152301027
 10
27.6016772985
 20
37.4263001343
 10
27.6036048413
 20
37.4372940642
 10
27.6058196375
 20
37.4482337405
 10
27.608314287
 20
37.4590824417
 10
27.61109370510001
 20
37.4698616973
 10
27.6141486502
 20
37.4805355121
 10
27.6174850453
 20
37.4911247237
 10
27.6210919515
 20
37.50159446940001
 10
27.62497614
 20
37.5119645394
 10
27.6291251715
 20
37.5222015859
 10
27.6335464565
 20
37.5323240238
 10
27.6382263019
 20
37.5423003705
 10
27.6431725042
 20
37.55214737300001
 10
27.6483704064
 20
37.5618357236
 10
27.6538278988
 20
37.57138025270001
 10
27.65952968800001
 20
37.5807540886
 10
27.6654834346
 20
37.5899699467
 10
27.6716735653
 20
37.5990035987
 10
27.6781071646
 20
37.6078655022
 10
27.684768756
 20
37.6165342197
 10
27.691664488
 20
37.62501786850001
 10
27.698779368
 20
37.6332978871
 10
27.7061182451
 20
37.6413800322
 10
27.7136669978
 20
37.6492486387
 10
27.7214288192
 20
37.6569071458
 10
27.7293908356
 20
37.6643427407
 10
27.7375542451
 20
37.6715566506
 10
27.7459077771
 20
37.67853880820001
 10
27.7544503241
 20
37.6852883932
 10
27.7631725423
 20
37.6917979189
 10
27.7720707452
 20
37.698064736
 10
27.7811377995
 20
37.7040837202
 10
27.7903672121
 20
37.7098506598
 10
27.7997542953
 20
37.7153625291
 10
27.8092895754
 20
37.72061386030001
 10
27.8189709899
 20
37.7256034248
 10
27.8287859702
 20
37.7303248362
 10
27.8387351979
 20
37.7347783338
 10
27.8488029583
 20
37.7389569705
 10
27.8589927327
 20
37.7428621068
 10
27.8692856745
 20
37.746486603
 10
27.8796880544
 20
37.74983258760001
 10
27.8901779772
 20
37.75289309570001
 10
27.9007644289
 20
37.7556706739
 10
27.9114226019
 20
37.7581588887
 10
27.9221640581
 20
37.7603603694
 10
27.9329613186
 20
37.7622695488
 10
27.9438283356
 20
37.7638888276
 10
27.9547350912
 20
37.765213809
 10
27.9656976448
 20
37.7662463864
 10
27.9766842393
 20
37.7669835994
 10
27.9877128807
 20
37.7674265952
 10
27.9987486018
 20
37.767574069
  0
LWPOLYLINE
  5
584
330
216
100
AcDbEntity
  8
DEFAULT_2
  6
HIDDEN
 62
     7
100
AcDbPolyline
 90
      101
 70
     0
 43
0.0
 10
28.2941246138
 20
37.1388045074
 10
28.287528517
 20
37.1389102093
 10
28.2809384416
 20
37.1392265296
 10
28.2743360054
 20
37.1397547153
 10
28.2677538691
 20
37.1404923727
 10
28.2611781598
 20
37.1414410329
 10
28.2546356135
 20
37.1425967677
 10
28.2481114123
 20
37.1439622608
 10
28.2416332564
 20
37.1455316982
 10
28.2351869176
 20
37.1473085472
 10
28.2287990744
 20
37.1492854212
 10
28.2224559839
 20
37.15146660030001
 10
28.216183484
 20
37.1538431773
 10
28.2099687759
 20
37.1564200199
 10
28.2038363373
 20
37.15918696
 10
28.1977745882
 20
37.1621492368
 10
28.1918063551
 20
37.165295682
 10
28.1859215323
 20
37.1686316325
 10
28.1801410174
 20
37.1721452331
 10
28.17445637510001
 20
37.1758416164
 10
28.1688863635
 20
37.1797085806
 10
28.1634243527
 20
37.18375072940001
 10
28.1580868136
 20
37.18795587320001
 10
28.1528689923
 20
37.1923277546
 10
28.1477849918
 20
37.19685456030001
 10
28.1428319396
 20
37.20153884190001
 10
28.1380215571
 20
37.2063695207
 10
28.1333527951
 20
37.2113476411
 10
28.1288350433
 20
37.2164632011
 10
28.1244689582
 20
37.2217154455
 10
28.1202617079
 20
37.2270957638
 10
28.1162154803
 20
37.232601344
 10
28.1123353879
 20
37.2382252444
 10
28.1086249266
 20
37.2439623822
 10
28.1050873668
 20
37.2498077172
 10
28.1017272477
 20
37.2557537322
 10
28.0985462511
 20
37.2617974686
 10
28.0955496615
 20
37.267928869
 10
28.092737857
 20
37.2741471776
 10
28.0901165465
 20
37.2804397534
 10
28.0876851092
 20
37.2868081027
 10
28.0854493449
 20
37.2932370217
 10
28.0834079496
 20
37.2997302738
 10
28.0815664789
 20
37.3062701799
 10
28.0799232594
 20
37.3128626898
 10
28.0784832772
 20
37.3194878026
 10
28.0772447918
 20
37.3261535201
 10
28.0762119149
 20
37.3328377356
 10
28.0753831183
 20
37.3395503084
 10
28.0747613654
 20
37.3462673014
 10
28.0743455863
 20
37.35300018050001
 10
28.0741373644
 20
37.3597235064
 10
28.0741362909
 20
37.3664500526
 10
28.0743423873
 20
37.37315325
 10
28.0747560582
 20
37.37984684110001
 10
28.0753756391
 20
37.3865035336
 10
28.0762024419
 20
37.3931376716
 10
28.0772330567
 20
37.3997216698
 10
28.0784697335
 20
37.406270088
 10
28.0799073251
 20
37.4127554895
 10
28.0815489846
 20
37.4191922596
 10
28.08338790510001
 20
37.4255535486
 10
28.0854280419
 20
37.4318531852
 10
28.0876610749
 20
37.43806533
 10
28.0900915957
 20
37.4442028949
 10
28.0927099832
 20
37.4502414439
 10
28.0955212399
 20
37.45619264710001
 10
28.0985147152
 20
37.4620338225
 10
28.1016955449
 20
37.4677751207
 10
28.1050523709
 20
37.4733959099
 10
28.108590142
 20
37.4789046022
 10
28.1122971547
 20
37.4842828471
 10
28.1161778197
 20
37.489537166
 10
28.120220477
 20
37.4946516485
 10
28.1244286311
 20
37.4996308474
 10
28.1287910667
 20
37.5044613733
 10
28.1333100118
 20
37.509145809
 10
28.1379750946
 20
37.5136732872
 10
28.1427869093
 20
37.51804449730001
 10
28.1477363068
 20
37.52225101620001
 10
28.1528219203
 20
37.5262917913
 10
28.1580361681
 20
37.5301606909
 10
28.1633754383
 20
37.5338551401
 10
28.1688340138
 20
37.53737108020001
 10
28.1744058101
 20
37.5407046926
 10
28.1800872127
 20
37.5438537168
 10
28.1858695029
 20
37.5468134162
 10
28.1917513347
 20
37.5495830086
 10
28.1977212709
 20
37.5521572002
 10
28.2037803309
 20
37.5545363423
 10
28.20991435
 20
37.55671495820001
 10
28.2161266857
 20
37.5586941595
 10
28.2224005526
 20
37.5604686821
 10
28.2287417278
 20
37.562040079
 10
28.2351308408
 20
37.5634036153
 10
28.2415753485
 20
37.5645608305
 10
28.2480540102
 20
37.5655080112
 10
28.254577288
 20
37.5662465904
 10
28.2611212293
 20
37.5667738556
 10
28.2676917366
 20
37.5670904903
 10
28.2742683148
 20
37.56719588
  0
LWPOLYLINE
  5
585
330
216
100
AcDbEntity
  8
DEFAULT_2
  6
HIDDEN
 62
     7
100
AcDbPolyline
 90
      101
 70
     0
 43
0.0
 10
30.8069513319
 20
37.56719588
 10
30.8135474465
 20
37.5670901776
 10
30.8201375396
 20
37.5667738556
 10
30.8267399721
 20
37.5662456691
 10
30.8333221047
 20
37.5655080112
 10
30.8398978114
 20
37.5645593504
 10
30.84644035510001
 20
37.5634036153
 10
30.8529645584
 20
37.562038121
 10
30.8594427166
 20
37.5604686821
 10
30.8658890539
 20
37.5586918327
 10
30.8722768956
 20
37.55671495820001
 10
30.8786199864
 20
37.5545337782
 10
30.8848924865
 20
37.5521572002
 10
30.8911071942
 20
37.549580357
 10
30.8972396323
 20
37.5468134162
 10
30.9033013811
 20
37.54385113860001
 10
30.909269614
 20
37.5407046927
 10
30.9151544364
 20
37.5373687415
 10
30.9209349508
 20
37.5338551402
 10
30.9266195927
 20
37.5301587561
 10
30.9321896039
 20
37.5262917913
 10
30.9376516142
 20
37.5222496418
 10
30.9429891528
 20
37.5180444974
 10
30.9482069737
 20
37.5136726153
 10
30.9532909736
 20
37.509145809
 10
30.9582440252
 20
37.5044615268
 10
30.9630544072
 20
37.4996308475
 10
30.9677231686
 20
37.4946527265
 10
30.9722409198
 20
37.489537166
 10
30.9766070043
 20
37.484284921
 10
30.980814254
 20
37.4789046022
 10
30.9848604809
 20
37.4733990216
 10
30.9887405727
 20
37.4677751207
 10
30.9924510333
 20
37.4620379825
 10
30.9959885924
 20
37.45619264710001
 10
30.9993487108
 20
37.4502466316
 10
31.00252970670001
 20
37.4442028949
 10
31.0055262955
 20
37.4380714942
 10
31.0083380993
 20
37.4318531852
 10
31.0109594091
 20
37.4255606092
 10
31.0133908456
 20
37.4191922596
 10
31.0156266091
 20
37.4127633404
 10
31.0176680037
 20
37.406270088
 10
31.01950947360001
 20
37.3997301818
 10
31.0211526923
 20
37.3931376716
 10
31.0225926738
 20
37.3865125587
 10
31.0238311583
 20
37.37984684110001
 10
31.0248640344
 20
37.3731626255
 10
31.0256928302
 20
37.36645005270001
 10
31.0263145823
 20
37.3597330596
 10
31.0267303605
 20
37.35300018050001
 10
31.0269385816
 20
37.3462768546
 10
31.0269396543
 20
37.3395503084
 10
31.0267335571
 20
37.3328471111
 10
31.0263198855
 20
37.3261535201
 10
31.0257003037
 20
37.3194968277
 10
31.0248735001
 20
37.3128626899
 10
31.0238428845
 20
37.3062786919
 10
31.0226062069
 20
37.2997302738
 10
31.0211686145
 20
37.2932448725
 10
31.0195269542
 20
37.2868081027
 10
31.0176880329
 20
37.280446814
 10
31.0156478953
 20
37.2741471777
 10
31.0134148616
 20
37.26793503310001
 10
31.01098434
 20
37.2617974686
 10
31.0083659518
 20
37.2557589199
 10
31.0055546943
 20
37.2498077172
 10
31.0025612183
 20
37.2439665422
 10
30.9993803879
 20
37.2382252444
 10
30.9960235612
 20
37.2326044556
 10
30.9924857894
 20
37.2270957638
 10
30.988778776
 20
37.2217175195
 10
30.9848981103
 20
37.2164632011
 10
30.9808554524
 20
37.2113487191
 10
30.9766472977
 20
37.2063695207
 10
30.9722848614
 20
37.2015389954
 10
30.9677659157
 20
37.19685456030001
 10
30.9631008324
 20
37.1923270828
 10
30.9582890172
 20
37.18795587320001
 10
30.9533396191
 20
37.183749355
 10
30.9482540051
 20
37.1797085806
 10
30.9430397568
 20
37.1758396817
 10
30.93770048610001
 20
37.1721452331
 10
30.9322419101
 20
37.1686292938
 10
30.9266701134
 20
37.165295682
 10
30.9209887104
 20
37.1621466587
 10
30.9152064199
 20
37.1591869601
 10
30.9093245875
 20
37.1564173683
 10
30.9033546508
 20
37.1538431774
 10
30.897295591
 20
37.1514640363
 10
30.891161572
 20
37.1492854213
 10
30.8849492349
 20
37.1473062204
 10
30.8786753665
 20
37.1455316983
 10
30.8723341933
 20
37.1439603028
 10
30.8659450824
 20
37.1425967677
 10
30.8595005721
 20
37.1414395529
 10
30.8530219077
 20
37.1404923727
 10
30.8464986261
 20
37.139753794
 10
30.839954681
 20
37.1392265296
 10
30.8333841914
 20
37.1389098966
 10
30.8268076309
 20
37.1388045074
  0
LWPOLYLINE
  5
5C8
330
216
100
AcDbEntity
  8
DEFAULT_2
  6
HIDDEN
 62
     7
100
AcDbPolyline
 90
       97
 70
     0
 43
0.0
 10
31.2836810821
 20
36.97751401810001
 10
31.2928680888
 20
36.9838633855
 10
31.301875862
 20
36.9904661064
 10
31.3106996136
 20
36.9973188999
 10
31.3193294074
 20
37.0044140113
 10
31.3277639435
 20
37.0117504949
 10
31.3359916757
 20
37.0193182749
 10
31.3440167866
 20
37.02712169130001
 10
31.3518224192
 20
37.0351446251
 10
31.3594109267
 20
37.0433896749
 10
31.3667683178
 20
37.0518416109
 10
31.37389826570001
 20
37.0605048359
 10
31.3807862472
 20
37.069361662
 10
31.3874428623
 20
37.0784265715
 10
31.3938470574
 20
37.08767154170001
 10
31.4000049942
 20
37.0971057218
 10
31.405901307
 20
37.1067055905
 10
31.4115421538
 20
37.1164813562
 10
31.4169131145
 20
37.1264079675
 10
31.4220262021
 20
37.1365089139
 10
31.4268614214
 20
37.1467457851
 10
31.4314256806
 20
37.1571335316
 10
31.435705547
 20
37.1676416496
 10
31.4397069262
 20
37.17828478219999
 10
31.4434184091
 20
37.1890324468
 10
31.4468495139
 20
37.1999141231
 10
31.4499854046
 20
37.2108845219
 10
31.4528312506
 20
37.2219621416
 10
31.4553781132
 20
37.2331123008
 10
31.4576297877
 20
37.2443516395
 10
31.4595797503
 20
37.25564723650001
 10
31.461232796
 20
37.2670302557
 10
31.4625815341
 20
37.27845333280001
 10
31.4636281085
 20
37.28993523670001
 10
31.4643693098
 20
37.30144089239999
 10
31.464806189
 20
37.31298600570001
 10
31.4649376268
 20
37.3245386381
 10
31.464763461
 20
37.3361270429
 10
31.464283919
 20
37.34770683510001
 10
31.4634983276
 20
37.3592936957
 10
31.4624088457
 20
37.3708559434
 10
31.4610144085
 20
37.3824056179
 10
31.459318473
 20
37.3939148885
 10
31.4573175306
 20
37.4054050725
 10
31.4550176761
 20
37.41683918110001
 10
31.4524169238
 20
37.4282271691
 10
31.4495210874
 20
37.4395437213
 10
31.4463286151
 20
37.4507952169
 10
31.4428456811
 20
37.4619602181
 10
31.4390684289
 20
37.4730503252
 10
31.4350056479
 20
37.48403904510001
 10
31.4306563318
 20
37.4949292112
 10
31.4260274362
 20
37.5057035145
 10
31.421119123
 20
37.516361748
 10
31.4159378698
 20
37.5268900012
 10
31.4104832077
 20
37.5372890455
 10
31.4047627116
 20
37.5475442588
 10
31.3987788146
 20
37.557651359
 10
31.3925369586
 20
37.5676012199
 10
31.3860412973
 20
37.577387296
 10
31.3792961637
 20
37.58700312
 10
31.3723081974
 20
37.5964393557
 10
31.3650798791
 20
37.605692767
 10
31.35761914610001
 20
37.6147532251
 10
31.3499277087
 20
37.62361867590001
 10
31.3420155914
 20
37.63227757380001
 10
31.3338829814
 20
37.6407297176
 10
31.3255465522
 20
37.64895811130001
 10
31.3170006147
 20
37.65696869340001
 10
31.3082598565
 20
37.6647476809
 10
31.2993208939
 20
37.6722980729
 10
31.2902007048
 20
37.6796054946
 10
31.2808941526
 20
37.6866740365
 10
31.2714293428
 20
37.6934828296
 10
31.2617908541
 20
37.7000434511
 10
31.2520003097
 20
37.7063411292
 10
31.242048941
 20
37.7123814711
 10
31.2319608104
 20
37.7181498217
 10
31.2217252253
 20
37.7236522727
 10
31.2113807095
 20
37.7288686736
 10
31.2009029071
 20
37.733811893
 10
31.1903196089
 20
37.738468752
 10
31.1796172987
 20
37.74284517090001
 10
31.1688258106
 20
37.7469288966
 10
31.1579300462
 20
37.7507256379
 10
31.1469762555
 20
37.754219885
 10
31.1359335756
 20
37.757422141
 10
31.12483381800001
 20
37.760323108
 10
31.1136606546
 20
37.7629270454
 10
31.1024468625
 20
37.7652262512
 10
31.0911754852
 20
37.7672242051
 10
31.079895936
 20
37.76891275510001
 10
31.0685751486
 20
37.7702975512
 10
31.057246087
 20
37.7713744974
 10
31.0458918446
 20
37.7721451906
 10
31.0345451485
 20
37.7726073476
 10
31.0231909817
 20
37.77276167050001
  0
LWPOLYLINE
  5
5C9
330
216
100
AcDbEntity
  8
DEFAULT_2
  6
HIDDEN
 62
     7
100
AcDbPolyline
 90
       34
 70
     0
 43
0.0
 10
27.7811523498
 20
37.7041756245
 10
27.7872079923
 20
37.708158882
 10
27.7933349947
 20
37.71203258030001
 10
27.7995309963
 20
37.715795231
 10
27.8057958676
 20
37.7194466577
 10
27.81212543760001
 20
37.72298442469999
 10
27.8185177211
 20
37.726407486
 10
27.8249746381
 20
37.72971677840001
 10
27.8314901817
 20
37.7329091923
 10
27.8380621765
 20
37.735983742
 10
27.8446944704
 20
37.7389420932
 10
27.8513789386
 20
37.7417805608
 10
27.8581133813
 20
37.7444983266
 10
27.864903972
 20
37.747097719
 10
27.8717401991
 20
37.7495746158
 10
27.8786198069
 20
37.75192834110001
 10
27.8855503361
 20
37.75416130510001
 10
27.8925198187
 20
37.75626954630001
 10
27.8995259669
 20
37.7582525396
 10
27.90657797130001
 20
37.7601127039
 10
27.9136621506
 20
37.7618463094
 10
27.9207761899
 20
37.7634529798
 10
27.9279318278
 20
37.764935144
 10
27.9351128005
 20
37.76628926820001
 10
27.9423167894
 20
37.7675151243
 10
27.9495566736
 20
37.7686146793
 10
27.9568149831
 20
37.76958511530001
 10
27.96408935840001
 20
37.7704263498
 10
27.9713934767
 20
37.77113974480001
 10
27.9787091514
 20
37.7717233483
 10
27.9860341722
 20
37.7721772204
 10
27.9933832955
 20
37.7725020472
 10
28.0007368635
 20
37.7726967977
 10
28.0080921519
 20
37.77276167050001
  0
LWPOLYLINE
  5
692
330
216
100
AcDbEntity
  8
DEFAULT_2
  6
HIDDEN
 62
     7
100
AcDbPolyline
 90
       40
 70
     0
 43
0.0
 10
81.58935329270001
 20
38.3367206771
 10
81.6155995193
 20
38.3953301201
 10
81.64329081019999
 20
38.45322587750001
 10
81.6724418107
 20
38.5104349607
 10
81.70305762919999
 20
38.56696627530001
 10
81.73510522630001
 20
38.6227563043
 10
81.76854202539999
 20
38.6777234248
 10
81.80332782959998
 20
38.7317945556
 10
81.8394319591
 20
38.7849307828
 10
81.8768261135
 20
38.8371017341
 10
81.91548759719999
 20
38.8882828121
 10
81.9554161331
 20
38.9384725192
 10
81.99661704890001
 20
38.9876751324
 10
82.0390870083
 20
39.0358847034
 10
82.08278801899998
 20
39.0830543815
 10
82.12767342440001
 20
39.1291270904
 10
82.1736957907
 20
39.1740485637
 10
82.22080457389999
 20
39.2177757723
 10
82.26894845249999
 20
39.2602684971
 10
82.3180867826
 20
39.3014949313
 10
82.36822163099999
 20
39.3414569184
 10
82.41936574209999
 20
39.3801647145
 10
82.4715214505
 20
39.4176201218
 10
82.5246494521
 20
39.4537911258
 10
82.5787000328
 20
39.4886372585
 10
82.6336206685
 20
39.5221192661
 10
82.689347595
 20
39.5542027542
 10
82.74581423779999
 20
39.5848545431
 10
82.8029659457
 20
39.6140476777
 10
82.86079576170001
 20
39.6417801016
 10
82.9193086521
 20
39.6680559831
 10
82.97850294939999
 20
39.6928753891
 10
83.03835045179999
 20
39.7162219827
 10
83.09881632379999
 20
39.7380753255
 10
83.15985656329999
 20
39.7584144428
 10
83.22139050189999
 20
39.7772162136
 10
83.2833283046
 20
39.79445698030001
 10
83.3456000856
 20
39.8101184192
 10
83.4082157555
 20
39.8242035417
 10
83.4712051738
 20
39.83672069300001
  0
LINE
  5
693
330
216
100
AcDbEntity
  8
DEFAULT_2
  6
HIDDEN
 62
     7
100
AcDbLine
 10
45.3589743076
 20
20.5194903803
 30
0.0
 11
44.9994279091
 21
20.1599439818
 31
0.0
  0
LWPOLYLINE
  5
6F4
330
216
100
AcDbEntity
  8
DEFAULT_2
  6
HIDDEN
 62
     7
100
AcDbPolyline
 90
       17
 70
     0
 43
0.0
 10
73.648435933
 20
24.0547896018
 10
74.2262293446
 20
24.8990246281
 10
74.7935123343
 20
25.75035150110001
 10
75.3502089618
 20
26.608632987
 10
75.8962432868
 20
27.473731852
 10
76.4315393688
 20
28.3455108622
 10
76.9560212675
 20
29.2238327838
 10
77.4696130425
 20
30.1085603829
 10
77.97223875350001
 20
30.9995564256
 10
78.46382246000001
 20
31.8966836781
 10
78.9442882219
 20
32.7998049066
 10
79.4135600986
 20
33.7087828773
 10
79.8715621498
 20
34.62348035610001
 10
80.31821843520001
 20
35.5437601094
 10
80.7534530144
 20
36.46948490320001
 10
81.177189947
 20
37.4005175037
 10
81.58935329270001
 20
38.3367206771
  0
LINE
  5
6F5
330
216
100
AcDbEntity
  8
DEFAULT_2
  6
HIDDEN
 62
     7
100
AcDbLine
 10
73.5750504233
 20
23.9493746276
 30
0.0
 11
73.55926838080001
 21
23.9264805603
 31
0.0
  0
LINE
  5
6F6
330
216
100
AcDbEntity
  8
DEFAULT_2
  6
HIDDEN
 62
     7
100
AcDbLine
 10
73.58839769789999
 20
23.9686746793
 30
0.0
 11
73.5750504233
 21
23.9493746276
 31
0.0
  0
LINE
  5
6F7
330
216
100
AcDbEntity
  8
DEFAULT_2
  6
HIDDEN
 62
     7
100
AcDbLine
 10
73.60368067279999
 20
23.990703784
 30
0.0
 11
73.58839769789999
 21
23.9686746793
 31
0.0
  0
LINE
  5
6F8
330
216
100
AcDbEntity
  8
DEFAULT_2
  6
HIDDEN
 62
     7
100
AcDbLine
 10
73.6189335719
 20
24.0126153715
 30
0.0
 11
73.60368067279999
 21
23.990703784
 31
0.0
  0
LINE
  5
6F9
330
216
100
AcDbEntity
  8
DEFAULT_2
  6
HIDDEN
 62
     7
100
AcDbLine
 10
73.648435933
 20
24.0547896018
 30
0.0
 11
73.6189335719
 21
24.0126153715
 31
0.0
  0
LWPOLYLINE
  5
6FA
330
216
100
AcDbEntity
  8
DEFAULT_2
  6
HIDDEN
 62
     7
100
AcDbPolyline
 90
        7
 70
     0
 43
0.0
 10
72.52321105899999
 20
22.4723454049
 10
72.69805683140001
 20
22.7131347021
 10
72.8720380077
 20
22.9545550853
 10
73.04515216919999
 20
23.1966032087
 10
73.2173968976
 20
23.4392757263
 10
73.3887697743
 20
23.6825692922
 10
73.55926838080001
 20
23.9264805603
  0
LWPOLYLINE
  5
14B4
330
216
100
AcDbEntity
  8
0
  6
Continuous
 62
     7
100
AcDbPolyline
 90
        3
 70
     0
 43
0.0
 10
13.0521671534
 20
39.7117206771
 10
13.0518568721
 20
39.7338231752
 10
13.0516067793
 20
39.7559243532
  0
LWPOLYLINE
  5
14B5
330
216
100
AcDbEntity
  8
0
  6
Continuous
 62
     7
100
AcDbPolyline
 90
        4
 70
     0
 43
0.0
 10
13.0984584692
 20
38.9617206771
 10
13.0753241164
 20
39.21119126
 10
13.0598853853
 20
39.4613336897
 10
13.0521671534
 20
39.7117206771
  0
LWPOLYLINE
  5
14B6
330
216
100
AcDbEntity
  8
0
  6
Continuous
 62
     7
100
AcDbPolyline
 90
       27
 70
     0
 43
0.0
 10
13.0984584692
 20
38.9617206771
 10
13.2015306068
 20
38.1799231824
 10
13.3407664675
 20
37.4036467416
 10
13.5158344327
 20
36.6347454867
 10
13.726391172
 20
35.8747279314
 10
13.9719592538
 20
35.125323995
 10
14.2520249364
 20
34.388096085
 10
14.565982362
 20
33.6646454075
 10
14.9131209634
 20
32.9565973773
 10
15.2927748857
 20
32.2653238498
 10
15.704017799
 20
31.592486864
 10
16.1496310973
 20
30.9343832373
 10
16.6606732765
 20
30.2476613621
 10
17.2556700988
 20
29.4897869097
 10
17.9477760277
 20
28.6527445007
 10
18.7598219682
 20
27.7260123625
 10
19.7172468224
 20
26.702546987
 10
20.7849212132
 20
25.6403913429
 10
21.895806272
 20
24.6147456168
 10
23.0440916287
 20
23.6314114587
 10
24.228107182
 20
22.6917879214
 10
25.4464506217
 20
21.7969788928
 10
26.6972561448
 20
20.9483560604
 10
27.9790347213
 20
20.1469297131
 10
29.2898399135
 20
19.3939248161
 10
30.6277640145
 20
18.6904328326
 10
31.990984758
 20
18.0374067274
  0
LWPOLYLINE
  5
14B7
330
216
100
AcDbEntity
  8
0
  6
Continuous
 62
     7
100
AcDbPolyline
 90
        7
 70
     0
 43
0.0
 10
74.5502994349
 20
18.0178643741
 10
74.54901072430001
 20
18.0175490254
 10
74.544248076
 20
18.0162547238
 10
74.53408210560001
 20
18.0131780383
 10
74.5159537726
 20
18.0071247152
 10
74.4886134418
 20
17.9971696197
 10
74.4536588751
 20
17.9834968439
  0
LWPOLYLINE
  5
14B8
330
216
100
AcDbEntity
  8
0
  6
Continuous
 62
     7
100
AcDbPolyline
 90
        7
 70
     0
 43
0.0
 10
71.0478798379
 20
16.086722007
 10
71.04827149350001
 20
16.0868127965
 10
71.04869102229999
 20
16.0869335876
 10
71.0492998827
 20
16.0871905032
 10
71.04989854270001
 20
16.0875013676
 10
71.04981675960001
 20
16.0875414672
 10
71.049492111
 20
16.0875057048
  0
LWPOLYLINE
  5
14B9
330
216
100
AcDbEntity
  8
0
  6
Continuous
 62
     7
100
AcDbPolyline
 90
        3
 70
     0
 43
0.0
 10
35.1869427086
 20
16.9183518698
 10
35.1865539044
 20
16.9185250462
 10
35.183781814
 20
16.9230910434
  0
LINE
  5
14BA
330
216
100
AcDbEntity
  8
0
  6
Continuous
 62
     7
100
AcDbLine
 10
37.9022687372
 20
15.9715060279
 30
0.0
 11
37.90753750869999
 21
15.9689509923
 31
0.0
  0
LINE
  5
14BB
330
216
100
AcDbEntity
  8
0
  6
Continuous
 62
     7
100
AcDbLine
 10
37.9073234915
 20
15.9690566596
 30
0.0
 11
37.9103464046
 21
15.9675402435
 31
0.0
  0
LINE
  5
14BC
330
216
100
AcDbEntity
  8
0
  6
Continuous
 62
     7
100
AcDbLine
 10
37.9102531626
 20
15.9675881045
 30
0.0
 11
37.9108370514
 21
15.9672859404
 31
0.0
  0
LINE
  5
14BD
330
216
100
AcDbEntity
  8
0
  6
Continuous
 62
     7
100
AcDbLine
 10
34.6961458827
 20
17.1001446372
 30
0.0
 11
34.6912781296
 21
17.1057977931
 31
0.0
  0
LINE
  5
14BE
330
216
100
AcDbEntity
  8
0
  6
Continuous
 62
     7
100
AcDbLine
 10
37.2504529164
 20
16.2098150699
 30
0.0
 11
37.2479377137
 21
16.2130393076
 31
0.0
  0
LWPOLYLINE
  5
14BF
330
216
100
AcDbEntity
  8
0
  6
Continuous
 62
     7
100
AcDbPolyline
 90
        4
 70
     0
 43
0.0
 10
70.6267376137
 20
15.8400146649
 10
70.71814889630001
 20
15.8522858363
 10
70.8202959388
 20
15.8755942117
 10
70.93454929259999
 20
15.9119455893
  0
LWPOLYLINE
  5
14C0
330
216
100
AcDbEntity
  8
0
  6
Continuous
 62
     7
100
AcDbPolyline
 90
        4
 70
     0
 43
0.0
 10
38.0956744814
 20
15.8493604927
 10
38.1482374709
 20
15.84384512869999
 10
38.1984886332
 20
15.8399855556
 10
38.2467304
 20
15.8376529708
  0
LINE
  5
14C1
330
216
100
AcDbEntity
  8
0
  6
Continuous
 62
     7
100
AcDbLine
 10
37.6091365962
 20
16.0888341475
 30
0.0
 11
37.62165302150001
 21
16.0867076049
 31
0.0
  0
LINE
  5
14C2
330
216
100
AcDbEntity
  8
0
  6
Continuous
 62
     7
100
AcDbLine
 10
32.0970954626
 20
18.0067388287
 30
0.0
 11
32.1113034496
 21
18.0039083445
 31
0.0
  0
LWPOLYLINE
  5
14C3
330
216
100
AcDbEntity
  8
0
  6
Continuous
 62
     7
100
AcDbPolyline
 90
        3
 70
     0
 43
0.0
 10
32.1113034496
 20
18.0039083445
 10
32.1350615894
 20
17.9986920486
 10
32.1676661137
 20
17.9909432049
  0
LWPOLYLINE
  5
14C4
330
216
100
AcDbEntity
  8
0
  6
Continuous
 62
     7
100
AcDbPolyline
 90
        6
 70
     0
 43
0.0
 10
32.1118623422
 20
18.0121530122
 10
32.0721792525
 20
18.0215410654
 10
32.0391124041
 20
18.0287519007
 10
32.0134648245
 20
18.0337955453
 10
31.9968181668
 20
18.03660611579999
 10
31.9909847578
 20
18.0374067276
  0
LWPOLYLINE
  5
14C5
330
216
100
AcDbEntity
  8
0
  6
Continuous
 62
     7
100
AcDbPolyline
 90
       11
 70
     0
 43
0.0
 10
32.1676661137
 20
17.9909432049
 10
32.2091033476
 20
17.9804022642
 10
32.2592647988
 20
17.9668803039
 10
32.3183137339
 20
17.9501465745
 10
32.38641658000001
 20
17.9299867522
 10
32.4637202774
 20
17.9062137403
 10
32.5504131205
 20
17.8786488424
 10
32.6471057546
 20
17.8469894754
 10
32.7558793005
 20
17.8104524451
 10
32.879448507
 20
17.7679983451
 10
33.0216374334
 20
17.7181592642
  0
LWPOLYLINE
  5
14C6
330
216
100
AcDbEntity
  8
0
  6
Continuous
 62
     7
100
AcDbPolyline
 90
        3
 70
     0
 43
0.0
 10
32.2085330712
 20
17.986969836
 10
32.1575307774
 20
18.0006030656
 10
32.1118623422
 20
18.0121530122
  0
LWPOLYLINE
  5
14C7
330
216
100
AcDbEntity
  8
0
  6
Continuous
 62
     7
100
AcDbPolyline
 90
       10
 70
     0
 43
0.0
 10
32.2089722889
 20
17.9804365993
 10
32.2591120004
 20
17.9669225482
 10
32.318179293
 20
17.9501855267
 10
32.3863312068
 20
17.9300125199
 10
32.4636739839
 20
17.9062282218
 10
32.5503382827
 20
17.8786729973
 10
32.6468584009
 20
17.8470715259
 10
32.7553315189
 20
17.8106385597
 10
32.8785532163
 20
17.7683090517
 10
33.0204417098
 20
17.7185821456
  0
LINE
  5
14C8
330
216
100
AcDbEntity
  8
0
  6
Continuous
 62
     7
100
AcDbLine
 10
37.3013273717
 20
16.1958012683
 30
0.0
 11
37.2479387037
 21
16.2130423077
 31
0.0
  0
LINE
  5
14C9
330
216
100
AcDbEntity
  8
0
  6
Continuous
 62
     7
100
AcDbLine
 10
37.2472274404
 20
16.2108722686
 30
0.0
 11
37.3256497771
 21
16.1854981182
 31
0.0
  0
LWPOLYLINE
  5
14CA
330
216
100
AcDbEntity
  8
0
  6
Continuous
 62
     7
100
AcDbPolyline
 90
        3
 70
     0
 43
0.0
 10
37.2479387037
 20
16.2130423077
 10
36.5999456753
 20
16.4256021575
 10
35.9133985783
 20
16.6611743265
  0
LWPOLYLINE
  5
14CB
330
216
100
AcDbEntity
  8
0
  6
Continuous
 62
     7
100
AcDbPolyline
 90
        4
 70
     0
 43
0.0
 10
37.3256497771
 20
16.1854981182
 10
37.40734080900001
 20
16.1584819127
 10
37.4840061553
 20
16.1325398939
 10
37.5551562924
 20
16.1079128667
  0
LINE
  5
14CC
330
216
100
AcDbEntity
  8
0
  6
Continuous
 62
     7
100
AcDbLine
 10
37.628133904
 20
16.0821155636
 30
0.0
 11
37.6281912411
 21
16.0820952874
 31
0.0
  0
LINE
  5
14CD
330
216
100
AcDbEntity
  8
0
  6
Continuous
 62
     7
100
AcDbLine
 10
37.5551562924
 20
16.1079128667
 30
0.0
 11
37.6280940005
 21
16.082130002
 31
0.0
  0
LWPOLYLINE
  5
14CE
330
216
100
AcDbEntity
  8
0
  6
Continuous
 62
     7
100
AcDbPolyline
 90
        8
 70
     0
 43
0.0
 10
37.6216231354
 20
16.0867183205
 10
37.5783165464
 20
16.1020938871
 10
37.5336003578
 20
16.117741436
 10
37.4886684215
 20
16.1332484045
 10
37.4435257405
 20
16.1486231787
 10
37.3976473736
 20
16.1640479004
 10
37.3505359746
 20
16.1796839611
 10
37.3013273717
 20
16.1958012683
  0
LWPOLYLINE
  5
14CF
330
216
100
AcDbEntity
  8
0
  6
Continuous
 62
     7
100
AcDbPolyline
 90
        5
 70
     0
 43
0.0
 10
33.0204417098
 20
17.7185821456
 10
33.1845118792
 20
17.6600541134
 10
33.3642638491
 20
17.594965858
 10
33.55721416130001
 20
17.5242637996
 10
33.762515641
 20
17.4483696943
  0
LWPOLYLINE
  5
14D0
330
216
100
AcDbEntity
  8
0
  6
Continuous
 62
     7
100
AcDbPolyline
 90
        4
 70
     0
 43
0.0
 10
35.1869444307
 20
16.9183509433
 10
35.8774056665
 20
16.6706204103
 10
36.5721230594
 20
16.432147971
 10
37.2472274404
 20
16.2108722686
  0
LINE
  5
14D1
330
216
100
AcDbEntity
  8
0
  6
Continuous
 62
     7
100
AcDbLine
 10
35.9133985783
 20
16.6611743265
 30
0.0
 11
35.1837818432
 21
16.9230911204
 31
0.0
  0
LWPOLYLINE
  5
14D2
330
216
100
AcDbEntity
  8
0
  6
Continuous
 62
     7
100
AcDbPolyline
 90
        3
 70
     0
 43
0.0
 10
37.6280940005
 20
16.082130002
 10
37.6562437516
 20
16.0719435917
 10
37.6830827563
 20
16.061978106
  0
LWPOLYLINE
  5
14D3
330
216
100
AcDbEntity
  8
0
  6
Continuous
 62
     7
100
AcDbPolyline
 90
        5
 70
     0
 43
0.0
 10
33.1833456132
 20
17.6604734059
 10
33.3632929851
 20
17.5953196532
 10
33.5563952135
 20
17.5245653367
 10
33.7617904274
 20
17.4486386864
 10
33.9800566397
 20
17.3674684089
  0
LINE
  5
14D4
330
216
100
AcDbEntity
  8
0
  6
Continuous
 62
     7
100
AcDbLine
 10
35.0428108244
 20
16.9713939492
 30
0.0
 11
35.1869427086
 21
16.9183518698
 31
0.0
  0
LWPOLYLINE
  5
14D5
330
216
100
AcDbEntity
  8
0
  6
Continuous
 62
     7
100
AcDbPolyline
 90
        3
 70
     0
 43
0.0
 10
35.1837818432
 20
16.9230911204
 10
35.0075588153
 20
16.9880984838
 10
34.8436481447
 20
17.0489847485
  0
LINE
  5
14D6
330
216
100
AcDbEntity
  8
0
  6
Continuous
 62
     7
100
AcDbLine
 10
34.8723452946
 20
17.0345567282
 30
0.0
 11
35.0428108244
 21
16.9713939492
 31
0.0
  0
LINE
  5
14D7
330
216
100
AcDbEntity
  8
0
  6
Continuous
 62
     7
100
AcDbLine
 10
37.6560597809
 20
16.0720110549
 30
0.0
 11
37.6828216014
 21
16.0620762163
 31
0.0
  0
LINE
  5
14D8
330
216
100
AcDbEntity
  8
0
  6
Continuous
 62
     7
100
AcDbLine
 10
34.8436481447
 20
17.0489847485
 30
0.0
 11
34.6912781376
 21
17.1057978135
 31
0.0
  0
LINE
  5
14D9
330
216
100
AcDbEntity
  8
0
  6
Continuous
 62
     7
100
AcDbLine
 10
34.4516170031
 20
17.1913958202
 30
0.0
 11
34.6961458859
 21
17.100144636
 31
0.0
  0
LINE
  5
14DA
330
216
100
AcDbEntity
  8
0
  6
Continuous
 62
     7
100
AcDbLine
 10
34.6900214095
 20
17.1024301125
 30
0.0
 11
34.8723452946
 21
17.0345567282
 31
0.0
  0
LINE
  5
14DB
330
216
100
AcDbEntity
  8
0
  6
Continuous
 62
     7
100
AcDbLine
 10
33.9794116243
 20
17.3677087905
 30
0.0
 11
34.2098373542
 21
17.2817193401
 31
0.0
  0
LINE
  5
14DC
330
216
100
AcDbEntity
  8
0
  6
Continuous
 62
     7
100
AcDbLine
 10
34.2093067162
 20
17.2819175456
 30
0.0
 11
34.4519495048
 21
17.1912716272
 31
0.0
  0
LWPOLYLINE
  5
14DD
330
216
100
AcDbEntity
  8
0
  6
Continuous
 62
     7
100
AcDbPolyline
 90
       18
 70
     0
 43
0.0
 10
34.6912781376
 20
17.1057978135
 10
34.3939597234
 20
17.2169072575
 10
34.1150753951
 20
17.3211829612
 10
33.8596851222
 20
17.4164346142
 10
33.6314751841
 20
17.5010848149
 10
33.4299443843
 20
17.5752287033
 10
33.2518941121
 20
17.6400382613
 10
33.09504046420001
 20
17.696404305
 10
32.9571675838
 20
17.74522643
 10
32.8354378315
 20
17.7876293315
 10
32.7273120253
 20
17.8246145785
 10
32.6306328411
 20
17.8570279041
 10
32.5433635288
 20
17.8856440037
 10
32.46398153280001
 20
17.9110382371
 10
32.3915762688
 20
17.9335714774
 10
32.3253461642
 20
17.9535593774
 10
32.2644823814
 20
17.9713005274
 10
32.2085330712
 20
17.986969836
  0
LINE
  5
14DE
330
216
100
AcDbEntity
  8
0
  6
Continuous
 62
     7
100
AcDbLine
 10
37.6828216014
 20
16.0620762163
 30
0.0
 11
37.7086969904
 21
16.0522510623
 31
0.0
  0
LINE
  5
14DF
330
216
100
AcDbEntity
  8
0
  6
Continuous
 62
     7
100
AcDbLine
 10
37.7083688404
 20
16.0523769767
 30
0.0
 11
37.7330070543
 21
16.0428283398
 31
0.0
  0
LINE
  5
14E0
330
216
100
AcDbEntity
  8
0
  6
Continuous
 62
     7
100
AcDbLine
 10
37.7326211297
 20
16.042979365
 30
0.0
 11
37.7560233807
 21
16.0337409555
 31
0.0
  0
LINE
  5
14E1
330
216
100
AcDbEntity
  8
0
  6
Continuous
 62
     7
100
AcDbLine
 10
37.7555892439
 20
16.0339138147
 30
0.0
 11
37.7776423597
 21
16.0250607293
 31
0.0
  0
LINE
  5
14E2
330
216
100
AcDbEntity
  8
0
  6
Continuous
 62
     7
100
AcDbLine
 10
37.7771702525
 20
16.0252518269
 30
0.0
 11
37.7978532308
 21
16.0168153668
 31
0.0
  0
LINE
  5
14E3
330
216
100
AcDbEntity
  8
0
  6
Continuous
 62
     7
100
AcDbLine
 10
37.7973515899
 20
16.0170215498
 30
0.0
 11
37.8166009227
 21
16.0090518214
 31
0.0
  0
LINE
  5
14E4
330
216
100
AcDbEntity
  8
0
  6
Continuous
 62
     7
100
AcDbLine
 10
37.8160803906
 20
16.009268952
 30
0.0
 11
37.8338271895
 21
16.0018113807
 31
0.0
  0
LINE
  5
14E5
330
216
100
AcDbEntity
  8
0
  6
Continuous
 62
     7
100
AcDbLine
 10
37.8332969634
 20
16.002035891
 30
0.0
 11
37.8495050879
 21
15.9951214792
 31
0.0
  0
LINE
  5
14E6
330
216
100
AcDbEntity
  8
0
  6
Continuous
 62
     7
100
AcDbLine
 10
37.8489749391
 20
15.9953494052
 30
0.0
 11
37.863566507
 21
15.9890266541
 31
0.0
  0
LINE
  5
14E7
330
216
100
AcDbEntity
  8
0
  6
Continuous
 62
     7
100
AcDbLine
 10
37.8630499402
 20
15.9892523919
 30
0.0
 11
37.8759657314
 21
15.9835587561
 31
0.0
  0
LINE
  5
14E8
330
216
100
AcDbEntity
  8
0
  6
Continuous
 62
     7
100
AcDbLine
 10
37.8754729417
 20
15.9837780278
 30
0.0
 11
37.8866744354
 21
15.9787461843
 31
0.0
  0
LINE
  5
14E9
330
216
100
AcDbEntity
  8
0
  6
Continuous
 62
     7
100
AcDbLine
 10
37.8862261059
 20
15.9789497328
 30
0.0
 11
37.8955559829
 21
15.9746661609
 31
0.0
  0
LINE
  5
14EA
330
216
100
AcDbEntity
  8
0
  6
Continuous
 62
     7
100
AcDbLine
 10
37.8951653076
 20
15.9748477747
 30
0.0
 11
37.9025761048
 21
15.9713591772
 31
0.0
  0
LINE
  5
14EB
330
216
100
AcDbEntity
  8
0
  6
Continuous
 62
     7
100
AcDbLine
 10
37.7433884075
 20
16.036850122
 30
0.0
 11
37.7423143556
 21
16.03915343369999
 31
0.0
  0
LINE
  5
14EC
330
216
100
AcDbEntity
  8
0
  6
Continuous
 62
     7
100
AcDbLine
 10
38.2640313957
 20
15.837365477
 30
0.0
 11
38.3707685933
 21
15.8374505265
 31
0.0
  0
LINE
  5
14ED
330
216
100
AcDbEntity
  8
0
  6
Continuous
 62
     7
100
AcDbLine
 10
49.08841011439999
 20
15.8395141766
 30
0.0
 11
51.916973493
 21
15.8404562608
 31
0.0
  0
LWPOLYLINE
  5
14EE
330
216
100
AcDbEntity
  8
0
  6
Continuous
 62
     7
100
AcDbPolyline
 90
       29
 70
     0
 43
0.0
 10
51.916973493
 20
15.8404562608
 10
53.44924022
 20
15.8409319923
 10
54.2469584254
 20
15.841160602
 10
55.0669364603
 20
15.8413743892
 10
55.91496139149999
 20
15.8415660182
 10
56.7990705346
 20
15.8419689664
 10
57.7232774872
 20
15.8427059421
 10
58.6627461005
 20
15.8432597083
 10
59.5780259
 20
15.8434695096
 10
60.4377895433
 20
15.8432863614
 10
61.2433255193
 20
15.8429637034
 10
62.0050252536
 20
15.8425525315
 10
62.7320256402
 20
15.8420317869
 10
63.4260688379
 20
15.8415069169
 10
64.0857709242
 20
15.8409935757
 10
64.7079348812
 20
15.8405349153
 10
65.2903380563
 20
15.8401498738
 10
65.83356839390001
 20
15.8398555032
 10
66.33872081959999
 20
15.8396410187
 10
66.8084327513
 20
15.8394941407
 10
67.24683176720001
 20
15.83943183
 10
67.65872923939999
 20
15.8394416597
 10
68.04309283399999
 20
15.8393976948
 10
68.3927681601
 20
15.8392565958
 10
68.7050243506
 20
15.8390970003
 10
68.97998871989999
 20
15.8389556874
 10
69.22548547869999
 20
15.8388425793
 10
69.4522965214
 20
15.8387564889
 10
69.6623918155
 20
15.8386840205
  0
LINE
  5
14EF
330
216
100
AcDbEntity
  8
0
  6
Continuous
 62
     7
100
AcDbLine
 10
38.3707685933
 20
15.8374505265
 30
0.0
 11
38.5599297008
 21
15.83754144
 31
0.0
  0
LWPOLYLINE
  5
14F0
330
216
100
AcDbEntity
  8
0
  6
Continuous
 62
     7
100
AcDbPolyline
 90
        4
 70
     0
 43
0.0
 10
45.9951102016
 20
15.8386674409
 10
46.56937837979999
 20
15.8387864154
 10
47.1665406556
 20
15.8389318997
 10
49.08841011439999
 20
15.8395141766
  0
LWPOLYLINE
  5
14F1
330
216
100
AcDbEntity
  8
0
  6
Continuous
 62
     7
100
AcDbPolyline
 90
        7
 70
     0
 43
0.0
 10
42.1708357763
 20
15.8379946114
 10
42.5505311732
 20
15.8380760872
 10
42.9638259425
 20
15.83818448
 10
43.414083944
 20
15.8383315884
 10
43.8937353237
 20
15.838400601
 10
44.39290259929999
 20
15.8384418743
 10
45.9951102016
 20
15.8386674409
  0
LINE
  5
14F2
330
216
100
AcDbEntity
  8
0
  6
Continuous
 62
     7
100
AcDbLine
 10
38.5599297008
 20
15.83754144
 30
0.0
 11
38.8405757059
 21
15.8376221971
 31
0.0
  0
LINE
  5
14F3
330
216
100
AcDbEntity
  8
0
  6
Continuous
 62
     7
100
AcDbLine
 10
45.80121487199999
 20
15.8367206771
 30
0.0
 11
48.0511943367
 21
15.8367206771
 31
0.0
  0
LWPOLYLINE
  5
14F4
330
216
100
AcDbEntity
  8
0
  6
Continuous
 62
     7
100
AcDbPolyline
 90
        3
 70
     0
 43
0.0
 10
39.9168806431
 20
15.8377323046
 10
40.1910484336
 20
15.8377556674
 10
40.4830227452
 20
15.8377849118
  0
LWPOLYLINE
  5
14F5
330
216
100
AcDbEntity
  8
0
  6
Continuous
 62
     7
100
AcDbPolyline
 90
        3
 70
     0
 43
0.0
 10
40.4830227452
 20
15.8377849118
 10
41.11644477889999
 20
15.837841105
 10
42.1708357763
 20
15.8379946114
  0
LINE
  5
14F6
330
216
100
AcDbEntity
  8
0
  6
Continuous
 62
     7
100
AcDbLine
 10
41.1164409721
 20
15.8378411046
 30
0.0
 11
41.45680550539999
 21
15.8378796182
 31
0.0
  0
LWPOLYLINE
  5
14F7
330
216
100
AcDbEntity
  8
0
  6
Continuous
 62
     7
100
AcDbPolyline
 90
        4
 70
     0
 43
0.0
 10
38.8405757059
 20
15.8376221971
 10
39.2093336955
 20
15.8376753294
 10
39.4254517776
 20
15.83769506
 10
39.9168806431
 20
15.8377323046
  0
LINE
  5
14F8
330
216
100
AcDbEntity
  8
0
  6
Continuous
 62
     7
100
AcDbLine
 10
44.3929000256
 20
15.838441874
 30
0.0
 11
44.9086438306
 21
15.8384996646
 31
0.0
  0
LWPOLYLINE
  5
14F9
330
216
100
AcDbEntity
  8
0
  6
Continuous
 62
     7
100
AcDbPolyline
 90
        3
 70
     0
 43
0.0
 10
69.6623918155
 20
15.8386840205
 10
70.02156568930001
 20
15.8385365562
 10
70.16908227569999
 20
15.8384641105
  0
LINE
  5
14FA
330
216
100
AcDbEntity
  8
0
  6
Continuous
 62
     7
100
AcDbLine
 10
70.16908227569999
 20
15.8384641105
 30
0.0
 11
70.3983263242
 21
15.8383319306
 31
0.0
  0
LINE
  5
14FB
330
216
100
AcDbEntity
  8
0
  6
Continuous
 62
     7
100
AcDbLine
 10
70.3983263242
 20
15.8383319306
 30
0.0
 11
70.5016640317
 21
15.8382598819
 31
0.0
  0
LINE
  5
14FC
330
216
100
AcDbEntity
  8
0
  6
Continuous
 62
     7
100
AcDbLine
 10
70.5016640317
 20
15.8382598819
 30
0.0
 11
70.58363400240001
 21
15.838173758
 31
0.0
  0
LINE
  5
14FD
330
216
100
AcDbEntity
  8
0
  6
Continuous
 62
     7
100
AcDbLine
 10
38.2467277918
 20
15.8376531007
 30
0.0
 11
38.2640313957
 21
15.837365477
 31
0.0
  0
LWPOLYLINE
  5
14FE
330
216
100
AcDbEntity
  8
0
  6
Continuous
 62
     7
100
AcDbPolyline
 90
        5
 70
     0
 43
0.0
 10
32.0937647543
 20
18.0073358898
 10
32.0970983175
 20
18.0067382981
 10
32.1113219255
 20
18.0039044828
 10
32.1351107148
 20
17.9986808266
 10
32.1677562864
 20
17.9909210286
  0
LINE
  5
14FF
330
216
100
AcDbEntity
  8
0
  6
Continuous
 62
     7
100
AcDbLine
 10
32.0937646746
 20
18.0073359021
 30
0.0
 11
32.0970954626
 21
18.0067388287
 31
0.0
  0
LINE
  5
1500
330
216
100
AcDbEntity
  8
DEFAULT_1
  6
CENTER
 62
     7
100
AcDbLine
 10
43.5512046044
 20
26.23089261860001
 30
0.0
 11
43.5512046044
 21
14.1823489293
 31
0.0
  0
LINE
  5
1501
330
216
100
AcDbEntity
  8
0
  6
Continuous
 62
     7
100
AcDbLine
 10
45.80120460439999
 20
15.8367206771
 30
0.0
 11
45.80120460439999
 21
15.8386341903
 31
0.0
  0
LINE
  5
1502
330
216
100
AcDbEntity
  8
0
  6
Continuous
 62
     7
100
AcDbLine
 10
48.0512046044
 20
15.8367206771
 30
0.0
 11
48.0512046044
 21
15.8391850284
 31
0.0
  0
LINE
  5
1503
330
216
100
AcDbEntity
  8
0
  6
Continuous
 62
     7
100
AcDbLine
 10
71.12936996020001
 20
16.0675386142
 30
0.0
 11
71.18601419689999
 21
16.0411249728
 31
0.0
  0
LINE
  5
1504
330
216
100
AcDbEntity
  8
0
  6
Continuous
 62
     7
100
AcDbLine
 10
71.1474544303
 20
16.10632089
 30
0.0
 11
71.137017208
 21
16.1111878467
 31
0.0
  0
LINE
  5
1505
330
216
100
AcDbEntity
  8
0
  6
Continuous
 62
     7
100
AcDbLine
 10
37.7455711736
 20
16.0378679626
 30
0.0
 11
37.7433884075
 21
16.036850122
 31
0.0
  0
LWPOLYLINE
  5
1506
330
216
100
AcDbEntity
  8
0
  6
Continuous
 62
     7
100
AcDbPolyline
 90
        9
 70
     0
 43
0.0
 10
13.0516067793
 20
39.7559243532
 10
13.0683299262
 20
39.75579639380001
 10
13.1179503926
 20
39.7556720092
 10
13.2003080494
 20
39.7555512152
 10
13.3152179345
 20
39.7554342792
 10
13.462498701
 20
39.75532131780001
 10
13.6418199615
 20
39.755212294
 10
13.8527089314
 20
39.7551073275
 10
14.6683075005
 20
39.7548173815
  0
LWPOLYLINE
  5
1507
330
216
100
AcDbEntity
  8
0
  6
Continuous
 62
     7
100
AcDbPolyline
 90
        8
 70
     0
 43
0.0
 10
63.61732706
 20
39.75501436760001
 10
64.2033274649
 20
39.7551314585
 10
64.5016415163
 20
39.7551894438
 10
64.812287173
 20
39.75524705
 10
65.14378055779999
 20
39.7553046994
 10
65.5046058585
 20
39.7553638229
 10
65.9029157322
 20
39.75542618650001
 10
66.34655123749999
 20
39.7554936807
  0
LWPOLYLINE
  5
1508
330
216
100
AcDbEntity
  8
0
  6
Continuous
 62
     7
100
AcDbPolyline
 90
        3
 70
     0
 43
0.0
 10
66.34655123749999
 20
39.7554936807
 10
68.6768147779
 20
39.755831666
 10
69.3730745209
 20
39.7559281796
  0
LWPOLYLINE
  5
1509
330
216
100
AcDbEntity
  8
0
  6
Continuous
 62
     7
100
AcDbPolyline
 90
        9
 70
     0
 43
0.0
 10
69.3730745209
 20
39.7559281796
 10
70.76191152310001
 20
39.7561066619
 10
71.3881414424
 20
39.75617752690001
 10
71.9477715429
 20
39.7562337455
 10
72.44786466179999
 20
39.7562759219
 10
72.9000951855
 20
39.7563055979
 10
73.3137755035
 20
39.7563251332
 10
73.6925572159
 20
39.7563361619
 10
74.03714901899999
 20
39.7563380775
  0
LWPOLYLINE
  5
150A
330
216
100
AcDbEntity
  8
0
  6
Continuous
 62
     7
100
AcDbPolyline
 90
        8
 70
     0
 43
0.0
 10
58.0401078485
 20
39.7559997492
 10
58.5144156886
 20
39.7560343473
 10
58.9537584398
 20
39.7560485995
 10
59.3578571572
 20
39.7560394007
 10
59.7253353336
 20
39.7560071475
 10
60.05981397260001
 20
39.755952721
 10
60.3704142706
 20
39.7558786548
 10
60.6683650987
 20
39.7557893937
  0
LWPOLYLINE
  5
150B
330
216
100
AcDbEntity
  8
0
  6
Continuous
 62
     7
100
AcDbPolyline
 90
        5
 70
     0
 43
0.0
 10
53.084267104
 20
39.7559165795
 10
55.642152975
 20
39.7558544264
 10
56.33594133969999
 20
39.7558621433
 10
56.960576285
 20
39.75590183420001
 10
58.0401078485
 20
39.7559997492
  0
LINE
  5
150C
330
216
100
AcDbEntity
  8
0
  6
Continuous
 62
     7
100
AcDbLine
 10
38.9524491527
 20
39.7554934434
 30
0.0
 11
53.084267104
 21
39.7559165795
 31
0.0
  0
LWPOLYLINE
  5
150D
330
216
100
AcDbEntity
  8
0
  6
Continuous
 62
     7
100
AcDbPolyline
 90
        3
 70
     0
 43
0.0
 10
22.0430986925
 20
39.7539625677
 10
23.1702380493
 20
39.754052631
 10
23.499926553
 20
39.7540803523
  0
LWPOLYLINE
  5
150E
330
216
100
AcDbEntity
  8
0
  6
Continuous
 62
     7
100
AcDbPolyline
 90
        3
 70
     0
 43
0.0
 10
23.499926553
 20
39.7540803523
 10
24.6634870296
 20
39.7541833859
 10
25.1360049559
 20
39.7542272836
  0
LWPOLYLINE
  5
150F
330
216
100
AcDbEntity
  8
0
  6
Continuous
 62
     7
100
AcDbPolyline
 90
        4
 70
     0
 43
0.0
 10
31.3002764416
 20
39.7548485846
 10
32.2405543496
 20
39.7549398598
 10
33.0821392019
 20
39.7550188082
 10
38.9524491527
 20
39.7554934434
  0
LINE
  5
1510
330
216
100
AcDbEntity
  8
0
  6
Continuous
 62
     7
100
AcDbLine
 10
25.1360049559
 20
39.7542272836
 30
0.0
 11
31.3002764416
 21
39.7548485846
 31
0.0
  0
LWPOLYLINE
  5
1511
330
216
100
AcDbEntity
  8
0
  6
Continuous
 62
     7
100
AcDbPolyline
 90
        8
 70
     0
 43
0.0
 10
20.8918979635
 20
39.75387694280001
 10
21.0117053112
 20
39.7538890681
 10
21.1442746967
 20
39.7539013357
 10
21.2901189607
 20
39.7539123925
 10
21.4498933564
 20
39.7539227504
 10
21.6256394201
 20
39.7539334282
 10
21.8216774843
 20
39.7539462708
 10
22.0430986925
 20
39.7539625677
  0
LINE
  5
1512
330
216
100
AcDbEntity
  8
0
  6
Continuous
 62
     7
100
AcDbLine
 10
13.1316028158
 20
39.8367206771
 30
0.0
 11
84.97087079439999
 21
39.8367206771
 31
0.0
  0
LWPOLYLINE
  5
1513
330
216
100
AcDbEntity
  8
0
  6
Continuous
 62
     7
100
AcDbPolyline
 90
        8
 70
     0
 43
0.0
 10
16.1514893151
 20
39.7544817178
 10
16.5503290596
 20
39.7544110097
 10
16.9314297685
 20
39.7543482356
 10
17.2876030717
 20
39.7542928851
 10
17.6153745004
 20
39.7542442162
 10
17.9151875585
 20
39.7542012945
 10
18.1897264165
 20
39.7541631032
 10
18.4421576027
 20
39.7541288568
  0
LWPOLYLINE
  5
1514
330
216
100
AcDbEntity
  8
0
  6
Continuous
 62
     7
100
AcDbPolyline
 90
       13
 70
     0
 43
0.0
 10
18.4421576027
 20
39.7541288568
 10
19.414334441
 20
39.754001283
 10
19.5592324769
 20
39.7539828964
 10
19.6914783526
 20
39.7539666818
 10
19.811068888
 20
39.7539525464
 10
19.9176302693
 20
39.7539396851
 10
20.0126307074
 20
39.753927296
 10
20.0994026201
 20
39.753914767
 10
20.1820210196
 20
39.7539025206
 10
20.2639432913
 20
39.7538913774
 10
20.3463540997
 20
39.7538823134
 10
20.4290360044
 20
39.7538763202
 10
20.8918979635
 20
39.75387694280001
  0
LWPOLYLINE
  5
1515
330
216
100
AcDbEntity
  8
0
  6
Continuous
 62
     7
100
AcDbPolyline
 90
        6
 70
     0
 43
0.0
 10
74.03714901899999
 20
39.7563380775
 10
74.6373556874
 20
39.7563142629
 10
74.9009822188
 20
39.75629039760001
 10
75.141174443
 20
39.756261456
 10
75.35601318260001
 20
39.7562295566
 10
75.54704013670001
 20
39.7561958945
  0
LWPOLYLINE
  5
1516
330
216
100
AcDbEntity
  8
0
  6
Continuous
 62
     7
100
AcDbPolyline
 90
        3
 70
     0
 43
0.0
 10
14.6683075005
 20
39.7548173815
 10
14.998427201
 20
39.754728543
 10
16.1514893151
 20
39.7544817178
  0
LWPOLYLINE
  5
1517
330
216
100
AcDbEntity
  8
0
  6
Continuous
 62
     7
100
AcDbPolyline
 90
        7
 70
     0
 43
0.0
 10
75.54704013670001
 20
39.7561958945
 10
75.8717387076
 20
39.75612614510001
 10
76.0102582537
 20
39.7560908148
 10
76.13492502390001
 20
39.7560558161
 10
76.2473575017
 20
39.756021484
 10
76.35009620019999
 20
39.7559875318
 10
76.4468835261
 20
39.7559529296
  0
LWPOLYLINE
  5
1518
330
216
100
AcDbEntity
  8
0
  6
Continuous
 62
     7
100
AcDbPolyline
 90
       10
 70
     0
 43
0.0
 10
60.6683650987
 20
39.7557893937
 10
61.25893916989999
 20
39.7555639155
 10
61.5544347987
 20
39.7554061447
 10
61.84994355649999
 20
39.7552045551
 10
62.1460938647
 20
39.7549773192
 10
62.4422218023
 20
39.7548400047
 10
62.7373041138
 20
39.7548175528
 10
63.0313061854
 20
39.7548836288
 10
63.3245610249
 20
39.75495157520001
 10
63.61732706
 20
39.75501436760001
  0
LWPOLYLINE
  5
1519
330
216
100
AcDbEntity
  8
0
  6
Continuous
 62
     7
100
AcDbPolyline
 90
        5
 70
     0
 43
0.0
 10
76.4468835261
 20
39.7559529296
 10
76.63584255279999
 20
39.755877019
 10
76.730207412
 20
39.75583495489999
 10
76.8241261017
 20
39.7557902982
 10
76.91781958209999
 20
39.7557421769
  0
LWPOLYLINE
  5
151A
330
216
100
AcDbEntity
  8
0
  6
Continuous
 62
     7
100
AcDbPolyline
 90
       30
 70
     0
 43
0.0
 10
76.91781958209999
 20
39.7557421769
 10
77.1159743542
 20
39.7556250604
 10
77.22883240680001
 20
39.75555206300001
 10
77.35586601989999
 20
39.7554711464
 10
77.499562987
 20
39.7553889595
 10
77.66099570760001
 20
39.7553185968
 10
77.83885969199999
 20
39.7552700461
 10
78.03204989699999
 20
39.7552468101
 10
78.24261171569999
 20
39.7552503928
 10
78.4741399077
 20
39.7552852026
 10
78.7289875715
 20
39.7553579879
 10
79.0070415029
 20
39.7554731596
 10
79.30880983379999
 20
39.75563181840001
 10
79.6392247199
 20
39.7558346853
 10
80.00562511549999
 20
39.756081031
 10
80.41210136089999
 20
39.7563627169
 10
80.85364284319998
 20
39.756650937
 10
81.3166430525
 20
39.75690869040001
 10
81.77676905910001
 20
39.7571159847
 10
82.21338290170001
 20
39.7572617406
 10
82.6206383449
 20
39.7573447964
 10
82.99850868060001
 20
39.7573677242
 10
83.3473769981
 20
39.7573360828
 10
83.6656555254
 20
39.7572573
 10
83.9524243872
 20
39.7571416669
 10
84.2071306535
 20
39.7570043886
 10
84.4291007792
 20
39.7568511842
 10
84.61785494809999
 20
39.756684582
 10
84.77319830810001
 20
39.756511946
 10
84.89433126959999
 20
39.7563442291
  0
LWPOLYLINE
  5
151B
330
216
100
AcDbEntity
  8
0
  6
Continuous
 62
     7
100
AcDbPolyline
 90
        3
 70
     0
 43
0.0
 10
84.89433126959999
 20
39.7563442291
 10
85.03336324779999
 20
39.7560933938
 10
85.05086800939999
 20
39.756053154
  0
LWPOLYLINE
  5
151C
330
216
100
AcDbEntity
  8
0
  6
Continuous
 62
     7
100
AcDbPolyline
 90
       10
 70
     0
 43
0.0
 10
13.1316028158
 20
39.8367206771
 10
13.1176238336
 20
39.8354898845
 10
13.1040749817
 20
39.831835378
 10
13.091373156
 20
39.8258696059
 10
13.0799091894
 20
39.8177761338
 10
13.0700358262
 20
39.8078039964
 10
13.062056868
 20
39.7962600346
 10
13.056217826
 20
39.783499454
 10
13.0526983664
 20
39.7699148954
 10
13.0516067824
 20
39.7559243532
  0
LINE
  5
151D
330
216
100
AcDbEntity
  8
0
  6
Continuous
 62
     7
100
AcDbLine
 10
74.4536588751
 20
17.9834968439
 30
0.0
 11
74.41283648949999
 21
17.9665818181
 31
0.0
  0
LWPOLYLINE
  5
151E
330
216
100
AcDbEntity
  8
0
  6
Continuous
 62
     7
100
AcDbPolyline
 90
        4
 70
     0
 43
0.0
 10
71.28045333840001
 20
16.2436503653
 10
71.28620248129999
 20
16.2472367846
 10
71.3082382334
 20
16.2608072839
 10
71.33159651609999
 20
16.2750221328
  0
LWPOLYLINE
  5
151F
330
216
100
AcDbEntity
  8
0
  6
Continuous
 62
     7
100
AcDbPolyline
 90
        3
 70
     0
 43
0.0
 10
71.33159651609999
 20
16.2750221328
 10
71.3565614412
 20
16.2900454485
 10
71.3823826025
 20
16.3054248583
  0
LINE
  5
1520
330
216
100
AcDbEntity
  8
0
  6
Continuous
 62
     7
100
AcDbLine
 10
71.3562264178
 20
16.2898448737
 30
0.0
 11
71.3820252702
 21
16.30521307119999
 31
0.0
  0
LWPOLYLINE
  5
1521
330
216
100
AcDbEntity
  8
0
  6
Continuous
 62
     7
100
AcDbPolyline
 90
       15
 70
     0
 43
0.0
 10
71.3820252702
 20
16.30521307119999
 10
71.4092985859
 20
16.3213015977
 10
71.4372212049
 20
16.3376251781
 10
71.46608582289999
 20
16.3543558291
 10
71.4958513864
 20
16.371471359
 10
71.52649928719999
 20
16.3889597828
 10
71.5580072356
 20
16.4068085804
 10
71.5903604281
 20
16.4250083112
 10
71.62354245109999
 20
16.4435483623
 10
71.65754039789999
 20
16.4624204631
 10
71.69234121799999
 20
16.4816148005
 10
71.7279291238
 20
16.501120803
 10
71.76428946449999
 20
16.5209275229
 10
71.80140765739999
 20
16.5410235924
 10
71.83926807590001
 20
16.5613971643
  0
LWPOLYLINE
  5
1522
330
216
100
AcDbEntity
  8
0
  6
Continuous
 62
     7
100
AcDbPolyline
 90
       15
 70
     0
 43
0.0
 10
71.40892582140001
 20
16.3210826955
 10
71.4368413224
 20
16.3374040563
 10
71.465707421
 20
16.3541373666
 10
71.4954825302
 20
16.3712600808
 10
71.52614702
 20
16.3887594939
 10
71.5576776849
 20
16.4066225515
 10
71.59005869249999
 20
16.4248391433
 10
71.6232725645
 20
16.443398059
 10
71.6573053365
 20
16.4622903988
 10
71.69214286589999
 20
16.4815057391
 10
71.7277682765
 20
16.50103291349999
 10
71.76416580129999
 20
16.5208603638
 10
71.8013197551
 20
16.5409761452
 10
71.8392134191
 20
16.5613678418
 10
71.87785434119999
 20
16.5820348873
  0
LWPOLYLINE
  5
1523
330
216
100
AcDbEntity
  8
0
  6
Continuous
 62
     7
100
AcDbPolyline
 90
        4
 70
     0
 43
0.0
 10
72.88480647909999
 20
17.1472850201
 10
72.75309411949999
 20
17.0718713614
 10
72.6115180118
 20
16.9911064867
 10
72.4592216514
 20
16.9049537971
  0
LINE
  5
1524
330
216
100
AcDbEntity
  8
0
  6
Continuous
 62
     7
100
AcDbLine
 10
72.8767764897
 20
17.1368162114
 30
0.0
 11
73.04342186079999
 21
17.2321125734
 31
0.0
  0
LINE
  5
1525
330
216
100
AcDbEntity
  8
0
  6
Continuous
 62
     7
100
AcDbLine
 10
72.75420905949999
 20
17.0666772925
 30
0.0
 11
72.8873389748
 21
17.142856579
 31
0.0
  0
LINE
  5
1526
330
216
100
AcDbEntity
  8
0
  6
Continuous
 62
     7
100
AcDbLine
 10
72.8873389748
 20
17.142856579
 30
0.0
 11
73.03987767560001
 21
17.2300888748
 31
0.0
  0
LWPOLYLINE
  5
1527
330
216
100
AcDbEntity
  8
0
  6
Continuous
 62
     7
100
AcDbPolyline
 90
       16
 70
     0
 43
0.0
 10
73.03987767560001
 20
17.2300888748
 10
73.21074565179999
 20
17.3274150083
 10
73.36775851270001
 20
17.4162564306
 10
73.51245234210001
 20
17.4973766921
 10
73.64300137249999
 20
17.5697110882
 10
73.7586326263
 20
17.6328862415
 10
73.86290217189999
 20
17.6889270114
 10
73.95706957600001
 20
17.738602246
 10
74.0417378062
 20
17.7823282673
 10
74.11745017609999
 20
17.8205049512
 10
74.1848231023
 20
17.8535725423
 10
74.24436117399999
 20
17.8819126757
 10
74.2963402341
 20
17.9058014722
 10
74.34076623979999
 20
17.925408632
 10
74.3772059647
 20
17.9407460368
 10
74.405025873
 20
17.9518156215
  0
LWPOLYLINE
  5
1528
330
216
100
AcDbEntity
  8
0
  6
Continuous
 62
     7
100
AcDbPolyline
 90
       17
 70
     0
 43
0.0
 10
73.20254553809999
 20
17.3227571381
 10
73.3551872696
 20
17.4091706787
 10
73.49712486189999
 20
17.4888258373
 10
73.6276820738
 20
17.5612734701
 10
73.74626838479999
 20
17.6261783934
 10
73.8530267439
 20
17.6836625328
 10
73.9487990753
 20
17.7342802141
 10
74.0343978739
 20
17.7785776713
 10
74.11057645859999
 20
17.8170800875
 10
74.178153193
 20
17.8503423758
 10
74.2378472547
 20
17.8788585693
 10
74.29010691489999
 20
17.9029856527
 10
74.33506068369999
 20
17.9229403299
 10
74.37247510439999
 20
17.9388015263
 10
74.40178401609999
 20
17.9505631787
 10
74.42195703919999
 20
17.9581325627
 10
74.42402149109999
 20
17.9588697127
  0
LWPOLYLINE
  5
1529
330
216
100
AcDbEntity
  8
0
  6
Continuous
 62
     7
100
AcDbPolyline
 90
        3
 70
     0
 43
0.0
 10
72.4547417666
 20
16.8966958695
 10
72.607189461
 20
16.9828592306
 10
72.75420905949999
 20
17.0666772925
  0
LWPOLYLINE
  5
152A
330
216
100
AcDbEntity
  8
0
  6
Continuous
 62
     7
100
AcDbPolyline
 90
        3
 70
     0
 43
0.0
 10
72.4592216514
 20
16.9049537971
 10
72.18651100779999
 20
16.7537340005
 10
71.9116121669
 20
16.6055642492
  0
LWPOLYLINE
  5
152B
330
216
100
AcDbEntity
  8
0
  6
Continuous
 62
     7
100
AcDbPolyline
 90
        4
 70
     0
 43
0.0
 10
71.90725200359999
 20
16.5976738093
 10
72.08798821970001
 20
16.6945105238
 10
72.2767943581
 20
16.7976360062
 10
72.4547455213
 20
16.8966980734
  0
LWPOLYLINE
  5
152C
330
216
100
AcDbEntity
  8
0
  6
Continuous
 62
     7
100
AcDbPolyline
 90
       15
 70
     0
 43
0.0
 10
71.9116121669
 20
16.6055642492
 10
71.85059974020001
 20
16.5729930847
 10
71.7919501099
 20
16.5413888512
 10
71.73459167199999
 20
16.5101916458
 10
71.6780888469
 20
16.4791667845
 10
71.62197284619999
 20
16.4480475983
 10
71.56587497
 20
16.4166074717
 10
71.50961655899999
 20
16.384710498
 10
71.4532703365
 20
16.3523482715
 10
71.3970680885
 20
16.3195892164
 10
71.34142748100001
 20
16.2865941201
 10
71.28752307970001
 20
16.2539658112
 10
71.23757645259999
 20
16.222980019
 10
71.19387896470001
 20
16.1950681733
 10
71.1573869378
 20
16.1709506845
  0
LINE
  5
152D
330
216
100
AcDbEntity
  8
0
  6
Continuous
 62
     7
100
AcDbLine
 10
71.87785434119999
 20
16.5820348873
 30
0.0
 11
71.9072520445
 21
16.5976738245
 31
0.0
  0
LWPOLYLINE
  5
152E
330
216
100
AcDbEntity
  8
0
  6
Continuous
 62
     7
100
AcDbPolyline
 90
       15
 70
     0
 43
0.0
 10
74.41283648949999
 20
17.9665818181
 10
74.36627993800001
 20
17.9463551378
 10
74.3137230646
 20
17.9225818077
 10
74.2548877322
 20
17.8950174573
 10
74.189092094
 20
17.8632207051
 10
74.115216206
 20
17.8265149696
 10
74.0319793396
 20
17.7841082516
 10
73.93836107050001
 20
17.7353164923
 10
73.8333365541
 20
17.6794474575
 10
73.71550872430001
 20
17.6156118758
 10
73.5832332848
 20
17.5427946636
 10
73.43455217520001
 20
17.4598309525
 10
73.26859447709999
 20
17.3662046072
 10
73.0842285401
 20
17.2613309374
 10
72.88480647909999
 20
17.1472850201
  0
LWPOLYLINE
  5
152F
330
216
100
AcDbEntity
  8
0
  6
Continuous
 62
     7
100
AcDbPolyline
 90
        4
 70
     0
 43
0.0
 10
71.0478788055
 20
16.0867225257
 10
71.04401467439998
 20
16.0821758679
 10
71.04095263239999
 20
16.0779544036
 10
71.0387276542
 20
16.0740074501
  0
LWPOLYLINE
  5
1530
330
216
100
AcDbEntity
  8
0
  6
Continuous
 62
     7
100
AcDbPolyline
 90
       16
 70
     0
 43
0.0
 10
71.14604168220001
 20
16.1533725193
 10
71.14605967359999
 20
16.1533877773
 10
71.1474937113
 20
16.1545648847
 10
71.1511611847
 20
16.1574548599
 10
71.1569125255
 20
16.1618179828
 10
71.16463763029999
 20
16.1674860614
 10
71.1741878488
 20
16.174291538
 10
71.18545275009999
 20
16.1821147279
 10
71.19834767829999
 20
16.1908688766
 10
71.2128384731
 20
16.2005073129
 10
71.2289257051
 20
16.2110141696
 10
71.24658537790001
 20
16.2223556489
 10
71.2657916834
 20
16.2345050433
 10
71.286439798
 20
16.2473838379
 10
71.3085115358
 20
16.2609745824
 10
71.33190299520001
 20
16.2752075617
  0
LWPOLYLINE
  5
1531
330
216
100
AcDbEntity
  8
0
  6
Continuous
 62
     7
100
AcDbPolyline
 90
        3
 70
     0
 43
0.0
 10
72.4547455213
 20
16.8966980734
 10
72.4562292854
 20
16.8978422418
 10
72.4592216369
 20
16.9049538217
  0
LWPOLYLINE
  5
1532
330
216
100
AcDbEntity
  8
0
  6
Continuous
 62
     7
100
AcDbPolyline
 90
        3
 70
     0
 43
0.0
 10
71.9072520445
 20
16.5976738245
 10
71.9086607971
 20
16.5987129581
 10
71.91161220859999
 20
16.6055641744
  0
LWPOLYLINE
  5
1533
330
216
100
AcDbEntity
  8
0
  6
Continuous
 62
     7
100
AcDbPolyline
 90
        3
 70
     0
 43
0.0
 10
72.8767826296
 20
17.1368197073
 10
72.8795226057
 20
17.1388407665
 10
72.8848065257
 20
17.1472849446
  0
LINE
  5
1534
330
216
100
AcDbEntity
  8
0
  6
Continuous
 62
     7
100
AcDbLine
 10
71.18082154939999
 20
16.1788986801
 30
0.0
 11
71.18152629989999
 21
16.1793882456
 31
0.0
  0
LWPOLYLINE
  5
1535
330
216
100
AcDbEntity
  8
0
  6
Continuous
 62
     7
100
AcDbPolyline
 90
        7
 70
     0
 43
0.0
 10
71.1573869378
 20
16.1709506845
 10
71.12757521529999
 20
16.1504508552
 10
71.103470954
 20
16.133080951
 10
71.08432057779999
 20
16.1184791482
 10
71.06942834609999
 20
16.1063048705
 10
71.0580231941
 20
16.0961123558
 10
71.049492111
 20
16.0875057048
  0
LINE
  5
1536
330
216
100
AcDbEntity
  8
0
  6
Continuous
 62
     7
100
AcDbLine
 10
71.18152606649999
 20
16.1793877452
 30
0.0
 11
71.12936996020001
 21
16.0675386142
 31
0.0
  0
LINE
  5
1537
330
216
100
AcDbEntity
  8
0
  6
Continuous
 62
     7
100
AcDbLine
 10
71.280453045
 20
16.2436497361
 30
0.0
 11
71.18601419689999
 21
16.0411249728
 31
0.0
  0
LWPOLYLINE
  5
1538
330
216
100
AcDbEntity
  8
0
  6
Continuous
 62
     7
100
AcDbPolyline
 90
        3
 70
     0
 43
0.0
 10
71.15533144789999
 20
16.1353667726
 10
71.17154643100001
 20
16.1610276247
 10
71.1808213516
 20
16.1788983384
  0
LINE
  5
1539
330
216
100
AcDbEntity
  8
0
  6
Continuous
 62
     7
100
AcDbLine
 10
71.137017208
 20
16.1111878467
 30
0.0
 11
71.15533144789999
 21
16.1353667726
 31
0.0
  0
LWPOLYLINE
  5
153A
330
216
100
AcDbEntity
  8
0
  6
Continuous
 62
     7
100
AcDbPolyline
 90
        3
 70
     0
 43
0.0
 10
85.0503964748
 20
39.7117206771
 10
85.0506576585
 20
39.7338883257
 10
85.05086800939999
 20
39.756053154
  0
LWPOLYLINE
  5
153B
330
216
100
AcDbEntity
  8
0
  6
Continuous
 62
     7
100
AcDbPolyline
 90
        4
 70
     0
 43
0.0
 10
85.0115985464
 20
38.9617206771
 10
85.03099747010001
 20
39.2115623848
 10
85.0439319116
 20
39.4616620026
 10
85.0503964748
 20
39.7117206771
  0
LWPOLYLINE
  5
153C
330
216
100
AcDbEntity
  8
0
  6
Continuous
 62
     7
100
AcDbPolyline
 90
       23
 70
     0
 43
0.0
 10
85.0115985464
 20
38.9617206771
 10
84.8373504093
 20
37.3592079312
 10
84.6062000202
 20
35.7662967977
 10
84.33068670689999
 20
34.2450417348
 10
84.0400509068
 20
32.8928783068
 10
83.75030238149999
 20
31.712034752
 10
83.4680294412
 20
30.675806665
 10
83.17996645939999
 20
29.7362112422
 10
82.85287307629999
 20
28.8101909224
 10
82.4847106772
 20
27.8925395965
 10
82.0793488734
 20
26.9939849595
 10
81.6358710563
 20
26.1121248803
 10
81.15577124149998
 20
25.2500467612
 10
80.63979993640002
 20
24.4090810727
 10
80.08881324189999
 20
23.590600721
 10
79.503773114
 20
22.7960493575
 10
78.8857180902
 20
22.0268359849
 10
78.235773803
 20
21.2843665905
 10
77.55511069429999
 20
20.5699797607
 10
76.8449498073
 20
19.8849493302
 10
76.1065527814
 20
19.230497716
 10
75.34123199949999
 20
18.607776312
 10
74.5502994349
 20
18.017864374
  0
ARC
  5
1644
330
216
100
AcDbEntity
  8
DEFAULT_2
  6
HIDDEN
 62
     7
100
AcDbCircle
 10
32.6728044189
 20
23.5635343456
 30
0.0
 40
2.749999982799999
100
AcDbArc
 50
232.2103850206
 51
268.562416318
  0
ARC
  5
1645
330
216
100
AcDbEntity
  8
DEFAULT_2
  6
HIDDEN
 62
     7
100
AcDbCircle
 10
70.4524156555
 20
23.9817202531
 30
0.0
 40
2.5624999582
100
AcDbArc
 50
271.9020177643
 51
323.9121970195
  0
ARC
  5
1649
330
216
100
AcDbEntity
  8
DEFAULT_2
  6
HIDDEN
 62
     7
100
AcDbCircle
 10
41.57006629699999
 20
20.3393055938
 30
0.0
 40
0.25
100
AcDbArc
 50
45.0
 51
88.56241631610002
  0
ARC
  5
164A
330
216
100
AcDbEntity
  8
DEFAULT_2
  6
HIDDEN
 62
     7
100
AcDbCircle
 10
42.27975799489999
 20
20.3367206771
 30
0.0
 40
0.25
100
AcDbArc
 50
225.0
 51
270.0
  0
ARC
  5
164B
330
216
100
AcDbEntity
  8
DEFAULT_2
  6
HIDDEN
 62
     7
100
AcDbCircle
 10
44.8226512138
 20
20.3367206771
 30
0.0
 40
0.25
100
AcDbArc
 50
270.0
 51
315.0
  0
ARC
  5
164C
330
216
100
AcDbEntity
  8
DEFAULT_2
  6
HIDDEN
 62
     7
100
AcDbCircle
 10
45.53317243979999
 20
20.3401351219
 30
0.0
 40
0.25
100
AcDbArc
 50
91.9020172515
 51
135.0
  0
ARC
  5
1651
330
216
100
AcDbEntity
  8
0
  6
Continuous
 62
     7
100
AcDbCircle
 10
38.2636907342
 20
16.3373652387
 30
0.0
 40
0.5000000001
100
AcDbArc
 50
268.0561117052
 51
270.0390542503
  0
ARC
  5
1652
330
216
100
AcDbEntity
  8
0
  6
Continuous
 62
     7
100
AcDbCircle
 10
70.58386869489999
 20
16.3381735302
 30
0.0
 40
0.5000000002000001
100
AcDbArc
 50
269.9731854541
 51
274.8196904449
  0
ARC
  5
1653
330
216
100
AcDbEntity
  8
0
  6
Continuous
 62
     7
100
AcDbCircle
 10
32.1466494103
 20
18.3785716858
 30
0.0
 40
0.3750001567
100
AcDbArc
 50
245.4740235696
 51
261.8926076108
  0
ARC
  5
1654
330
216
100
AcDbEntity
  8
0
  6
Continuous
 62
     7
100
AcDbCircle
 10
74.3324848174
 20
18.3231213087
 30
0.0
 40
0.3750000278
100
AcDbArc
 50
284.1063026646
 51
305.5095682749
  0
ARC
  5
1655
330
216
100
AcDbEntity
  8
0
  6
Continuous
 62
     7
100
AcDbCircle
 10
38.13989905320001
 20
16.22174349079999
 30
0.0
 40
0.375
100
AcDbArc
 50
216.2969789047
 51
263.2271761703
  0
ARC
  5
1656
330
216
100
AcDbEntity
  8
0
  6
Continuous
 62
     7
100
AcDbCircle
 10
70.8075869054
 20
16.2647982201
 30
0.0
 40
0.375
100
AcDbArc
 50
289.7896832477
 51
335.0006701375
  0
ARC
  5
1657
330
216
100
AcDbEntity
  8
0
  6
Continuous
 62
     7
100
AcDbCircle
 10
84.97087079439999
 20
39.7567206771
 30
0.0
 40
0.08
100
AcDbArc
 50
359.5219162899
 51
90.0
  0
ENDSEC
  0
SECTION
  2
OBJECTS
  0
DICTIONARY
  5
C
330
0
100
AcDbDictionary
281
     1
  3
ACAD_COLOR
350
1695
  3
ACAD_DETAILVIEWSTYLE
350
16AF
  3
ACAD_GROUP
350
D
  3
ACAD_LAYOUT
350
1A
  3
ACAD_MATERIAL
350
1663
  3
ACAD_MLEADERSTYLE
350
16AA
  3
ACAD_MLINESTYLE
350
17
  3
ACAD_PLOTSETTINGS
350
19
  3
ACAD_PLOTSTYLENAME
350
E
  3
ACAD_SCALELIST
350
1698
  3
ACAD_SECTIONVIEWSTYLE
350
16AC
  3
ACAD_TABLESTYLE
350
1696
  3
ACAD_VISUALSTYLE
350
167C
  3
ACDB_RECOMPOSE_DATA
350
16B3
  3
AcDbVariableDictionary
350
16F0
  0
DICTIONARY
  5
16B4
330
8
100
AcDbDictionary
280
     1
281
     1
  0
DICTIONARY
  5
1703
330
10
100
AcDbDictionary
280
     1
281
     1
  3
ADSK_XREC_LAYER_RECONCILED
360
1704
  0
DICTIONARY
  5
1705
330
1FA
100
AcDbDictionary
280
     1
281
     1
  3
ADSK_XREC_LAYER_RECONCILED
360
1706
  0
DICTIONARY
  5
1707
330
1FB
100
AcDbDictionary
280
     1
281
     1
  3
ADSK_XREC_LAYER_RECONCILED
360
1708
  0
DICTIONARY
  5
1709
330
1FC
100
AcDbDictionary
280
     1
281
     1
  3
ADSK_XREC_LAYER_RECONCILED
360
170A
  0
DICTIONARY
  5
170B
330
1FD
100
AcDbDictionary
280
     1
281
     1
  3
ADSK_XREC_LAYER_RECONCILED
360
170C
  0
DICTIONARY
  5
170D
330
1FE
100
AcDbDictionary
280
     1
281
     1
  3
ADSK_XREC_LAYER_RECONCILED
360
170E
  0
DICTIONARY
  5
170F
330
1FF
100
AcDbDictionary
280
     1
281
     1
  3
ADSK_XREC_LAYER_RECONCILED
360
1710
  0
DICTIONARY
  5
1711
330
200
100
AcDbDictionary
280
     1
281
     1
  3
ADSK_XREC_LAYER_RECONCILED
360
1712
  0
DICTIONARY
  5
1713
330
201
100
AcDbDictionary
280
     1
281
     1
  3
ADSK_XREC_LAYER_RECONCILED
360
1714
  0
DICTIONARY
  5
1715
330
202
100
AcDbDictionary
280
     1
281
     1
  3
ADSK_XREC_LAYER_RECONCILED
360
1716
  0
DICTIONARY
  5
1717
330
203
100
AcDbDictionary
280
     1
281
     1
  3
ADSK_XREC_LAYER_RECONCILED
360
1718
  0
DICTIONARY
  5
1719
330
204
100
AcDbDictionary
280
     1
281
     1
  3
ADSK_XREC_LAYER_RECONCILED
360
171A
  0
DICTIONARY
  5
171B
330
205
100
AcDbDictionary
280
     1
281
     1
  3
ADSK_XREC_LAYER_RECONCILED
360
171C
  0
DICTIONARY
  5
171D
330
206
100
AcDbDictionary
280
     1
281
     1
  3
ADSK_XREC_LAYER_RECONCILED
360
171E
  0
DICTIONARY
  5
171F
330
207
100
AcDbDictionary
280
     1
281
     1
  3
ADSK_XREC_LAYER_RECONCILED
360
1720
  0
DICTIONARY
  5
1721
330
208
100
AcDbDictionary
280
     1
281
     1
  3
ADSK_XREC_LAYER_RECONCILED
360
1722
  0
DICTIONARY
  5
1723
330
209
100
AcDbDictionary
280
     1
281
     1
  3
ADSK_XREC_LAYER_RECONCILED
360
1724
  0
DICTIONARY
  5
1725
330
20A
100
AcDbDictionary
280
     1
281
     1
  3
ADSK_XREC_LAYER_RECONCILED
360
1726
  0
DICTIONARY
  5
1727
330
20B
100
AcDbDictionary
280
     1
281
     1
  3
ADSK_XREC_LAYER_RECONCILED
360
1728
  0
DICTIONARY
  5
1729
330
20C
100
AcDbDictionary
280
     1
281
     1
  3
ADSK_XREC_LAYER_RECONCILED
360
172A
  0
DICTIONARY
  5
172B
330
20D
100
AcDbDictionary
280
     1
281
     1
  3
ADSK_XREC_LAYER_RECONCILED
360
172C
  0
DICTIONARY
  5
1695
102
{ACAD_REACTORS
330
C
102
}
330
C
100
AcDbDictionary
281
     1
  0
DICTIONARY
  5
16AF
102
{ACAD_REACTORS
330
C
102
}
330
C
100
AcDbDictionary
281
     1
  3
Imperial24
350
16B0
  0
DICTIONARY
  5
D
102
{ACAD_REACTORS
330
C
102
}
330
C
100
AcDbDictionary
281
     1
  0
DICTIONARY
  5
1A
102
{ACAD_REACTORS
330
C
102
}
330
C
100
AcDbDictionary
281
     1
  3
Layout1
350
1660
  3
Model
350
165F
  0
DICTIONARY
  5
1663
102
{ACAD_REACTORS
330
C
102
}
330
C
100
AcDbDictionary
281
     1
  3
ByBlock
350
166C
  3
ByLayer
350
1664
  3
Global
350
1674
  0
DICTIONARY
  5
16AA
102
{ACAD_REACTORS
330
C
102
}
330
C
100
AcDbDictionary
281
     1
  3
Standard
350
16AB
  0
DICTIONARY
  5
17
102
{ACAD_REACTORS
330
C
102
}
330
C
100
AcDbDictionary
281
     1
  3
Standard
350
18
  0
DICTIONARY
  5
19
102
{ACAD_REACTORS
330
C
102
}
330
C
100
AcDbDictionary
281
     1
  0
ACDBDICTIONARYWDFLT
  5
E
102
{ACAD_REACTORS
330
C
102
}
330
C
100
AcDbDictionary
281
     1
  3
Normal
350
F
100
AcDbDictionaryWithDefault
340
F
  0
DICTIONARY
  5
1698
102
{ACAD_REACTORS
330
C
102
}
330
C
100
AcDbDictionary
281
     1
  3
A0
350
1699
  3
A1
350
169A
  3
A2
350
169B
  3
A3
350
169C
  3
A4
350
169D
  3
A5
350
169E
  3
A6
350
169F
  3
A7
350
16A0
  3
A8
350
16A1
  3
A9
350
16A2
  3
B0
350
16A3
  3
B1
350
16A4
  3
B2
350
16A5
  3
B3
350
16A6
  3
B4
350
16A7
  3
B5
350
16A8
  3
B6
350
16A9
  0
DICTIONARY
  5
16AC
102
{ACAD_REACTORS
330
C
102
}
330
C
100
AcDbDictionary
281
     1
  3
Imperial24
350
16AE
  0
DICTIONARY
  5
1696
102
{ACAD_REACTORS
330
C
102
}
330
C
100
AcDbDictionary
281
     1
  3
Standard
350
1697
  0
DICTIONARY
  5
167C
102
{ACAD_REACTORS
330
C
102
}
330
C
100
AcDbDictionary
281
     1
  3
2dWireframe
350
1682
  3
3D Hidden
350
16FC
  3
3dWireframe
350
16FB
  3
Basic
350
1681
  3
Brighten
350
1688
  3
ColorChange
350
168C
  3
Conceptual
350
1685
  3
Dim
350
1687
  3
EdgeColorOff
350
1694
  3
Facepattern
350
168B
  3
Flat
350
167D
  3
FlatWithEdges
350
167E
  3
Gouraud
350
167F
  3
GouraudWithEdges
350
1680
  3
Hidden
350
1684
  3
JitterOff
350
1692
  3
Linepattern
350
168A
  3
OverhangOff
350
1693
  3
Realistic
350
1686
  3
Shaded
350
1691
  3
Shaded with edges
350
1690
  3
Shades of Gray
350
168D
  3
Sketchy
350
168E
  3
Thicken
350
1689
  3
Wireframe
350
1683
  3
X-Ray
350
168F
  0
XRECORD
  5
16B3
102
{ACAD_REACTORS
330
C
102
}
330
C
100
AcDbXrecord
280
     1
 90
        1
330
1697
  0
DICTIONARY
  5
16F0
102
{ACAD_REACTORS
330
C
102
}
330
C
100
AcDbDictionary
281
     1
  3
CANNOSCALE
350
16F5
  3
CMLEADERSTYLE
350
16F2
  3
CTABLESTYLE
350
16F1
  3
CVIEWDETAILSTYLE
350
16F3
  3
CVIEWSECTIONSTYLE
350
16F4
  3
DIMASSOC
350
16F8
  3
INDEXCTL
350
16F7
  3
SORTENTS
350
16F6
  3
XCLIPFRAME
350
16F9
  0
XRECORD
  5
1704
102
{ACAD_REACTORS
330
1703
102
}
330
1703
100
AcDbXrecord
280
     1
290
     1
  0
XRECORD
  5
1706
102
{ACAD_REACTORS
330
1705
102
}
330
1705
100
AcDbXrecord
280
     1
290
     1
  0
XRECORD
  5
1708
102
{ACAD_REACTORS
330
1707
102
}
330
1707
100
AcDbXrecord
280
     1
290
     1
  0
XRECORD
  5
170A
102
{ACAD_REACTORS
330
1709
102
}
330
1709
100
AcDbXrecord
280
     1
290
     1
  0
XRECORD
  5
170C
102
{ACAD_REACTORS
330
170B
102
}
330
170B
100
AcDbXrecord
280
     1
290
     1
  0
XRECORD
  5
170E
102
{ACAD_REACTORS
330
170D
102
}
330
170D
100
AcDbXrecord
280
     1
290
     1
  0
XRECORD
  5
1710
102
{ACAD_REACTORS
330
170F
102
}
330
170F
100
AcDbXrecord
280
     1
290
     1
  0
XRECORD
  5
1712
102
{ACAD_REACTORS
330
1711
102
}
330
1711
100
AcDbXrecord
280
     1
290
     1
  0
XRECORD
  5
1714
102
{ACAD_REACTORS
330
1713
102
}
330
1713
100
AcDbXrecord
280
     1
290
     1
  0
XRECORD
  5
1716
102
{ACAD_REACTORS
330
1715
102
}
330
1715
100
AcDbXrecord
280
     1
290
     1
  0
XRECORD
  5
1718
102
{ACAD_REACTORS
330
1717
102
}
330
1717
100
AcDbXrecord
280
     1
290
     1
  0
XRECORD
  5
171A
102
{ACAD_REACTORS
330
1719
102
}
330
1719
100
AcDbXrecord
280
     1
290
     1
  0
XRECORD
  5
171C
102
{ACAD_REACTORS
330
171B
102
}
330
171B
100
AcDbXrecord
280
     1
290
     1
  0
XRECORD
  5
171E
102
{ACAD_REACTORS
330
171D
102
}
330
171D
100
AcDbXrecord
280
     1
290
     1
  0
XRECORD
  5
1720
102
{ACAD_REACTORS
330
171F
102
}
330
171F
100
AcDbXrecord
280
     1
290
     1
  0
XRECORD
  5
1722
102
{ACAD_REACTORS
330
1721
102
}
330
1721
100
AcDbXrecord
280
     1
290
     1
  0
XRECORD
  5
1724
102
{ACAD_REACTORS
330
1723
102
}
330
1723
100
AcDbXrecord
280
     1
290
     1
  0
XRECORD
  5
1726
102
{ACAD_REACTORS
330
1725
102
}
330
1725
100
AcDbXrecord
280
     1
290
     1
  0
XRECORD
  5
1728
102
{ACAD_REACTORS
330
1727
102
}
330
1727
100
AcDbXrecord
280
     1
290
     1
  0
XRECORD
  5
172A
102
{ACAD_REACTORS
330
1729
102
}
330
1729
100
AcDbXrecord
280
     1
290
     1
  0
XRECORD
  5
172C
102
{ACAD_REACTORS
330
172B
102
}
330
172B
100
AcDbXrecord
280
     1
290
     1
  0
ACAD_PROXY_OBJECT
  5
16B0
102
{ACAD_REACTORS
330
16AF
102
}
330
16AF
100
AcDbProxyObject
 90
      499
 91
      509
 95
   983063
 70
     0
 93
     1261
310
90B496D70657269616C323400481E5C0F42F5A8DC671FC056BD1B81E856B9F81E5C0F42F5A8DC671FA33E5C0F42F5A8DC671FA02000000000000741FA02AD929E2E20B1AB30B9102B34B2BBAA3CB832902E33101112BA3198911F1290129E2E20B1AB30B9102B34B2BBA232BA30B4B624B21F12AE2829A1A0A62290129E2E2
310
0B1AB30B9102B34B2BBA9B1B0B632902E33101112B9B7111F1280233A33804
340
11
340
0
340
16
340
11
340
16
340
16
 94
        0
  0
LAYOUT
  5
1660
102
{ACAD_REACTORS
330
1A
102
}
330
1A
100
AcDbPlotSettings
  1

  2
none_device
  4
ANSI_B_(17.00_x_11.00_Inches)
  6

 40
0.0
 41
0.0
 42
0.0
 43
0.0
 44
431.8
 45
279.4
 46
0.0
 47
0.0
 48
0.0
 49
0.0
140
0.0
141
0.0
142
1.0
143
1.0
 70
     0
 72
     0
 73
     0
 74
     0
  7

 75
     0
147
1.0
 76
     0
 77
     2
 78
   300
148
0.0
149
0.0
100
AcDbLayout
  1
Layout1
 70
     1
 71
     1
 10
0.0
 20
0.0
 11
12.0
 21
9.0
 12
0.0
 22
0.0
 32
0.0
 14
1.000000000000000E+20
 24
1.000000000000000E+20
 34
1.000000000000000E+20
 15
-1.000000000000000E+20
 25
-1.000000000000000E+20
 35
-1.000000000000000E+20
146
0.0
 13
0.0
 23
0.0
 33
0.0
 16
1.0
 26
0.0
 36
0.0
 17
0.0
 27
1.0
 37
0.0
 76
     0
330
217
  0
LAYOUT
  5
165F
102
{ACAD_REACTORS
330
1A
102
}
330
1A
100
AcDbPlotSettings
  1

  2
none_device
  4
ANSI_B_(17.00_x_11.00_Inches)
  6

 40
0.0
 41
0.0
 42
0.0
 43
0.0
 44
431.8
 45
279.4
 46
0.0
 47
0.0
 48
0.0
 49
0.0
140
0.0
141
0.0
142
1.0
143
1.0
 70
  1024
 72
     0
 73
     0
 74
     0
  7

 75
     0
147
1.0
 76
     0
 77
     2
 78
   300
148
0.0
149
0.0
100
AcDbLayout
  1
Model
 70
     0
 71
     0
 10
0.0
 20
0.0
 11
17.0
 21
11.0
 12
0.0
 22
0.0
 32
0.0
 14
0.0
 24
0.0
 34
0.0
 15
0.0
 25
0.0
 35
0.0
146
0.0
 13
0.0
 23
0.0
 33
0.0
 16
1.0
 26
0.0
 36
0.0
 17
0.0
 27
1.0
 37
0.0
 76
     0
330
216
331
1F4
  0
MATERIAL
  5
166C
102
{ACAD_XDICTIONARY
360
166D
102
}
102
{ACAD_REACTORS
330
1663
102
}
330
1663
100
AcDbMaterial
  1
ByBlock
 72
     0
 43
0.0208333333333333
 43
0.0
 43
0.0
 43
0.0
 43
0.0
 43
0.0208333333333333
 43
0.0
 43
0.0
 43
0.0
 43
0.0
 43
1.0
 43
0.0
 43
0.0
 43
0.0
 43
0.0
 43
1.0
 77
     0
 47
0.0208333333333333
 47
0.0
 47
0.0
 47
0.0
 47
0.0
 47
0.0208333333333333
 47
0.0
 47
0.0
 47
0.0
 47
0.0
 47
1.0
 47
0.0
 47
0.0
 47
0.0
 47
0.0
 47
1.0
171
     0
 49
0.0208333333333333
 49
0.0
 49
0.0
 49
0.0
 49
0.0
 49
0.0208333333333333
 49
0.0
 49
0.0
 49
0.0
 49
0.0
 49
1.0
 49
0.0
 49
0.0
 49
0.0
 49
0.0
 49
1.0
175
     0
142
0.0208333333333333
142
0.0
142
0.0
142
0.0
142
0.0
142
0.0208333333333333
142
0.0
142
0.0
142
0.0
142
0.0
142
1.0
142
0.0
142
0.0
142
0.0
142
0.0
142
1.0
179
     0
144
0.0208333333333333
144
0.0
144
0.0
144
0.0
144
0.0
144
0.0208333333333333
144
0.0
144
0.0
144
0.0
144
0.0
144
1.0
144
0.0
144
0.0
144
0.0
144
0.0
144
1.0
147
0.0208333333333333
147
0.0
147
0.0
147
0.0
147
0.0
147
0.0208333333333333
147
0.0
147
0.0
147
0.0
147
0.0
147
1.0
147
0.0
147
0.0
147
0.0
147
0.0
147
1.0
  0
MATERIAL
  5
1664
102
{ACAD_XDICTIONARY
360
1665
102
}
102
{ACAD_REACTORS
330
1663
102
}
330
1663
100
AcDbMaterial
  1
ByLayer
 72
     0
 43
0.0208333333333333
 43
0.0
 43
0.0
 43
0.0
 43
0.0
 43
0.0208333333333333
 43
0.0
 43
0.0
 43
0.0
 43
0.0
 43
1.0
 43
0.0
 43
0.0
 43
0.0
 43
0.0
 43
1.0
 77
     0
 47
0.0208333333333333
 47
0.0
 47
0.0
 47
0.0
 47
0.0
 47
0.0208333333333333
 47
0.0
 47
0.0
 47
0.0
 47
0.0
 47
1.0
 47
0.0
 47
0.0
 47
0.0
 47
0.0
 47
1.0
171
     0
 49
0.0208333333333333
 49
0.0
 49
0.0
 49
0.0
 49
0.0
 49
0.0208333333333333
 49
0.0
 49
0.0
 49
0.0
 49
0.0
 49
1.0
 49
0.0
 49
0.0
 49
0.0
 49
0.0
 49
1.0
175
     0
142
0.0208333333333333
142
0.0
142
0.0
142
0.0
142
0.0
142
0.0208333333333333
142
0.0
142
0.0
142
0.0
142
0.0
142
1.0
142
0.0
142
0.0
142
0.0
142
0.0
142
1.0
179
     0
144
0.0208333333333333
144
0.0
144
0.0
144
0.0
144
0.0
144
0.0208333333333333
144
0.0
144
0.0
144
0.0
144
0.0
144
1.0
144
0.0
144
0.0
144
0.0
144
0.0
144
1.0
147
0.0208333333333333
147
0.0
147
0.0
147
0.0
147
0.0
147
0.0208333333333333
147
0.0
147
0.0
147
0.0
147
0.0
147
1.0
147
0.0
147
0.0
147
0.0
147
0.0
147
1.0
  0
MATERIAL
  5
1674
102
{ACAD_XDICTIONARY
360
1675
102
}
102
{ACAD_REACTORS
330
1663
102
}
330
1663
100
AcDbMaterial
  1
Global
 72
     0
 43
0.0208333333333333
 43
0.0
 43
0.0
 43
0.0
 43
0.0
 43
0.0208333333333333
 43
0.0
 43
0.0
 43
0.0
 43
0.0
 43
1.0
 43
0.0
 43
0.0
 43
0.0
 43
0.0
 43
1.0
 77
     0
 47
0.0208333333333333
 47
0.0
 47
0.0
 47
0.0
 47
0.0
 47
0.0208333333333333
 47
0.0
 47
0.0
 47
0.0
 47
0.0
 47
1.0
 47
0.0
 47
0.0
 47
0.0
 47
0.0
 47
1.0
171
     0
 49
0.0208333333333333
 49
0.0
 49
0.0
 49
0.0
 49
0.0
 49
0.0208333333333333
 49
0.0
 49
0.0
 49
0.0
 49
0.0
 49
1.0
 49
0.0
 49
0.0
 49
0.0
 49
0.0
 49
1.0
175
     0
142
0.0208333333333333
142
0.0
142
0.0
142
0.0
142
0.0
142
0.0208333333333333
142
0.0
142
0.0
142
0.0
142
0.0
142
1.0
142
0.0
142
0.0
142
0.0
142
0.0
142
1.0
179
     0
144
0.0208333333333333
144
0.0
144
0.0
144
0.0
144
0.0
144
0.0208333333333333
144
0.0
144
0.0
144
0.0
144
0.0
144
1.0
144
0.0
144
0.0
144
0.0
144
0.0
144
1.0
147
0.0208333333333333
147
0.0
147
0.0
147
0.0
147
0.0
147
0.0208333333333333
147
0.0
147
0.0
147
0.0
147
0.0
147
1.0
147
0.0
147
0.0
147
0.0
147
0.0
147
1.0
  0
MLEADERSTYLE
  5
16AB
102
{ACAD_REACTORS
330
16AA
102
}
330
16AA
100
AcDbMLeaderStyle
170
     2
171
     1
172
     0
 90
        2
 40
0.0
 41
0.0
173
     1
 91
-1056964608
340
14
 92
       -2
290
     1
 42
0.09
291
     1
 43
0.36
  3
Standard
 44
0.18
300

342
11
174
     1
178
     6
175
     1
176
     0
 93
-1056964608
 45
0.18
292
     0
297
     0
 46
0.18
 94
-1056964608
 47
1.0
 49
1.0
140
1.0
293
     1
141
0.0
294
     1
177
     0
142
1.0
295
     0
296
     0
143
0.125
1001
ACAD_MLEADERVER
1070
     2
  0
MLINESTYLE
  5
18
102
{ACAD_REACTORS
330
17
102
}
330
17
100
AcDbMlineStyle
  2
STANDARD
 70
     0
  3

 62
   256
 51
90.0
 52
90.0
 71
     2
 49
0.5
 62
   256
  6
BYLAYER
 49
-0.5
 62
   256
  6
BYLAYER
  0
ACDBPLACEHOLDER
  5
F
102
{ACAD_REACTORS
330
E
102
}
330
E
  0
SCALE
  5
1699
102
{ACAD_REACTORS
330
1698
102
}
330
1698
100
AcDbScale
 70
     0
300
1:1
140
1.0
141
1.0
290
     1
  0
SCALE
  5
169A
102
{ACAD_REACTORS
330
1698
102
}
330
1698
100
AcDbScale
 70
     0
300
1/128" = 1'-0"
140
0.0078125
141
12.0
290
     0
  0
SCALE
  5
169B
102
{ACAD_REACTORS
330
1698
102
}
330
1698
100
AcDbScale
 70
     0
300
1/64" = 1'-0"
140
0.015625
141
12.0
290
     0
  0
SCALE
  5
169C
102
{ACAD_REACTORS
330
1698
102
}
330
1698
100
AcDbScale
 70
     0
300
1/32" = 1'-0"
140
0.03125
141
12.0
290
     0
  0
SCALE
  5
169D
102
{ACAD_REACTORS
330
1698
102
}
330
1698
100
AcDbScale
 70
     0
300
1/16" = 1'-0"
140
0.0625
141
12.0
290
     0
  0
SCALE
  5
169E
102
{ACAD_REACTORS
330
1698
102
}
330
1698
100
AcDbScale
 70
     0
300
3/32" = 1'-0"
140
0.09375
141
12.0
290
     0
  0
SCALE
  5
169F
102
{ACAD_REACTORS
330
1698
102
}
330
1698
100
AcDbScale
 70
     0
300
1/8" = 1'-0"
140
0.125
141
12.0
290
     0
  0
SCALE
  5
16A0
102
{ACAD_REACTORS
330
1698
102
}
330
1698
100
AcDbScale
 70
     0
300
3/16" = 1'-0"
140
0.1875
141
12.0
290
     0
  0
SCALE
  5
16A1
102
{ACAD_REACTORS
330
1698
102
}
330
1698
100
AcDbScale
 70
     0
300
1/4" = 1'-0"
140
0.25
141
12.0
290
     0
  0
SCALE
  5
16A2
102
{ACAD_REACTORS
330
1698
102
}
330
1698
100
AcDbScale
 70
     0
300
3/8" = 1'-0"
140
0.375
141
12.0
290
     0
  0
SCALE
  5
16A3
102
{ACAD_REACTORS
330
1698
102
}
330
1698
100
AcDbScale
 70
     0
300
1/2" = 1'-0"
140
0.5
141
12.0
290
     0
  0
SCALE
  5
16A4
102
{ACAD_REACTORS
330
1698
102
}
330
1698
100
AcDbScale
 70
     0
300
3/4" = 1'-0"
140
0.75
141
12.0
290
     0
  0
SCALE
  5
16A5
102
{ACAD_REACTORS
330
1698
102
}
330
1698
100
AcDbScale
 70
     0
300
1" = 1'-0"
140
1.0
141
12.0
290
     0
  0
SCALE
  5
16A6
102
{ACAD_REACTORS
330
1698
102
}
330
1698
100
AcDbScale
 70
     0
300
1-1/2" = 1'-0"
140
1.5
141
12.0
290
     0
  0
SCALE
  5
16A7
102
{ACAD_REACTORS
330
1698
102
}
330
1698
100
AcDbScale
 70
     0
300
3" = 1'-0"
140
3.0
141
12.0
290
     0
  0
SCALE
  5
16A8
102
{ACAD_REACTORS
330
1698
102
}
330
1698
100
AcDbScale
 70
     0
300
6" = 1'-0"
140
6.0
141
12.0
290
     0
  0
SCALE
  5
16A9
102
{ACAD_REACTORS
330
1698
102
}
330
1698
100
AcDbScale
 70
     0
300
1'-0" = 1'-0"
140
12.0
141
12.0
290
     0
  0
ACAD_PROXY_OBJECT
  5
16AE
102
{ACAD_REACTORS
330
16AC
102
}
330
16AC
100
AcDbProxyObject
 90
      499
 91
      508
 95
   983063
 70
     0
 93
     2303
310
90B496D70657269616C3234004A765C0F42F5A8DC671FE5C0F42F5A8DC671FA229258409E5840A25840A65840B05840B4005C0F42F5A8DC6F1FA33A659703D0BD6A3719C7E5C0F42F5A8DC671FE5C0F42F5A8DC671FA02000000000000741FA02BE929E2E20B1AB30B9102B34B2BBAA3CB832902E33101112BA3198911F129
310
0129E2E20B1AB30B9102B34B2BBA9B2B1BA34B7B729BA30B93A24B21F1296929E2E20B1AB30B9102B34B2BBA9B2B1BA34B7B722B73224B21F12AE2829A1A0A62290129E2E20B1AB30B9102B34B2BBA9B1B0B632902E33101112B9B7111F128060080A0E829CA692666200C206056BD1B81E85639FA0320D0305A88A9F643F2
310
7E32B9969C2960E81F87FA0718D4DE3E87E32B9969C2960E85F9E5129FC49EA5FA7E
340
11
340
0
340
0
340
16AD
340
16
340
11
 94
        0
  0
TABLESTYLE
  5
1697
102
{ACAD_XDICTIONARY
360
16B1
102
}
102
{ACAD_REACTORS
330
1696
102
}
330
1696
100
AcDbTableStyle
  3
Standard
 70
     0
 71
     0
 40
0.06
 41
0.06
280
     0
281
     0
  7
STANDARD
140
0.18
170
     2
 62
     0
 63
     7
283
     0
274
    -2
284
     1
 64
     0
275
    -2
285
     1
 65
     0
276
    -2
286
     1
 66
     0
277
    -2
287
     1
 67
     0
278
    -2
288
     1
 68
     0
279
    -2
289
     1
 69
     0
  7
STANDARD
140
0.25
170
     5
 62
     0
 63
     7
283
     0
274
    -2
284
     1
 64
     0
275
    -2
285
     1
 65
     0
276
    -2
286
     1
 66
     0
277
    -2
287
     1
 67
     0
278
    -2
288
     1
 68
     0
279
    -2
289
     1
 69
     0
  7
STANDARD
140
0.18
170
     5
 62
     0
 63
     7
283
     0
274
    -2
284
     1
 64
     0
275
    -2
285
     1
 65
     0
276
    -2
286
     1
 66
     0
277
    -2
287
     1
 67
     0
278
    -2
288
     1
 68
     0
279
    -2
289
     1
 69
     0
  0
VISUALSTYLE
  5
1682
102
{ACAD_XDICTIONARY
360
16C8
102
}
102
{ACAD_REACTORS
330
167C
102
}
330
167C
100
AcDbVisualStyle
  2
2dWireframe
 70
     4
 71
     0
 72
     2
 73
     0
 90
        0
 40
-0.6
 41
-30.0
 62
     5
 63
     7
 74
     1
 91
        4
 64
     7
 65
   257
 75
     1
175
     1
 42
1.0
 92
        0
 66
   257
 43
1.0
 76
     1
 77
     6
 78
     2
 67
     7
 79
     5
170
     0
171
     0
290
     0
174
     0
 93
        1
 44
0.0
173
     0
291
     0
 45
0.0
1001
ACAD
1000
AcDbSavedByObjectVersion
1070
     0
  0
VISUALSTYLE
  5
16FC
102
{ACAD_REACTORS
330
167C
102
}
330
167C
100
AcDbVisualStyle
  2
3D Hidden
 70
     6
 71
     1
 72
     2
 73
     2
 90
        0
 40
-0.6
 41
-30.0
 62
     5
 63
     7
421
 16777215
 74
     2
 91
        2
 64
     7
 65
   257
 75
     2
175
     1
 42
40.0
 92
        0
 66
   257
 43
1.0
 76
     1
 77
     6
 78
     2
 67
     7
 79
     3
170
     0
171
     0
290
     0
174
     0
 93
        1
 44
0.0
173
     0
291
     0
 45
0.0
1001
ACAD
1000
AcDbSavedByObjectVersion
1070
     0
  0
VISUALSTYLE
  5
16FB
102
{ACAD_REACTORS
330
167C
102
}
330
167C
100
AcDbVisualStyle
  2
3dWireframe
 70
     5
 71
     0
 72
     2
 73
     0
 90
        0
 40
-0.6
 41
-30.0
 62
     5
 63
     7
421
 16777215
 74
     1
 91
        4
 64
     7
 65
   257
 75
     1
175
     1
 42
1.0
 92
        0
 66
   257
 43
1.0
 76
     1
 77
     6
 78
     2
 67
     7
 79
     5
170
     0
171
     0
290
     0
174
     0
 93
        1
 44
0.0
173
     0
291
     0
 45
0.0
1001
ACAD
1000
AcDbSavedByObjectVersion
1070
     0
  0
VISUALSTYLE
  5
1681
102
{ACAD_XDICTIONARY
360
16C6
102
}
102
{ACAD_REACTORS
330
167C
102
}
330
167C
100
AcDbVisualStyle
  2
Basic
 70
     7
 71
     1
 72
     0
 73
     1
 90
        0
 40
-0.6
 41
-30.0
 62
     5
 63
     7
 74
     0
 91
        4
 64
     7
 65
   257
 75
     1
175
     1
 42
1.0
 92
        8
 66
     7
 43
1.0
 76
     1
 77
     6
 78
     2
 67
     7
 79
     5
170
     0
171
     0
290
     0
174
     0
 93
        1
 44
0.0
173
     0
291
     1
 45
0.0
1001
ACAD
1000
AcDbSavedByObjectVersion
1070
     0
  0
VISUALSTYLE
  5
1688
102
{ACAD_XDICTIONARY
360
16D4
102
}
102
{ACAD_REACTORS
330
167C
102
}
330
167C
100
AcDbVisualStyle
  2
Brighten
 70
    12
 71
     2
 72
     2
 73
     0
 90
        0
 40
-0.6
 41
-30.0
 62
     5
 63
     7
 74
     1
 91
        4
 64
     7
 65
   257
 75
     1
175
     1
 42
1.0
 92
        8
 66
     7
 43
1.0
 76
     1
 77
     6
 78
     2
 67
     7
 79
     5
170
     0
171
     0
290
     0
174
     0
 93
        1
 44
50.0
173
     0
291
     1
 45
0.0
1001
ACAD
1000
AcDbSavedByObjectVersion
1070
     0
  0
VISUALSTYLE
  5
168C
102
{ACAD_XDICTIONARY
360
16DC
102
}
102
{ACAD_REACTORS
330
167C
102
}
330
167C
100
AcDbVisualStyle
  2
ColorChange
 70
    16
 71
     2
 72
     2
 73
     3
 90
        0
 40
-0.6
 41
-30.0
 62
     5
 63
     8
 74
     1
 91
        4
 64
     7
 65
   257
 75
     1
175
     1
 42
1.0
 92
        8
 66
     8
 43
1.0
 76
     1
 77
     6
 78
     2
 67
     7
 79
     5
170
     0
171
     0
290
     0
174
     0
 93
        1
 44
0.0
173
     0
291
     1
 45
0.0
1001
ACAD
1000
AcDbSavedByObjectVersion
1070
     0
  0
VISUALSTYLE
  5
1685
102
{ACAD_XDICTIONARY
360
16CE
102
}
102
{ACAD_REACTORS
330
167C
102
}
330
167C
100
AcDbVisualStyle
  2
Conceptual
 70
     9
 71
     3
 72
     2
 73
     0
 90
        0
 40
-0.6
 41
-30.0
 62
     5
 63
     7
 74
     2
 91
        2
 64
     7
 65
   257
 75
     1
175
     1
 42
179.0
 92
        8
 66
     7
 43
1.0
 76
     1
 77
     6
 78
     2
 67
     7
 79
     3
170
     0
171
     0
290
     0
174
     0
 93
        1
 44
0.0
173
     0
291
     0
 45
0.0
1001
ACAD
1000
AcDbSavedByObjectVersion
1070
     0
  0
VISUALSTYLE
  5
1687
102
{ACAD_XDICTIONARY
360
16D2
102
}
102
{ACAD_REACTORS
330
167C
102
}
330
167C
100
AcDbVisualStyle
  2
Dim
 70
    11
 71
     2
 72
     2
 73
     0
 90
        0
 40
-0.6
 41
-30.0
 62
     5
 63
     7
 74
     1
 91
        4
 64
     7
 65
   257
 75
     1
175
     1
 42
1.0
 92
        8
 66
     7
 43
1.0
 76
     1
 77
     6
 78
     2
 67
     7
 79
     5
170
     0
171
     0
290
     0
174
     0
 93
        1
 44
-50.0
173
     0
291
     1
 45
0.0
1001
ACAD
1000
AcDbSavedByObjectVersion
1070
     0
  0
VISUALSTYLE
  5
1694
102
{ACAD_XDICTIONARY
360
16EC
102
}
102
{ACAD_REACTORS
330
167C
102
}
330
167C
100
AcDbVisualStyle
  2
EdgeColorOff
 70
    22
 71
     2
 72
     2
 73
     0
 90
        0
 40
-0.6
 41
-30.0
 62
     5
 63
     7
 74
     1
 91
        4
 64
     7
 65
   257
 75
     1
175
     1
 42
1.0
 92
        8
 66
     7
 43
1.0
 76
     1
 77
     6
 78
     2
 67
     7
 79
     5
170
     0
171
     0
290
     0
174
     0
 93
        1
 44
0.0
173
     0
291
     1
 45
0.0
1001
ACAD
1000
AcDbSavedByObjectVersion
1070
     0
  0
VISUALSTYLE
  5
168B
102
{ACAD_XDICTIONARY
360
16DA
102
}
102
{ACAD_REACTORS
330
167C
102
}
330
167C
100
AcDbVisualStyle
  2
Facepattern
 70
    15
 71
     2
 72
     2
 73
     0
 90
        0
 40
-0.6
 41
-30.0
 62
     5
 63
     7
 74
     1
 91
        4
 64
     7
 65
   257
 75
     1
175
     1
 42
1.0
 92
        8
 66
     7
 43
1.0
 76
     1
 77
     6
 78
     2
 67
     7
 79
     5
170
     0
171
     0
290
     0
174
     0
 93
        1
 44
0.0
173
     0
291
     1
 45
0.0
1001
ACAD
1000
AcDbSavedByObjectVersion
1070
     0
  0
VISUALSTYLE
  5
167D
102
{ACAD_XDICTIONARY
360
16BE
102
}
102
{ACAD_REACTORS
330
167C
102
}
330
167C
100
AcDbVisualStyle
  2
Flat
 70
     0
 71
     2
 72
     1
 73
     1
 90
        2
 40
-0.6
 41
30.0
 62
     5
 63
     7
 74
     0
 91
        0
 64
     7
 65
   257
 75
     1
175
     1
 42
1.0
 92
        8
 66
     7
 43
1.0
 76
     1
 77
     6
 78
     2
 67
     7
 79
     5
170
     0
171
     0
290
     0
174
     0
 93
       13
 44
0.0
173
     0
291
     1
 45
0.0
1001
ACAD
1000
AcDbSavedByObjectVersion
1070
     0
  0
VISUALSTYLE
  5
167E
102
{ACAD_XDICTIONARY
360
16C0
102
}
102
{ACAD_REACTORS
330
167C
102
}
330
167C
100
AcDbVisualStyle
  2
FlatWithEdges
 70
     1
 71
     2
 72
     1
 73
     1
 90
        2
 40
-0.6
 41
30.0
 62
     5
 63
     7
 74
     1
 91
        0
 64
     7
 65
   257
 75
     1
175
     1
 42
1.0
 92
        0
 66
   257
 43
1.0
 76
     1
 77
     6
 78
     2
 67
     7
 79
     5
170
     0
171
     0
290
     0
174
     0
 93
       13
 44
0.0
173
     0
291
     1
 45
0.0
1001
ACAD
1000
AcDbSavedByObjectVersion
1070
     0
  0
VISUALSTYLE
  5
167F
102
{ACAD_XDICTIONARY
360
16C2
102
}
102
{ACAD_REACTORS
330
167C
102
}
330
167C
100
AcDbVisualStyle
  2
Gouraud
 70
     2
 71
     2
 72
     2
 73
     1
 90
        2
 40
-0.6
 41
30.0
 62
     5
 63
     7
 74
     0
 91
        0
 64
     7
 65
   257
 75
     1
175
     1
 42
1.0
 92
        0
 66
     7
 43
1.0
 76
     1
 77
     6
 78
     2
 67
     7
 79
     5
170
     0
171
     0
290
     0
174
     0
 93
       13
 44
0.0
173
     0
291
     1
 45
0.0
1001
ACAD
1000
AcDbSavedByObjectVersion
1070
     0
  0
VISUALSTYLE
  5
1680
102
{ACAD_XDICTIONARY
360
16C4
102
}
102
{ACAD_REACTORS
330
167C
102
}
330
167C
100
AcDbVisualStyle
  2
GouraudWithEdges
 70
     3
 71
     2
 72
     2
 73
     1
 90
        2
 40
-0.6
 41
30.0
 62
     5
 63
     7
 74
     1
 91
        0
 64
     7
 65
   257
 75
     1
175
     1
 42
1.0
 92
        0
 66
   257
 43
1.0
 76
     1
 77
     6
 78
     2
 67
     7
 79
     5
170
     0
171
     0
290
     0
174
     0
 93
       13
 44
0.0
173
     0
291
     1
 45
0.0
1001
ACAD
1000
AcDbSavedByObjectVersion
1070
     0
  0
VISUALSTYLE
  5
1684
102
{ACAD_XDICTIONARY
360
16CC
102
}
102
{ACAD_REACTORS
330
167C
102
}
330
167C
100
AcDbVisualStyle
  2
Hidden
 70
     6
 71
     1
 72
     2
 73
     2
 90
        0
 40
-0.6
 41
-30.0
 62
     5
 63
     7
 74
     2
 91
        2
 64
     7
 65
   257
 75
     2
175
     1
 42
40.0
 92
        0
 66
   257
 43
1.0
 76
     1
 77
     6
 78
     2
 67
     7
 79
     3
170
     0
171
     0
290
     0
174
     0
 93
        1
 44
0.0
173
     0
291
     0
 45
0.0
1001
ACAD
1000
AcDbSavedByObjectVersion
1070
     0
  0
VISUALSTYLE
  5
1692
102
{ACAD_XDICTIONARY
360
16E8
102
}
102
{ACAD_REACTORS
330
167C
102
}
330
167C
100
AcDbVisualStyle
  2
JitterOff
 70
    20
 71
     2
 72
     2
 73
     0
 90
        0
 40
-0.6
 41
-30.0
 62
     5
 63
     7
 74
     1
 91
        4
 64
     7
 65
   257
 75
     1
175
     1
 42
1.0
 92
       10
 66
     7
 43
1.0
 76
     1
 77
     6
 78
     2
 67
     7
 79
     5
170
     0
171
     0
290
     0
174
     0
 93
        1
 44
0.0
173
     0
291
     1
 45
0.0
1001
ACAD
1000
AcDbSavedByObjectVersion
1070
     0
  0
VISUALSTYLE
  5
168A
102
{ACAD_XDICTIONARY
360
16D8
102
}
102
{ACAD_REACTORS
330
167C
102
}
330
167C
100
AcDbVisualStyle
  2
Linepattern
 70
    14
 71
     2
 72
     2
 73
     0
 90
        0
 40
-0.6
 41
-30.0
 62
     5
 63
     7
 74
     1
 91
        4
 64
     7
 65
   257
 75
     7
175
     7
 42
1.0
 92
        8
 66
     7
 43
1.0
 76
     1
 77
     6
 78
     2
 67
     7
 79
     5
170
     0
171
     0
290
     0
174
     0
 93
        1
 44
0.0
173
     0
291
     1
 45
0.0
1001
ACAD
1000
AcDbSavedByObjectVersion
1070
     0
  0
VISUALSTYLE
  5
1693
102
{ACAD_XDICTIONARY
360
16EA
102
}
102
{ACAD_REACTORS
330
167C
102
}
330
167C
100
AcDbVisualStyle
  2
OverhangOff
 70
    21
 71
     2
 72
     2
 73
     0
 90
        0
 40
-0.6
 41
-30.0
 62
     5
 63
     7
 74
     1
 91
        4
 64
     7
 65
   257
 75
     1
175
     1
 42
1.0
 92
        9
 66
     7
 43
1.0
 76
     1
 77
     6
 78
     2
 67
     7
 79
     5
170
     0
171
     0
290
     0
174
     0
 93
        1
 44
0.0
173
     0
291
     1
 45
0.0
1001
ACAD
1000
AcDbSavedByObjectVersion
1070
     0
  0
VISUALSTYLE
  5
1686
102
{ACAD_XDICTIONARY
360
16D0
102
}
102
{ACAD_REACTORS
330
167C
102
}
330
167C
100
AcDbVisualStyle
  2
Realistic
 70
     8
 71
     2
 72
     2
 73
     0
 90
        2
 40
-0.6
 41
30.0
 62
     5
 63
     7
 74
     0
 91
        0
 64
     7
 65
   257
 75
     1
175
     1
 42
1.0
 92
        8
 66
   257
 43
1.0
 76
     1
 77
     6
 78
     2
 67
     7
 79
     3
170
     0
171
     0
290
     0
174
     0
 93
       13
 44
0.0
173
     0
291
     0
 45
0.0
1001
ACAD
1000
AcDbSavedByObjectVersion
1070
     0
  0
VISUALSTYLE
  5
1691
102
{ACAD_XDICTIONARY
360
16E6
102
}
102
{ACAD_REACTORS
330
167C
102
}
330
167C
100
AcDbVisualStyle
  2
Shaded
 70
    27
 71
     2
 72
     2
 73
     1
 90
        2
 40
-0.6
 41
30.0
 62
     5
 63
     7
 74
     0
 91
        4
 64
     7
 65
   257
 75
     1
175
     1
 42
1.0
 92
        8
 66
   257
 43
1.0
 76
     1
 77
     6
 78
     2
 67
     8
 79
     3
170
     0
171
     0
290
     0
174
     0
 93
        5
 44
0.0
173
     0
291
     0
 45
0.0
1001
ACAD
1000
AcDbSavedByObjectVersion
1070
     0
  0
VISUALSTYLE
  5
1690
102
{ACAD_XDICTIONARY
360
16E4
102
}
102
{ACAD_REACTORS
330
167C
102
}
330
167C
100
AcDbVisualStyle
  2
Shaded with edges
 70
    26
 71
     2
 72
     2
 73
     1
 90
        2
 40
-0.6
 41
30.0
 62
     5
 63
     7
 74
     1
 91
       10
 64
     7
 65
   257
 75
     2
175
     1
 42
1.0
 92
        8
 66
   257
 43
1.0
 76
     1
 77
     6
 78
     2
 67
     7
 79
     3
170
     0
171
     0
290
     0
174
     0
 93
        5
 44
0.0
173
     0
291
     0
 45
0.0
1001
ACAD
1000
AcDbSavedByObjectVersion
1070
     0
  0
VISUALSTYLE
  5
168D
102
{ACAD_XDICTIONARY
360
16DE
102
}
102
{ACAD_REACTORS
330
167C
102
}
330
167C
100
AcDbVisualStyle
  2
Shades of Gray
 70
    23
 71
     2
 72
     2
 73
     3
 90
        0
 40
-0.6
 41
-30.0
 62
     5
 63
     7
 74
     2
 91
        2
 64
     7
 65
     7
 75
     1
175
     1
 42
40.0
 92
        8
 66
     7
 43
1.0
 76
     1
 77
     6
 78
     2
 67
     7
 79
     3
170
     0
171
     0
290
     0
174
     0
 93
        1
 44
0.0
173
     0
291
     0
 45
0.0
1001
ACAD
1000
AcDbSavedByObjectVersion
1070
     0
  0
VISUALSTYLE
  5
168E
102
{ACAD_XDICTIONARY
360
16E0
102
}
102
{ACAD_REACTORS
330
167C
102
}
330
167C
100
AcDbVisualStyle
  2
Sketchy
 70
    24
 71
     1
 72
     2
 73
     2
 90
        0
 40
-0.6
 41
-30.0
 62
     5
 63
     7
 74
     2
 91
        2
 64
     7
 65
     7
 75
     1
175
     1
 42
40.0
 92
       11
 66
     7
 43
1.0
 76
     1
 77
     6
 78
     2
 67
     7
 79
     6
170
     0
171
     0
290
     0
174
     0
 93
        1
 44
0.0
173
     0
291
     0
 45
0.0
1001
ACAD
1000
AcDbSavedByObjectVersion
1070
     0
  0
VISUALSTYLE
  5
1689
102
{ACAD_XDICTIONARY
360
16D6
102
}
102
{ACAD_REACTORS
330
167C
102
}
330
167C
100
AcDbVisualStyle
  2
Thicken
 70
    13
 71
     2
 72
     2
 73
     0
 90
        0
 40
-0.6
 41
-30.0
 62
     5
 63
     7
 74
     1
 91
        4
 64
     7
 65
   257
 75
     1
175
     1
 42
1.0
 92
       12
 66
     7
 43
1.0
 76
     1
 77
     6
 78
     2
 67
     7
 79
     5
170
     0
171
     0
290
     0
174
     0
 93
        1
 44
0.0
173
     0
291
     1
 45
0.0
1001
ACAD
1000
AcDbSavedByObjectVersion
1070
     0
  0
VISUALSTYLE
  5
1683
102
{ACAD_XDICTIONARY
360
16CA
102
}
102
{ACAD_REACTORS
330
167C
102
}
330
167C
100
AcDbVisualStyle
  2
Wireframe
 70
     5
 71
     0
 72
     2
 73
     0
 90
        0
 40
-0.6
 41
-30.0
 62
     5
 63
     7
 74
     1
 91
        4
 64
     7
 65
   257
 75
     1
175
     1
 42
1.0
 92
        0
 66
   257
 43
1.0
 76
     1
 77
     6
 78
     2
 67
     7
 79
     3
170
     0
171
     0
290
     0
174
     0
 93
        1
 44
0.0
173
     0
291
     0
 45
0.0
1001
ACAD
1000
AcDbSavedByObjectVersion
1070
     0
  0
VISUALSTYLE
  5
168F
102
{ACAD_XDICTIONARY
360
16E2
102
}
102
{ACAD_REACTORS
330
167C
102
}
330
167C
100
AcDbVisualStyle
  2
X-Ray
 70
    25
 71
     2
 72
     2
 73
     1
 90
        1
 40
0.5
 41
-30.0
 62
     5
 63
     7
 74
     1
 91
        0
 64
     7
 65
   257
 75
     1
175
     1
 42
1.0
 92
        8
 66
     7
 43
1.0
 76
     1
 77
     6
 78
     2
 67
     7
 79
     3
170
     0
171
     0
290
     0
174
     0
 93
       13
 44
0.0
173
     0
291
     0
 45
0.0
1001
ACAD
1000
AcDbSavedByObjectVersion
1070
     0
  0
DICTIONARYVAR
  5
16F5
102
{ACAD_REACTORS
330
16F0
102
}
330
16F0
100
DictionaryVariables
280
     0
  1
1:1
  0
DICTIONARYVAR
  5
16F2
102
{ACAD_REACTORS
330
16F0
102
}
330
16F0
100
DictionaryVariables
280
     0
  1
STANDARD
  0
DICTIONARYVAR
  5
16F1
102
{ACAD_REACTORS
330
16F0
102
}
330
16F0
100
DictionaryVariables
280
     0
  1
STANDARD
  0
DICTIONARYVAR
  5
16F3
102
{ACAD_REACTORS
330
16F0
102
}
330
16F0
100
DictionaryVariables
280
     0
  1
Imperial24
  0
DICTIONARYVAR
  5
16F4
102
{ACAD_REACTORS
330
16F0
102
}
330
16F0
100
DictionaryVariables
280
     0
  1
Imperial24
  0
DICTIONARYVAR
  5
16F8
102
{ACAD_REACTORS
330
16F0
102
}
330
16F0
100
DictionaryVariables
280
     0
  1
1
  0
DICTIONARYVAR
  5
16F7
102
{ACAD_REACTORS
330
16F0
102
}
330
16F0
100
DictionaryVariables
280
     0
  1
0
  0
DICTIONARYVAR
  5
16F6
102
{ACAD_REACTORS
330
16F0
102
}
330
16F0
100
DictionaryVariables
280
     0
  1
127
  0
DICTIONARYVAR
  5
16F9
102
{ACAD_REACTORS
330
16F0
102
}
330
16F0
100
DictionaryVariables
280
     0
  1
2
  0
DICTIONARY
  5
166D
330
166C
100
AcDbDictionary
280
     1
281
     1
  3
ACAD_XREC_ROUNDTRIP
360
1741
  3
BUMPTILE
360
166F
  3
DIFFUSETILE
360
166E
  3
OPACITYTILE
360
1672
  3
REFLECTIONTILE
360
1671
  3
REFRACTIONTILE
360
1673
  3
SPECULARTILE
360
1670
  0
DICTIONARY
  5
1665
330
1664
100
AcDbDictionary
280
     1
281
     1
  3
ACAD_XREC_ROUNDTRIP
360
1740
  3
BUMPTILE
360
1667
  3
DIFFUSETILE
360
1666
  3
OPACITYTILE
360
166A
  3
REFLECTIONTILE
360
1669
  3
REFRACTIONTILE
360
166B
  3
SPECULARTILE
360
1668
  0
DICTIONARY
  5
1675
330
1674
100
AcDbDictionary
280
     1
281
     1
  3
ACAD_XREC_ROUNDTRIP
360
1742
  3
BUMPTILE
360
1677
  3
DIFFUSETILE
360
1676
  3
OPACITYTILE
360
167A
  3
REFLECTIONTILE
360
1679
  3
REFRACTIONTILE
360
167B
  3
SPECULARTILE
360
1678
  0
DICTIONARY
  5
16B1
330
1697
100
AcDbDictionary
280
     1
281
     1
  3
ACAD_ROUNDTRIP_2008_TABLESTYLE_CELLSTYLEMAP
360
173F
  3
ACAD_XREC_ROUNDTRIP
360
1743
  0
DICTIONARY
  5
16C8
330
1682
100
AcDbDictionary
280
     1
281
     1
  3
ACAD_XREC_ROUNDTRIP
360
16C9
  0
DICTIONARY
  5
16C6
330
1681
100
AcDbDictionary
280
     1
281
     1
  3
ACAD_XREC_ROUNDTRIP
360
16C7
  0
DICTIONARY
  5
16D4
330
1688
100
AcDbDictionary
280
     1
281
     1
  3
ACAD_XREC_ROUNDTRIP
360
16D5
  0
DICTIONARY
  5
16DC
330
168C
100
AcDbDictionary
280
     1
281
     1
  3
ACAD_XREC_ROUNDTRIP
360
16DD
  0
DICTIONARY
  5
16CE
330
1685
100
AcDbDictionary
280
     1
281
     1
  3
ACAD_XREC_ROUNDTRIP
360
16CF
  0
DICTIONARY
  5
16D2
330
1687
100
AcDbDictionary
280
     1
281
     1
  3
ACAD_XREC_ROUNDTRIP
360
16D3
  0
DICTIONARY
  5
16EC
330
1694
100
AcDbDictionary
280
     1
281
     1
  3
ACAD_XREC_ROUNDTRIP
360
16ED
  0
DICTIONARY
  5
16DA
330
168B
100
AcDbDictionary
280
     1
281
     1
  3
ACAD_XREC_ROUNDTRIP
360
16DB
  0
DICTIONARY
  5
16BE
330
167D
100
AcDbDictionary
280
     1
281
     1
  3
ACAD_XREC_ROUNDTRIP
360
16BF
  0
DICTIONARY
  5
16C0
330
167E
100
AcDbDictionary
280
     1
281
     1
  3
ACAD_XREC_ROUNDTRIP
360
16C1
  0
DICTIONARY
  5
16C2
330
167F
100
AcDbDictionary
280
     1
281
     1
  3
ACAD_XREC_ROUNDTRIP
360
16C3
  0
DICTIONARY
  5
16C4
330
1680
100
AcDbDictionary
280
     1
281
     1
  3
ACAD_XREC_ROUNDTRIP
360
16C5
  0
DICTIONARY
  5
16CC
330
1684
100
AcDbDictionary
280
     1
281
     1
  3
ACAD_XREC_ROUNDTRIP
360
16CD
  0
DICTIONARY
  5
16E8
330
1692
100
AcDbDictionary
280
     1
281
     1
  3
ACAD_XREC_ROUNDTRIP
360
16E9
  0
DICTIONARY
  5
16D8
330
168A
100
AcDbDictionary
280
     1
281
     1
  3
ACAD_XREC_ROUNDTRIP
360
16D9
  0
DICTIONARY
  5
16EA
330
1693
100
AcDbDictionary
280
     1
281
     1
  3
ACAD_XREC_ROUNDTRIP
360
16EB
  0
DICTIONARY
  5
16D0
330
1686
100
AcDbDictionary
280
     1
281
     1
  3
ACAD_XREC_ROUNDTRIP
360
16D1
  0
DICTIONARY
  5
16E6
330
1691
100
AcDbDictionary
280
     1
281
     1
  3
ACAD_XREC_ROUNDTRIP
360
16E7
  0
DICTIONARY
  5
16E4
330
1690
100
AcDbDictionary
280
     1
281
     1
  3
ACAD_XREC_ROUNDTRIP
360
16E5
  0
DICTIONARY
  5
16DE
330
168D
100
AcDbDictionary
280
     1
281
     1
  3
ACAD_XREC_ROUNDTRIP
360
16DF
  0
DICTIONARY
  5
16E0
330
168E
100
AcDbDictionary
280
     1
281
     1
  3
ACAD_XREC_ROUNDTRIP
360
16E1
  0
DICTIONARY
  5
16D6
330
1689
100
AcDbDictionary
280
     1
281
     1
  3
ACAD_XREC_ROUNDTRIP
360
16D7
  0
DICTIONARY
  5
16CA
330
1683
100
AcDbDictionary
280
     1
281
     1
  3
ACAD_XREC_ROUNDTRIP
360
16CB
  0
DICTIONARY
  5
16E2
330
168F
100
AcDbDictionary
280
     1
281
     1
  3
ACAD_XREC_ROUNDTRIP
360
16E3
  0
XRECORD
  5
1741
102
{ACAD_REACTORS
330
166D
102
}
330
166D
100
AcDbXrecord
280
     1
102
MATERIAL
148
0.0
149
0.0
149
0.0
 93
        0
 94
      127
282
     0
 72
     0
 77
     0
171
     0
175
     0
179
     0
273
     0
  0
XRECORD
  5
166F
102
{ACAD_REACTORS
330
166D
102
}
330
166D
100
AcDbXrecord
280
     1
270
     1
271
     1
  0
XRECORD
  5
166E
102
{ACAD_REACTORS
330
166D
102
}
330
166D
100
AcDbXrecord
280
     1
270
     1
271
     1
  0
XRECORD
  5
1672
102
{ACAD_REACTORS
330
166D
102
}
330
166D
100
AcDbXrecord
280
     1
270
     1
271
     1
  0
XRECORD
  5
1671
102
{ACAD_REACTORS
330
166D
102
}
330
166D
100
AcDbXrecord
280
     1
270
     1
271
     1
  0
XRECORD
  5
1673
102
{ACAD_REACTORS
330
166D
102
}
330
166D
100
AcDbXrecord
280
     1
270
     1
271
     1
  0
XRECORD
  5
1670
102
{ACAD_REACTORS
330
166D
102
}
330
166D
100
AcDbXrecord
280
     1
270
     1
271
     1
  0
XRECORD
  5
1740
102
{ACAD_REACTORS
330
1665
102
}
330
1665
100
AcDbXrecord
280
     1
102
MATERIAL
148
0.0
149
0.0
149
0.0
 93
        0
 94
      127
282
     0
 72
     0
 77
     0
171
     0
175
     0
179
     0
273
     0
  0
XRECORD
  5
1667
102
{ACAD_REACTORS
330
1665
102
}
330
1665
100
AcDbXrecord
280
     1
270
     1
271
     1
  0
XRECORD
  5
1666
102
{ACAD_REACTORS
330
1665
102
}
330
1665
100
AcDbXrecord
280
     1
270
     1
271
     1
  0
XRECORD
  5
166A
102
{ACAD_REACTORS
330
1665
102
}
330
1665
100
AcDbXrecord
280
     1
270
     1
271
     1
  0
XRECORD
  5
1669
102
{ACAD_REACTORS
330
1665
102
}
330
1665
100
AcDbXrecord
280
     1
270
     1
271
     1
  0
XRECORD
  5
166B
102
{ACAD_REACTORS
330
1665
102
}
330
1665
100
AcDbXrecord
280
     1
270
     1
271
     1
  0
XRECORD
  5
1668
102
{ACAD_REACTORS
330
1665
102
}
330
1665
100
AcDbXrecord
280
     1
270
     1
271
     1
  0
XRECORD
  5
1742
102
{ACAD_REACTORS
330
1675
102
}
330
1675
100
AcDbXrecord
280
     1
102
MATERIAL
148
0.0
149
0.0
149
0.0
 93
        0
 94
      127
282
     0
 72
     0
 77
     0
171
     0
175
     0
179
     0
273
     0
  0
XRECORD
  5
1677
102
{ACAD_REACTORS
330
1675
102
}
330
1675
100
AcDbXrecord
280
     1
270
     1
271
     1
  0
XRECORD
  5
1676
102
{ACAD_REACTORS
330
1675
102
}
330
1675
100
AcDbXrecord
280
     1
270
     1
271
     1
  0
XRECORD
  5
167A
102
{ACAD_REACTORS
330
1675
102
}
330
1675
100
AcDbXrecord
280
     1
270
     1
271
     1
  0
XRECORD
  5
1679
102
{ACAD_REACTORS
330
1675
102
}
330
1675
100
AcDbXrecord
280
     1
270
     1
271
     1
  0
XRECORD
  5
167B
102
{ACAD_REACTORS
330
1675
102
}
330
1675
100
AcDbXrecord
280
     1
270
     1
271
     1
  0
XRECORD
  5
1678
102
{ACAD_REACTORS
330
1675
102
}
330
1675
100
AcDbXrecord
280
     1
270
     1
271
     1
  0
CELLSTYLEMAP
  5
173F
102
{ACAD_REACTORS
330
16B1
102
}
330
16B1
100
AcDbCellStyleMap
 90
        3
300
CELLSTYLE
  1
TABLEFORMAT_BEGIN
 90
        5
170
     1
 91
        0
 92
    32768
 62
   257
 93
        1
300
CONTENTFORMAT
  1
CONTENTFORMAT_BEGIN
 90
        0
 91
        0
 92
      512
 93
        0
300

 40
0.0
140
1.0
 94
        5
 62
     0
340
11
144
0.25
309
CONTENTFORMAT_END
171
     0
 94
        0
309
TABLEFORMAT_END
  1
CELLSTYLE_BEGIN
 90
        1
 91
        1
300
_TITLE
309
CELLSTYLE_END
300
CELLSTYLE
  1
TABLEFORMAT_BEGIN
 90
        5
170
     1
 91
        0
 92
        0
 62
   257
 93
        1
300
CONTENTFORMAT
  1
CONTENTFORMAT_BEGIN
 90
        0
 91
        0
 92
      512
 93
        0
300

 40
0.0
140
1.0
 94
        5
 62
     0
340
11
144
0.18
309
CONTENTFORMAT_END
171
     0
 94
        0
309
TABLEFORMAT_END
  1
CELLSTYLE_BEGIN
 90
        2
 91
        1
300
_HEADER
309
CELLSTYLE_END
300
CELLSTYLE
  1
TABLEFORMAT_BEGIN
 90
        5
170
     1
 91
        0
 92
        0
 62
   257
 93
        1
300
CONTENTFORMAT
  1
CONTENTFORMAT_BEGIN
 90
        0
 91
        0
 92
      512
 93
        0
300

 40
0.0
140
1.0
 94
        2
 62
     0
340
11
144
0.18
309
CONTENTFORMAT_END
171
     0
 94
        0
309
TABLEFORMAT_END
  1
CELLSTYLE_BEGIN
 90
        3
 91
        2
300
_DATA
309
CELLSTYLE_END
  0
XRECORD
  5
1743
102
{ACAD_REACTORS
330
16B1
102
}
330
16B1
100
AcDbXrecord
280
     1
102
ACAD_ROUNDTRIP_PRE2007_TABLESTYLE
 90
      512
 91
        0
  1

 92
      512
 93
        0
  2

 94
      512
 95
        0
  3

  0
XRECORD
  5
16C9
102
{ACAD_REACTORS
330
16C8
102
}
330
16C8
100
AcDbXrecord
280
     1
102
RTVSPost2010Prop28
280
     1
102
RTVSPost2010PropOp28
 70
     1
102
RTVSPost2010Prop29
280
     1
102
RTVSPost2010PropOp29
 70
     1
102
RTVSPost2010Prop30
280
     0
102
RTVSPost2010PropOp30
 70
     1
102
RTVSPost2010Prop31
280
     0
102
RTVSPost2010PropOp31
 70
     1
102
RTVSPost2010Prop32
280
     0
102
RTVSPost2010PropOp32
 70
     1
102
RTVSPost2010Prop33
280
     0
102
RTVSPost2010PropOp33
 70
     1
102
RTVSPost2010Prop34
280
     0
102
RTVSPost2010PropOp34
 70
     1
102
RTVSPost2010Prop35
280
     0
102
RTVSPost2010PropOp35
 70
     1
102
RTVSPost2010Prop36
280
     0
102
RTVSPost2010PropOp36
 70
     1
102
RTVSPost2010Prop37
 90
       50
102
RTVSPost2010PropOp37
 70
     1
102
RTVSPost2010Prop38
140
0.0
102
RTVSPost2010PropOp38
 70
     1
102
RTVSPost2010Prop39
140
1.0
102
RTVSPost2010PropOp39
 70
     1
102
RTVSPost2010Prop40
 90
        0
102
RTVSPost2010PropOp40
 70
     1
102
RTVSPost2010Prop41ColorIndex
 90
       18
102
RTVSPost2010Prop41ColorRGB
 90
        0
102
RTVSPost2010PropOp41
 70
     1
102
RTVSPost2010Prop42
 90
       50
102
RTVSPost2010PropOp42
 70
     1
102
RTVSPost2010Prop43
 90
        3
102
RTVSPost2010PropOp43
 70
     1
102
RTVSPost2010Prop44ColorIndex
 90
        5
102
RTVSPost2010Prop44ColorRGB
 90
      255
102
RTVSPost2010PropOp44
 70
     1
102
RTVSPost2010Prop45
280
     0
102
RTVSPost2010PropOp45
 70
     1
102
RTVSPost2010Prop46
 90
       50
102
RTVSPost2010PropOp46
 70
     1
102
RTVSPost2010Prop47
 90
       50
102
RTVSPost2010PropOp47
 70
     1
102
RTVSPost2010Prop48
 90
       50
102
RTVSPost2010PropOp48
 70
     1
102
RTVSPost2010Prop49
280
     0
102
RTVSPost2010PropOp49
 70
     1
102
RTVSPost2010Prop50
 90
       50
102
RTVSPost2010PropOp50
 70
     1
102
RTVSPost2010Prop51ColorIndex
 90
      256
102
RTVSPost2010Prop51ColorRGB
 90
-16777216
102
RTVSPost2010PropOp51
 70
     0
102
RTVSPost2010Prop52
140
1.0
102
RTVSPost2010PropOp52
 70
     0
102
RTVSPost2010Prop53
 90
        2
102
RTVSPost2010PropOp53
 70
     1
102
RTVSPost2010Prop54
  1
strokes_ogs.tif
102
RTVSPost2010PropOp54
 70
     1
102
RTVSPost2010Prop55
280
     0
102
RTVSPost2010PropOp55
 70
     1
102
RTVSPost2010Prop56
140
1.0
102
RTVSPost2010PropOp56
 70
     1
102
RTVSPost2010Prop57
140
1.0
102
RTVSPost2010PropOp57
 70
     1
102
RTVSPropertyOp0
 70
     1
102
RTVSPropertyOp1
 70
     1
102
RTVSPropertyOp2
 70
     1
102
RTVSPropertyOp3
 70
     1
102
RTVSPropertyOp4
 70
     1
102
RTVSPropertyOp5
 70
     1
102
RTVSPropertyOp6
 70
     1
102
RTVSPropertyOp7
 70
     1
102
RTVSPropertyOp8
 70
     1
102
RTVSPropertyOp9
 70
     1
102
RTVSPropertyOp10
 70
     1
102
RTVSPropertyOp11
 70
     1
102
RTVSPropertyOp12
 70
     1
102
RTVSPropertyOp13
 70
     1
102
RTVSPropertyOp14
 70
     1
102
RTVSPropertyOp15
 70
     1
102
RTVSPropertyOp16
 70
     1
102
RTVSPropertyOp17
 70
     1
102
RTVSPropertyOp18
 70
     1
102
RTVSPropertyOp19
 70
     1
102
RTVSPropertyOp20
 70
     1
102
RTVSPropertyOp21
 70
     1
102
RTVSPropertyOp22
 70
     1
102
RTVSPropertyOp23
 70
     1
102
RTVSPropertyOp24
 70
     1
102
RTVSPropertyOp25
 70
     1
102
RTVSPropertyOp26
 70
     1
102
RTVSPropertyOp27
 70
     1
102
RTVSPropertyOp28
 70
     1
102
RTVSPropertyOp29
 70
     1
102
RTVSPropertyOp30
 70
     1
102
RTVSPropertyOp31
 70
     1
102
RTVSPropertyOp32
 70
     1
102
RTVSPropertyOp33
 70
     1
102
RTVSPropertyOp34
 70
     1
102
RTVSPropertyOp35
 70
     1
102
RTVSPropertyOp36
 70
     1
102
RTVSPropertyOp37
 70
     1
102
RTVSPropertyOp38
 70
     1
102
RTVSPropertyOp39
 70
     1
102
RTVSPropertyOp40
 70
     1
102
RTVSPropertyOp41
 70
     1
102
RTVSPropertyOp42
 70
     1
102
RTVSPropertyOp43
 70
     1
102
RTVSPropertyOp44
 70
     1
102
RTVSPropertyOp45
 70
     1
102
RTVSPropertyOp46
 70
     1
102
RTVSPropertyOp47
 70
     1
102
RTVSPropertyOp48
 70
     1
102
RTVSPropertyOp49
 70
     1
102
RTVSPropertyOp50
 70
     1
102
RTVSPropertyOp51
 70
     0
102
RTVSPropertyOp52
 70
     0
102
RTVSPropertyOp53
 70
     1
102
RTVSPropertyOp54
 70
     1
102
RTVSPropertyOp55
 70
     1
102
RTVSPropertyOp56
 70
     1
102
RTVSPropertyOp57
 70
     1
102
RTVSPropertyOp58
 70
     1
102
RTVSPropertyOp59
 70
     1
102
RTVSPropertyOp60
 70
     1
102
RTVSPropertyOp61
 70
     1
102
RTVSPropertyOp62
 70
     1
  0
XRECORD
  5
16C7
102
{ACAD_REACTORS
330
16C6
102
}
330
16C6
100
AcDbXrecord
280
     1
102
RTVSPost2010Prop28
280
     0
102
RTVSPost2010PropOp28
 70
     1
102
RTVSPost2010Prop29
280
     1
102
RTVSPost2010PropOp29
 70
     1
102
RTVSPost2010Prop30
280
     1
102
RTVSPost2010PropOp30
 70
     1
102
RTVSPost2010Prop31
280
     0
102
RTVSPost2010PropOp31
 70
     1
102
RTVSPost2010Prop32
280
     0
102
RTVSPost2010PropOp32
 70
     1
102
RTVSPost2010Prop33
280
     0
102
RTVSPost2010PropOp33
 70
     1
102
RTVSPost2010Prop34
280
     0
102
RTVSPost2010PropOp34
 70
     1
102
RTVSPost2010Prop35
280
     0
102
RTVSPost2010PropOp35
 70
     1
102
RTVSPost2010Prop36
280
     0
102
RTVSPost2010PropOp36
 70
     1
102
RTVSPost2010Prop37
 90
       50
102
RTVSPost2010PropOp37
 70
     1
102
RTVSPost2010Prop38
140
0.0
102
RTVSPost2010PropOp38
 70
     1
102
RTVSPost2010Prop39
140
1.0
102
RTVSPost2010PropOp39
 70
     1
102
RTVSPost2010Prop40
 90
        0
102
RTVSPost2010PropOp40
 70
     1
102
RTVSPost2010Prop41ColorIndex
 90
       18
102
RTVSPost2010Prop41ColorRGB
 90
        0
102
RTVSPost2010PropOp41
 70
     1
102
RTVSPost2010Prop42
 90
       50
102
RTVSPost2010PropOp42
 70
     1
102
RTVSPost2010Prop43
 90
        3
102
RTVSPost2010PropOp43
 70
     1
102
RTVSPost2010Prop44ColorIndex
 90
        5
102
RTVSPost2010Prop44ColorRGB
 90
      255
102
RTVSPost2010PropOp44
 70
     1
102
RTVSPost2010Prop45
280
     0
102
RTVSPost2010PropOp45
 70
     1
102
RTVSPost2010Prop46
 90
       50
102
RTVSPost2010PropOp46
 70
     1
102
RTVSPost2010Prop47
 90
       50
102
RTVSPost2010PropOp47
 70
     1
102
RTVSPost2010Prop48
 90
       50
102
RTVSPost2010PropOp48
 70
     1
102
RTVSPost2010Prop49
280
     0
102
RTVSPost2010PropOp49
 70
     1
102
RTVSPost2010Prop50
 90
       50
102
RTVSPost2010PropOp50
 70
     1
102
RTVSPost2010Prop51ColorIndex
 90
      256
102
RTVSPost2010Prop51ColorRGB
 90
-16777216
102
RTVSPost2010PropOp51
 70
     0
102
RTVSPost2010Prop52
140
1.0
102
RTVSPost2010PropOp52
 70
     0
102
RTVSPost2010Prop53
 90
        2
102
RTVSPost2010PropOp53
 70
     1
102
RTVSPost2010Prop54
  1
strokes_ogs.tif
102
RTVSPost2010PropOp54
 70
     1
102
RTVSPost2010Prop55
280
     0
102
RTVSPost2010PropOp55
 70
     1
102
RTVSPost2010Prop56
140
1.0
102
RTVSPost2010PropOp56
 70
     1
102
RTVSPost2010Prop57
140
1.0
102
RTVSPost2010PropOp57
 70
     1
102
RTVSPropertyOp0
 70
     1
102
RTVSPropertyOp1
 70
     1
102
RTVSPropertyOp2
 70
     1
102
RTVSPropertyOp3
 70
     1
102
RTVSPropertyOp4
 70
     1
102
RTVSPropertyOp5
 70
     1
102
RTVSPropertyOp6
 70
     1
102
RTVSPropertyOp7
 70
     1
102
RTVSPropertyOp8
 70
     1
102
RTVSPropertyOp9
 70
     1
102
RTVSPropertyOp10
 70
     1
102
RTVSPropertyOp11
 70
     1
102
RTVSPropertyOp12
 70
     1
102
RTVSPropertyOp13
 70
     1
102
RTVSPropertyOp14
 70
     1
102
RTVSPropertyOp15
 70
     1
102
RTVSPropertyOp16
 70
     1
102
RTVSPropertyOp17
 70
     1
102
RTVSPropertyOp18
 70
     1
102
RTVSPropertyOp19
 70
     1
102
RTVSPropertyOp20
 70
     1
102
RTVSPropertyOp21
 70
     1
102
RTVSPropertyOp22
 70
     1
102
RTVSPropertyOp23
 70
     1
102
RTVSPropertyOp24
 70
     1
102
RTVSPropertyOp25
 70
     1
102
RTVSPropertyOp26
 70
     1
102
RTVSPropertyOp27
 70
     1
102
RTVSPropertyOp28
 70
     1
102
RTVSPropertyOp29
 70
     1
102
RTVSPropertyOp30
 70
     1
102
RTVSPropertyOp31
 70
     1
102
RTVSPropertyOp32
 70
     1
102
RTVSPropertyOp33
 70
     1
102
RTVSPropertyOp34
 70
     1
102
RTVSPropertyOp35
 70
     1
102
RTVSPropertyOp36
 70
     1
102
RTVSPropertyOp37
 70
     1
102
RTVSPropertyOp38
 70
     1
102
RTVSPropertyOp39
 70
     1
102
RTVSPropertyOp40
 70
     1
102
RTVSPropertyOp41
 70
     1
102
RTVSPropertyOp42
 70
     1
102
RTVSPropertyOp43
 70
     1
102
RTVSPropertyOp44
 70
     1
102
RTVSPropertyOp45
 70
     1
102
RTVSPropertyOp46
 70
     1
102
RTVSPropertyOp47
 70
     1
102
RTVSPropertyOp48
 70
     1
102
RTVSPropertyOp49
 70
     1
102
RTVSPropertyOp50
 70
     1
102
RTVSPropertyOp51
 70
     0
102
RTVSPropertyOp52
 70
     0
102
RTVSPropertyOp53
 70
     1
102
RTVSPropertyOp54
 70
     1
102
RTVSPropertyOp55
 70
     1
102
RTVSPropertyOp56
 70
     1
102
RTVSPropertyOp57
 70
     1
102
RTVSPropertyOp58
 70
     1
102
RTVSPropertyOp59
 70
     1
102
RTVSPropertyOp60
 70
     1
102
RTVSPropertyOp61
 70
     1
102
RTVSPropertyOp62
 70
     1
  0
XRECORD
  5
16D5
102
{ACAD_REACTORS
330
16D4
102
}
330
16D4
100
AcDbXrecord
280
     1
102
RTVSPost2010Prop28
280
     0
102
RTVSPost2010PropOp28
 70
     1
102
RTVSPost2010Prop29
280
     1
102
RTVSPost2010PropOp29
 70
     1
102
RTVSPost2010Prop30
280
     1
102
RTVSPost2010PropOp30
 70
     1
102
RTVSPost2010Prop31
280
     0
102
RTVSPost2010PropOp31
 70
     1
102
RTVSPost2010Prop32
280
     0
102
RTVSPost2010PropOp32
 70
     1
102
RTVSPost2010Prop33
280
     0
102
RTVSPost2010PropOp33
 70
     1
102
RTVSPost2010Prop34
280
     0
102
RTVSPost2010PropOp34
 70
     1
102
RTVSPost2010Prop35
280
     0
102
RTVSPost2010PropOp35
 70
     1
102
RTVSPost2010Prop36
280
     0
102
RTVSPost2010PropOp36
 70
     1
102
RTVSPost2010Prop37
 90
       50
102
RTVSPost2010PropOp37
 70
     1
102
RTVSPost2010Prop38
140
0.0
102
RTVSPost2010PropOp38
 70
     1
102
RTVSPost2010Prop39
140
1.0
102
RTVSPost2010PropOp39
 70
     1
102
RTVSPost2010Prop40
 90
        0
102
RTVSPost2010PropOp40
 70
     1
102
RTVSPost2010Prop41ColorIndex
 90
       18
102
RTVSPost2010Prop41ColorRGB
 90
        0
102
RTVSPost2010PropOp41
 70
     1
102
RTVSPost2010Prop42
 90
       50
102
RTVSPost2010PropOp42
 70
     1
102
RTVSPost2010Prop43
 90
        3
102
RTVSPost2010PropOp43
 70
     1
102
RTVSPost2010Prop44ColorIndex
 90
        5
102
RTVSPost2010Prop44ColorRGB
 90
      255
102
RTVSPost2010PropOp44
 70
     1
102
RTVSPost2010Prop45
280
     0
102
RTVSPost2010PropOp45
 70
     1
102
RTVSPost2010Prop46
 90
       50
102
RTVSPost2010PropOp46
 70
     1
102
RTVSPost2010Prop47
 90
       50
102
RTVSPost2010PropOp47
 70
     1
102
RTVSPost2010Prop48
 90
       50
102
RTVSPost2010PropOp48
 70
     1
102
RTVSPost2010Prop49
280
     0
102
RTVSPost2010PropOp49
 70
     1
102
RTVSPost2010Prop50
 90
       50
102
RTVSPost2010PropOp50
 70
     1
102
RTVSPost2010Prop51ColorIndex
 90
      256
102
RTVSPost2010Prop51ColorRGB
 90
-16777216
102
RTVSPost2010PropOp51
 70
     0
102
RTVSPost2010Prop52
140
1.0
102
RTVSPost2010PropOp52
 70
     0
102
RTVSPost2010Prop53
 90
        2
102
RTVSPost2010PropOp53
 70
     1
102
RTVSPost2010Prop54
  1
strokes_ogs.tif
102
RTVSPost2010PropOp54
 70
     1
102
RTVSPost2010Prop55
280
     0
102
RTVSPost2010PropOp55
 70
     1
102
RTVSPost2010Prop56
140
1.0
102
RTVSPost2010PropOp56
 70
     1
102
RTVSPost2010Prop57
140
1.0
102
RTVSPost2010PropOp57
 70
     1
102
RTVSPropertyOp0
 70
     1
102
RTVSPropertyOp1
 70
     1
102
RTVSPropertyOp2
 70
     1
102
RTVSPropertyOp3
 70
     1
102
RTVSPropertyOp4
 70
     1
102
RTVSPropertyOp5
 70
     1
102
RTVSPropertyOp6
 70
     1
102
RTVSPropertyOp7
 70
     1
102
RTVSPropertyOp8
 70
     1
102
RTVSPropertyOp9
 70
     1
102
RTVSPropertyOp10
 70
     1
102
RTVSPropertyOp11
 70
     1
102
RTVSPropertyOp12
 70
     1
102
RTVSPropertyOp13
 70
     1
102
RTVSPropertyOp14
 70
     1
102
RTVSPropertyOp15
 70
     1
102
RTVSPropertyOp16
 70
     1
102
RTVSPropertyOp17
 70
     1
102
RTVSPropertyOp18
 70
     1
102
RTVSPropertyOp19
 70
     1
102
RTVSPropertyOp20
 70
     1
102
RTVSPropertyOp21
 70
     1
102
RTVSPropertyOp22
 70
     1
102
RTVSPropertyOp23
 70
     1
102
RTVSPropertyOp24
 70
     1
102
RTVSPropertyOp25
 70
     1
102
RTVSPropertyOp26
 70
     1
102
RTVSPropertyOp27
 70
     1
102
RTVSPropertyOp28
 70
     1
102
RTVSPropertyOp29
 70
     1
102
RTVSPropertyOp30
 70
     1
102
RTVSPropertyOp31
 70
     1
102
RTVSPropertyOp32
 70
     1
102
RTVSPropertyOp33
 70
     1
102
RTVSPropertyOp34
 70
     1
102
RTVSPropertyOp35
 70
     1
102
RTVSPropertyOp36
 70
     1
102
RTVSPropertyOp37
 70
     1
102
RTVSPropertyOp38
 70
     1
102
RTVSPropertyOp39
 70
     1
102
RTVSPropertyOp40
 70
     1
102
RTVSPropertyOp41
 70
     1
102
RTVSPropertyOp42
 70
     1
102
RTVSPropertyOp43
 70
     1
102
RTVSPropertyOp44
 70
     1
102
RTVSPropertyOp45
 70
     1
102
RTVSPropertyOp46
 70
     1
102
RTVSPropertyOp47
 70
     1
102
RTVSPropertyOp48
 70
     1
102
RTVSPropertyOp49
 70
     1
102
RTVSPropertyOp50
 70
     1
102
RTVSPropertyOp51
 70
     0
102
RTVSPropertyOp52
 70
     0
102
RTVSPropertyOp53
 70
     1
102
RTVSPropertyOp54
 70
     1
102
RTVSPropertyOp55
 70
     1
102
RTVSPropertyOp56
 70
     1
102
RTVSPropertyOp57
 70
     1
102
RTVSPropertyOp58
 70
     1
102
RTVSPropertyOp59
 70
     1
102
RTVSPropertyOp60
 70
     1
102
RTVSPropertyOp61
 70
     1
102
RTVSPropertyOp62
 70
     1
  0
XRECORD
  5
16DD
102
{ACAD_REACTORS
330
16DC
102
}
330
16DC
100
AcDbXrecord
280
     1
102
RTVSPost2010Prop28
280
     0
102
RTVSPost2010PropOp28
 70
     1
102
RTVSPost2010Prop29
280
     1
102
RTVSPost2010PropOp29
 70
     1
102
RTVSPost2010Prop30
280
     1
102
RTVSPost2010PropOp30
 70
     1
102
RTVSPost2010Prop31
280
     0
102
RTVSPost2010PropOp31
 70
     1
102
RTVSPost2010Prop32
280
     0
102
RTVSPost2010PropOp32
 70
     1
102
RTVSPost2010Prop33
280
     0
102
RTVSPost2010PropOp33
 70
     1
102
RTVSPost2010Prop34
280
     0
102
RTVSPost2010PropOp34
 70
     1
102
RTVSPost2010Prop35
280
     0
102
RTVSPost2010PropOp35
 70
     1
102
RTVSPost2010Prop36
280
     0
102
RTVSPost2010PropOp36
 70
     1
102
RTVSPost2010Prop37
 90
       50
102
RTVSPost2010PropOp37
 70
     1
102
RTVSPost2010Prop38
140
0.0
102
RTVSPost2010PropOp38
 70
     1
102
RTVSPost2010Prop39
140
1.0
102
RTVSPost2010PropOp39
 70
     1
102
RTVSPost2010Prop40
 90
        0
102
RTVSPost2010PropOp40
 70
     1
102
RTVSPost2010Prop41ColorIndex
 90
       18
102
RTVSPost2010Prop41ColorRGB
 90
        0
102
RTVSPost2010PropOp41
 70
     1
102
RTVSPost2010Prop42
 90
       50
102
RTVSPost2010PropOp42
 70
     1
102
RTVSPost2010Prop43
 90
        3
102
RTVSPost2010PropOp43
 70
     1
102
RTVSPost2010Prop44ColorIndex
 90
        5
102
RTVSPost2010Prop44ColorRGB
 90
      255
102
RTVSPost2010PropOp44
 70
     1
102
RTVSPost2010Prop45
280
     0
102
RTVSPost2010PropOp45
 70
     1
102
RTVSPost2010Prop46
 90
       50
102
RTVSPost2010PropOp46
 70
     1
102
RTVSPost2010Prop47
 90
       50
102
RTVSPost2010PropOp47
 70
     1
102
RTVSPost2010Prop48
 90
       50
102
RTVSPost2010PropOp48
 70
     1
102
RTVSPost2010Prop49
280
     0
102
RTVSPost2010PropOp49
 70
     1
102
RTVSPost2010Prop50
 90
       50
102
RTVSPost2010PropOp50
 70
     1
102
RTVSPost2010Prop51ColorIndex
 90
      256
102
RTVSPost2010Prop51ColorRGB
 90
-16777216
102
RTVSPost2010PropOp51
 70
     0
102
RTVSPost2010Prop52
140
1.0
102
RTVSPost2010PropOp52
 70
     0
102
RTVSPost2010Prop53
 90
        2
102
RTVSPost2010PropOp53
 70
     1
102
RTVSPost2010Prop54
  1
strokes_ogs.tif
102
RTVSPost2010PropOp54
 70
     1
102
RTVSPost2010Prop55
280
     0
102
RTVSPost2010PropOp55
 70
     1
102
RTVSPost2010Prop56
140
1.0
102
RTVSPost2010PropOp56
 70
     1
102
RTVSPost2010Prop57
140
1.0
102
RTVSPost2010PropOp57
 70
     1
102
RTVSPropertyOp0
 70
     1
102
RTVSPropertyOp1
 70
     1
102
RTVSPropertyOp2
 70
     1
102
RTVSPropertyOp3
 70
     1
102
RTVSPropertyOp4
 70
     1
102
RTVSPropertyOp5
 70
     1
102
RTVSPropertyOp6
 70
     1
102
RTVSPropertyOp7
 70
     1
102
RTVSPropertyOp8
 70
     1
102
RTVSPropertyOp9
 70
     1
102
RTVSPropertyOp10
 70
     1
102
RTVSPropertyOp11
 70
     1
102
RTVSPropertyOp12
 70
     1
102
RTVSPropertyOp13
 70
     1
102
RTVSPropertyOp14
 70
     1
102
RTVSPropertyOp15
 70
     1
102
RTVSPropertyOp16
 70
     1
102
RTVSPropertyOp17
 70
     1
102
RTVSPropertyOp18
 70
     1
102
RTVSPropertyOp19
 70
     1
102
RTVSPropertyOp20
 70
     1
102
RTVSPropertyOp21
 70
     1
102
RTVSPropertyOp22
 70
     1
102
RTVSPropertyOp23
 70
     1
102
RTVSPropertyOp24
 70
     1
102
RTVSPropertyOp25
 70
     1
102
RTVSPropertyOp26
 70
     1
102
RTVSPropertyOp27
 70
     1
102
RTVSPropertyOp28
 70
     1
102
RTVSPropertyOp29
 70
     1
102
RTVSPropertyOp30
 70
     1
102
RTVSPropertyOp31
 70
     1
102
RTVSPropertyOp32
 70
     1
102
RTVSPropertyOp33
 70
     1
102
RTVSPropertyOp34
 70
     1
102
RTVSPropertyOp35
 70
     1
102
RTVSPropertyOp36
 70
     1
102
RTVSPropertyOp37
 70
     1
102
RTVSPropertyOp38
 70
     1
102
RTVSPropertyOp39
 70
     1
102
RTVSPropertyOp40
 70
     1
102
RTVSPropertyOp41
 70
     1
102
RTVSPropertyOp42
 70
     1
102
RTVSPropertyOp43
 70
     1
102
RTVSPropertyOp44
 70
     1
102
RTVSPropertyOp45
 70
     1
102
RTVSPropertyOp46
 70
     1
102
RTVSPropertyOp47
 70
     1
102
RTVSPropertyOp48
 70
     1
102
RTVSPropertyOp49
 70
     1
102
RTVSPropertyOp50
 70
     1
102
RTVSPropertyOp51
 70
     0
102
RTVSPropertyOp52
 70
     0
102
RTVSPropertyOp53
 70
     1
102
RTVSPropertyOp54
 70
     1
102
RTVSPropertyOp55
 70
     1
102
RTVSPropertyOp56
 70
     1
102
RTVSPropertyOp57
 70
     1
102
RTVSPropertyOp58
 70
     1
102
RTVSPropertyOp59
 70
     1
102
RTVSPropertyOp60
 70
     1
102
RTVSPropertyOp61
 70
     1
102
RTVSPropertyOp62
 70
     1
  0
XRECORD
  5
16CF
102
{ACAD_REACTORS
330
16CE
102
}
330
16CE
100
AcDbXrecord
280
     1
102
RTVSPost2010Prop28
280
     0
102
RTVSPost2010PropOp28
 70
     1
102
RTVSPost2010Prop29
280
     1
102
RTVSPost2010PropOp29
 70
     1
102
RTVSPost2010Prop30
280
     1
102
RTVSPost2010PropOp30
 70
     1
102
RTVSPost2010Prop31
280
     0
102
RTVSPost2010PropOp31
 70
     1
102
RTVSPost2010Prop32
280
     0
102
RTVSPost2010PropOp32
 70
     1
102
RTVSPost2010Prop33
280
     0
102
RTVSPost2010PropOp33
 70
     1
102
RTVSPost2010Prop34
280
     0
102
RTVSPost2010PropOp34
 70
     1
102
RTVSPost2010Prop35
280
     0
102
RTVSPost2010PropOp35
 70
     1
102
RTVSPost2010Prop36
280
     0
102
RTVSPost2010PropOp36
 70
     1
102
RTVSPost2010Prop37
 90
       50
102
RTVSPost2010PropOp37
 70
     1
102
RTVSPost2010Prop38
140
0.0
102
RTVSPost2010PropOp38
 70
     1
102
RTVSPost2010Prop39
140
1.0
102
RTVSPost2010PropOp39
 70
     1
102
RTVSPost2010Prop40
 90
        0
102
RTVSPost2010PropOp40
 70
     1
102
RTVSPost2010Prop41ColorIndex
 90
       18
102
RTVSPost2010Prop41ColorRGB
 90
        0
102
RTVSPost2010PropOp41
 70
     1
102
RTVSPost2010Prop42
 90
       50
102
RTVSPost2010PropOp42
 70
     1
102
RTVSPost2010Prop43
 90
        3
102
RTVSPost2010PropOp43
 70
     1
102
RTVSPost2010Prop44ColorIndex
 90
        5
102
RTVSPost2010Prop44ColorRGB
 90
      255
102
RTVSPost2010PropOp44
 70
     1
102
RTVSPost2010Prop45
280
     0
102
RTVSPost2010PropOp45
 70
     1
102
RTVSPost2010Prop46
 90
       50
102
RTVSPost2010PropOp46
 70
     1
102
RTVSPost2010Prop47
 90
       50
102
RTVSPost2010PropOp47
 70
     1
102
RTVSPost2010Prop48
 90
       50
102
RTVSPost2010PropOp48
 70
     1
102
RTVSPost2010Prop49
280
     0
102
RTVSPost2010PropOp49
 70
     1
102
RTVSPost2010Prop50
 90
       50
102
RTVSPost2010PropOp50
 70
     1
102
RTVSPost2010Prop51ColorIndex
 90
      256
102
RTVSPost2010Prop51ColorRGB
 90
-16777216
102
RTVSPost2010PropOp51
 70
     0
102
RTVSPost2010Prop52
140
1.0
102
RTVSPost2010PropOp52
 70
     0
102
RTVSPost2010Prop53
 90
        2
102
RTVSPost2010PropOp53
 70
     1
102
RTVSPost2010Prop54
  1
strokes_ogs.tif
102
RTVSPost2010PropOp54
 70
     1
102
RTVSPost2010Prop55
280
     0
102
RTVSPost2010PropOp55
 70
     1
102
RTVSPost2010Prop56
140
1.0
102
RTVSPost2010PropOp56
 70
     1
102
RTVSPost2010Prop57
140
1.0
102
RTVSPost2010PropOp57
 70
     1
102
RTVSPropertyOp0
 70
     1
102
RTVSPropertyOp1
 70
     1
102
RTVSPropertyOp2
 70
     1
102
RTVSPropertyOp3
 70
     1
102
RTVSPropertyOp4
 70
     1
102
RTVSPropertyOp5
 70
     1
102
RTVSPropertyOp6
 70
     1
102
RTVSPropertyOp7
 70
     1
102
RTVSPropertyOp8
 70
     1
102
RTVSPropertyOp9
 70
     1
102
RTVSPropertyOp10
 70
     1
102
RTVSPropertyOp11
 70
     1
102
RTVSPropertyOp12
 70
     1
102
RTVSPropertyOp13
 70
     1
102
RTVSPropertyOp14
 70
     1
102
RTVSPropertyOp15
 70
     1
102
RTVSPropertyOp16
 70
     1
102
RTVSPropertyOp17
 70
     1
102
RTVSPropertyOp18
 70
     1
102
RTVSPropertyOp19
 70
     1
102
RTVSPropertyOp20
 70
     1
102
RTVSPropertyOp21
 70
     1
102
RTVSPropertyOp22
 70
     1
102
RTVSPropertyOp23
 70
     1
102
RTVSPropertyOp24
 70
     1
102
RTVSPropertyOp25
 70
     1
102
RTVSPropertyOp26
 70
     1
102
RTVSPropertyOp27
 70
     1
102
RTVSPropertyOp28
 70
     1
102
RTVSPropertyOp29
 70
     1
102
RTVSPropertyOp30
 70
     1
102
RTVSPropertyOp31
 70
     1
102
RTVSPropertyOp32
 70
     1
102
RTVSPropertyOp33
 70
     1
102
RTVSPropertyOp34
 70
     1
102
RTVSPropertyOp35
 70
     1
102
RTVSPropertyOp36
 70
     1
102
RTVSPropertyOp37
 70
     1
102
RTVSPropertyOp38
 70
     1
102
RTVSPropertyOp39
 70
     1
102
RTVSPropertyOp40
 70
     1
102
RTVSPropertyOp41
 70
     1
102
RTVSPropertyOp42
 70
     1
102
RTVSPropertyOp43
 70
     1
102
RTVSPropertyOp44
 70
     1
102
RTVSPropertyOp45
 70
     1
102
RTVSPropertyOp46
 70
     1
102
RTVSPropertyOp47
 70
     1
102
RTVSPropertyOp48
 70
     1
102
RTVSPropertyOp49
 70
     1
102
RTVSPropertyOp50
 70
     1
102
RTVSPropertyOp51
 70
     0
102
RTVSPropertyOp52
 70
     0
102
RTVSPropertyOp53
 70
     1
102
RTVSPropertyOp54
 70
     1
102
RTVSPropertyOp55
 70
     1
102
RTVSPropertyOp56
 70
     1
102
RTVSPropertyOp57
 70
     1
102
RTVSPropertyOp58
 70
     1
102
RTVSPropertyOp59
 70
     1
102
RTVSPropertyOp60
 70
     1
102
RTVSPropertyOp61
 70
     1
102
RTVSPropertyOp62
 70
     1
  0
XRECORD
  5
16D3
102
{ACAD_REACTORS
330
16D2
102
}
330
16D2
100
AcDbXrecord
280
     1
102
RTVSPost2010Prop28
280
     0
102
RTVSPost2010PropOp28
 70
     1
102
RTVSPost2010Prop29
280
     1
102
RTVSPost2010PropOp29
 70
     1
102
RTVSPost2010Prop30
280
     1
102
RTVSPost2010PropOp30
 70
     1
102
RTVSPost2010Prop31
280
     0
102
RTVSPost2010PropOp31
 70
     1
102
RTVSPost2010Prop32
280
     0
102
RTVSPost2010PropOp32
 70
     1
102
RTVSPost2010Prop33
280
     0
102
RTVSPost2010PropOp33
 70
     1
102
RTVSPost2010Prop34
280
     0
102
RTVSPost2010PropOp34
 70
     1
102
RTVSPost2010Prop35
280
     0
102
RTVSPost2010PropOp35
 70
     1
102
RTVSPost2010Prop36
280
     0
102
RTVSPost2010PropOp36
 70
     1
102
RTVSPost2010Prop37
 90
       50
102
RTVSPost2010PropOp37
 70
     1
102
RTVSPost2010Prop38
140
0.0
102
RTVSPost2010PropOp38
 70
     1
102
RTVSPost2010Prop39
140
1.0
102
RTVSPost2010PropOp39
 70
     1
102
RTVSPost2010Prop40
 90
        0
102
RTVSPost2010PropOp40
 70
     1
102
RTVSPost2010Prop41ColorIndex
 90
       18
102
RTVSPost2010Prop41ColorRGB
 90
        0
102
RTVSPost2010PropOp41
 70
     1
102
RTVSPost2010Prop42
 90
       50
102
RTVSPost2010PropOp42
 70
     1
102
RTVSPost2010Prop43
 90
        3
102
RTVSPost2010PropOp43
 70
     1
102
RTVSPost2010Prop44ColorIndex
 90
        5
102
RTVSPost2010Prop44ColorRGB
 90
      255
102
RTVSPost2010PropOp44
 70
     1
102
RTVSPost2010Prop45
280
     0
102
RTVSPost2010PropOp45
 70
     1
102
RTVSPost2010Prop46
 90
       50
102
RTVSPost2010PropOp46
 70
     1
102
RTVSPost2010Prop47
 90
       50
102
RTVSPost2010PropOp47
 70
     1
102
RTVSPost2010Prop48
 90
       50
102
RTVSPost2010PropOp48
 70
     1
102
RTVSPost2010Prop49
280
     0
102
RTVSPost2010PropOp49
 70
     1
102
RTVSPost2010Prop50
 90
       50
102
RTVSPost2010PropOp50
 70
     1
102
RTVSPost2010Prop51ColorIndex
 90
      256
102
RTVSPost2010Prop51ColorRGB
 90
-16777216
102
RTVSPost2010PropOp51
 70
     0
102
RTVSPost2010Prop52
140
1.0
102
RTVSPost2010PropOp52
 70
     0
102
RTVSPost2010Prop53
 90
        2
102
RTVSPost2010PropOp53
 70
     1
102
RTVSPost2010Prop54
  1
strokes_ogs.tif
102
RTVSPost2010PropOp54
 70
     1
102
RTVSPost2010Prop55
280
     0
102
RTVSPost2010PropOp55
 70
     1
102
RTVSPost2010Prop56
140
1.0
102
RTVSPost2010PropOp56
 70
     1
102
RTVSPost2010Prop57
140
1.0
102
RTVSPost2010PropOp57
 70
     1
102
RTVSPropertyOp0
 70
     1
102
RTVSPropertyOp1
 70
     1
102
RTVSPropertyOp2
 70
     1
102
RTVSPropertyOp3
 70
     1
102
RTVSPropertyOp4
 70
     1
102
RTVSPropertyOp5
 70
     1
102
RTVSPropertyOp6
 70
     1
102
RTVSPropertyOp7
 70
     1
102
RTVSPropertyOp8
 70
     1
102
RTVSPropertyOp9
 70
     1
102
RTVSPropertyOp10
 70
     1
102
RTVSPropertyOp11
 70
     1
102
RTVSPropertyOp12
 70
     1
102
RTVSPropertyOp13
 70
     1
102
RTVSPropertyOp14
 70
     1
102
RTVSPropertyOp15
 70
     1
102
RTVSPropertyOp16
 70
     1
102
RTVSPropertyOp17
 70
     1
102
RTVSPropertyOp18
 70
     1
102
RTVSPropertyOp19
 70
     1
102
RTVSPropertyOp20
 70
     1
102
RTVSPropertyOp21
 70
     1
102
RTVSPropertyOp22
 70
     1
102
RTVSPropertyOp23
 70
     1
102
RTVSPropertyOp24
 70
     1
102
RTVSPropertyOp25
 70
     1
102
RTVSPropertyOp26
 70
     1
102
RTVSPropertyOp27
 70
     1
102
RTVSPropertyOp28
 70
     1
102
RTVSPropertyOp29
 70
     1
102
RTVSPropertyOp30
 70
     1
102
RTVSPropertyOp31
 70
     1
102
RTVSPropertyOp32
 70
     1
102
RTVSPropertyOp33
 70
     1
102
RTVSPropertyOp34
 70
     1
102
RTVSPropertyOp35
 70
     1
102
RTVSPropertyOp36
 70
     1
102
RTVSPropertyOp37
 70
     1
102
RTVSPropertyOp38
 70
     1
102
RTVSPropertyOp39
 70
     1
102
RTVSPropertyOp40
 70
     1
102
RTVSPropertyOp41
 70
     1
102
RTVSPropertyOp42
 70
     1
102
RTVSPropertyOp43
 70
     1
102
RTVSPropertyOp44
 70
     1
102
RTVSPropertyOp45
 70
     1
102
RTVSPropertyOp46
 70
     1
102
RTVSPropertyOp47
 70
     1
102
RTVSPropertyOp48
 70
     1
102
RTVSPropertyOp49
 70
     1
102
RTVSPropertyOp50
 70
     1
102
RTVSPropertyOp51
 70
     0
102
RTVSPropertyOp52
 70
     0
102
RTVSPropertyOp53
 70
     1
102
RTVSPropertyOp54
 70
     1
102
RTVSPropertyOp55
 70
     1
102
RTVSPropertyOp56
 70
     1
102
RTVSPropertyOp57
 70
     1
102
RTVSPropertyOp58
 70
     1
102
RTVSPropertyOp59
 70
     1
102
RTVSPropertyOp60
 70
     1
102
RTVSPropertyOp61
 70
     1
102
RTVSPropertyOp62
 70
     1
  0
XRECORD
  5
16ED
102
{ACAD_REACTORS
330
16EC
102
}
330
16EC
100
AcDbXrecord
280
     1
102
RTVSPost2010Prop28
280
     0
102
RTVSPost2010PropOp28
 70
     1
102
RTVSPost2010Prop29
280
     1
102
RTVSPost2010PropOp29
 70
     1
102
RTVSPost2010Prop30
280
     1
102
RTVSPost2010PropOp30
 70
     1
102
RTVSPost2010Prop31
280
     0
102
RTVSPost2010PropOp31
 70
     1
102
RTVSPost2010Prop32
280
     0
102
RTVSPost2010PropOp32
 70
     1
102
RTVSPost2010Prop33
280
     0
102
RTVSPost2010PropOp33
 70
     1
102
RTVSPost2010Prop34
280
     0
102
RTVSPost2010PropOp34
 70
     1
102
RTVSPost2010Prop35
280
     0
102
RTVSPost2010PropOp35
 70
     1
102
RTVSPost2010Prop36
280
     0
102
RTVSPost2010PropOp36
 70
     1
102
RTVSPost2010Prop37
 90
       50
102
RTVSPost2010PropOp37
 70
     0
102
RTVSPost2010Prop38
140
0.0
102
RTVSPost2010PropOp38
 70
     0
102
RTVSPost2010Prop39
140
1.0
102
RTVSPost2010PropOp39
 70
     0
102
RTVSPost2010Prop40
 90
        0
102
RTVSPost2010PropOp40
 70
     0
102
RTVSPost2010Prop41ColorIndex
 90
       18
102
RTVSPost2010Prop41ColorRGB
 90
        0
102
RTVSPost2010PropOp41
 70
     0
102
RTVSPost2010Prop42
 90
       50
102
RTVSPost2010PropOp42
 70
     0
102
RTVSPost2010Prop43
 90
        3
102
RTVSPost2010PropOp43
 70
     0
102
RTVSPost2010Prop44ColorIndex
 90
        5
102
RTVSPost2010Prop44ColorRGB
 90
      255
102
RTVSPost2010PropOp44
 70
     0
102
RTVSPost2010Prop45
280
     0
102
RTVSPost2010PropOp45
 70
     1
102
RTVSPost2010Prop46
 90
       50
102
RTVSPost2010PropOp46
 70
     0
102
RTVSPost2010Prop47
 90
       50
102
RTVSPost2010PropOp47
 70
     0
102
RTVSPost2010Prop48
 90
       50
102
RTVSPost2010PropOp48
 70
     0
102
RTVSPost2010Prop49
280
     0
102
RTVSPost2010PropOp49
 70
     1
102
RTVSPost2010Prop50
 90
       50
102
RTVSPost2010PropOp50
 70
     0
102
RTVSPost2010Prop51ColorIndex
 90
      256
102
RTVSPost2010Prop51ColorRGB
 90
-16777216
102
RTVSPost2010PropOp51
 70
     0
102
RTVSPost2010Prop52
140
1.0
102
RTVSPost2010PropOp52
 70
     0
102
RTVSPost2010Prop53
 90
        2
102
RTVSPost2010PropOp53
 70
     0
102
RTVSPost2010Prop54
  1
strokes_ogs.tif
102
RTVSPost2010PropOp54
 70
     0
102
RTVSPost2010Prop55
280
     0
102
RTVSPost2010PropOp55
 70
     1
102
RTVSPost2010Prop56
140
1.0
102
RTVSPost2010PropOp56
 70
     0
102
RTVSPost2010Prop57
140
1.0
102
RTVSPost2010PropOp57
 70
     0
102
RTVSPropertyOp0
 70
     0
102
RTVSPropertyOp1
 70
     0
102
RTVSPropertyOp2
 70
     0
102
RTVSPropertyOp3
 70
     0
102
RTVSPropertyOp4
 70
     0
102
RTVSPropertyOp5
 70
     0
102
RTVSPropertyOp6
 70
     0
102
RTVSPropertyOp7
 70
     0
102
RTVSPropertyOp8
 70
     0
102
RTVSPropertyOp9
 70
     0
102
RTVSPropertyOp10
 70
     0
102
RTVSPropertyOp11
 70
     0
102
RTVSPropertyOp12
 70
     0
102
RTVSPropertyOp13
 70
     0
102
RTVSPropertyOp14
 70
     2
102
RTVSPropertyOp15
 70
     0
102
RTVSPropertyOp16
 70
     0
102
RTVSPropertyOp17
 70
     0
102
RTVSPropertyOp18
 70
     0
102
RTVSPropertyOp19
 70
     0
102
RTVSPropertyOp20
 70
     0
102
RTVSPropertyOp21
 70
     0
102
RTVSPropertyOp22
 70
     0
102
RTVSPropertyOp23
 70
     0
102
RTVSPropertyOp24
 70
     0
102
RTVSPropertyOp25
 70
     0
102
RTVSPropertyOp26
 70
     0
102
RTVSPropertyOp27
 70
     0
102
RTVSPropertyOp28
 70
     1
102
RTVSPropertyOp29
 70
     1
102
RTVSPropertyOp30
 70
     1
102
RTVSPropertyOp31
 70
     1
102
RTVSPropertyOp32
 70
     1
102
RTVSPropertyOp33
 70
     1
102
RTVSPropertyOp34
 70
     1
102
RTVSPropertyOp35
 70
     1
102
RTVSPropertyOp36
 70
     1
102
RTVSPropertyOp37
 70
     0
102
RTVSPropertyOp38
 70
     0
102
RTVSPropertyOp39
 70
     0
102
RTVSPropertyOp40
 70
     0
102
RTVSPropertyOp41
 70
     0
102
RTVSPropertyOp42
 70
     0
102
RTVSPropertyOp43
 70
     0
102
RTVSPropertyOp44
 70
     0
102
RTVSPropertyOp45
 70
     1
102
RTVSPropertyOp46
 70
     0
102
RTVSPropertyOp47
 70
     0
102
RTVSPropertyOp48
 70
     0
102
RTVSPropertyOp49
 70
     1
102
RTVSPropertyOp50
 70
     0
102
RTVSPropertyOp51
 70
     0
102
RTVSPropertyOp52
 70
     0
102
RTVSPropertyOp53
 70
     0
102
RTVSPropertyOp54
 70
     0
102
RTVSPropertyOp55
 70
     1
102
RTVSPropertyOp56
 70
     0
102
RTVSPropertyOp57
 70
     0
102
RTVSPropertyOp58
 70
     0
102
RTVSPropertyOp59
 70
     0
102
RTVSPropertyOp60
 70
     0
102
RTVSPropertyOp61
 70
     0
102
RTVSPropertyOp62
 70
     0
  0
XRECORD
  5
16DB
102
{ACAD_REACTORS
330
16DA
102
}
330
16DA
100
AcDbXrecord
280
     1
102
RTVSPost2010Prop28
280
     0
102
RTVSPost2010PropOp28
 70
     1
102
RTVSPost2010Prop29
280
     1
102
RTVSPost2010PropOp29
 70
     1
102
RTVSPost2010Prop30
280
     1
102
RTVSPost2010PropOp30
 70
     1
102
RTVSPost2010Prop31
280
     0
102
RTVSPost2010PropOp31
 70
     1
102
RTVSPost2010Prop32
280
     0
102
RTVSPost2010PropOp32
 70
     1
102
RTVSPost2010Prop33
280
     0
102
RTVSPost2010PropOp33
 70
     1
102
RTVSPost2010Prop34
280
     0
102
RTVSPost2010PropOp34
 70
     1
102
RTVSPost2010Prop35
280
     0
102
RTVSPost2010PropOp35
 70
     1
102
RTVSPost2010Prop36
280
     0
102
RTVSPost2010PropOp36
 70
     1
102
RTVSPost2010Prop37
 90
       50
102
RTVSPost2010PropOp37
 70
     1
102
RTVSPost2010Prop38
140
0.0
102
RTVSPost2010PropOp38
 70
     1
102
RTVSPost2010Prop39
140
1.0
102
RTVSPost2010PropOp39
 70
     1
102
RTVSPost2010Prop40
 90
        0
102
RTVSPost2010PropOp40
 70
     1
102
RTVSPost2010Prop41ColorIndex
 90
       18
102
RTVSPost2010Prop41ColorRGB
 90
        0
102
RTVSPost2010PropOp41
 70
     1
102
RTVSPost2010Prop42
 90
       50
102
RTVSPost2010PropOp42
 70
     1
102
RTVSPost2010Prop43
 90
        3
102
RTVSPost2010PropOp43
 70
     1
102
RTVSPost2010Prop44ColorIndex
 90
        5
102
RTVSPost2010Prop44ColorRGB
 90
      255
102
RTVSPost2010PropOp44
 70
     1
102
RTVSPost2010Prop45
280
     0
102
RTVSPost2010PropOp45
 70
     1
102
RTVSPost2010Prop46
 90
       50
102
RTVSPost2010PropOp46
 70
     1
102
RTVSPost2010Prop47
 90
       50
102
RTVSPost2010PropOp47
 70
     1
102
RTVSPost2010Prop48
 90
       50
102
RTVSPost2010PropOp48
 70
     1
102
RTVSPost2010Prop49
280
     0
102
RTVSPost2010PropOp49
 70
     1
102
RTVSPost2010Prop50
 90
       50
102
RTVSPost2010PropOp50
 70
     1
102
RTVSPost2010Prop51ColorIndex
 90
      256
102
RTVSPost2010Prop51ColorRGB
 90
-16777216
102
RTVSPost2010PropOp51
 70
     0
102
RTVSPost2010Prop52
140
1.0
102
RTVSPost2010PropOp52
 70
     0
102
RTVSPost2010Prop53
 90
        2
102
RTVSPost2010PropOp53
 70
     1
102
RTVSPost2010Prop54
  1
strokes_ogs.tif
102
RTVSPost2010PropOp54
 70
     1
102
RTVSPost2010Prop55
280
     0
102
RTVSPost2010PropOp55
 70
     1
102
RTVSPost2010Prop56
140
1.0
102
RTVSPost2010PropOp56
 70
     1
102
RTVSPost2010Prop57
140
1.0
102
RTVSPost2010PropOp57
 70
     1
102
RTVSPropertyOp0
 70
     1
102
RTVSPropertyOp1
 70
     1
102
RTVSPropertyOp2
 70
     1
102
RTVSPropertyOp3
 70
     1
102
RTVSPropertyOp4
 70
     1
102
RTVSPropertyOp5
 70
     1
102
RTVSPropertyOp6
 70
     1
102
RTVSPropertyOp7
 70
     1
102
RTVSPropertyOp8
 70
     1
102
RTVSPropertyOp9
 70
     1
102
RTVSPropertyOp10
 70
     1
102
RTVSPropertyOp11
 70
     1
102
RTVSPropertyOp12
 70
     1
102
RTVSPropertyOp13
 70
     1
102
RTVSPropertyOp14
 70
     1
102
RTVSPropertyOp15
 70
     1
102
RTVSPropertyOp16
 70
     1
102
RTVSPropertyOp17
 70
     1
102
RTVSPropertyOp18
 70
     1
102
RTVSPropertyOp19
 70
     1
102
RTVSPropertyOp20
 70
     1
102
RTVSPropertyOp21
 70
     1
102
RTVSPropertyOp22
 70
     1
102
RTVSPropertyOp23
 70
     1
102
RTVSPropertyOp24
 70
     1
102
RTVSPropertyOp25
 70
     1
102
RTVSPropertyOp26
 70
     1
102
RTVSPropertyOp27
 70
     1
102
RTVSPropertyOp28
 70
     1
102
RTVSPropertyOp29
 70
     1
102
RTVSPropertyOp30
 70
     1
102
RTVSPropertyOp31
 70
     1
102
RTVSPropertyOp32
 70
     1
102
RTVSPropertyOp33
 70
     1
102
RTVSPropertyOp34
 70
     1
102
RTVSPropertyOp35
 70
     1
102
RTVSPropertyOp36
 70
     1
102
RTVSPropertyOp37
 70
     1
102
RTVSPropertyOp38
 70
     1
102
RTVSPropertyOp39
 70
     1
102
RTVSPropertyOp40
 70
     1
102
RTVSPropertyOp41
 70
     1
102
RTVSPropertyOp42
 70
     1
102
RTVSPropertyOp43
 70
     1
102
RTVSPropertyOp44
 70
     1
102
RTVSPropertyOp45
 70
     1
102
RTVSPropertyOp46
 70
     1
102
RTVSPropertyOp47
 70
     1
102
RTVSPropertyOp48
 70
     1
102
RTVSPropertyOp49
 70
     1
102
RTVSPropertyOp50
 70
     1
102
RTVSPropertyOp51
 70
     0
102
RTVSPropertyOp52
 70
     0
102
RTVSPropertyOp53
 70
     1
102
RTVSPropertyOp54
 70
     1
102
RTVSPropertyOp55
 70
     1
102
RTVSPropertyOp56
 70
     1
102
RTVSPropertyOp57
 70
     1
102
RTVSPropertyOp58
 70
     1
102
RTVSPropertyOp59
 70
     1
102
RTVSPropertyOp60
 70
     1
102
RTVSPropertyOp61
 70
     1
102
RTVSPropertyOp62
 70
     1
  0
XRECORD
  5
16BF
102
{ACAD_REACTORS
330
16BE
102
}
330
16BE
100
AcDbXrecord
280
     1
102
RTVSPost2010Prop28
280
     0
102
RTVSPost2010PropOp28
 70
     1
102
RTVSPost2010Prop29
280
     1
102
RTVSPost2010PropOp29
 70
     1
102
RTVSPost2010Prop30
280
     1
102
RTVSPost2010PropOp30
 70
     1
102
RTVSPost2010Prop31
280
     0
102
RTVSPost2010PropOp31
 70
     1
102
RTVSPost2010Prop32
280
     0
102
RTVSPost2010PropOp32
 70
     1
102
RTVSPost2010Prop33
280
     0
102
RTVSPost2010PropOp33
 70
     1
102
RTVSPost2010Prop34
280
     0
102
RTVSPost2010PropOp34
 70
     1
102
RTVSPost2010Prop35
280
     0
102
RTVSPost2010PropOp35
 70
     1
102
RTVSPost2010Prop36
280
     0
102
RTVSPost2010PropOp36
 70
     1
102
RTVSPost2010Prop37
 90
       50
102
RTVSPost2010PropOp37
 70
     1
102
RTVSPost2010Prop38
140
0.0
102
RTVSPost2010PropOp38
 70
     1
102
RTVSPost2010Prop39
140
1.0
102
RTVSPost2010PropOp39
 70
     1
102
RTVSPost2010Prop40
 90
        0
102
RTVSPost2010PropOp40
 70
     1
102
RTVSPost2010Prop41ColorIndex
 90
       18
102
RTVSPost2010Prop41ColorRGB
 90
        0
102
RTVSPost2010PropOp41
 70
     1
102
RTVSPost2010Prop42
 90
       50
102
RTVSPost2010PropOp42
 70
     1
102
RTVSPost2010Prop43
 90
        3
102
RTVSPost2010PropOp43
 70
     1
102
RTVSPost2010Prop44ColorIndex
 90
        5
102
RTVSPost2010Prop44ColorRGB
 90
      255
102
RTVSPost2010PropOp44
 70
     1
102
RTVSPost2010Prop45
280
     0
102
RTVSPost2010PropOp45
 70
     1
102
RTVSPost2010Prop46
 90
       50
102
RTVSPost2010PropOp46
 70
     1
102
RTVSPost2010Prop47
 90
       50
102
RTVSPost2010PropOp47
 70
     1
102
RTVSPost2010Prop48
 90
       50
102
RTVSPost2010PropOp48
 70
     1
102
RTVSPost2010Prop49
280
     0
102
RTVSPost2010PropOp49
 70
     1
102
RTVSPost2010Prop50
 90
       50
102
RTVSPost2010PropOp50
 70
     1
102
RTVSPost2010Prop51ColorIndex
 90
      256
102
RTVSPost2010Prop51ColorRGB
 90
-16777216
102
RTVSPost2010PropOp51
 70
     0
102
RTVSPost2010Prop52
140
1.0
102
RTVSPost2010PropOp52
 70
     0
102
RTVSPost2010Prop53
 90
        2
102
RTVSPost2010PropOp53
 70
     1
102
RTVSPost2010Prop54
  1
strokes_ogs.tif
102
RTVSPost2010PropOp54
 70
     1
102
RTVSPost2010Prop55
280
     0
102
RTVSPost2010PropOp55
 70
     1
102
RTVSPost2010Prop56
140
1.0
102
RTVSPost2010PropOp56
 70
     1
102
RTVSPost2010Prop57
140
1.0
102
RTVSPost2010PropOp57
 70
     1
102
RTVSPropertyOp0
 70
     1
102
RTVSPropertyOp1
 70
     1
102
RTVSPropertyOp2
 70
     1
102
RTVSPropertyOp3
 70
     1
102
RTVSPropertyOp4
 70
     1
102
RTVSPropertyOp5
 70
     1
102
RTVSPropertyOp6
 70
     1
102
RTVSPropertyOp7
 70
     1
102
RTVSPropertyOp8
 70
     1
102
RTVSPropertyOp9
 70
     1
102
RTVSPropertyOp10
 70
     1
102
RTVSPropertyOp11
 70
     1
102
RTVSPropertyOp12
 70
     1
102
RTVSPropertyOp13
 70
     1
102
RTVSPropertyOp14
 70
     1
102
RTVSPropertyOp15
 70
     1
102
RTVSPropertyOp16
 70
     1
102
RTVSPropertyOp17
 70
     1
102
RTVSPropertyOp18
 70
     1
102
RTVSPropertyOp19
 70
     1
102
RTVSPropertyOp20
 70
     1
102
RTVSPropertyOp21
 70
     1
102
RTVSPropertyOp22
 70
     1
102
RTVSPropertyOp23
 70
     1
102
RTVSPropertyOp24
 70
     1
102
RTVSPropertyOp25
 70
     1
102
RTVSPropertyOp26
 70
     1
102
RTVSPropertyOp27
 70
     1
102
RTVSPropertyOp28
 70
     1
102
RTVSPropertyOp29
 70
     1
102
RTVSPropertyOp30
 70
     1
102
RTVSPropertyOp31
 70
     1
102
RTVSPropertyOp32
 70
     1
102
RTVSPropertyOp33
 70
     1
102
RTVSPropertyOp34
 70
     1
102
RTVSPropertyOp35
 70
     1
102
RTVSPropertyOp36
 70
     1
102
RTVSPropertyOp37
 70
     1
102
RTVSPropertyOp38
 70
     1
102
RTVSPropertyOp39
 70
     1
102
RTVSPropertyOp40
 70
     1
102
RTVSPropertyOp41
 70
     1
102
RTVSPropertyOp42
 70
     1
102
RTVSPropertyOp43
 70
     1
102
RTVSPropertyOp44
 70
     1
102
RTVSPropertyOp45
 70
     1
102
RTVSPropertyOp46
 70
     1
102
RTVSPropertyOp47
 70
     1
102
RTVSPropertyOp48
 70
     1
102
RTVSPropertyOp49
 70
     1
102
RTVSPropertyOp50
 70
     1
102
RTVSPropertyOp51
 70
     0
102
RTVSPropertyOp52
 70
     0
102
RTVSPropertyOp53
 70
     1
102
RTVSPropertyOp54
 70
     1
102
RTVSPropertyOp55
 70
     1
102
RTVSPropertyOp56
 70
     1
102
RTVSPropertyOp57
 70
     1
102
RTVSPropertyOp58
 70
     1
102
RTVSPropertyOp59
 70
     1
102
RTVSPropertyOp60
 70
     1
102
RTVSPropertyOp61
 70
     1
102
RTVSPropertyOp62
 70
     1
  0
XRECORD
  5
16C1
102
{ACAD_REACTORS
330
16C0
102
}
330
16C0
100
AcDbXrecord
280
     1
102
RTVSPost2010Prop28
280
     0
102
RTVSPost2010PropOp28
 70
     1
102
RTVSPost2010Prop29
280
     1
102
RTVSPost2010PropOp29
 70
     1
102
RTVSPost2010Prop30
280
     1
102
RTVSPost2010PropOp30
 70
     1
102
RTVSPost2010Prop31
280
     0
102
RTVSPost2010PropOp31
 70
     1
102
RTVSPost2010Prop32
280
     0
102
RTVSPost2010PropOp32
 70
     1
102
RTVSPost2010Prop33
280
     0
102
RTVSPost2010PropOp33
 70
     1
102
RTVSPost2010Prop34
280
     0
102
RTVSPost2010PropOp34
 70
     1
102
RTVSPost2010Prop35
280
     0
102
RTVSPost2010PropOp35
 70
     1
102
RTVSPost2010Prop36
280
     0
102
RTVSPost2010PropOp36
 70
     1
102
RTVSPost2010Prop37
 90
       50
102
RTVSPost2010PropOp37
 70
     1
102
RTVSPost2010Prop38
140
0.0
102
RTVSPost2010PropOp38
 70
     1
102
RTVSPost2010Prop39
140
1.0
102
RTVSPost2010PropOp39
 70
     1
102
RTVSPost2010Prop40
 90
        0
102
RTVSPost2010PropOp40
 70
     1
102
RTVSPost2010Prop41ColorIndex
 90
       18
102
RTVSPost2010Prop41ColorRGB
 90
        0
102
RTVSPost2010PropOp41
 70
     1
102
RTVSPost2010Prop42
 90
       50
102
RTVSPost2010PropOp42
 70
     1
102
RTVSPost2010Prop43
 90
        3
102
RTVSPost2010PropOp43
 70
     1
102
RTVSPost2010Prop44ColorIndex
 90
        5
102
RTVSPost2010Prop44ColorRGB
 90
      255
102
RTVSPost2010PropOp44
 70
     1
102
RTVSPost2010Prop45
280
     0
102
RTVSPost2010PropOp45
 70
     1
102
RTVSPost2010Prop46
 90
       50
102
RTVSPost2010PropOp46
 70
     1
102
RTVSPost2010Prop47
 90
       50
102
RTVSPost2010PropOp47
 70
     1
102
RTVSPost2010Prop48
 90
       50
102
RTVSPost2010PropOp48
 70
     1
102
RTVSPost2010Prop49
280
     0
102
RTVSPost2010PropOp49
 70
     1
102
RTVSPost2010Prop50
 90
       50
102
RTVSPost2010PropOp50
 70
     1
102
RTVSPost2010Prop51ColorIndex
 90
      256
102
RTVSPost2010Prop51ColorRGB
 90
-16777216
102
RTVSPost2010PropOp51
 70
     0
102
RTVSPost2010Prop52
140
1.0
102
RTVSPost2010PropOp52
 70
     0
102
RTVSPost2010Prop53
 90
        2
102
RTVSPost2010PropOp53
 70
     1
102
RTVSPost2010Prop54
  1
strokes_ogs.tif
102
RTVSPost2010PropOp54
 70
     1
102
RTVSPost2010Prop55
280
     0
102
RTVSPost2010PropOp55
 70
     1
102
RTVSPost2010Prop56
140
1.0
102
RTVSPost2010PropOp56
 70
     1
102
RTVSPost2010Prop57
140
1.0
102
RTVSPost2010PropOp57
 70
     1
102
RTVSPropertyOp0
 70
     1
102
RTVSPropertyOp1
 70
     1
102
RTVSPropertyOp2
 70
     1
102
RTVSPropertyOp3
 70
     1
102
RTVSPropertyOp4
 70
     1
102
RTVSPropertyOp5
 70
     1
102
RTVSPropertyOp6
 70
     1
102
RTVSPropertyOp7
 70
     1
102
RTVSPropertyOp8
 70
     1
102
RTVSPropertyOp9
 70
     1
102
RTVSPropertyOp10
 70
     1
102
RTVSPropertyOp11
 70
     1
102
RTVSPropertyOp12
 70
     1
102
RTVSPropertyOp13
 70
     1
102
RTVSPropertyOp14
 70
     1
102
RTVSPropertyOp15
 70
     1
102
RTVSPropertyOp16
 70
     1
102
RTVSPropertyOp17
 70
     1
102
RTVSPropertyOp18
 70
     1
102
RTVSPropertyOp19
 70
     1
102
RTVSPropertyOp20
 70
     1
102
RTVSPropertyOp21
 70
     1
102
RTVSPropertyOp22
 70
     1
102
RTVSPropertyOp23
 70
     1
102
RTVSPropertyOp24
 70
     1
102
RTVSPropertyOp25
 70
     1
102
RTVSPropertyOp26
 70
     1
102
RTVSPropertyOp27
 70
     1
102
RTVSPropertyOp28
 70
     1
102
RTVSPropertyOp29
 70
     1
102
RTVSPropertyOp30
 70
     1
102
RTVSPropertyOp31
 70
     1
102
RTVSPropertyOp32
 70
     1
102
RTVSPropertyOp33
 70
     1
102
RTVSPropertyOp34
 70
     1
102
RTVSPropertyOp35
 70
     1
102
RTVSPropertyOp36
 70
     1
102
RTVSPropertyOp37
 70
     1
102
RTVSPropertyOp38
 70
     1
102
RTVSPropertyOp39
 70
     1
102
RTVSPropertyOp40
 70
     1
102
RTVSPropertyOp41
 70
     1
102
RTVSPropertyOp42
 70
     1
102
RTVSPropertyOp43
 70
     1
102
RTVSPropertyOp44
 70
     1
102
RTVSPropertyOp45
 70
     1
102
RTVSPropertyOp46
 70
     1
102
RTVSPropertyOp47
 70
     1
102
RTVSPropertyOp48
 70
     1
102
RTVSPropertyOp49
 70
     1
102
RTVSPropertyOp50
 70
     1
102
RTVSPropertyOp51
 70
     0
102
RTVSPropertyOp52
 70
     0
102
RTVSPropertyOp53
 70
     1
102
RTVSPropertyOp54
 70
     1
102
RTVSPropertyOp55
 70
     1
102
RTVSPropertyOp56
 70
     1
102
RTVSPropertyOp57
 70
     1
102
RTVSPropertyOp58
 70
     1
102
RTVSPropertyOp59
 70
     1
102
RTVSPropertyOp60
 70
     1
102
RTVSPropertyOp61
 70
     1
102
RTVSPropertyOp62
 70
     1
  0
XRECORD
  5
16C3
102
{ACAD_REACTORS
330
16C2
102
}
330
16C2
100
AcDbXrecord
280
     1
102
RTVSPost2010Prop28
280
     0
102
RTVSPost2010PropOp28
 70
     1
102
RTVSPost2010Prop29
280
     1
102
RTVSPost2010PropOp29
 70
     1
102
RTVSPost2010Prop30
280
     1
102
RTVSPost2010PropOp30
 70
     1
102
RTVSPost2010Prop31
280
     0
102
RTVSPost2010PropOp31
 70
     1
102
RTVSPost2010Prop32
280
     0
102
RTVSPost2010PropOp32
 70
     1
102
RTVSPost2010Prop33
280
     0
102
RTVSPost2010PropOp33
 70
     1
102
RTVSPost2010Prop34
280
     0
102
RTVSPost2010PropOp34
 70
     1
102
RTVSPost2010Prop35
280
     0
102
RTVSPost2010PropOp35
 70
     1
102
RTVSPost2010Prop36
280
     0
102
RTVSPost2010PropOp36
 70
     1
102
RTVSPost2010Prop37
 90
       50
102
RTVSPost2010PropOp37
 70
     1
102
RTVSPost2010Prop38
140
0.0
102
RTVSPost2010PropOp38
 70
     1
102
RTVSPost2010Prop39
140
1.0
102
RTVSPost2010PropOp39
 70
     1
102
RTVSPost2010Prop40
 90
        0
102
RTVSPost2010PropOp40
 70
     1
102
RTVSPost2010Prop41ColorIndex
 90
       18
102
RTVSPost2010Prop41ColorRGB
 90
        0
102
RTVSPost2010PropOp41
 70
     1
102
RTVSPost2010Prop42
 90
       50
102
RTVSPost2010PropOp42
 70
     1
102
RTVSPost2010Prop43
 90
        3
102
RTVSPost2010PropOp43
 70
     1
102
RTVSPost2010Prop44ColorIndex
 90
        5
102
RTVSPost2010Prop44ColorRGB
 90
      255
102
RTVSPost2010PropOp44
 70
     1
102
RTVSPost2010Prop45
280
     0
102
RTVSPost2010PropOp45
 70
     1
102
RTVSPost2010Prop46
 90
       50
102
RTVSPost2010PropOp46
 70
     1
102
RTVSPost2010Prop47
 90
       50
102
RTVSPost2010PropOp47
 70
     1
102
RTVSPost2010Prop48
 90
       50
102
RTVSPost2010PropOp48
 70
     1
102
RTVSPost2010Prop49
280
     0
102
RTVSPost2010PropOp49
 70
     1
102
RTVSPost2010Prop50
 90
       50
102
RTVSPost2010PropOp50
 70
     1
102
RTVSPost2010Prop51ColorIndex
 90
      256
102
RTVSPost2010Prop51ColorRGB
 90
-16777216
102
RTVSPost2010PropOp51
 70
     0
102
RTVSPost2010Prop52
140
1.0
102
RTVSPost2010PropOp52
 70
     0
102
RTVSPost2010Prop53
 90
        2
102
RTVSPost2010PropOp53
 70
     1
102
RTVSPost2010Prop54
  1
strokes_ogs.tif
102
RTVSPost2010PropOp54
 70
     1
102
RTVSPost2010Prop55
280
     0
102
RTVSPost2010PropOp55
 70
     1
102
RTVSPost2010Prop56
140
1.0
102
RTVSPost2010PropOp56
 70
     1
102
RTVSPost2010Prop57
140
1.0
102
RTVSPost2010PropOp57
 70
     1
102
RTVSPropertyOp0
 70
     1
102
RTVSPropertyOp1
 70
     1
102
RTVSPropertyOp2
 70
     1
102
RTVSPropertyOp3
 70
     1
102
RTVSPropertyOp4
 70
     1
102
RTVSPropertyOp5
 70
     1
102
RTVSPropertyOp6
 70
     1
102
RTVSPropertyOp7
 70
     1
102
RTVSPropertyOp8
 70
     1
102
RTVSPropertyOp9
 70
     1
102
RTVSPropertyOp10
 70
     1
102
RTVSPropertyOp11
 70
     1
102
RTVSPropertyOp12
 70
     1
102
RTVSPropertyOp13
 70
     1
102
RTVSPropertyOp14
 70
     1
102
RTVSPropertyOp15
 70
     1
102
RTVSPropertyOp16
 70
     1
102
RTVSPropertyOp17
 70
     1
102
RTVSPropertyOp18
 70
     1
102
RTVSPropertyOp19
 70
     1
102
RTVSPropertyOp20
 70
     1
102
RTVSPropertyOp21
 70
     1
102
RTVSPropertyOp22
 70
     1
102
RTVSPropertyOp23
 70
     1
102
RTVSPropertyOp24
 70
     1
102
RTVSPropertyOp25
 70
     1
102
RTVSPropertyOp26
 70
     1
102
RTVSPropertyOp27
 70
     1
102
RTVSPropertyOp28
 70
     1
102
RTVSPropertyOp29
 70
     1
102
RTVSPropertyOp30
 70
     1
102
RTVSPropertyOp31
 70
     1
102
RTVSPropertyOp32
 70
     1
102
RTVSPropertyOp33
 70
     1
102
RTVSPropertyOp34
 70
     1
102
RTVSPropertyOp35
 70
     1
102
RTVSPropertyOp36
 70
     1
102
RTVSPropertyOp37
 70
     1
102
RTVSPropertyOp38
 70
     1
102
RTVSPropertyOp39
 70
     1
102
RTVSPropertyOp40
 70
     1
102
RTVSPropertyOp41
 70
     1
102
RTVSPropertyOp42
 70
     1
102
RTVSPropertyOp43
 70
     1
102
RTVSPropertyOp44
 70
     1
102
RTVSPropertyOp45
 70
     1
102
RTVSPropertyOp46
 70
     1
102
RTVSPropertyOp47
 70
     1
102
RTVSPropertyOp48
 70
     1
102
RTVSPropertyOp49
 70
     1
102
RTVSPropertyOp50
 70
     1
102
RTVSPropertyOp51
 70
     0
102
RTVSPropertyOp52
 70
     0
102
RTVSPropertyOp53
 70
     1
102
RTVSPropertyOp54
 70
     1
102
RTVSPropertyOp55
 70
     1
102
RTVSPropertyOp56
 70
     1
102
RTVSPropertyOp57
 70
     1
102
RTVSPropertyOp58
 70
     1
102
RTVSPropertyOp59
 70
     1
102
RTVSPropertyOp60
 70
     1
102
RTVSPropertyOp61
 70
     1
102
RTVSPropertyOp62
 70
     1
  0
XRECORD
  5
16C5
102
{ACAD_REACTORS
330
16C4
102
}
330
16C4
100
AcDbXrecord
280
     1
102
RTVSPost2010Prop28
280
     0
102
RTVSPost2010PropOp28
 70
     1
102
RTVSPost2010Prop29
280
     1
102
RTVSPost2010PropOp29
 70
     1
102
RTVSPost2010Prop30
280
     1
102
RTVSPost2010PropOp30
 70
     1
102
RTVSPost2010Prop31
280
     0
102
RTVSPost2010PropOp31
 70
     1
102
RTVSPost2010Prop32
280
     0
102
RTVSPost2010PropOp32
 70
     1
102
RTVSPost2010Prop33
280
     0
102
RTVSPost2010PropOp33
 70
     1
102
RTVSPost2010Prop34
280
     0
102
RTVSPost2010PropOp34
 70
     1
102
RTVSPost2010Prop35
280
     0
102
RTVSPost2010PropOp35
 70
     1
102
RTVSPost2010Prop36
280
     0
102
RTVSPost2010PropOp36
 70
     1
102
RTVSPost2010Prop37
 90
       50
102
RTVSPost2010PropOp37
 70
     1
102
RTVSPost2010Prop38
140
0.0
102
RTVSPost2010PropOp38
 70
     1
102
RTVSPost2010Prop39
140
1.0
102
RTVSPost2010PropOp39
 70
     1
102
RTVSPost2010Prop40
 90
        0
102
RTVSPost2010PropOp40
 70
     1
102
RTVSPost2010Prop41ColorIndex
 90
       18
102
RTVSPost2010Prop41ColorRGB
 90
        0
102
RTVSPost2010PropOp41
 70
     1
102
RTVSPost2010Prop42
 90
       50
102
RTVSPost2010PropOp42
 70
     1
102
RTVSPost2010Prop43
 90
        3
102
RTVSPost2010PropOp43
 70
     1
102
RTVSPost2010Prop44ColorIndex
 90
        5
102
RTVSPost2010Prop44ColorRGB
 90
      255
102
RTVSPost2010PropOp44
 70
     1
102
RTVSPost2010Prop45
280
     0
102
RTVSPost2010PropOp45
 70
     1
102
RTVSPost2010Prop46
 90
       50
102
RTVSPost2010PropOp46
 70
     1
102
RTVSPost2010Prop47
 90
       50
102
RTVSPost2010PropOp47
 70
     1
102
RTVSPost2010Prop48
 90
       50
102
RTVSPost2010PropOp48
 70
     1
102
RTVSPost2010Prop49
280
     0
102
RTVSPost2010PropOp49
 70
     1
102
RTVSPost2010Prop50
 90
       50
102
RTVSPost2010PropOp50
 70
     1
102
RTVSPost2010Prop51ColorIndex
 90
      256
102
RTVSPost2010Prop51ColorRGB
 90
-16777216
102
RTVSPost2010PropOp51
 70
     0
102
RTVSPost2010Prop52
140
1.0
102
RTVSPost2010PropOp52
 70
     0
102
RTVSPost2010Prop53
 90
        2
102
RTVSPost2010PropOp53
 70
     1
102
RTVSPost2010Prop54
  1
strokes_ogs.tif
102
RTVSPost2010PropOp54
 70
     1
102
RTVSPost2010Prop55
280
     0
102
RTVSPost2010PropOp55
 70
     1
102
RTVSPost2010Prop56
140
1.0
102
RTVSPost2010PropOp56
 70
     1
102
RTVSPost2010Prop57
140
1.0
102
RTVSPost2010PropOp57
 70
     1
102
RTVSPropertyOp0
 70
     1
102
RTVSPropertyOp1
 70
     1
102
RTVSPropertyOp2
 70
     1
102
RTVSPropertyOp3
 70
     1
102
RTVSPropertyOp4
 70
     1
102
RTVSPropertyOp5
 70
     1
102
RTVSPropertyOp6
 70
     1
102
RTVSPropertyOp7
 70
     1
102
RTVSPropertyOp8
 70
     1
102
RTVSPropertyOp9
 70
     1
102
RTVSPropertyOp10
 70
     1
102
RTVSPropertyOp11
 70
     1
102
RTVSPropertyOp12
 70
     1
102
RTVSPropertyOp13
 70
     1
102
RTVSPropertyOp14
 70
     1
102
RTVSPropertyOp15
 70
     1
102
RTVSPropertyOp16
 70
     1
102
RTVSPropertyOp17
 70
     1
102
RTVSPropertyOp18
 70
     1
102
RTVSPropertyOp19
 70
     1
102
RTVSPropertyOp20
 70
     1
102
RTVSPropertyOp21
 70
     1
102
RTVSPropertyOp22
 70
     1
102
RTVSPropertyOp23
 70
     1
102
RTVSPropertyOp24
 70
     1
102
RTVSPropertyOp25
 70
     1
102
RTVSPropertyOp26
 70
     1
102
RTVSPropertyOp27
 70
     1
102
RTVSPropertyOp28
 70
     1
102
RTVSPropertyOp29
 70
     1
102
RTVSPropertyOp30
 70
     1
102
RTVSPropertyOp31
 70
     1
102
RTVSPropertyOp32
 70
     1
102
RTVSPropertyOp33
 70
     1
102
RTVSPropertyOp34
 70
     1
102
RTVSPropertyOp35
 70
     1
102
RTVSPropertyOp36
 70
     1
102
RTVSPropertyOp37
 70
     1
102
RTVSPropertyOp38
 70
     1
102
RTVSPropertyOp39
 70
     1
102
RTVSPropertyOp40
 70
     1
102
RTVSPropertyOp41
 70
     1
102
RTVSPropertyOp42
 70
     1
102
RTVSPropertyOp43
 70
     1
102
RTVSPropertyOp44
 70
     1
102
RTVSPropertyOp45
 70
     1
102
RTVSPropertyOp46
 70
     1
102
RTVSPropertyOp47
 70
     1
102
RTVSPropertyOp48
 70
     1
102
RTVSPropertyOp49
 70
     1
102
RTVSPropertyOp50
 70
     1
102
RTVSPropertyOp51
 70
     0
102
RTVSPropertyOp52
 70
     0
102
RTVSPropertyOp53
 70
     1
102
RTVSPropertyOp54
 70
     1
102
RTVSPropertyOp55
 70
     1
102
RTVSPropertyOp56
 70
     1
102
RTVSPropertyOp57
 70
     1
102
RTVSPropertyOp58
 70
     1
102
RTVSPropertyOp59
 70
     1
102
RTVSPropertyOp60
 70
     1
102
RTVSPropertyOp61
 70
     1
102
RTVSPropertyOp62
 70
     1
  0
XRECORD
  5
16CD
102
{ACAD_REACTORS
330
16CC
102
}
330
16CC
100
AcDbXrecord
280
     1
102
RTVSPost2010Prop28
280
     0
102
RTVSPost2010PropOp28
 70
     1
102
RTVSPost2010Prop29
280
     1
102
RTVSPost2010PropOp29
 70
     1
102
RTVSPost2010Prop30
280
     1
102
RTVSPost2010PropOp30
 70
     1
102
RTVSPost2010Prop31
280
     0
102
RTVSPost2010PropOp31
 70
     1
102
RTVSPost2010Prop32
280
     0
102
RTVSPost2010PropOp32
 70
     1
102
RTVSPost2010Prop33
280
     0
102
RTVSPost2010PropOp33
 70
     1
102
RTVSPost2010Prop34
280
     0
102
RTVSPost2010PropOp34
 70
     1
102
RTVSPost2010Prop35
280
     0
102
RTVSPost2010PropOp35
 70
     1
102
RTVSPost2010Prop36
280
     0
102
RTVSPost2010PropOp36
 70
     1
102
RTVSPost2010Prop37
 90
       50
102
RTVSPost2010PropOp37
 70
     1
102
RTVSPost2010Prop38
140
0.0
102
RTVSPost2010PropOp38
 70
     1
102
RTVSPost2010Prop39
140
1.0
102
RTVSPost2010PropOp39
 70
     1
102
RTVSPost2010Prop40
 90
        0
102
RTVSPost2010PropOp40
 70
     1
102
RTVSPost2010Prop41ColorIndex
 90
       18
102
RTVSPost2010Prop41ColorRGB
 90
        0
102
RTVSPost2010PropOp41
 70
     1
102
RTVSPost2010Prop42
 90
       50
102
RTVSPost2010PropOp42
 70
     1
102
RTVSPost2010Prop43
 90
        3
102
RTVSPost2010PropOp43
 70
     1
102
RTVSPost2010Prop44ColorIndex
 90
        5
102
RTVSPost2010Prop44ColorRGB
 90
      255
102
RTVSPost2010PropOp44
 70
     1
102
RTVSPost2010Prop45
280
     0
102
RTVSPost2010PropOp45
 70
     1
102
RTVSPost2010Prop46
 90
       50
102
RTVSPost2010PropOp46
 70
     1
102
RTVSPost2010Prop47
 90
       50
102
RTVSPost2010PropOp47
 70
     1
102
RTVSPost2010Prop48
 90
       50
102
RTVSPost2010PropOp48
 70
     1
102
RTVSPost2010Prop49
280
     0
102
RTVSPost2010PropOp49
 70
     1
102
RTVSPost2010Prop50
 90
       50
102
RTVSPost2010PropOp50
 70
     1
102
RTVSPost2010Prop51ColorIndex
 90
      256
102
RTVSPost2010Prop51ColorRGB
 90
-16777216
102
RTVSPost2010PropOp51
 70
     0
102
RTVSPost2010Prop52
140
1.0
102
RTVSPost2010PropOp52
 70
     0
102
RTVSPost2010Prop53
 90
        2
102
RTVSPost2010PropOp53
 70
     1
102
RTVSPost2010Prop54
  1
strokes_ogs.tif
102
RTVSPost2010PropOp54
 70
     1
102
RTVSPost2010Prop55
280
     0
102
RTVSPost2010PropOp55
 70
     1
102
RTVSPost2010Prop56
140
1.0
102
RTVSPost2010PropOp56
 70
     1
102
RTVSPost2010Prop57
140
1.0
102
RTVSPost2010PropOp57
 70
     1
102
RTVSPropertyOp0
 70
     1
102
RTVSPropertyOp1
 70
     1
102
RTVSPropertyOp2
 70
     1
102
RTVSPropertyOp3
 70
     1
102
RTVSPropertyOp4
 70
     1
102
RTVSPropertyOp5
 70
     1
102
RTVSPropertyOp6
 70
     1
102
RTVSPropertyOp7
 70
     1
102
RTVSPropertyOp8
 70
     1
102
RTVSPropertyOp9
 70
     1
102
RTVSPropertyOp10
 70
     1
102
RTVSPropertyOp11
 70
     1
102
RTVSPropertyOp12
 70
     1
102
RTVSPropertyOp13
 70
     1
102
RTVSPropertyOp14
 70
     1
102
RTVSPropertyOp15
 70
     1
102
RTVSPropertyOp16
 70
     1
102
RTVSPropertyOp17
 70
     1
102
RTVSPropertyOp18
 70
     1
102
RTVSPropertyOp19
 70
     1
102
RTVSPropertyOp20
 70
     1
102
RTVSPropertyOp21
 70
     1
102
RTVSPropertyOp22
 70
     1
102
RTVSPropertyOp23
 70
     1
102
RTVSPropertyOp24
 70
     1
102
RTVSPropertyOp25
 70
     1
102
RTVSPropertyOp26
 70
     1
102
RTVSPropertyOp27
 70
     1
102
RTVSPropertyOp28
 70
     1
102
RTVSPropertyOp29
 70
     1
102
RTVSPropertyOp30
 70
     1
102
RTVSPropertyOp31
 70
     1
102
RTVSPropertyOp32
 70
     1
102
RTVSPropertyOp33
 70
     1
102
RTVSPropertyOp34
 70
     1
102
RTVSPropertyOp35
 70
     1
102
RTVSPropertyOp36
 70
     1
102
RTVSPropertyOp37
 70
     1
102
RTVSPropertyOp38
 70
     1
102
RTVSPropertyOp39
 70
     1
102
RTVSPropertyOp40
 70
     1
102
RTVSPropertyOp41
 70
     1
102
RTVSPropertyOp42
 70
     1
102
RTVSPropertyOp43
 70
     1
102
RTVSPropertyOp44
 70
     1
102
RTVSPropertyOp45
 70
     1
102
RTVSPropertyOp46
 70
     1
102
RTVSPropertyOp47
 70
     1
102
RTVSPropertyOp48
 70
     1
102
RTVSPropertyOp49
 70
     1
102
RTVSPropertyOp50
 70
     1
102
RTVSPropertyOp51
 70
     0
102
RTVSPropertyOp52
 70
     0
102
RTVSPropertyOp53
 70
     1
102
RTVSPropertyOp54
 70
     1
102
RTVSPropertyOp55
 70
     1
102
RTVSPropertyOp56
 70
     1
102
RTVSPropertyOp57
 70
     1
102
RTVSPropertyOp58
 70
     1
102
RTVSPropertyOp59
 70
     1
102
RTVSPropertyOp60
 70
     1
102
RTVSPropertyOp61
 70
     1
102
RTVSPropertyOp62
 70
     1
  0
XRECORD
  5
16E9
102
{ACAD_REACTORS
330
16E8
102
}
330
16E8
100
AcDbXrecord
280
     1
102
RTVSPost2010Prop28
280
     0
102
RTVSPost2010PropOp28
 70
     1
102
RTVSPost2010Prop29
280
     1
102
RTVSPost2010PropOp29
 70
     1
102
RTVSPost2010Prop30
280
     1
102
RTVSPost2010PropOp30
 70
     1
102
RTVSPost2010Prop31
280
     0
102
RTVSPost2010PropOp31
 70
     1
102
RTVSPost2010Prop32
280
     0
102
RTVSPost2010PropOp32
 70
     1
102
RTVSPost2010Prop33
280
     0
102
RTVSPost2010PropOp33
 70
     1
102
RTVSPost2010Prop34
280
     0
102
RTVSPost2010PropOp34
 70
     1
102
RTVSPost2010Prop35
280
     0
102
RTVSPost2010PropOp35
 70
     1
102
RTVSPost2010Prop36
280
     0
102
RTVSPost2010PropOp36
 70
     1
102
RTVSPost2010Prop37
 90
       50
102
RTVSPost2010PropOp37
 70
     0
102
RTVSPost2010Prop38
140
0.0
102
RTVSPost2010PropOp38
 70
     0
102
RTVSPost2010Prop39
140
1.0
102
RTVSPost2010PropOp39
 70
     0
102
RTVSPost2010Prop40
 90
        0
102
RTVSPost2010PropOp40
 70
     0
102
RTVSPost2010Prop41ColorIndex
 90
       18
102
RTVSPost2010Prop41ColorRGB
 90
        0
102
RTVSPost2010PropOp41
 70
     0
102
RTVSPost2010Prop42
 90
       50
102
RTVSPost2010PropOp42
 70
     0
102
RTVSPost2010Prop43
 90
        3
102
RTVSPost2010PropOp43
 70
     0
102
RTVSPost2010Prop44ColorIndex
 90
        5
102
RTVSPost2010Prop44ColorRGB
 90
      255
102
RTVSPost2010PropOp44
 70
     0
102
RTVSPost2010Prop45
280
     0
102
RTVSPost2010PropOp45
 70
     1
102
RTVSPost2010Prop46
 90
       50
102
RTVSPost2010PropOp46
 70
     0
102
RTVSPost2010Prop47
 90
       50
102
RTVSPost2010PropOp47
 70
     0
102
RTVSPost2010Prop48
 90
       50
102
RTVSPost2010PropOp48
 70
     0
102
RTVSPost2010Prop49
280
     0
102
RTVSPost2010PropOp49
 70
     1
102
RTVSPost2010Prop50
 90
       50
102
RTVSPost2010PropOp50
 70
     0
102
RTVSPost2010Prop51ColorIndex
 90
      256
102
RTVSPost2010Prop51ColorRGB
 90
-16777216
102
RTVSPost2010PropOp51
 70
     0
102
RTVSPost2010Prop52
140
1.0
102
RTVSPost2010PropOp52
 70
     0
102
RTVSPost2010Prop53
 90
        2
102
RTVSPost2010PropOp53
 70
     0
102
RTVSPost2010Prop54
  1
strokes_ogs.tif
102
RTVSPost2010PropOp54
 70
     0
102
RTVSPost2010Prop55
280
     0
102
RTVSPost2010PropOp55
 70
     1
102
RTVSPost2010Prop56
140
1.0
102
RTVSPost2010PropOp56
 70
     0
102
RTVSPost2010Prop57
140
1.0
102
RTVSPost2010PropOp57
 70
     0
102
RTVSPropertyOp0
 70
     0
102
RTVSPropertyOp1
 70
     0
102
RTVSPropertyOp2
 70
     0
102
RTVSPropertyOp3
 70
     0
102
RTVSPropertyOp4
 70
     0
102
RTVSPropertyOp5
 70
     0
102
RTVSPropertyOp6
 70
     0
102
RTVSPropertyOp7
 70
     0
102
RTVSPropertyOp8
 70
     0
102
RTVSPropertyOp9
 70
     0
102
RTVSPropertyOp10
 70
     0
102
RTVSPropertyOp11
 70
     0
102
RTVSPropertyOp12
 70
     0
102
RTVSPropertyOp13
 70
     0
102
RTVSPropertyOp14
 70
     2
102
RTVSPropertyOp15
 70
     0
102
RTVSPropertyOp16
 70
     0
102
RTVSPropertyOp17
 70
     0
102
RTVSPropertyOp18
 70
     0
102
RTVSPropertyOp19
 70
     0
102
RTVSPropertyOp20
 70
     0
102
RTVSPropertyOp21
 70
     0
102
RTVSPropertyOp22
 70
     0
102
RTVSPropertyOp23
 70
     0
102
RTVSPropertyOp24
 70
     0
102
RTVSPropertyOp25
 70
     0
102
RTVSPropertyOp26
 70
     0
102
RTVSPropertyOp27
 70
     0
102
RTVSPropertyOp28
 70
     1
102
RTVSPropertyOp29
 70
     1
102
RTVSPropertyOp30
 70
     1
102
RTVSPropertyOp31
 70
     1
102
RTVSPropertyOp32
 70
     1
102
RTVSPropertyOp33
 70
     1
102
RTVSPropertyOp34
 70
     1
102
RTVSPropertyOp35
 70
     1
102
RTVSPropertyOp36
 70
     1
102
RTVSPropertyOp37
 70
     0
102
RTVSPropertyOp38
 70
     0
102
RTVSPropertyOp39
 70
     0
102
RTVSPropertyOp40
 70
     0
102
RTVSPropertyOp41
 70
     0
102
RTVSPropertyOp42
 70
     0
102
RTVSPropertyOp43
 70
     0
102
RTVSPropertyOp44
 70
     0
102
RTVSPropertyOp45
 70
     1
102
RTVSPropertyOp46
 70
     0
102
RTVSPropertyOp47
 70
     0
102
RTVSPropertyOp48
 70
     0
102
RTVSPropertyOp49
 70
     1
102
RTVSPropertyOp50
 70
     0
102
RTVSPropertyOp51
 70
     0
102
RTVSPropertyOp52
 70
     0
102
RTVSPropertyOp53
 70
     0
102
RTVSPropertyOp54
 70
     0
102
RTVSPropertyOp55
 70
     1
102
RTVSPropertyOp56
 70
     0
102
RTVSPropertyOp57
 70
     0
102
RTVSPropertyOp58
 70
     0
102
RTVSPropertyOp59
 70
     0
102
RTVSPropertyOp60
 70
     0
102
RTVSPropertyOp61
 70
     0
102
RTVSPropertyOp62
 70
     0
  0
XRECORD
  5
16D9
102
{ACAD_REACTORS
330
16D8
102
}
330
16D8
100
AcDbXrecord
280
     1
102
RTVSPost2010Prop28
280
     0
102
RTVSPost2010PropOp28
 70
     1
102
RTVSPost2010Prop29
280
     1
102
RTVSPost2010PropOp29
 70
     1
102
RTVSPost2010Prop30
280
     1
102
RTVSPost2010PropOp30
 70
     1
102
RTVSPost2010Prop31
280
     0
102
RTVSPost2010PropOp31
 70
     1
102
RTVSPost2010Prop32
280
     0
102
RTVSPost2010PropOp32
 70
     1
102
RTVSPost2010Prop33
280
     0
102
RTVSPost2010PropOp33
 70
     1
102
RTVSPost2010Prop34
280
     0
102
RTVSPost2010PropOp34
 70
     1
102
RTVSPost2010Prop35
280
     0
102
RTVSPost2010PropOp35
 70
     1
102
RTVSPost2010Prop36
280
     0
102
RTVSPost2010PropOp36
 70
     1
102
RTVSPost2010Prop37
 90
       50
102
RTVSPost2010PropOp37
 70
     1
102
RTVSPost2010Prop38
140
0.0
102
RTVSPost2010PropOp38
 70
     1
102
RTVSPost2010Prop39
140
1.0
102
RTVSPost2010PropOp39
 70
     1
102
RTVSPost2010Prop40
 90
        0
102
RTVSPost2010PropOp40
 70
     1
102
RTVSPost2010Prop41ColorIndex
 90
       18
102
RTVSPost2010Prop41ColorRGB
 90
        0
102
RTVSPost2010PropOp41
 70
     1
102
RTVSPost2010Prop42
 90
       50
102
RTVSPost2010PropOp42
 70
     1
102
RTVSPost2010Prop43
 90
        3
102
RTVSPost2010PropOp43
 70
     1
102
RTVSPost2010Prop44ColorIndex
 90
        5
102
RTVSPost2010Prop44ColorRGB
 90
      255
102
RTVSPost2010PropOp44
 70
     1
102
RTVSPost2010Prop45
280
     0
102
RTVSPost2010PropOp45
 70
     1
102
RTVSPost2010Prop46
 90
       50
102
RTVSPost2010PropOp46
 70
     1
102
RTVSPost2010Prop47
 90
       50
102
RTVSPost2010PropOp47
 70
     1
102
RTVSPost2010Prop48
 90
       50
102
RTVSPost2010PropOp48
 70
     1
102
RTVSPost2010Prop49
280
     0
102
RTVSPost2010PropOp49
 70
     1
102
RTVSPost2010Prop50
 90
       50
102
RTVSPost2010PropOp50
 70
     1
102
RTVSPost2010Prop51ColorIndex
 90
      256
102
RTVSPost2010Prop51ColorRGB
 90
-16777216
102
RTVSPost2010PropOp51
 70
     0
102
RTVSPost2010Prop52
140
1.0
102
RTVSPost2010PropOp52
 70
     0
102
RTVSPost2010Prop53
 90
        2
102
RTVSPost2010PropOp53
 70
     1
102
RTVSPost2010Prop54
  1
strokes_ogs.tif
102
RTVSPost2010PropOp54
 70
     1
102
RTVSPost2010Prop55
280
     0
102
RTVSPost2010PropOp55
 70
     1
102
RTVSPost2010Prop56
140
1.0
102
RTVSPost2010PropOp56
 70
     1
102
RTVSPost2010Prop57
140
1.0
102
RTVSPost2010PropOp57
 70
     1
102
RTVSPropertyOp0
 70
     1
102
RTVSPropertyOp1
 70
     1
102
RTVSPropertyOp2
 70
     1
102
RTVSPropertyOp3
 70
     1
102
RTVSPropertyOp4
 70
     1
102
RTVSPropertyOp5
 70
     1
102
RTVSPropertyOp6
 70
     1
102
RTVSPropertyOp7
 70
     1
102
RTVSPropertyOp8
 70
     1
102
RTVSPropertyOp9
 70
     1
102
RTVSPropertyOp10
 70
     1
102
RTVSPropertyOp11
 70
     1
102
RTVSPropertyOp12
 70
     1
102
RTVSPropertyOp13
 70
     1
102
RTVSPropertyOp14
 70
     1
102
RTVSPropertyOp15
 70
     1
102
RTVSPropertyOp16
 70
     1
102
RTVSPropertyOp17
 70
     1
102
RTVSPropertyOp18
 70
     1
102
RTVSPropertyOp19
 70
     1
102
RTVSPropertyOp20
 70
     1
102
RTVSPropertyOp21
 70
     1
102
RTVSPropertyOp22
 70
     1
102
RTVSPropertyOp23
 70
     1
102
RTVSPropertyOp24
 70
     1
102
RTVSPropertyOp25
 70
     1
102
RTVSPropertyOp26
 70
     1
102
RTVSPropertyOp27
 70
     1
102
RTVSPropertyOp28
 70
     1
102
RTVSPropertyOp29
 70
     1
102
RTVSPropertyOp30
 70
     1
102
RTVSPropertyOp31
 70
     1
102
RTVSPropertyOp32
 70
     1
102
RTVSPropertyOp33
 70
     1
102
RTVSPropertyOp34
 70
     1
102
RTVSPropertyOp35
 70
     1
102
RTVSPropertyOp36
 70
     1
102
RTVSPropertyOp37
 70
     1
102
RTVSPropertyOp38
 70
     1
102
RTVSPropertyOp39
 70
     1
102
RTVSPropertyOp40
 70
     1
102
RTVSPropertyOp41
 70
     1
102
RTVSPropertyOp42
 70
     1
102
RTVSPropertyOp43
 70
     1
102
RTVSPropertyOp44
 70
     1
102
RTVSPropertyOp45
 70
     1
102
RTVSPropertyOp46
 70
     1
102
RTVSPropertyOp47
 70
     1
102
RTVSPropertyOp48
 70
     1
102
RTVSPropertyOp49
 70
     1
102
RTVSPropertyOp50
 70
     1
102
RTVSPropertyOp51
 70
     0
102
RTVSPropertyOp52
 70
     0
102
RTVSPropertyOp53
 70
     1
102
RTVSPropertyOp54
 70
     1
102
RTVSPropertyOp55
 70
     1
102
RTVSPropertyOp56
 70
     1
102
RTVSPropertyOp57
 70
     1
102
RTVSPropertyOp58
 70
     1
102
RTVSPropertyOp59
 70
     1
102
RTVSPropertyOp60
 70
     1
102
RTVSPropertyOp61
 70
     1
102
RTVSPropertyOp62
 70
     1
  0
XRECORD
  5
16EB
102
{ACAD_REACTORS
330
16EA
102
}
330
16EA
100
AcDbXrecord
280
     1
102
RTVSPost2010Prop28
280
     0
102
RTVSPost2010PropOp28
 70
     1
102
RTVSPost2010Prop29
280
     1
102
RTVSPost2010PropOp29
 70
     1
102
RTVSPost2010Prop30
280
     1
102
RTVSPost2010PropOp30
 70
     1
102
RTVSPost2010Prop31
280
     0
102
RTVSPost2010PropOp31
 70
     1
102
RTVSPost2010Prop32
280
     0
102
RTVSPost2010PropOp32
 70
     1
102
RTVSPost2010Prop33
280
     0
102
RTVSPost2010PropOp33
 70
     1
102
RTVSPost2010Prop34
280
     0
102
RTVSPost2010PropOp34
 70
     1
102
RTVSPost2010Prop35
280
     0
102
RTVSPost2010PropOp35
 70
     1
102
RTVSPost2010Prop36
280
     0
102
RTVSPost2010PropOp36
 70
     1
102
RTVSPost2010Prop37
 90
       50
102
RTVSPost2010PropOp37
 70
     0
102
RTVSPost2010Prop38
140
0.0
102
RTVSPost2010PropOp38
 70
     0
102
RTVSPost2010Prop39
140
1.0
102
RTVSPost2010PropOp39
 70
     0
102
RTVSPost2010Prop40
 90
        0
102
RTVSPost2010PropOp40
 70
     0
102
RTVSPost2010Prop41ColorIndex
 90
       18
102
RTVSPost2010Prop41ColorRGB
 90
        0
102
RTVSPost2010PropOp41
 70
     0
102
RTVSPost2010Prop42
 90
       50
102
RTVSPost2010PropOp42
 70
     0
102
RTVSPost2010Prop43
 90
        3
102
RTVSPost2010PropOp43
 70
     0
102
RTVSPost2010Prop44ColorIndex
 90
        5
102
RTVSPost2010Prop44ColorRGB
 90
      255
102
RTVSPost2010PropOp44
 70
     0
102
RTVSPost2010Prop45
280
     0
102
RTVSPost2010PropOp45
 70
     1
102
RTVSPost2010Prop46
 90
       50
102
RTVSPost2010PropOp46
 70
     0
102
RTVSPost2010Prop47
 90
       50
102
RTVSPost2010PropOp47
 70
     0
102
RTVSPost2010Prop48
 90
       50
102
RTVSPost2010PropOp48
 70
     0
102
RTVSPost2010Prop49
280
     0
102
RTVSPost2010PropOp49
 70
     1
102
RTVSPost2010Prop50
 90
       50
102
RTVSPost2010PropOp50
 70
     0
102
RTVSPost2010Prop51ColorIndex
 90
      256
102
RTVSPost2010Prop51ColorRGB
 90
-16777216
102
RTVSPost2010PropOp51
 70
     0
102
RTVSPost2010Prop52
140
1.0
102
RTVSPost2010PropOp52
 70
     0
102
RTVSPost2010Prop53
 90
        2
102
RTVSPost2010PropOp53
 70
     0
102
RTVSPost2010Prop54
  1
strokes_ogs.tif
102
RTVSPost2010PropOp54
 70
     0
102
RTVSPost2010Prop55
280
     0
102
RTVSPost2010PropOp55
 70
     1
102
RTVSPost2010Prop56
140
1.0
102
RTVSPost2010PropOp56
 70
     0
102
RTVSPost2010Prop57
140
1.0
102
RTVSPost2010PropOp57
 70
     0
102
RTVSPropertyOp0
 70
     0
102
RTVSPropertyOp1
 70
     0
102
RTVSPropertyOp2
 70
     0
102
RTVSPropertyOp3
 70
     0
102
RTVSPropertyOp4
 70
     0
102
RTVSPropertyOp5
 70
     0
102
RTVSPropertyOp6
 70
     0
102
RTVSPropertyOp7
 70
     0
102
RTVSPropertyOp8
 70
     0
102
RTVSPropertyOp9
 70
     0
102
RTVSPropertyOp10
 70
     0
102
RTVSPropertyOp11
 70
     0
102
RTVSPropertyOp12
 70
     0
102
RTVSPropertyOp13
 70
     0
102
RTVSPropertyOp14
 70
     2
102
RTVSPropertyOp15
 70
     0
102
RTVSPropertyOp16
 70
     0
102
RTVSPropertyOp17
 70
     0
102
RTVSPropertyOp18
 70
     0
102
RTVSPropertyOp19
 70
     0
102
RTVSPropertyOp20
 70
     0
102
RTVSPropertyOp21
 70
     0
102
RTVSPropertyOp22
 70
     0
102
RTVSPropertyOp23
 70
     0
102
RTVSPropertyOp24
 70
     0
102
RTVSPropertyOp25
 70
     0
102
RTVSPropertyOp26
 70
     0
102
RTVSPropertyOp27
 70
     0
102
RTVSPropertyOp28
 70
     1
102
RTVSPropertyOp29
 70
     1
102
RTVSPropertyOp30
 70
     1
102
RTVSPropertyOp31
 70
     1
102
RTVSPropertyOp32
 70
     1
102
RTVSPropertyOp33
 70
     1
102
RTVSPropertyOp34
 70
     1
102
RTVSPropertyOp35
 70
     1
102
RTVSPropertyOp36
 70
     1
102
RTVSPropertyOp37
 70
     0
102
RTVSPropertyOp38
 70
     0
102
RTVSPropertyOp39
 70
     0
102
RTVSPropertyOp40
 70
     0
102
RTVSPropertyOp41
 70
     0
102
RTVSPropertyOp42
 70
     0
102
RTVSPropertyOp43
 70
     0
102
RTVSPropertyOp44
 70
     0
102
RTVSPropertyOp45
 70
     1
102
RTVSPropertyOp46
 70
     0
102
RTVSPropertyOp47
 70
     0
102
RTVSPropertyOp48
 70
     0
102
RTVSPropertyOp49
 70
     1
102
RTVSPropertyOp50
 70
     0
102
RTVSPropertyOp51
 70
     0
102
RTVSPropertyOp52
 70
     0
102
RTVSPropertyOp53
 70
     0
102
RTVSPropertyOp54
 70
     0
102
RTVSPropertyOp55
 70
     1
102
RTVSPropertyOp56
 70
     0
102
RTVSPropertyOp57
 70
     0
102
RTVSPropertyOp58
 70
     0
102
RTVSPropertyOp59
 70
     0
102
RTVSPropertyOp60
 70
     0
102
RTVSPropertyOp61
 70
     0
102
RTVSPropertyOp62
 70
     0
  0
XRECORD
  5
16D1
102
{ACAD_REACTORS
330
16D0
102
}
330
16D0
100
AcDbXrecord
280
     1
102
RTVSPost2010Prop28
280
     0
102
RTVSPost2010PropOp28
 70
     1
102
RTVSPost2010Prop29
280
     1
102
RTVSPost2010PropOp29
 70
     1
102
RTVSPost2010Prop30
280
     1
102
RTVSPost2010PropOp30
 70
     1
102
RTVSPost2010Prop31
280
     0
102
RTVSPost2010PropOp31
 70
     1
102
RTVSPost2010Prop32
280
     0
102
RTVSPost2010PropOp32
 70
     1
102
RTVSPost2010Prop33
280
     0
102
RTVSPost2010PropOp33
 70
     1
102
RTVSPost2010Prop34
280
     0
102
RTVSPost2010PropOp34
 70
     1
102
RTVSPost2010Prop35
280
     0
102
RTVSPost2010PropOp35
 70
     1
102
RTVSPost2010Prop36
280
     0
102
RTVSPost2010PropOp36
 70
     1
102
RTVSPost2010Prop37
 90
       50
102
RTVSPost2010PropOp37
 70
     1
102
RTVSPost2010Prop38
140
0.0
102
RTVSPost2010PropOp38
 70
     1
102
RTVSPost2010Prop39
140
1.0
102
RTVSPost2010PropOp39
 70
     1
102
RTVSPost2010Prop40
 90
        0
102
RTVSPost2010PropOp40
 70
     1
102
RTVSPost2010Prop41ColorIndex
 90
       18
102
RTVSPost2010Prop41ColorRGB
 90
        0
102
RTVSPost2010PropOp41
 70
     1
102
RTVSPost2010Prop42
 90
       50
102
RTVSPost2010PropOp42
 70
     1
102
RTVSPost2010Prop43
 90
        3
102
RTVSPost2010PropOp43
 70
     1
102
RTVSPost2010Prop44ColorIndex
 90
        5
102
RTVSPost2010Prop44ColorRGB
 90
      255
102
RTVSPost2010PropOp44
 70
     1
102
RTVSPost2010Prop45
280
     0
102
RTVSPost2010PropOp45
 70
     1
102
RTVSPost2010Prop46
 90
       50
102
RTVSPost2010PropOp46
 70
     1
102
RTVSPost2010Prop47
 90
       50
102
RTVSPost2010PropOp47
 70
     1
102
RTVSPost2010Prop48
 90
       50
102
RTVSPost2010PropOp48
 70
     1
102
RTVSPost2010Prop49
280
     0
102
RTVSPost2010PropOp49
 70
     1
102
RTVSPost2010Prop50
 90
       50
102
RTVSPost2010PropOp50
 70
     1
102
RTVSPost2010Prop51ColorIndex
 90
      256
102
RTVSPost2010Prop51ColorRGB
 90
-16777216
102
RTVSPost2010PropOp51
 70
     0
102
RTVSPost2010Prop52
140
1.0
102
RTVSPost2010PropOp52
 70
     0
102
RTVSPost2010Prop53
 90
        2
102
RTVSPost2010PropOp53
 70
     1
102
RTVSPost2010Prop54
  1
strokes_ogs.tif
102
RTVSPost2010PropOp54
 70
     1
102
RTVSPost2010Prop55
280
     0
102
RTVSPost2010PropOp55
 70
     1
102
RTVSPost2010Prop56
140
1.0
102
RTVSPost2010PropOp56
 70
     1
102
RTVSPost2010Prop57
140
1.0
102
RTVSPost2010PropOp57
 70
     1
102
RTVSPropertyOp0
 70
     1
102
RTVSPropertyOp1
 70
     1
102
RTVSPropertyOp2
 70
     1
102
RTVSPropertyOp3
 70
     1
102
RTVSPropertyOp4
 70
     1
102
RTVSPropertyOp5
 70
     1
102
RTVSPropertyOp6
 70
     1
102
RTVSPropertyOp7
 70
     1
102
RTVSPropertyOp8
 70
     1
102
RTVSPropertyOp9
 70
     1
102
RTVSPropertyOp10
 70
     1
102
RTVSPropertyOp11
 70
     1
102
RTVSPropertyOp12
 70
     1
102
RTVSPropertyOp13
 70
     1
102
RTVSPropertyOp14
 70
     1
102
RTVSPropertyOp15
 70
     1
102
RTVSPropertyOp16
 70
     1
102
RTVSPropertyOp17
 70
     1
102
RTVSPropertyOp18
 70
     1
102
RTVSPropertyOp19
 70
     1
102
RTVSPropertyOp20
 70
     1
102
RTVSPropertyOp21
 70
     1
102
RTVSPropertyOp22
 70
     1
102
RTVSPropertyOp23
 70
     1
102
RTVSPropertyOp24
 70
     1
102
RTVSPropertyOp25
 70
     1
102
RTVSPropertyOp26
 70
     1
102
RTVSPropertyOp27
 70
     1
102
RTVSPropertyOp28
 70
     1
102
RTVSPropertyOp29
 70
     1
102
RTVSPropertyOp30
 70
     1
102
RTVSPropertyOp31
 70
     1
102
RTVSPropertyOp32
 70
     1
102
RTVSPropertyOp33
 70
     1
102
RTVSPropertyOp34
 70
     1
102
RTVSPropertyOp35
 70
     1
102
RTVSPropertyOp36
 70
     1
102
RTVSPropertyOp37
 70
     1
102
RTVSPropertyOp38
 70
     1
102
RTVSPropertyOp39
 70
     1
102
RTVSPropertyOp40
 70
     1
102
RTVSPropertyOp41
 70
     1
102
RTVSPropertyOp42
 70
     1
102
RTVSPropertyOp43
 70
     1
102
RTVSPropertyOp44
 70
     1
102
RTVSPropertyOp45
 70
     1
102
RTVSPropertyOp46
 70
     1
102
RTVSPropertyOp47
 70
     1
102
RTVSPropertyOp48
 70
     1
102
RTVSPropertyOp49
 70
     1
102
RTVSPropertyOp50
 70
     1
102
RTVSPropertyOp51
 70
     0
102
RTVSPropertyOp52
 70
     0
102
RTVSPropertyOp53
 70
     1
102
RTVSPropertyOp54
 70
     1
102
RTVSPropertyOp55
 70
     1
102
RTVSPropertyOp56
 70
     1
102
RTVSPropertyOp57
 70
     1
102
RTVSPropertyOp58
 70
     1
102
RTVSPropertyOp59
 70
     1
102
RTVSPropertyOp60
 70
     1
102
RTVSPropertyOp61
 70
     1
102
RTVSPropertyOp62
 70
     1
  0
XRECORD
  5
16E7
102
{ACAD_REACTORS
330
16E6
102
}
330
16E6
100
AcDbXrecord
280
     1
102
RTVSPost2010Prop28
280
     0
102
RTVSPost2010PropOp28
 70
     1
102
RTVSPost2010Prop29
280
     1
102
RTVSPost2010PropOp29
 70
     1
102
RTVSPost2010Prop30
280
     1
102
RTVSPost2010PropOp30
 70
     1
102
RTVSPost2010Prop31
280
     0
102
RTVSPost2010PropOp31
 70
     1
102
RTVSPost2010Prop32
280
     0
102
RTVSPost2010PropOp32
 70
     1
102
RTVSPost2010Prop33
280
     0
102
RTVSPost2010PropOp33
 70
     1
102
RTVSPost2010Prop34
280
     0
102
RTVSPost2010PropOp34
 70
     1
102
RTVSPost2010Prop35
280
     0
102
RTVSPost2010PropOp35
 70
     1
102
RTVSPost2010Prop36
280
     0
102
RTVSPost2010PropOp36
 70
     1
102
RTVSPost2010Prop37
 90
       50
102
RTVSPost2010PropOp37
 70
     1
102
RTVSPost2010Prop38
140
0.0
102
RTVSPost2010PropOp38
 70
     1
102
RTVSPost2010Prop39
140
1.0
102
RTVSPost2010PropOp39
 70
     1
102
RTVSPost2010Prop40
 90
        0
102
RTVSPost2010PropOp40
 70
     1
102
RTVSPost2010Prop41ColorIndex
 90
       18
102
RTVSPost2010Prop41ColorRGB
 90
        0
102
RTVSPost2010PropOp41
 70
     1
102
RTVSPost2010Prop42
 90
       50
102
RTVSPost2010PropOp42
 70
     1
102
RTVSPost2010Prop43
 90
        3
102
RTVSPost2010PropOp43
 70
     1
102
RTVSPost2010Prop44ColorIndex
 90
        5
102
RTVSPost2010Prop44ColorRGB
 90
      255
102
RTVSPost2010PropOp44
 70
     1
102
RTVSPost2010Prop45
280
     0
102
RTVSPost2010PropOp45
 70
     1
102
RTVSPost2010Prop46
 90
       50
102
RTVSPost2010PropOp46
 70
     1
102
RTVSPost2010Prop47
 90
       50
102
RTVSPost2010PropOp47
 70
     1
102
RTVSPost2010Prop48
 90
       50
102
RTVSPost2010PropOp48
 70
     1
102
RTVSPost2010Prop49
280
     0
102
RTVSPost2010PropOp49
 70
     1
102
RTVSPost2010Prop50
 90
       50
102
RTVSPost2010PropOp50
 70
     1
102
RTVSPost2010Prop51ColorIndex
 90
      256
102
RTVSPost2010Prop51ColorRGB
 90
-16777216
102
RTVSPost2010PropOp51
 70
     0
102
RTVSPost2010Prop52
140
1.0
102
RTVSPost2010PropOp52
 70
     0
102
RTVSPost2010Prop53
 90
        2
102
RTVSPost2010PropOp53
 70
     1
102
RTVSPost2010Prop54
  1
strokes_ogs.tif
102
RTVSPost2010PropOp54
 70
     1
102
RTVSPost2010Prop55
280
     0
102
RTVSPost2010PropOp55
 70
     1
102
RTVSPost2010Prop56
140
1.0
102
RTVSPost2010PropOp56
 70
     1
102
RTVSPost2010Prop57
140
1.0
102
RTVSPost2010PropOp57
 70
     1
102
RTVSPropertyOp0
 70
     1
102
RTVSPropertyOp1
 70
     1
102
RTVSPropertyOp2
 70
     1
102
RTVSPropertyOp3
 70
     1
102
RTVSPropertyOp4
 70
     1
102
RTVSPropertyOp5
 70
     1
102
RTVSPropertyOp6
 70
     1
102
RTVSPropertyOp7
 70
     1
102
RTVSPropertyOp8
 70
     1
102
RTVSPropertyOp9
 70
     1
102
RTVSPropertyOp10
 70
     1
102
RTVSPropertyOp11
 70
     1
102
RTVSPropertyOp12
 70
     1
102
RTVSPropertyOp13
 70
     1
102
RTVSPropertyOp14
 70
     1
102
RTVSPropertyOp15
 70
     1
102
RTVSPropertyOp16
 70
     1
102
RTVSPropertyOp17
 70
     1
102
RTVSPropertyOp18
 70
     1
102
RTVSPropertyOp19
 70
     1
102
RTVSPropertyOp20
 70
     1
102
RTVSPropertyOp21
 70
     1
102
RTVSPropertyOp22
 70
     1
102
RTVSPropertyOp23
 70
     1
102
RTVSPropertyOp24
 70
     1
102
RTVSPropertyOp25
 70
     1
102
RTVSPropertyOp26
 70
     1
102
RTVSPropertyOp27
 70
     1
102
RTVSPropertyOp28
 70
     1
102
RTVSPropertyOp29
 70
     1
102
RTVSPropertyOp30
 70
     1
102
RTVSPropertyOp31
 70
     1
102
RTVSPropertyOp32
 70
     1
102
RTVSPropertyOp33
 70
     1
102
RTVSPropertyOp34
 70
     1
102
RTVSPropertyOp35
 70
     1
102
RTVSPropertyOp36
 70
     1
102
RTVSPropertyOp37
 70
     1
102
RTVSPropertyOp38
 70
     1
102
RTVSPropertyOp39
 70
     1
102
RTVSPropertyOp40
 70
     1
102
RTVSPropertyOp41
 70
     1
102
RTVSPropertyOp42
 70
     1
102
RTVSPropertyOp43
 70
     1
102
RTVSPropertyOp44
 70
     1
102
RTVSPropertyOp45
 70
     1
102
RTVSPropertyOp46
 70
     1
102
RTVSPropertyOp47
 70
     1
102
RTVSPropertyOp48
 70
     1
102
RTVSPropertyOp49
 70
     1
102
RTVSPropertyOp50
 70
     1
102
RTVSPropertyOp51
 70
     0
102
RTVSPropertyOp52
 70
     0
102
RTVSPropertyOp53
 70
     1
102
RTVSPropertyOp54
 70
     1
102
RTVSPropertyOp55
 70
     1
102
RTVSPropertyOp56
 70
     1
102
RTVSPropertyOp57
 70
     1
102
RTVSPropertyOp58
 70
     1
102
RTVSPropertyOp59
 70
     1
102
RTVSPropertyOp60
 70
     1
102
RTVSPropertyOp61
 70
     1
102
RTVSPropertyOp62
 70
     1
  0
XRECORD
  5
16E5
102
{ACAD_REACTORS
330
16E4
102
}
330
16E4
100
AcDbXrecord
280
     1
102
RTVSPost2010Prop28
280
     0
102
RTVSPost2010PropOp28
 70
     1
102
RTVSPost2010Prop29
280
     1
102
RTVSPost2010PropOp29
 70
     1
102
RTVSPost2010Prop30
280
     1
102
RTVSPost2010PropOp30
 70
     1
102
RTVSPost2010Prop31
280
     0
102
RTVSPost2010PropOp31
 70
     1
102
RTVSPost2010Prop32
280
     0
102
RTVSPost2010PropOp32
 70
     1
102
RTVSPost2010Prop33
280
     0
102
RTVSPost2010PropOp33
 70
     1
102
RTVSPost2010Prop34
280
     0
102
RTVSPost2010PropOp34
 70
     1
102
RTVSPost2010Prop35
280
     0
102
RTVSPost2010PropOp35
 70
     1
102
RTVSPost2010Prop36
280
     0
102
RTVSPost2010PropOp36
 70
     1
102
RTVSPost2010Prop37
 90
       50
102
RTVSPost2010PropOp37
 70
     1
102
RTVSPost2010Prop38
140
0.0
102
RTVSPost2010PropOp38
 70
     1
102
RTVSPost2010Prop39
140
1.0
102
RTVSPost2010PropOp39
 70
     1
102
RTVSPost2010Prop40
 90
        0
102
RTVSPost2010PropOp40
 70
     1
102
RTVSPost2010Prop41ColorIndex
 90
       18
102
RTVSPost2010Prop41ColorRGB
 90
        0
102
RTVSPost2010PropOp41
 70
     1
102
RTVSPost2010Prop42
 90
       50
102
RTVSPost2010PropOp42
 70
     1
102
RTVSPost2010Prop43
 90
        3
102
RTVSPost2010PropOp43
 70
     1
102
RTVSPost2010Prop44ColorIndex
 90
        5
102
RTVSPost2010Prop44ColorRGB
 90
      255
102
RTVSPost2010PropOp44
 70
     1
102
RTVSPost2010Prop45
280
     0
102
RTVSPost2010PropOp45
 70
     1
102
RTVSPost2010Prop46
 90
       50
102
RTVSPost2010PropOp46
 70
     1
102
RTVSPost2010Prop47
 90
       50
102
RTVSPost2010PropOp47
 70
     1
102
RTVSPost2010Prop48
 90
       50
102
RTVSPost2010PropOp48
 70
     1
102
RTVSPost2010Prop49
280
     0
102
RTVSPost2010PropOp49
 70
     1
102
RTVSPost2010Prop50
 90
       50
102
RTVSPost2010PropOp50
 70
     1
102
RTVSPost2010Prop51ColorIndex
 90
      256
102
RTVSPost2010Prop51ColorRGB
 90
-16777216
102
RTVSPost2010PropOp51
 70
     0
102
RTVSPost2010Prop52
140
1.0
102
RTVSPost2010PropOp52
 70
     0
102
RTVSPost2010Prop53
 90
        2
102
RTVSPost2010PropOp53
 70
     1
102
RTVSPost2010Prop54
  1
strokes_ogs.tif
102
RTVSPost2010PropOp54
 70
     1
102
RTVSPost2010Prop55
280
     0
102
RTVSPost2010PropOp55
 70
     1
102
RTVSPost2010Prop56
140
1.0
102
RTVSPost2010PropOp56
 70
     1
102
RTVSPost2010Prop57
140
1.0
102
RTVSPost2010PropOp57
 70
     1
102
RTVSPropertyOp0
 70
     1
102
RTVSPropertyOp1
 70
     1
102
RTVSPropertyOp2
 70
     1
102
RTVSPropertyOp3
 70
     1
102
RTVSPropertyOp4
 70
     1
102
RTVSPropertyOp5
 70
     1
102
RTVSPropertyOp6
 70
     1
102
RTVSPropertyOp7
 70
     1
102
RTVSPropertyOp8
 70
     1
102
RTVSPropertyOp9
 70
     1
102
RTVSPropertyOp10
 70
     1
102
RTVSPropertyOp11
 70
     1
102
RTVSPropertyOp12
 70
     1
102
RTVSPropertyOp13
 70
     1
102
RTVSPropertyOp14
 70
     1
102
RTVSPropertyOp15
 70
     1
102
RTVSPropertyOp16
 70
     1
102
RTVSPropertyOp17
 70
     1
102
RTVSPropertyOp18
 70
     1
102
RTVSPropertyOp19
 70
     1
102
RTVSPropertyOp20
 70
     1
102
RTVSPropertyOp21
 70
     1
102
RTVSPropertyOp22
 70
     1
102
RTVSPropertyOp23
 70
     1
102
RTVSPropertyOp24
 70
     1
102
RTVSPropertyOp25
 70
     1
102
RTVSPropertyOp26
 70
     1
102
RTVSPropertyOp27
 70
     1
102
RTVSPropertyOp28
 70
     1
102
RTVSPropertyOp29
 70
     1
102
RTVSPropertyOp30
 70
     1
102
RTVSPropertyOp31
 70
     1
102
RTVSPropertyOp32
 70
     1
102
RTVSPropertyOp33
 70
     1
102
RTVSPropertyOp34
 70
     1
102
RTVSPropertyOp35
 70
     1
102
RTVSPropertyOp36
 70
     1
102
RTVSPropertyOp37
 70
     1
102
RTVSPropertyOp38
 70
     1
102
RTVSPropertyOp39
 70
     1
102
RTVSPropertyOp40
 70
     1
102
RTVSPropertyOp41
 70
     1
102
RTVSPropertyOp42
 70
     1
102
RTVSPropertyOp43
 70
     1
102
RTVSPropertyOp44
 70
     1
102
RTVSPropertyOp45
 70
     1
102
RTVSPropertyOp46
 70
     1
102
RTVSPropertyOp47
 70
     1
102
RTVSPropertyOp48
 70
     1
102
RTVSPropertyOp49
 70
     1
102
RTVSPropertyOp50
 70
     1
102
RTVSPropertyOp51
 70
     0
102
RTVSPropertyOp52
 70
     0
102
RTVSPropertyOp53
 70
     1
102
RTVSPropertyOp54
 70
     1
102
RTVSPropertyOp55
 70
     1
102
RTVSPropertyOp56
 70
     1
102
RTVSPropertyOp57
 70
     1
102
RTVSPropertyOp58
 70
     1
102
RTVSPropertyOp59
 70
     1
102
RTVSPropertyOp60
 70
     1
102
RTVSPropertyOp61
 70
     1
102
RTVSPropertyOp62
 70
     1
  0
XRECORD
  5
16DF
102
{ACAD_REACTORS
330
16DE
102
}
330
16DE
100
AcDbXrecord
280
     1
102
RTVSPost2010Prop28
280
     0
102
RTVSPost2010PropOp28
 70
     1
102
RTVSPost2010Prop29
280
     1
102
RTVSPost2010PropOp29
 70
     1
102
RTVSPost2010Prop30
280
     1
102
RTVSPost2010PropOp30
 70
     1
102
RTVSPost2010Prop31
280
     0
102
RTVSPost2010PropOp31
 70
     1
102
RTVSPost2010Prop32
280
     0
102
RTVSPost2010PropOp32
 70
     1
102
RTVSPost2010Prop33
280
     0
102
RTVSPost2010PropOp33
 70
     1
102
RTVSPost2010Prop34
280
     0
102
RTVSPost2010PropOp34
 70
     1
102
RTVSPost2010Prop35
280
     0
102
RTVSPost2010PropOp35
 70
     1
102
RTVSPost2010Prop36
280
     0
102
RTVSPost2010PropOp36
 70
     1
102
RTVSPost2010Prop37
 90
       50
102
RTVSPost2010PropOp37
 70
     1
102
RTVSPost2010Prop38
140
0.0
102
RTVSPost2010PropOp38
 70
     1
102
RTVSPost2010Prop39
140
1.0
102
RTVSPost2010PropOp39
 70
     1
102
RTVSPost2010Prop40
 90
        0
102
RTVSPost2010PropOp40
 70
     1
102
RTVSPost2010Prop41ColorIndex
 90
       18
102
RTVSPost2010Prop41ColorRGB
 90
        0
102
RTVSPost2010PropOp41
 70
     1
102
RTVSPost2010Prop42
 90
       50
102
RTVSPost2010PropOp42
 70
     1
102
RTVSPost2010Prop43
 90
        3
102
RTVSPost2010PropOp43
 70
     1
102
RTVSPost2010Prop44ColorIndex
 90
        5
102
RTVSPost2010Prop44ColorRGB
 90
      255
102
RTVSPost2010PropOp44
 70
     1
102
RTVSPost2010Prop45
280
     0
102
RTVSPost2010PropOp45
 70
     1
102
RTVSPost2010Prop46
 90
       50
102
RTVSPost2010PropOp46
 70
     1
102
RTVSPost2010Prop47
 90
       50
102
RTVSPost2010PropOp47
 70
     1
102
RTVSPost2010Prop48
 90
       50
102
RTVSPost2010PropOp48
 70
     1
102
RTVSPost2010Prop49
280
     0
102
RTVSPost2010PropOp49
 70
     1
102
RTVSPost2010Prop50
 90
       50
102
RTVSPost2010PropOp50
 70
     1
102
RTVSPost2010Prop51ColorIndex
 90
      256
102
RTVSPost2010Prop51ColorRGB
 90
-16777216
102
RTVSPost2010PropOp51
 70
     0
102
RTVSPost2010Prop52
140
1.0
102
RTVSPost2010PropOp52
 70
     0
102
RTVSPost2010Prop53
 90
        2
102
RTVSPost2010PropOp53
 70
     1
102
RTVSPost2010Prop54
  1
strokes_ogs.tif
102
RTVSPost2010PropOp54
 70
     1
102
RTVSPost2010Prop55
280
     0
102
RTVSPost2010PropOp55
 70
     1
102
RTVSPost2010Prop56
140
1.0
102
RTVSPost2010PropOp56
 70
     1
102
RTVSPost2010Prop57
140
1.0
102
RTVSPost2010PropOp57
 70
     1
102
RTVSPropertyOp0
 70
     1
102
RTVSPropertyOp1
 70
     1
102
RTVSPropertyOp2
 70
     1
102
RTVSPropertyOp3
 70
     1
102
RTVSPropertyOp4
 70
     1
102
RTVSPropertyOp5
 70
     1
102
RTVSPropertyOp6
 70
     1
102
RTVSPropertyOp7
 70
     1
102
RTVSPropertyOp8
 70
     1
102
RTVSPropertyOp9
 70
     1
102
RTVSPropertyOp10
 70
     1
102
RTVSPropertyOp11
 70
     1
102
RTVSPropertyOp12
 70
     1
102
RTVSPropertyOp13
 70
     1
102
RTVSPropertyOp14
 70
     1
102
RTVSPropertyOp15
 70
     1
102
RTVSPropertyOp16
 70
     1
102
RTVSPropertyOp17
 70
     1
102
RTVSPropertyOp18
 70
     1
102
RTVSPropertyOp19
 70
     1
102
RTVSPropertyOp20
 70
     1
102
RTVSPropertyOp21
 70
     1
102
RTVSPropertyOp22
 70
     1
102
RTVSPropertyOp23
 70
     1
102
RTVSPropertyOp24
 70
     1
102
RTVSPropertyOp25
 70
     1
102
RTVSPropertyOp26
 70
     1
102
RTVSPropertyOp27
 70
     1
102
RTVSPropertyOp28
 70
     1
102
RTVSPropertyOp29
 70
     1
102
RTVSPropertyOp30
 70
     1
102
RTVSPropertyOp31
 70
     1
102
RTVSPropertyOp32
 70
     1
102
RTVSPropertyOp33
 70
     1
102
RTVSPropertyOp34
 70
     1
102
RTVSPropertyOp35
 70
     1
102
RTVSPropertyOp36
 70
     1
102
RTVSPropertyOp37
 70
     1
102
RTVSPropertyOp38
 70
     1
102
RTVSPropertyOp39
 70
     1
102
RTVSPropertyOp40
 70
     1
102
RTVSPropertyOp41
 70
     1
102
RTVSPropertyOp42
 70
     1
102
RTVSPropertyOp43
 70
     1
102
RTVSPropertyOp44
 70
     1
102
RTVSPropertyOp45
 70
     1
102
RTVSPropertyOp46
 70
     1
102
RTVSPropertyOp47
 70
     1
102
RTVSPropertyOp48
 70
     1
102
RTVSPropertyOp49
 70
     1
102
RTVSPropertyOp50
 70
     1
102
RTVSPropertyOp51
 70
     0
102
RTVSPropertyOp52
 70
     0
102
RTVSPropertyOp53
 70
     1
102
RTVSPropertyOp54
 70
     1
102
RTVSPropertyOp55
 70
     1
102
RTVSPropertyOp56
 70
     1
102
RTVSPropertyOp57
 70
     1
102
RTVSPropertyOp58
 70
     1
102
RTVSPropertyOp59
 70
     1
102
RTVSPropertyOp60
 70
     1
102
RTVSPropertyOp61
 70
     1
102
RTVSPropertyOp62
 70
     1
  0
XRECORD
  5
16E1
102
{ACAD_REACTORS
330
16E0
102
}
330
16E0
100
AcDbXrecord
280
     1
102
RTVSPost2010Prop28
280
     0
102
RTVSPost2010PropOp28
 70
     1
102
RTVSPost2010Prop29
280
     1
102
RTVSPost2010PropOp29
 70
     1
102
RTVSPost2010Prop30
280
     1
102
RTVSPost2010PropOp30
 70
     1
102
RTVSPost2010Prop31
280
     0
102
RTVSPost2010PropOp31
 70
     1
102
RTVSPost2010Prop32
280
     0
102
RTVSPost2010PropOp32
 70
     1
102
RTVSPost2010Prop33
280
     0
102
RTVSPost2010PropOp33
 70
     1
102
RTVSPost2010Prop34
280
     0
102
RTVSPost2010PropOp34
 70
     1
102
RTVSPost2010Prop35
280
     0
102
RTVSPost2010PropOp35
 70
     1
102
RTVSPost2010Prop36
280
     0
102
RTVSPost2010PropOp36
 70
     1
102
RTVSPost2010Prop37
 90
       50
102
RTVSPost2010PropOp37
 70
     1
102
RTVSPost2010Prop38
140
0.0
102
RTVSPost2010PropOp38
 70
     1
102
RTVSPost2010Prop39
140
1.0
102
RTVSPost2010PropOp39
 70
     1
102
RTVSPost2010Prop40
 90
        0
102
RTVSPost2010PropOp40
 70
     1
102
RTVSPost2010Prop41ColorIndex
 90
       18
102
RTVSPost2010Prop41ColorRGB
 90
        0
102
RTVSPost2010PropOp41
 70
     1
102
RTVSPost2010Prop42
 90
       50
102
RTVSPost2010PropOp42
 70
     1
102
RTVSPost2010Prop43
 90
        3
102
RTVSPost2010PropOp43
 70
     1
102
RTVSPost2010Prop44ColorIndex
 90
        5
102
RTVSPost2010Prop44ColorRGB
 90
      255
102
RTVSPost2010PropOp44
 70
     1
102
RTVSPost2010Prop45
280
     0
102
RTVSPost2010PropOp45
 70
     1
102
RTVSPost2010Prop46
 90
       50
102
RTVSPost2010PropOp46
 70
     1
102
RTVSPost2010Prop47
 90
       50
102
RTVSPost2010PropOp47
 70
     1
102
RTVSPost2010Prop48
 90
       50
102
RTVSPost2010PropOp48
 70
     1
102
RTVSPost2010Prop49
280
     0
102
RTVSPost2010PropOp49
 70
     1
102
RTVSPost2010Prop50
 90
       50
102
RTVSPost2010PropOp50
 70
     1
102
RTVSPost2010Prop51ColorIndex
 90
      256
102
RTVSPost2010Prop51ColorRGB
 90
-16777216
102
RTVSPost2010PropOp51
 70
     0
102
RTVSPost2010Prop52
140
1.0
102
RTVSPost2010PropOp52
 70
     0
102
RTVSPost2010Prop53
 90
        2
102
RTVSPost2010PropOp53
 70
     1
102
RTVSPost2010Prop54
  1
strokes_ogs.tif
102
RTVSPost2010PropOp54
 70
     1
102
RTVSPost2010Prop55
280
     0
102
RTVSPost2010PropOp55
 70
     1
102
RTVSPost2010Prop56
140
1.0
102
RTVSPost2010PropOp56
 70
     1
102
RTVSPost2010Prop57
140
1.0
102
RTVSPost2010PropOp57
 70
     1
102
RTVSPropertyOp0
 70
     1
102
RTVSPropertyOp1
 70
     1
102
RTVSPropertyOp2
 70
     1
102
RTVSPropertyOp3
 70
     1
102
RTVSPropertyOp4
 70
     1
102
RTVSPropertyOp5
 70
     1
102
RTVSPropertyOp6
 70
     1
102
RTVSPropertyOp7
 70
     1
102
RTVSPropertyOp8
 70
     1
102
RTVSPropertyOp9
 70
     1
102
RTVSPropertyOp10
 70
     1
102
RTVSPropertyOp11
 70
     1
102
RTVSPropertyOp12
 70
     1
102
RTVSPropertyOp13
 70
     1
102
RTVSPropertyOp14
 70
     1
102
RTVSPropertyOp15
 70
     1
102
RTVSPropertyOp16
 70
     1
102
RTVSPropertyOp17
 70
     1
102
RTVSPropertyOp18
 70
     1
102
RTVSPropertyOp19
 70
     1
102
RTVSPropertyOp20
 70
     1
102
RTVSPropertyOp21
 70
     1
102
RTVSPropertyOp22
 70
     1
102
RTVSPropertyOp23
 70
     1
102
RTVSPropertyOp24
 70
     1
102
RTVSPropertyOp25
 70
     1
102
RTVSPropertyOp26
 70
     1
102
RTVSPropertyOp27
 70
     1
102
RTVSPropertyOp28
 70
     1
102
RTVSPropertyOp29
 70
     1
102
RTVSPropertyOp30
 70
     1
102
RTVSPropertyOp31
 70
     1
102
RTVSPropertyOp32
 70
     1
102
RTVSPropertyOp33
 70
     1
102
RTVSPropertyOp34
 70
     1
102
RTVSPropertyOp35
 70
     1
102
RTVSPropertyOp36
 70
     1
102
RTVSPropertyOp37
 70
     1
102
RTVSPropertyOp38
 70
     1
102
RTVSPropertyOp39
 70
     1
102
RTVSPropertyOp40
 70
     1
102
RTVSPropertyOp41
 70
     1
102
RTVSPropertyOp42
 70
     1
102
RTVSPropertyOp43
 70
     1
102
RTVSPropertyOp44
 70
     1
102
RTVSPropertyOp45
 70
     1
102
RTVSPropertyOp46
 70
     1
102
RTVSPropertyOp47
 70
     1
102
RTVSPropertyOp48
 70
     1
102
RTVSPropertyOp49
 70
     1
102
RTVSPropertyOp50
 70
     1
102
RTVSPropertyOp51
 70
     0
102
RTVSPropertyOp52
 70
     0
102
RTVSPropertyOp53
 70
     1
102
RTVSPropertyOp54
 70
     1
102
RTVSPropertyOp55
 70
     1
102
RTVSPropertyOp56
 70
     1
102
RTVSPropertyOp57
 70
     1
102
RTVSPropertyOp58
 70
     1
102
RTVSPropertyOp59
 70
     1
102
RTVSPropertyOp60
 70
     1
102
RTVSPropertyOp61
 70
     1
102
RTVSPropertyOp62
 70
     1
  0
XRECORD
  5
16D7
102
{ACAD_REACTORS
330
16D6
102
}
330
16D6
100
AcDbXrecord
280
     1
102
RTVSPost2010Prop28
280
     0
102
RTVSPost2010PropOp28
 70
     1
102
RTVSPost2010Prop29
280
     1
102
RTVSPost2010PropOp29
 70
     1
102
RTVSPost2010Prop30
280
     1
102
RTVSPost2010PropOp30
 70
     1
102
RTVSPost2010Prop31
280
     0
102
RTVSPost2010PropOp31
 70
     1
102
RTVSPost2010Prop32
280
     0
102
RTVSPost2010PropOp32
 70
     1
102
RTVSPost2010Prop33
280
     0
102
RTVSPost2010PropOp33
 70
     1
102
RTVSPost2010Prop34
280
     0
102
RTVSPost2010PropOp34
 70
     1
102
RTVSPost2010Prop35
280
     0
102
RTVSPost2010PropOp35
 70
     1
102
RTVSPost2010Prop36
280
     0
102
RTVSPost2010PropOp36
 70
     1
102
RTVSPost2010Prop37
 90
       50
102
RTVSPost2010PropOp37
 70
     1
102
RTVSPost2010Prop38
140
0.0
102
RTVSPost2010PropOp38
 70
     1
102
RTVSPost2010Prop39
140
1.0
102
RTVSPost2010PropOp39
 70
     1
102
RTVSPost2010Prop40
 90
        0
102
RTVSPost2010PropOp40
 70
     1
102
RTVSPost2010Prop41ColorIndex
 90
       18
102
RTVSPost2010Prop41ColorRGB
 90
        0
102
RTVSPost2010PropOp41
 70
     1
102
RTVSPost2010Prop42
 90
       50
102
RTVSPost2010PropOp42
 70
     1
102
RTVSPost2010Prop43
 90
        3
102
RTVSPost2010PropOp43
 70
     1
102
RTVSPost2010Prop44ColorIndex
 90
        5
102
RTVSPost2010Prop44ColorRGB
 90
      255
102
RTVSPost2010PropOp44
 70
     1
102
RTVSPost2010Prop45
280
     0
102
RTVSPost2010PropOp45
 70
     1
102
RTVSPost2010Prop46
 90
       50
102
RTVSPost2010PropOp46
 70
     1
102
RTVSPost2010Prop47
 90
       50
102
RTVSPost2010PropOp47
 70
     1
102
RTVSPost2010Prop48
 90
       50
102
RTVSPost2010PropOp48
 70
     1
102
RTVSPost2010Prop49
280
     0
102
RTVSPost2010PropOp49
 70
     1
102
RTVSPost2010Prop50
 90
       50
102
RTVSPost2010PropOp50
 70
     1
102
RTVSPost2010Prop51ColorIndex
 90
      256
102
RTVSPost2010Prop51ColorRGB
 90
-16777216
102
RTVSPost2010PropOp51
 70
     0
102
RTVSPost2010Prop52
140
1.0
102
RTVSPost2010PropOp52
 70
     0
102
RTVSPost2010Prop53
 90
        2
102
RTVSPost2010PropOp53
 70
     1
102
RTVSPost2010Prop54
  1
strokes_ogs.tif
102
RTVSPost2010PropOp54
 70
     1
102
RTVSPost2010Prop55
280
     0
102
RTVSPost2010PropOp55
 70
     1
102
RTVSPost2010Prop56
140
1.0
102
RTVSPost2010PropOp56
 70
     1
102
RTVSPost2010Prop57
140
1.0
102
RTVSPost2010PropOp57
 70
     1
102
RTVSPropertyOp0
 70
     1
102
RTVSPropertyOp1
 70
     1
102
RTVSPropertyOp2
 70
     1
102
RTVSPropertyOp3
 70
     1
102
RTVSPropertyOp4
 70
     1
102
RTVSPropertyOp5
 70
     1
102
RTVSPropertyOp6
 70
     1
102
RTVSPropertyOp7
 70
     1
102
RTVSPropertyOp8
 70
     1
102
RTVSPropertyOp9
 70
     1
102
RTVSPropertyOp10
 70
     1
102
RTVSPropertyOp11
 70
     1
102
RTVSPropertyOp12
 70
     1
102
RTVSPropertyOp13
 70
     1
102
RTVSPropertyOp14
 70
     1
102
RTVSPropertyOp15
 70
     1
102
RTVSPropertyOp16
 70
     1
102
RTVSPropertyOp17
 70
     1
102
RTVSPropertyOp18
 70
     1
102
RTVSPropertyOp19
 70
     1
102
RTVSPropertyOp20
 70
     1
102
RTVSPropertyOp21
 70
     1
102
RTVSPropertyOp22
 70
     1
102
RTVSPropertyOp23
 70
     1
102
RTVSPropertyOp24
 70
     1
102
RTVSPropertyOp25
 70
     1
102
RTVSPropertyOp26
 70
     1
102
RTVSPropertyOp27
 70
     1
102
RTVSPropertyOp28
 70
     1
102
RTVSPropertyOp29
 70
     1
102
RTVSPropertyOp30
 70
     1
102
RTVSPropertyOp31
 70
     1
102
RTVSPropertyOp32
 70
     1
102
RTVSPropertyOp33
 70
     1
102
RTVSPropertyOp34
 70
     1
102
RTVSPropertyOp35
 70
     1
102
RTVSPropertyOp36
 70
     1
102
RTVSPropertyOp37
 70
     1
102
RTVSPropertyOp38
 70
     1
102
RTVSPropertyOp39
 70
     1
102
RTVSPropertyOp40
 70
     1
102
RTVSPropertyOp41
 70
     1
102
RTVSPropertyOp42
 70
     1
102
RTVSPropertyOp43
 70
     1
102
RTVSPropertyOp44
 70
     1
102
RTVSPropertyOp45
 70
     1
102
RTVSPropertyOp46
 70
     1
102
RTVSPropertyOp47
 70
     1
102
RTVSPropertyOp48
 70
     1
102
RTVSPropertyOp49
 70
     1
102
RTVSPropertyOp50
 70
     1
102
RTVSPropertyOp51
 70
     0
102
RTVSPropertyOp52
 70
     0
102
RTVSPropertyOp53
 70
     1
102
RTVSPropertyOp54
 70
     1
102
RTVSPropertyOp55
 70
     1
102
RTVSPropertyOp56
 70
     1
102
RTVSPropertyOp57
 70
     1
102
RTVSPropertyOp58
 70
     1
102
RTVSPropertyOp59
 70
     1
102
RTVSPropertyOp60
 70
     1
102
RTVSPropertyOp61
 70
     1
102
RTVSPropertyOp62
 70
     1
  0
XRECORD
  5
16CB
102
{ACAD_REACTORS
330
16CA
102
}
330
16CA
100
AcDbXrecord
280
     1
102
RTVSPost2010Prop28
280
     0
102
RTVSPost2010PropOp28
 70
     1
102
RTVSPost2010Prop29
280
     1
102
RTVSPost2010PropOp29
 70
     1
102
RTVSPost2010Prop30
280
     1
102
RTVSPost2010PropOp30
 70
     1
102
RTVSPost2010Prop31
280
     0
102
RTVSPost2010PropOp31
 70
     1
102
RTVSPost2010Prop32
280
     0
102
RTVSPost2010PropOp32
 70
     1
102
RTVSPost2010Prop33
280
     0
102
RTVSPost2010PropOp33
 70
     1
102
RTVSPost2010Prop34
280
     0
102
RTVSPost2010PropOp34
 70
     1
102
RTVSPost2010Prop35
280
     0
102
RTVSPost2010PropOp35
 70
     1
102
RTVSPost2010Prop36
280
     0
102
RTVSPost2010PropOp36
 70
     1
102
RTVSPost2010Prop37
 90
       50
102
RTVSPost2010PropOp37
 70
     1
102
RTVSPost2010Prop38
140
0.0
102
RTVSPost2010PropOp38
 70
     1
102
RTVSPost2010Prop39
140
1.0
102
RTVSPost2010PropOp39
 70
     1
102
RTVSPost2010Prop40
 90
        0
102
RTVSPost2010PropOp40
 70
     1
102
RTVSPost2010Prop41ColorIndex
 90
       18
102
RTVSPost2010Prop41ColorRGB
 90
        0
102
RTVSPost2010PropOp41
 70
     1
102
RTVSPost2010Prop42
 90
       50
102
RTVSPost2010PropOp42
 70
     1
102
RTVSPost2010Prop43
 90
        3
102
RTVSPost2010PropOp43
 70
     1
102
RTVSPost2010Prop44ColorIndex
 90
        5
102
RTVSPost2010Prop44ColorRGB
 90
      255
102
RTVSPost2010PropOp44
 70
     1
102
RTVSPost2010Prop45
280
     0
102
RTVSPost2010PropOp45
 70
     1
102
RTVSPost2010Prop46
 90
       50
102
RTVSPost2010PropOp46
 70
     1
102
RTVSPost2010Prop47
 90
       50
102
RTVSPost2010PropOp47
 70
     1
102
RTVSPost2010Prop48
 90
       50
102
RTVSPost2010PropOp48
 70
     1
102
RTVSPost2010Prop49
280
     0
102
RTVSPost2010PropOp49
 70
     1
102
RTVSPost2010Prop50
 90
       50
102
RTVSPost2010PropOp50
 70
     1
102
RTVSPost2010Prop51ColorIndex
 90
      256
102
RTVSPost2010Prop51ColorRGB
 90
-16777216
102
RTVSPost2010PropOp51
 70
     0
102
RTVSPost2010Prop52
140
1.0
102
RTVSPost2010PropOp52
 70
     0
102
RTVSPost2010Prop53
 90
        2
102
RTVSPost2010PropOp53
 70
     1
102
RTVSPost2010Prop54
  1
strokes_ogs.tif
102
RTVSPost2010PropOp54
 70
     1
102
RTVSPost2010Prop55
280
     0
102
RTVSPost2010PropOp55
 70
     1
102
RTVSPost2010Prop56
140
1.0
102
RTVSPost2010PropOp56
 70
     1
102
RTVSPost2010Prop57
140
1.0
102
RTVSPost2010PropOp57
 70
     1
102
RTVSPropertyOp0
 70
     1
102
RTVSPropertyOp1
 70
     1
102
RTVSPropertyOp2
 70
     1
102
RTVSPropertyOp3
 70
     1
102
RTVSPropertyOp4
 70
     1
102
RTVSPropertyOp5
 70
     1
102
RTVSPropertyOp6
 70
     1
102
RTVSPropertyOp7
 70
     1
102
RTVSPropertyOp8
 70
     1
102
RTVSPropertyOp9
 70
     1
102
RTVSPropertyOp10
 70
     1
102
RTVSPropertyOp11
 70
     1
102
RTVSPropertyOp12
 70
     1
102
RTVSPropertyOp13
 70
     1
102
RTVSPropertyOp14
 70
     1
102
RTVSPropertyOp15
 70
     1
102
RTVSPropertyOp16
 70
     1
102
RTVSPropertyOp17
 70
     1
102
RTVSPropertyOp18
 70
     1
102
RTVSPropertyOp19
 70
     1
102
RTVSPropertyOp20
 70
     1
102
RTVSPropertyOp21
 70
     1
102
RTVSPropertyOp22
 70
     1
102
RTVSPropertyOp23
 70
     1
102
RTVSPropertyOp24
 70
     1
102
RTVSPropertyOp25
 70
     1
102
RTVSPropertyOp26
 70
     1
102
RTVSPropertyOp27
 70
     1
102
RTVSPropertyOp28
 70
     1
102
RTVSPropertyOp29
 70
     1
102
RTVSPropertyOp30
 70
     1
102
RTVSPropertyOp31
 70
     1
102
RTVSPropertyOp32
 70
     1
102
RTVSPropertyOp33
 70
     1
102
RTVSPropertyOp34
 70
     1
102
RTVSPropertyOp35
 70
     1
102
RTVSPropertyOp36
 70
     1
102
RTVSPropertyOp37
 70
     1
102
RTVSPropertyOp38
 70
     1
102
RTVSPropertyOp39
 70
     1
102
RTVSPropertyOp40
 70
     1
102
RTVSPropertyOp41
 70
     1
102
RTVSPropertyOp42
 70
     1
102
RTVSPropertyOp43
 70
     1
102
RTVSPropertyOp44
 70
     1
102
RTVSPropertyOp45
 70
     1
102
RTVSPropertyOp46
 70
     1
102
RTVSPropertyOp47
 70
     1
102
RTVSPropertyOp48
 70
     1
102
RTVSPropertyOp49
 70
     1
102
RTVSPropertyOp50
 70
     1
102
RTVSPropertyOp51
 70
     0
102
RTVSPropertyOp52
 70
     0
102
RTVSPropertyOp53
 70
     1
102
RTVSPropertyOp54
 70
     1
102
RTVSPropertyOp55
 70
     1
102
RTVSPropertyOp56
 70
     1
102
RTVSPropertyOp57
 70
     1
102
RTVSPropertyOp58
 70
     1
102
RTVSPropertyOp59
 70
     1
102
RTVSPropertyOp60
 70
     1
102
RTVSPropertyOp61
 70
     1
102
RTVSPropertyOp62
 70
     1
  0
XRECORD
  5
16E3
102
{ACAD_REACTORS
330
16E2
102
}
330
16E2
100
AcDbXrecord
280
     1
102
RTVSPost2010Prop28
280
     0
102
RTVSPost2010PropOp28
 70
     1
102
RTVSPost2010Prop29
280
     1
102
RTVSPost2010PropOp29
 70
     1
102
RTVSPost2010Prop30
280
     1
102
RTVSPost2010PropOp30
 70
     1
102
RTVSPost2010Prop31
280
     0
102
RTVSPost2010PropOp31
 70
     1
102
RTVSPost2010Prop32
280
     0
102
RTVSPost2010PropOp32
 70
     1
102
RTVSPost2010Prop33
280
     0
102
RTVSPost2010PropOp33
 70
     1
102
RTVSPost2010Prop34
280
     0
102
RTVSPost2010PropOp34
 70
     1
102
RTVSPost2010Prop35
280
     0
102
RTVSPost2010PropOp35
 70
     1
102
RTVSPost2010Prop36
280
     0
102
RTVSPost2010PropOp36
 70
     1
102
RTVSPost2010Prop37
 90
       50
102
RTVSPost2010PropOp37
 70
     1
102
RTVSPost2010Prop38
140
0.0
102
RTVSPost2010PropOp38
 70
     1
102
RTVSPost2010Prop39
140
1.0
102
RTVSPost2010PropOp39
 70
     1
102
RTVSPost2010Prop40
 90
        0
102
RTVSPost2010PropOp40
 70
     1
102
RTVSPost2010Prop41ColorIndex
 90
       18
102
RTVSPost2010Prop41ColorRGB
 90
        0
102
RTVSPost2010PropOp41
 70
     1
102
RTVSPost2010Prop42
 90
       50
102
RTVSPost2010PropOp42
 70
     1
102
RTVSPost2010Prop43
 90
        3
102
RTVSPost2010PropOp43
 70
     1
102
RTVSPost2010Prop44ColorIndex
 90
        5
102
RTVSPost2010Prop44ColorRGB
 90
      255
102
RTVSPost2010PropOp44
 70
     1
102
RTVSPost2010Prop45
280
     0
102
RTVSPost2010PropOp45
 70
     1
102
RTVSPost2010Prop46
 90
       50
102
RTVSPost2010PropOp46
 70
     1
102
RTVSPost2010Prop47
 90
       50
102
RTVSPost2010PropOp47
 70
     1
102
RTVSPost2010Prop48
 90
       50
102
RTVSPost2010PropOp48
 70
     1
102
RTVSPost2010Prop49
280
     0
102
RTVSPost2010PropOp49
 70
     1
102
RTVSPost2010Prop50
 90
       50
102
RTVSPost2010PropOp50
 70
     1
102
RTVSPost2010Prop51ColorIndex
 90
      256
102
RTVSPost2010Prop51ColorRGB
 90
-16777216
102
RTVSPost2010PropOp51
 70
     0
102
RTVSPost2010Prop52
140
1.0
102
RTVSPost2010PropOp52
 70
     0
102
RTVSPost2010Prop53
 90
        2
102
RTVSPost2010PropOp53
 70
     1
102
RTVSPost2010Prop54
  1
strokes_ogs.tif
102
RTVSPost2010PropOp54
 70
     1
102
RTVSPost2010Prop55
280
     0
102
RTVSPost2010PropOp55
 70
     1
102
RTVSPost2010Prop56
140
1.0
102
RTVSPost2010PropOp56
 70
     1
102
RTVSPost2010Prop57
140
1.0
102
RTVSPost2010PropOp57
 70
     1
102
RTVSPropertyOp0
 70
     1
102
RTVSPropertyOp1
 70
     1
102
RTVSPropertyOp2
 70
     1
102
RTVSPropertyOp3
 70
     1
102
RTVSPropertyOp4
 70
     1
102
RTVSPropertyOp5
 70
     1
102
RTVSPropertyOp6
 70
     1
102
RTVSPropertyOp7
 70
     1
102
RTVSPropertyOp8
 70
     1
102
RTVSPropertyOp9
 70
     1
102
RTVSPropertyOp10
 70
     1
102
RTVSPropertyOp11
 70
     1
102
RTVSPropertyOp12
 70
     1
102
RTVSPropertyOp13
 70
     1
102
RTVSPropertyOp14
 70
     1
102
RTVSPropertyOp15
 70
     1
102
RTVSPropertyOp16
 70
     1
102
RTVSPropertyOp17
 70
     1
102
RTVSPropertyOp18
 70
     1
102
RTVSPropertyOp19
 70
     1
102
RTVSPropertyOp20
 70
     1
102
RTVSPropertyOp21
 70
     1
102
RTVSPropertyOp22
 70
     1
102
RTVSPropertyOp23
 70
     1
102
RTVSPropertyOp24
 70
     1
102
RTVSPropertyOp25
 70
     1
102
RTVSPropertyOp26
 70
     1
102
RTVSPropertyOp27
 70
     1
102
RTVSPropertyOp28
 70
     1
102
RTVSPropertyOp29
 70
     1
102
RTVSPropertyOp30
 70
     1
102
RTVSPropertyOp31
 70
     1
102
RTVSPropertyOp32
 70
     1
102
RTVSPropertyOp33
 70
     1
102
RTVSPropertyOp34
 70
     1
102
RTVSPropertyOp35
 70
     1
102
RTVSPropertyOp36
 70
     1
102
RTVSPropertyOp37
 70
     1
102
RTVSPropertyOp38
 70
     1
102
RTVSPropertyOp39
 70
     1
102
RTVSPropertyOp40
 70
     1
102
RTVSPropertyOp41
 70
     1
102
RTVSPropertyOp42
 70
     1
102
RTVSPropertyOp43
 70
     1
102
RTVSPropertyOp44
 70
     1
102
RTVSPropertyOp45
 70
     1
102
RTVSPropertyOp46
 70
     1
102
RTVSPropertyOp47
 70
     1
102
RTVSPropertyOp48
 70
     1
102
RTVSPropertyOp49
 70
     1
102
RTVSPropertyOp50
 70
     1
102
RTVSPropertyOp51
 70
     0
102
RTVSPropertyOp52
 70
     0
102
RTVSPropertyOp53
 70
     1
102
RTVSPropertyOp54
 70
     1
102
RTVSPropertyOp55
 70
     1
102
RTVSPropertyOp56
 70
     1
102
RTVSPropertyOp57
 70
     1
102
RTVSPropertyOp58
 70
     1
102
RTVSPropertyOp59
 70
     1
102
RTVSPropertyOp60
 70
     1
102
RTVSPropertyOp61
 70
     1
102
RTVSPropertyOp62
 70
     1
  0
ENDSEC
  0
EOF
