  0
SECTION
  2
HEADER
  9
$ACADVER
  1
AC1018
  9
$ACADMAINTVER
 70
   104
  9
$DWGCODEPAGE
  3
ANSI_1252
  9
$LASTSAVEDBY
  1
francoisbu
  9
$INSBASE
 10
0.0
 20
0.0
 30
0.0
  9
$EXTMIN
 10
101.20865939417
 20
14.98177112395814
 30
-0.0015258207003583
  9
$EXTMAX
 10
137.2202152145699
 20
43.0725913325582
 30
0.0000000349246037
  9
$LIMMIN
 10
0.0
 20
0.0
  9
$LIMMAX
 10
181.3333333333
 20
117.3333333333
  9
$ORTHOMODE
 70
     0
  9
$REGENMODE
 70
     1
  9
$FILLMODE
 70
     1
  9
$QTEXTMODE
 70
     0
  9
$MIRRTEXT
 70
     0
  9
$LTSCALE
 40
9.973333333300001
  9
$ATTMODE
 70
     1
  9
$TEXTSIZE
 40
0.2
  9
$TRACEWID
 40
0.05
  9
$TEXTSTYLE
  7
STANDARD
  9
$CLAYER
  8
0
  9
$CELTYPE
  6
BYLAYER
  9
$CECOLOR
 62
   256
  9
$CELTSCALE
 40
1.0
  9
$DISPSILH
 70
     0
  9
$DIMSCALE
 40
1.0
  9
$DIMASZ
 40
2.0
  9
$DIMEXO
 40
0.0625
  9
$DIMDLI
 40
6.890666666699999
  9
$DIMRND
 40
0.0
  9
$DIMDLE
 40
0.0
  9
$DIMEXE
 40
0.125
  9
$DIMTP
 40
0.00001
  9
$DIMTM
 40
0.00001
  9
$DIMTXT
 40
1.333333333299999
  9
$DIMCEN
 40
1.631999999999999
  9
$DIMTSZ
 40
0.0
  9
$DIMTOL
 70
     1
  9
$DIMLIM
 70
     0
  9
$DIMTIH
 70
     1
  9
$DIMTOH
 70
     1
  9
$DIMSE1
 70
     0
  9
$DIMSE2
 70
     0
  9
$DIMTAD
 70
     0
  9
$DIMZIN
 70
     0
  9
$DIMBLK
  1
_FILLED
  9
$DIMASO
 70
     1
  9
$DIMSHO
 70
     1
  9
$DIMPOST
  1

  9
$DIMAPOST
  1

  9
$DIMALT
 70
     0
  9
$DIMALTD
 70
     2
  9
$DIMALTF
 40
25.4
  9
$DIMLFAC
 40
1.0
  9
$DIMTOFL
 70
     0
  9
$DIMTVP
 40
0.0
  9
$DIMTIX
 70
     0
  9
$DIMSOXD
 70
     0
  9
$DIMSAH
 70
     0
  9
$DIMBLK1
  1

  9
$DIMBLK2
  1

  9
$DIMSTYLE
  2
STANDARD
  9
$DIMCLRD
 70
     0
  9
$DIMCLRE
 70
     0
  9
$DIMCLRT
 70
     0
  9
$DIMTFAC
 40
1.0
  9
$DIMGAP
 40
0.09
  9
$DIMJUST
 70
     0
  9
$DIMSD1
 70
     0
  9
$DIMSD2
 70
     0
  9
$DIMTOLJ
 70
     1
  9
$DIMTZIN
 70
     0
  9
$DIMALTZ
 70
     0
  9
$DIMALTTZ
 70
     0
  9
$DIMUPT
 70
     0
  9
$DIMDEC
 70
     4
  9
$DIMTDEC
 70
     4
  9
$DIMALTU
 70
     2
  9
$DIMALTTD
 70
     2
  9
$DIMTXSTY
  7
STANDARD
  9
$DIMAUNIT
 70
     0
  9
$DIMADEC
 70
     0
  9
$DIMALTRND
 40
0.0
  9
$DIMAZIN
 70
     0
  9
$DIMDSEP
 70
    46
  9
$DIMATFIT
 70
     3
  9
$DIMFRAC
 70
     0
  9
$DIMLDRBLK
  1

  9
$DIMLUNIT
 70
     2
  9
$DIMLWD
 70
    -2
  9
$DIMLWE
 70
    -2
  9
$DIMTMOVE
 70
     0
  9
$LUNITS
 70
     2
  9
$LUPREC
 70
     4
  9
$SKETCHINC
 40
0.1
  9
$FILLETRAD
 40
0.0
  9
$AUNITS
 70
     0
  9
$AUPREC
 70
     0
  9
$MENU
  1
.
  9
$ELEVATION
 40
0.0
  9
$PELEVATION
 40
0.0
  9
$THICKNESS
 40
0.0
  9
$LIMCHECK
 70
     0
  9
$CHAMFERA
 40
0.0
  9
$CHAMFERB
 40
0.0
  9
$CHAMFERC
 40
0.0
  9
$CHAMFERD
 40
0.0
  9
$SKPOLY
 70
     0
  9
$TDCREATE
 40
2457498.493016435
  9
$TDUCREATE
 40
2457498.659683102
  9
$TDUPDATE
 40
2457498.534257651
  9
$TDUUPDATE
 40
2457498.700924317
  9
$TDINDWG
 40
0.0335520139
  9
$TDUSRTIMER
 40
0.0335520139
  9
$USRTIMER
 70
     1
  9
$ANGBASE
 50
0.0
  9
$ANGDIR
 70
     0
  9
$PDMODE
 70
     3
  9
$PDSIZE
 40
0.03125
  9
$PLINEWID
 40
0.0
  9
$SPLFRAME
 70
     0
  9
$SPLINETYPE
 70
     6
  9
$SPLINESEGS
 70
     8
  9
$HANDSEED
  5
173E
  9
$SURFTAB1
 70
     6
  9
$SURFTAB2
 70
     6
  9
$SURFTYPE
 70
     6
  9
$SURFU
 70
     6
  9
$SURFV
 70
     6
  9
$UCSBASE
  2

  9
$UCSNAME
  2

  9
$UCSORG
 10
0.0
 20
0.0
 30
0.0
  9
$UCSXDIR
 10
1.0
 20
0.0
 30
0.0
  9
$UCSYDIR
 10
0.0
 20
1.0
 30
0.0
  9
$UCSORTHOREF
  2

  9
$UCSORTHOVIEW
 70
     0
  9
$UCSORGTOP
 10
0.0
 20
0.0
 30
0.0
  9
$UCSORGBOTTOM
 10
0.0
 20
0.0
 30
0.0
  9
$UCSORGLEFT
 10
0.0
 20
0.0
 30
0.0
  9
$UCSORGRIGHT
 10
0.0
 20
0.0
 30
0.0
  9
$UCSORGFRONT
 10
0.0
 20
0.0
 30
0.0
  9
$UCSORGBACK
 10
0.0
 20
0.0
 30
0.0
  9
$PUCSBASE
  2

  9
$PUCSNAME
  2

  9
$PUCSORG
 10
0.0
 20
0.0
 30
0.0
  9
$PUCSXDIR
 10
1.0
 20
0.0
 30
0.0
  9
$PUCSYDIR
 10
0.0
 20
1.0
 30
0.0
  9
$PUCSORTHOREF
  2

  9
$PUCSORTHOVIEW
 70
     0
  9
$PUCSORGTOP
 10
0.0
 20
0.0
 30
0.0
  9
$PUCSORGBOTTOM
 10
0.0
 20
0.0
 30
0.0
  9
$PUCSORGLEFT
 10
0.0
 20
0.0
 30
0.0
  9
$PUCSORGRIGHT
 10
0.0
 20
0.0
 30
0.0
  9
$PUCSORGFRONT
 10
0.0
 20
0.0
 30
0.0
  9
$PUCSORGBACK
 10
0.0
 20
0.0
 30
0.0
  9
$USERI1
 70
     0
  9
$USERI2
 70
     0
  9
$USERI3
 70
     0
  9
$USERI4
 70
     0
  9
$USERI5
 70
     0
  9
$USERR1
 40
0.0
  9
$USERR2
 40
0.0
  9
$USERR3
 40
0.0
  9
$USERR4
 40
0.0
  9
$USERR5
 40
0.0
  9
$WORLDVIEW
 70
     1
  9
$SHADEDGE
 70
     3
  9
$SHADEDIF
 70
    70
  9
$TILEMODE
 70
     1
  9
$MAXACTVP
 70
    64
  9
$PINSBASE
 10
0.0
 20
0.0
 30
0.0
  9
$PLIMCHECK
 70
     0
  9
$PEXTMIN
 10
1.000000000000000E+20
 20
1.000000000000000E+20
 30
1.000000000000000E+20
  9
$PEXTMAX
 10
-1.000000000000000E+20
 20
-1.000000000000000E+20
 30
-1.000000000000000E+20
  9
$PLIMMIN
 10
0.0
 20
0.0
  9
$PLIMMAX
 10
12.0
 20
9.0
  9
$UNITMODE
 70
     0
  9
$VISRETAIN
 70
     1
  9
$PLINEGEN
 70
     0
  9
$PSLTSCALE
 70
     1
  9
$TREEDEPTH
 70
  3020
  9
$CMLSTYLE
  2
Standard
  9
$CMLJUST
 70
     0
  9
$CMLSCALE
 40
1.0
  9
$PROXYGRAPHICS
 70
     1
  9
$MEASUREMENT
 70
     0
  9
$CELWEIGHT
370
    -1
  9
$ENDCAPS
280
     0
  9
$JOINSTYLE
280
     0
  9
$LWDISPLAY
290
     0
  9
$INSUNITS
 70
     1
  9
$HYPERLINKBASE
  1

  9
$STYLESHEET
  1

  9
$XEDIT
290
     1
  9
$CEPSNTYPE
380
     0
  9
$PSTYLEMODE
290
     1
  9
$FINGERPRINTGUID
  2
{C809E7A1-8C45-4305-ADBB-385DD0A04F1C}
  9
$VERSIONGUID
  2
{29405900-C1AD-411C-BF9E-355AE5C62236}
  9
$EXTNAMES
290
     1
  9
$PSVPSCALE
 40
0.0
  9
$OLESTARTUP
290
     0
  9
$SORTENTS
280
   127
  9
$INDEXCTL
280
     0
  9
$HIDETEXT
280
     0
  9
$XCLIPFRAME
290
     0
  9
$HALOGAP
280
     0
  9
$OBSCOLOR
 70
   257
  9
$OBSLTYPE
280
     0
  9
$INTERSECTIONDISPLAY
280
     0
  9
$INTERSECTIONCOLOR
 70
   257
  9
$DIMASSOC
280
     1
  9
$PROJECTNAME
  1

  0
ENDSEC
  0
SECTION
  2
CLASSES
  0
CLASS
  1
ACDBDICTIONARYWDFLT
  2
AcDbDictionaryWithDefault
  3
ObjectDBX Classes
 90
        0
 91
        1
280
     0
281
     0
  0
CLASS
  1
ACDBPLACEHOLDER
  2
AcDbPlaceHolder
  3
ObjectDBX Classes
 90
        0
 91
        1
280
     0
281
     0
  0
CLASS
  1
LAYOUT
  2
AcDbLayout
  3
ObjectDBX Classes
 90
        0
 91
        2
280
     0
281
     0
  0
CLASS
  1
MATERIAL
  2
AcDbMaterial
  3
ObjectDBX Classes
 90
     1153
 91
        3
280
     0
281
     0
  0
CLASS
  1
VISUALSTYLE
  2
AcDbVisualStyle
  3
ObjectDBX Classes
 90
     4095
 91
       26
280
     0
281
     0
  0
CLASS
  1
TABLESTYLE
  2
AcDbTableStyle
  3
ObjectDBX Classes
 90
     4095
 91
        1
280
     0
281
     0
  0
CLASS
  1
SCALE
  2
AcDbScale
  3
ObjectDBX Classes
 90
     1153
 91
       17
280
     0
281
     0
  0
CLASS
  1
MLEADERSTYLE
  2
AcDbMLeaderStyle
  3
ACDB_MLEADERSTYLE_CLASS
 90
     4095
 91
        1
280
     0
281
     0
  0
CLASS
  1
ACDBSECTIONVIEWSTYLE
  2
AcDbSectionViewStyle
  3
ObjectDBX Classes
 90
     1025
 91
        1
280
     0
281
     0
  0
CLASS
  1
ACDBDETAILVIEWSTYLE
  2
AcDbDetailViewStyle
  3
ObjectDBX Classes
 90
     1025
 91
        1
280
     0
281
     0
  0
CLASS
  1
CELLSTYLEMAP
  2
AcDbCellStyleMap
  3
ObjectDBX Classes
 90
     1152
 91
        4
280
     0
281
     0
  0
CLASS
  1
DICTIONARYVAR
  2
AcDbDictionaryVar
  3
ObjectDBX Classes
 90
        0
 91
        9
280
     0
281
     0
  0
ENDSEC
  0
SECTION
  2
TABLES
  0
TABLE
  2
VPORT
  5
8
102
{ACAD_XDICTIONARY
360
16B4
102
}
330
0
100
AcDbSymbolTable
 70
     1
  0
VPORT
  5
1F4
330
8
100
AcDbSymbolTableRecord
100
AcDbViewportTableRecord
  2
*ACTIVE
 70
     0
 10
0.0
 20
0.0
 11
1.0
 21
1.0
 12
119.21443730437
 22
29.02718122825817
 13
0.0
 23
0.0
 14
1.0
 24
1.0
 15
0.0
 25
0.0
 16
0.0
 26
0.0
 36
1.0
 17
0.0
 27
0.0
 37
0.0
 40
28.29993301412314
 41
1.9527950310559
 42
50.0
 43
0.0
 44
0.0
 50
0.0
 51
0.0
 71
     0
 72
   100
 73
     1
 74
     1
 75
     0
 76
     0
 77
     0
 78
     0
281
     0
 65
     1
110
0.0
120
0.0
130
0.0
111
1.0
121
0.0
131
0.0
112
0.0
122
1.0
132
0.0
 79
     0
146
0.0
  0
ENDTAB
  0
TABLE
  2
LTYPE
  5
5
330
0
100
AcDbSymbolTable
 70
     7
  0
LTYPE
  5
14
330
5
100
AcDbSymbolTableRecord
100
AcDbLinetypeTableRecord
  2
BYBLOCK
 70
     0
  3

 72
    65
 73
     0
 40
0.0
  0
LTYPE
  5
15
330
5
100
AcDbSymbolTableRecord
100
AcDbLinetypeTableRecord
  2
BYLAYER
 70
     0
  3

 72
    65
 73
     0
 40
0.0
  0
LTYPE
  5
16
330
5
100
AcDbSymbolTableRecord
100
AcDbLinetypeTableRecord
  2
CONTINUOUS
 70
     0
  3
Solid line
 72
    65
 73
     0
 40
0.0
  0
LTYPE
  5
1F5
330
5
100
AcDbSymbolTableRecord
100
AcDbLinetypeTableRecord
  2
CENTER
 70
     0
  3
____ _ ____ _ ____ _ ____ _ ____ _ ____ _ ____
 72
    65
 73
     4
 40
0.6
 49
0.375
 74
     0
 49
-0.075
 74
     0
 49
0.075
 74
     0
 49
-0.075
 74
     0
  0
LTYPE
  5
1F6
330
5
100
AcDbSymbolTableRecord
100
AcDbLinetypeTableRecord
  2
HIDDEN
 70
     0
  3
- - - - - - - - - - - - - - - - - - - -
 72
    65
 73
     2
 40
0.2
 49
0.1
 74
     0
 49
-0.1
 74
     0
  0
LTYPE
  5
1F7
330
5
100
AcDbSymbolTableRecord
100
AcDbLinetypeTableRecord
  2
PHANTOM
 70
     0
  3
_____ _ _ _____ _ _ _____ _ _ _____
 72
    65
 73
     6
 40
0.8
 49
0.45
 74
     0
 49
-0.05
 74
     0
 49
0.1
 74
     0
 49
-0.05
 74
     0
 49
0.1
 74
     0
 49
-0.05
 74
     0
  0
LTYPE
  5
1F8
330
5
100
AcDbSymbolTableRecord
100
AcDbLinetypeTableRecord
  2
DOT
 70
     0
  3
. . . . . . . . . . . . . . . . . . . .
 72
    65
 73
     2
 40
0.2
 49
0.1
 74
     0
 49
-0.1
 74
     0
  0
LTYPE
  5
1F9
330
5
100
AcDbSymbolTableRecord
100
AcDbLinetypeTableRecord
  2
DASHED
 70
     0
  3
- - - - - - - - - - - - - - - - - - - -
 72
    65
 73
     2
 40
0.2
 49
0.1
 74
     0
 49
-0.1
 74
     0
  0
LTYPE
  5
16AD
330
5
100
AcDbSymbolTableRecord
100
AcDbLinetypeTableRecord
  2
PHANTOM2
 70
     0
  3
___ _ _ ___ _ _ ___ _ _ ___ _ _
 72
    65
 73
     6
 40
1.25
 49
0.625
 74
     0
 49
-0.125
 74
     0
 49
0.125
 74
     0
 49
-0.125
 74
     0
 49
0.125
 74
     0
 49
-0.125
 74
     0
  0
ENDTAB
  0
TABLE
  2
LAYER
  5
2
330
0
100
AcDbSymbolTable
 70
    21
  0
LAYER
  5
10
102
{ACAD_XDICTIONARY
360
1703
102
}
330
2
100
AcDbSymbolTableRecord
100
AcDbLayerTableRecord
  2
0
 70
     0
 62
     7
  6
CONTINUOUS
370
    -3
390
F
  0
LAYER
  5
1FA
102
{ACAD_XDICTIONARY
360
1705
102
}
330
2
100
AcDbSymbolTableRecord
100
AcDbLayerTableRecord
  2
DEFAULT_1
 70
     0
 62
     7
  6
CENTER
370
    -3
390
F
  0
LAYER
  5
1FB
102
{ACAD_XDICTIONARY
360
1707
102
}
330
2
100
AcDbSymbolTableRecord
100
AcDbLayerTableRecord
  2
DEFAULT_2
 70
     0
 62
     7
  6
HIDDEN
370
    -3
390
F
  0
LAYER
  5
1FC
102
{ACAD_XDICTIONARY
360
1709
102
}
330
2
100
AcDbSymbolTableRecord
100
AcDbLayerTableRecord
  2
DEFAULT_3
 70
     0
 62
     7
  6
PHANTOM
370
    -3
390
F
  0
LAYER
  5
1FD
102
{ACAD_XDICTIONARY
360
170B
102
}
330
2
100
AcDbSymbolTableRecord
100
AcDbLayerTableRecord
  2
1_CURVES
 70
     0
 62
     7
  6
CONTINUOUS
370
    -3
390
F
  0
LAYER
  5
1FE
102
{ACAD_XDICTIONARY
360
170D
102
}
330
2
100
AcDbSymbolTableRecord
100
AcDbLayerTableRecord
  2
1_CURVES_JETS
 70
     0
 62
     7
  6
CONTINUOUS
370
    -3
390
F
  0
LAYER
  5
1FF
102
{ACAD_XDICTIONARY
360
170F
102
}
330
2
100
AcDbSymbolTableRecord
100
AcDbLayerTableRecord
  2
1_CURVES_SPEC_FRONT
 70
     0
 62
     7
  6
CONTINUOUS
370
    -3
390
F
  0
LAYER
  5
200
102
{ACAD_XDICTIONARY
360
1711
102
}
330
2
100
AcDbSymbolTableRecord
100
AcDbLayerTableRecord
  2
1_CURVES_SPEC_RIGHT
 70
     0
 62
     7
  6
CONTINUOUS
370
    -3
390
F
  0
LAYER
  5
201
102
{ACAD_XDICTIONARY
360
1713
102
}
330
2
100
AcDbSymbolTableRecord
100
AcDbLayerTableRecord
  2
2_PLANES
 70
     0
 62
     7
  6
CONTINUOUS
370
    -3
390
F
  0
LAYER
  5
202
102
{ACAD_XDICTIONARY
360
1715
102
}
330
2
100
AcDbSymbolTableRecord
100
AcDbLayerTableRecord
  2
2_PLANES_JETS
 70
     0
 62
     7
  6
CONTINUOUS
370
    -3
390
F
  0
LAYER
  5
203
102
{ACAD_XDICTIONARY
360
1717
102
}
330
2
100
AcDbSymbolTableRecord
100
AcDbLayerTableRecord
  2
3_POINTS
 70
     0
 62
     7
  6
CONTINUOUS
370
    -3
390
F
  0
LAYER
  5
204
102
{ACAD_XDICTIONARY
360
1719
102
}
330
2
100
AcDbSymbolTableRecord
100
AcDbLayerTableRecord
  2
3_POINTS_JETS
 70
     0
 62
     7
  6
CONTINUOUS
370
    -3
390
F
  0
LAYER
  5
205
102
{ACAD_XDICTIONARY
360
171B
102
}
330
2
100
AcDbSymbolTableRecord
100
AcDbLayerTableRecord
  2
4_CSYS
 70
     0
 62
     7
  6
CONTINUOUS
370
    -3
390
F
  0
LAYER
  5
206
102
{ACAD_XDICTIONARY
360
171D
102
}
330
2
100
AcDbSymbolTableRecord
100
AcDbLayerTableRecord
  2
5_AXIS
 70
     0
 62
     7
  6
CONTINUOUS
370
    -3
390
F
  0
LAYER
  5
207
102
{ACAD_XDICTIONARY
360
171F
102
}
330
2
100
AcDbSymbolTableRecord
100
AcDbLayerTableRecord
  2
5_AXIS_JETS
 70
     0
 62
     7
  6
CONTINUOUS
370
    -3
390
F
  0
LAYER
  5
208
102
{ACAD_XDICTIONARY
360
1721
102
}
330
2
100
AcDbSymbolTableRecord
100
AcDbLayerTableRecord
  2
6_SURFACES
 70
     0
 62
     7
  6
CONTINUOUS
370
    -3
390
F
  0
LAYER
  5
209
102
{ACAD_XDICTIONARY
360
1723
102
}
330
2
100
AcDbSymbolTableRecord
100
AcDbLayerTableRecord
  2
6_SURFACES-OFFSET_FIBRE
 70
     0
 62
     7
  6
CONTINUOUS
370
    -3
390
F
  0
LAYER
  5
20A
102
{ACAD_XDICTIONARY
360
1725
102
}
330
2
100
AcDbSymbolTableRecord
100
AcDbLayerTableRecord
  2
6_SURFACES_TOOLING
 70
     0
 62
     7
  6
CONTINUOUS
370
    -3
390
F
  0
LAYER
  5
20B
102
{ACAD_XDICTIONARY
360
1727
102
}
330
2
100
AcDbSymbolTableRecord
100
AcDbLayerTableRecord
  2
7_NOTES
 70
     0
 62
     7
  6
CONTINUOUS
370
    -3
390
F
  0
LAYER
  5
20C
102
{ACAD_XDICTIONARY
360
1729
102
}
330
2
100
AcDbSymbolTableRecord
100
AcDbLayerTableRecord
  2
9-COMPONENTS
 70
     0
 62
     7
  6
CONTINUOUS
370
    -3
390
F
  0
LAYER
  5
20D
102
{ACAD_XDICTIONARY
360
172B
102
}
330
2
100
AcDbSymbolTableRecord
100
AcDbLayerTableRecord
  2
XSEC_DATUMS
 70
     0
 62
     7
  6
CONTINUOUS
370
    -3
390
F
  0
ENDTAB
  0
TABLE
  2
STYLE
  5
3
330
0
100
AcDbSymbolTable
 70
     8
  0
STYLE
  5
11
330
3
100
AcDbSymbolTableRecord
100
AcDbTextStyleTableRecord
  2
STANDARD
 70
     0
 40
0.0
 41
0.8
 50
0.0
 71
     0
 42
0.2
  3
txt
  4

  0
STYLE
  5
20E
330
3
100
AcDbSymbolTableRecord
100
AcDbTextStyleTableRecord
  2
TEXTSTYLE_1
 70
     0
 40
0.0
 41
0.8
 50
0.0
 71
     0
 42
0.2
  3
gdt
  4

  0
STYLE
  5
20F
330
3
100
AcDbSymbolTableRecord
100
AcDbTextStyleTableRecord
  2
TEXTSTYLE_2
 70
     0
 40
0.0
 41
1.0
 50
0.0
 71
     0
 42
0.2
  3
trium.ttf
  4

  0
STYLE
  5
210
330
3
100
AcDbSymbolTableRecord
100
AcDbTextStyleTableRecord
  2
TEXTSTYLE_3
 70
     0
 40
0.0
 41
1.0
 50
0.0
 71
     0
 42
0.2
  3
trium.ttf
  4

  0
STYLE
  5
211
330
3
100
AcDbSymbolTableRecord
100
AcDbTextStyleTableRecord
  2
TEXTSTYLE_4
 70
     0
 40
0.0
 41
1.0
 50
0.0
 71
     0
 42
0.2
  3
txt
  4

1001
ACAD
1000
txt
1071
        2
  0
STYLE
  5
212
330
3
100
AcDbSymbolTableRecord
100
AcDbTextStyleTableRecord
  2
TEXTSTYLE_5
 70
     0
 40
0.0
 41
1.0
 50
0.0
 71
     0
 42
0.2
  3
txt
  4

  0
STYLE
  5
213
330
3
100
AcDbSymbolTableRecord
100
AcDbTextStyleTableRecord
  2
TEXTSTYLE_6
 70
     0
 40
0.0
 41
1.0
 50
0.0
 71
     0
 42
0.2
  3
trium.ttf
  4

  0
STYLE
  5
214
330
3
100
AcDbSymbolTableRecord
100
AcDbTextStyleTableRecord
  2
TEXTSTYLE_7
 70
     0
 40
0.0
 41
0.8
 50
0.0
 71
     0
 42
0.2
  3
txt
  4

  0
ENDTAB
  0
TABLE
  2
VIEW
  5
6
330
0
100
AcDbSymbolTable
 70
     0
  0
ENDTAB
  0
TABLE
  2
UCS
  5
7
330
0
100
AcDbSymbolTable
 70
     0
  0
ENDTAB
  0
TABLE
  2
APPID
  5
9
330
0
100
AcDbSymbolTable
 70
     2
  0
APPID
  5
215
330
9
100
AcDbSymbolTableRecord
100
AcDbRegAppTableRecord
  2
ACAD
 70
     0
  0
APPID
  5
16EF
330
9
100
AcDbSymbolTableRecord
100
AcDbRegAppTableRecord
  2
ACAD_MLEADERVER
 70
     0
  0
ENDTAB
  0
TABLE
  2
DIMSTYLE
  5
A
330
0
100
AcDbSymbolTable
 70
     7
100
AcDbDimStyleTable
 71
     0
  0
DIMSTYLE
105
22E
330
A
100
AcDbSymbolTableRecord
100
AcDbDimStyleTableRecord
  2
STANDARD
 70
     0
 41
2.0
 44
0.125
 47
0.00001
 48
0.00001
 71
     1
 78
     4
140
1.333333333299999
271
     5
272
     5
284
     4
340
11
341
218
342
218
343
218
344
218
  0
DIMSTYLE
105
22F
330
A
100
AcDbSymbolTableRecord
100
AcDbDimStyleTableRecord
  2
DIMSTYLE_1
 70
     0
 41
2.0
 44
0.125
 47
0.00001
 48
0.00001
 78
     4
140
1.333333333299999
147
0.0625
271
     3
272
     3
284
     4
340
11
341
218
342
218
343
218
344
218
  0
DIMSTYLE
105
230
330
A
100
AcDbSymbolTableRecord
100
AcDbDimStyleTableRecord
  2
DIMSTYLE_2
 70
     0
 41
2.0
 44
0.125
 47
0.001
 48
0.001
 78
     4
140
1.333333333299999
147
0.0625
271
     3
272
     3
284
     4
340
11
341
218
342
218
343
218
344
218
  0
DIMSTYLE
105
231
330
A
100
AcDbSymbolTableRecord
100
AcDbDimStyleTableRecord
  2
DIMSTYLE_3
 70
     0
 41
2.0
 44
0.125
 47
0.001
 48
0.001
 78
     4
140
1.333333333299999
147
0.0625
271
     0
272
     0
284
     4
340
11
341
218
342
218
343
218
344
218
  0
DIMSTYLE
105
232
330
A
100
AcDbSymbolTableRecord
100
AcDbDimStyleTableRecord
  2
DIMSTYLE_4
 70
     0
 41
2.0
 44
0.125
 47
0.001
 48
0.001
 78
     4
140
1.333333333299999
147
0.0625
271
     1
272
     1
284
     4
340
11
341
218
342
218
343
218
344
218
  0
DIMSTYLE
105
233
330
A
100
AcDbSymbolTableRecord
100
AcDbDimStyleTableRecord
  2
DIMSTYLE_5
 70
     0
 41
2.0
 44
0.125
 47
1.0
 48
1.0
 78
     4
140
1.333333333299999
147
0.0625
271
     0
272
     0
284
     4
340
11
341
218
342
218
343
218
344
218
  0
DIMSTYLE
105
234
330
A
100
AcDbSymbolTableRecord
100
AcDbDimStyleTableRecord
  2
DIMSTYLE_6
 70
     0
 41
2.0
 44
0.125
 47
0.5
 48
0.5
 78
     4
140
1.333333333299999
147
0.0625
271
     0
272
     0
284
     4
340
11
341
218
342
218
343
218
344
218
  0
ENDTAB
  0
TABLE
  2
BLOCK_RECORD
  5
1
330
0
100
AcDbSymbolTable
 70
    22
  0
BLOCK_RECORD
  5
216
330
1
100
AcDbSymbolTableRecord
100
AcDbBlockTableRecord
  2
*Model_Space
340
165F
  0
BLOCK_RECORD
  5
217
330
1
100
AcDbSymbolTableRecord
100
AcDbBlockTableRecord
  2
*Paper_Space
340
1660
  0
BLOCK_RECORD
  5
218
330
1
100
AcDbSymbolTableRecord
100
AcDbBlockTableRecord
  2
_FILLED
340
0
102
{BLKREFS
331
30E
331
30F
331
318
331
319
331
321
331
322
331
32A
331
32B
331
333
331
334
331
33C
331
33D
331
346
331
347
331
34F
331
350
331
359
331
35A
331
362
331
363
331
36B
331
36C
331
374
331
375
331
37D
331
37E
331
386
331
387
102
}
  0
BLOCK_RECORD
  5
219
330
1
100
AcDbSymbolTableRecord
100
AcDbBlockTableRecord
  2
*D1
340
0
  0
BLOCK_RECORD
  5
21A
330
1
100
AcDbSymbolTableRecord
100
AcDbBlockTableRecord
  2
*D2
340
0
  0
BLOCK_RECORD
  5
21B
330
1
100
AcDbSymbolTableRecord
100
AcDbBlockTableRecord
  2
*D3
340
0
  0
BLOCK_RECORD
  5
21C
330
1
100
AcDbSymbolTableRecord
100
AcDbBlockTableRecord
  2
*D4
340
0
  0
BLOCK_RECORD
  5
21D
330
1
100
AcDbSymbolTableRecord
100
AcDbBlockTableRecord
  2
*D5
340
0
  0
BLOCK_RECORD
  5
21E
330
1
100
AcDbSymbolTableRecord
100
AcDbBlockTableRecord
  2
*D6
340
0
  0
BLOCK_RECORD
  5
21F
330
1
100
AcDbSymbolTableRecord
100
AcDbBlockTableRecord
  2
*D7
340
0
  0
BLOCK_RECORD
  5
220
330
1
100
AcDbSymbolTableRecord
100
AcDbBlockTableRecord
  2
*D8
340
0
  0
BLOCK_RECORD
  5
221
330
1
100
AcDbSymbolTableRecord
100
AcDbBlockTableRecord
  2
*D9
340
0
  0
BLOCK_RECORD
  5
222
330
1
100
AcDbSymbolTableRecord
100
AcDbBlockTableRecord
  2
*D10
340
0
  0
BLOCK_RECORD
  5
223
330
1
100
AcDbSymbolTableRecord
100
AcDbBlockTableRecord
  2
*D11
340
0
  0
BLOCK_RECORD
  5
224
330
1
100
AcDbSymbolTableRecord
100
AcDbBlockTableRecord
  2
*D12
340
0
  0
BLOCK_RECORD
  5
225
330
1
100
AcDbSymbolTableRecord
100
AcDbBlockTableRecord
  2
*D13
340
0
  0
BLOCK_RECORD
  5
226
330
1
100
AcDbSymbolTableRecord
100
AcDbBlockTableRecord
  2
*D14
340
0
  0
BLOCK_RECORD
  5
227
330
1
100
AcDbSymbolTableRecord
100
AcDbBlockTableRecord
  2
*D15
340
0
  0
BLOCK_RECORD
  5
228
330
1
100
AcDbSymbolTableRecord
100
AcDbBlockTableRecord
  2
*D16
340
0
  0
BLOCK_RECORD
  5
229
330
1
100
AcDbSymbolTableRecord
100
AcDbBlockTableRecord
  2
*D17
340
0
  0
BLOCK_RECORD
  5
22A
330
1
100
AcDbSymbolTableRecord
100
AcDbBlockTableRecord
  2
L03-USAGE_INTERNE_SEULEM_BL3
340
0
  0
BLOCK_RECORD
  5
22B
330
1
100
AcDbSymbolTableRecord
100
AcDbBlockTableRecord
  2
L03-MOTEUR-CONTROLE-LED_BL2
340
0
  0
BLOCK_RECORD
  5
22C
330
1
100
AcDbSymbolTableRecord
100
AcDbBlockTableRecord
  2
L03-MOTEUR-CONTROLE-LED_BL1
340
0
  0
BLOCK_RECORD
  5
22D
330
1
100
AcDbSymbolTableRecord
100
AcDbBlockTableRecord
  2
L03-NOTE_SPECS_BAINS_BL0
340
0
  0
ENDTAB
  0
ENDSEC
  0
SECTION
  2
BLOCKS
  0
BLOCK
  5
20
330
216
100
AcDbEntity
  8
0
100
AcDbBlockBegin
  2
*Model_Space
 70
     0
 10
0.0
 20
0.0
 30
0.0
  3
*Model_Space
  1

  0
ENDBLK
  5
21
330
216
100
AcDbEntity
  8
0
100
AcDbBlockEnd
  0
BLOCK
  5
1C
330
217
100
AcDbEntity
 67
     1
  8
0
100
AcDbBlockBegin
  2
*Paper_Space
 70
     0
 10
0.0
 20
0.0
 30
0.0
  3
*Paper_Space
  1

  0
ENDBLK
  5
1D
330
217
100
AcDbEntity
 67
     1
  8
0
100
AcDbBlockEnd
  0
BLOCK
  5
305
330
218
100
AcDbEntity
  8
0
100
AcDbBlockBegin
  2
_FILLED
 70
     0
 10
0.0
 20
0.0
 30
0.0
  3
_FILLED
  1

  0
SOLID
  5
306
330
218
100
AcDbEntity
  8
0
  6
ByBlock
 62
     0
100
AcDbTrace
 10
0.0
 20
0.0
 30
0.0
 11
-1.0
 21
0.1666666667
 31
0.0
 12
-1.0
 22
-0.1666666667
 32
0.0
 13
-1.0
 23
-0.1666666667
 33
0.0
  0
ENDBLK
  5
307
330
218
100
AcDbEntity
  8
0
  6
ByBlock
 62
     0
100
AcDbBlockEnd
  0
BLOCK
  5
308
330
219
100
AcDbEntity
  8
0
  6
Continuous
 62
     7
100
AcDbBlockBegin
  2
*D1
 70
     1
 10
0.0
 20
0.0
 30
0.0
  3
*D1
  1

  0
MTEXT
  5
309
330
219
100
AcDbEntity
  8
0
  6
Continuous
 62
     7
100
AcDbMText
 10
46.3848509147
 20
109.2045310862
 30
0.0
 40
1.333333333299999
 41
7.466666666699999
 71
     2
 72
     1
  1
72\P[182,9]
 73
     1
 44
0.9
  0
LINE
  5
30A
330
219
100
AcDbEntity
  8
0
  6
Continuous
 62
     7
100
AcDbLine
 10
85.05086800939999
 20
78.30352391899999
 30
0.0
 11
85.05086800939999
 21
109.8711977529
 31
0.0
  0
LINE
  5
30B
330
219
100
AcDbEntity
  8
0
  6
Continuous
 62
     7
100
AcDbLine
 10
13.0521671534
 20
78.30352391899999
 30
0.0
 11
13.0521671534
 21
109.8711977529
 31
0.0
  0
LINE
  5
30C
330
219
100
AcDbEntity
  8
0
  6
Continuous
 62
     7
100
AcDbLine
 10
85.05086800939999
 20
108.5378644195
 30
0.0
 11
53.4515175814
 21
108.5378644195
 31
0.0
  0
LINE
  5
30D
330
219
100
AcDbEntity
  8
0
  6
Continuous
 62
     7
100
AcDbLine
 10
13.0521671534
 20
108.5378644195
 30
0.0
 11
44.6515175814
 21
108.5378644195
 31
0.0
  0
INSERT
  5
30E
330
219
100
AcDbEntity
  8
0
  6
Continuous
 62
     7
100
AcDbBlockReference
  2
_FILLED
 10
85.05086800939999
 20
108.5378644195
 30
0.0
 41
2.0
 42
2.0
 43
2.0
  0
INSERT
  5
30F
330
219
100
AcDbEntity
  8
0
  6
Continuous
 62
     7
100
AcDbBlockReference
  2
_FILLED
 10
13.0521671534
 20
108.5378644195
 30
0.0
 41
2.0
 42
2.0
 43
2.0
 50
180.0
  0
ENDBLK
  5
310
330
219
100
AcDbEntity
  8
0
  6
ByBlock
 62
     0
100
AcDbBlockEnd
  0
BLOCK
  5
311
330
21A
100
AcDbEntity
  8
0
  6
Continuous
 62
     7
100
AcDbBlockBegin
  2
*D2
 70
     1
 10
0.0
 20
0.0
 30
0.0
  3
*D2
  1

  0
MTEXT
  5
312
330
21A
100
AcDbEntity
  8
0
  6
Continuous
 62
     7
100
AcDbMText
 10
115.2131721961
 20
78.3035239238
 30
0.0
 40
1.333333333299999
 41
6.4
 71
     2
 72
     1
  1
36\P[91,4]
 73
     1
 44
0.9
  0
LINE
  5
313
330
21A
100
AcDbEntity
  8
0
  6
Continuous
 62
     7
100
AcDbLine
 10
52.71781030909999
 20
59.6372517237
 30
0.0
 11
118.679838864
 21
59.6372517286
 31
0.0
  0
LINE
  5
314
330
21A
100
AcDbEntity
  8
0
  6
Continuous
 62
     7
100
AcDbLine
 10
52.7178103064
 20
95.63646278110001
 30
0.0
 11
81.04627218620001
 21
95.6364627832
 31
0.0
  0
LINE
  5
315
330
21A
100
AcDbEntity
  8
0
  6
Continuous
 62
     7
100
AcDbLine
 10
85.82978158059999
 20
95.63646278350001
 30
0.0
 11
118.6798388614
 21
95.63646278590001
 31
0.0
  0
LINE
  5
316
330
21A
100
AcDbEntity
  8
0
  6
Continuous
 62
     7
100
AcDbLine
 10
117.3465055307
 20
59.63725172850001
 30
0.0
 11
117.3465055307
 21
74.3035239238
 31
0.0
  0
LINE
  5
317
330
21A
100
AcDbEntity
  8
0
  6
Continuous
 62
     7
100
AcDbLine
 10
117.3465055281
 20
95.6364627858
 30
0.0
 11
117.3465055307
 21
78.97019059049999
 31
0.0
  0
INSERT
  5
318
330
21A
100
AcDbEntity
  8
0
  6
Continuous
 62
     7
100
AcDbBlockReference
  2
_FILLED
 10
117.3465055307
 20
59.63725172850001
 30
0.0
 41
2.0
 42
2.0
 43
2.0
 50
270.0
  0
INSERT
  5
319
330
21A
100
AcDbEntity
  8
0
  6
Continuous
 62
     7
100
AcDbBlockReference
  2
_FILLED
 10
117.3465055281
 20
95.6364627858
 30
0.0
 41
2.0
 42
2.0
 43
2.0
 50
90.00000000909999
  0
ENDBLK
  5
31A
330
21A
100
AcDbEntity
  8
0
  6
ByBlock
 62
     0
100
AcDbBlockEnd
  0
BLOCK
  5
31B
330
21B
100
AcDbEntity
  8
0
  6
Continuous
 62
     7
100
AcDbBlockBegin
  2
*D3
 70
     1
 10
0.0
 20
0.0
 30
0.0
  3
*D3
  1

  0
MTEXT
  5
31C
330
21B
100
AcDbEntity
  8
0
  6
Continuous
 62
     7
100
AcDbMText
 10
28.3016858789
 20
101.0766003928
 30
0.0
 40
1.333333333299999
 41
6.4
 71
     2
 72
     1
  1
30-1/2\P[77,5]
 73
     1
 44
0.9
  0
LINE
  5
31D
330
21B
100
AcDbEntity
  8
0
  6
Continuous
 62
     7
100
AcDbLine
 10
43.5512046044
 20
82.9335992588
 30
0.0
 11
43.5512046044
 21
101.7432670595
 31
0.0
  0
LINE
  5
31E
330
21B
100
AcDbEntity
  8
0
  6
Continuous
 62
     7
100
AcDbLine
 10
13.0521671534
 20
78.30352391899999
 30
0.0
 11
13.0521671534
 21
101.7432670595
 31
0.0
  0
LINE
  5
31F
330
21B
100
AcDbEntity
  8
0
  6
Continuous
 62
     7
100
AcDbLine
 10
43.5512046044
 20
100.4099337262
 30
0.0
 11
32.1683525455
 21
100.4099337262
 31
0.0
  0
LINE
  5
320
330
21B
100
AcDbEntity
  8
0
  6
Continuous
 62
     7
100
AcDbLine
 10
13.0521671534
 20
100.4099337262
 30
0.0
 11
24.4350192122
 21
100.4099337262
 31
0.0
  0
INSERT
  5
321
330
21B
100
AcDbEntity
  8
0
  6
Continuous
 62
     7
100
AcDbBlockReference
  2
_FILLED
 10
43.5512046044
 20
100.4099337262
 30
0.0
 41
2.0
 42
2.0
 43
2.0
  0
INSERT
  5
322
330
21B
100
AcDbEntity
  8
0
  6
Continuous
 62
     7
100
AcDbBlockReference
  2
_FILLED
 10
13.0521671534
 20
100.4099337262
 30
0.0
 41
2.0
 42
2.0
 43
2.0
 50
180.0
  0
ENDBLK
  5
323
330
21B
100
AcDbEntity
  8
0
  6
ByBlock
 62
     0
100
AcDbBlockEnd
  0
BLOCK
  5
324
330
21C
100
AcDbEntity
  8
0
  6
Continuous
 62
     7
100
AcDbBlockBegin
  2
*D4
 70
     1
 10
0.0
 20
0.0
 30
0.0
  3
*D4
  1

  0
MTEXT
  5
325
330
21C
100
AcDbEntity
  8
0
  6
Continuous
 62
     7
100
AcDbMText
 10
54.71841902689999
 20
56.46846856319999
 30
0.0
 40
1.333333333299999
 41
7.466666666699999
 71
     2
 72
     1
  1
44-7/8\P[114,1]
 73
     1
 44
0.9
  0
LINE
  5
326
330
21C
100
AcDbEntity
  8
0
  6
Continuous
 62
     7
100
AcDbLine
 10
73.60388244800001
 20
58.50594513689999
 30
0.0
 11
73.60388244800001
 21
54.4684685632
 31
0.0
  0
LINE
  5
327
330
21C
100
AcDbEntity
  8
0
  6
Continuous
 62
     7
100
AcDbLine
 10
28.6749499447
 20
61.2559391399
 30
0.0
 11
28.6749499447
 21
54.4684685632
 31
0.0
  0
LINE
  5
328
330
21C
100
AcDbEntity
  8
0
  6
Continuous
 62
     7
100
AcDbLine
 10
73.60388244800001
 20
55.8018018966
 30
0.0
 11
59.65175236020001
 21
55.8018018966
 31
0.0
  0
LINE
  5
329
330
21C
100
AcDbEntity
  8
0
  6
Continuous
 62
     7
100
AcDbLine
 10
28.6749499447
 20
55.8018018966
 30
0.0
 11
50.8517523602
 21
55.8018018966
 31
0.0
  0
INSERT
  5
32A
330
21C
100
AcDbEntity
  8
0
  6
Continuous
 62
     7
100
AcDbBlockReference
  2
_FILLED
 10
73.60388244800001
 20
55.8018018966
 30
0.0
 41
2.0
 42
2.0
 43
2.0
  0
INSERT
  5
32B
330
21C
100
AcDbEntity
  8
0
  6
Continuous
 62
     7
100
AcDbBlockReference
  2
_FILLED
 10
28.6749499447
 20
55.8018018966
 30
0.0
 41
2.0
 42
2.0
 43
2.0
 50
180.0
  0
ENDBLK
  5
32C
330
21C
100
AcDbEntity
  8
0
  6
ByBlock
 62
     0
100
AcDbBlockEnd
  0
BLOCK
  5
32D
330
21D
100
AcDbEntity
  8
0
  6
Continuous
 62
     7
100
AcDbBlockBegin
  2
*D5
 70
     1
 10
0.0
 20
0.0
 30
0.0
  3
*D5
  1

  0
MTEXT
  5
32E
330
21D
100
AcDbEntity
  8
0
  6
Continuous
 62
     7
100
AcDbMText
 10
92.80242451499999
 20
78.30352374749999
 30
0.0
 40
1.333333333299999
 41
6.4
 71
     2
 72
     1
  1
22-5/8\P[58]
 73
     1
 44
0.9
  0
LINE
  5
32F
330
21D
100
AcDbEntity
  8
0
  6
Continuous
 62
     7
100
AcDbLine
 10
80.88489836710001
 20
66.3106093202
 30
0.0
 11
94.1357577908
 21
66.31060925289999
 31
0.0
  0
LINE
  5
330
330
21D
100
AcDbEntity
  8
0
  6
Continuous
 62
     7
100
AcDbLine
 10
86.045678709
 20
88.96310493639999
 30
0.0
 11
94.1357579059
 21
88.9631048953
 31
0.0
  0
LINE
  5
331
330
21D
100
AcDbEntity
  8
0
  6
Continuous
 62
     7
100
AcDbLine
 10
92.80242445749999
 20
66.3106092597
 30
0.0
 11
92.80242445749999
 21
74.30352374749999
 31
0.0
  0
LINE
  5
332
330
21D
100
AcDbEntity
  8
0
  6
Continuous
 62
     7
100
AcDbLine
 10
92.80242457259999
 20
88.96310490209998
 30
0.0
 11
92.80242445749999
 21
78.9701904142
 31
0.0
  0
INSERT
  5
333
330
21D
100
AcDbEntity
  8
0
  6
Continuous
 62
     7
100
AcDbBlockReference
  2
_FILLED
 10
92.80242445749999
 20
66.3106092597
 30
0.0
 41
2.0
 42
2.0
 43
2.0
 50
270.0
  0
INSERT
  5
334
330
21D
100
AcDbEntity
  8
0
  6
Continuous
 62
     7
100
AcDbBlockReference
  2
_FILLED
 10
92.80242457259999
 20
88.96310490209998
 30
0.0
 41
2.0
 42
2.0
 43
2.0
 50
89.99999934020001
  0
ENDBLK
  5
335
330
21D
100
AcDbEntity
  8
0
  6
ByBlock
 62
     0
100
AcDbBlockEnd
  0
BLOCK
  5
336
330
21E
100
AcDbEntity
  8
0
  6
Continuous
 62
     7
100
AcDbBlockBegin
  2
*D6
 70
     1
 10
0.0
 20
0.0
 30
0.0
  3
*D6
  1

  0
MTEXT
  5
337
330
21E
100
AcDbEntity
  8
0
  6
Continuous
 62
     7
100
AcDbMText
 10
90.69869989879999
 20
99.97774292889999
 30
0.0
 40
1.333333333299999
 41
5.333333333299999
 71
     1
 72
     1
  1
3-1/2\P[8,8]
 73
     1
 44
0.9
  0
LINE
  5
338
330
21E
100
AcDbEntity
  8
0
  6
Continuous
 62
     7
100
AcDbLine
 10
85.05086800939999
 20
83.8647095059
 30
0.0
 11
85.05086800939999
 21
100.6444095955
 31
0.0
  0
LINE
  5
339
330
21E
100
AcDbEntity
  8
0
  6
Continuous
 62
     7
100
AcDbLine
 10
81.58935329270001
 20
88.98100024580001
 30
0.0
 11
81.58935329270001
 21
100.6444095955
 31
0.0
  0
LINE
  5
33A
330
21E
100
AcDbEntity
  8
0
  6
Continuous
 62
     7
100
AcDbLine
 10
85.05086800939999
 20
99.31107626219999
 30
0.0
 11
90.0320332321
 21
99.31107626219999
 31
0.0
  0
LINE
  5
33B
330
21E
100
AcDbEntity
  8
0
  6
Continuous
 62
     7
100
AcDbLine
 10
81.58935329270001
 20
99.31107626219999
 30
0.0
 11
76.25601995939999
 21
99.31107626219999
 31
0.0
  0
INSERT
  5
33C
330
21E
100
AcDbEntity
  8
0
  6
Continuous
 62
     7
100
AcDbBlockReference
  2
_FILLED
 10
85.05086800939999
 20
99.31107626219999
 30
0.0
 41
2.0
 42
2.0
 43
2.0
 50
180.0
  0
INSERT
  5
33D
330
21E
100
AcDbEntity
  8
0
  6
Continuous
 62
     7
100
AcDbBlockReference
  2
_FILLED
 10
81.58935329270001
 20
99.31107626219999
 30
0.0
 41
2.0
 42
2.0
 43
2.0
  0
ENDBLK
  5
33E
330
21E
100
AcDbEntity
  8
0
  6
ByBlock
 62
     0
100
AcDbBlockEnd
  0
BLOCK
  5
33F
330
21F
100
AcDbEntity
  8
0
  6
Continuous
 62
     7
100
AcDbBlockBegin
  2
*D7
 70
     1
 10
0.0
 20
0.0
 30
0.0
  3
*D7
  1

  0
MTEXT
  5
340
330
21F
100
AcDbEntity
  8
0
  6
Continuous
 62
     7
100
AcDbMText
 10
100.0359825576
 20
55.7843858242
 30
0.0
 40
1.333333333299999
 41
5.333333333299999
 71
     1
 72
     1
  1
3-1/8\P[7,8]
 73
     1
 44
0.9
  0
LINE
  5
341
330
21F
100
AcDbEntity
  8
0
  6
Continuous
 62
     7
100
AcDbLine
 10
52.71785756919999
 20
59.6378137074
 30
0.0
 11
98.70266569180001
 21
59.6376461702
 31
0.0
  0
LINE
  5
342
330
21F
100
AcDbEntity
  8
0
  6
Continuous
 62
     7
100
AcDbLine
 10
75.3185305339
 20
62.7047299271
 30
0.0
 11
98.7026768659
 21
62.7046447313
 31
0.0
  0
LINE
  5
343
330
21F
100
AcDbEntity
  8
0
  6
Continuous
 62
     7
100
AcDbLine
 10
97.36933235850001
 20
59.6376510279
 30
0.0
 11
97.36931589100001
 21
55.11771915749999
 31
0.0
  0
LINE
  5
344
330
21F
100
AcDbEntity
  8
0
  6
Continuous
 62
     7
100
AcDbLine
 10
97.36931589100001
 20
55.11771915749999
 30
0.0
 11
99.369315891
 21
55.11771915749999
 31
0.0
  0
LINE
  5
345
330
21F
100
AcDbEntity
  8
0
  6
Continuous
 62
     7
100
AcDbLine
 10
97.36934353249999
 20
62.70464958899999
 30
0.0
 11
97.36936296360001
 21
68.03798292229998
 31
0.0
  0
INSERT
  5
346
330
21F
100
AcDbEntity
  8
0
  6
Continuous
 62
     7
100
AcDbBlockReference
  2
_FILLED
 10
97.36933235850001
 20
59.6376510279
 30
0.0
 41
2.0
 42
2.0
 43
2.0
 50
89.9997912533
  0
INSERT
  5
347
330
21F
100
AcDbEntity
  8
0
  6
Continuous
 62
     7
100
AcDbBlockReference
  2
_FILLED
 10
97.36934353249999
 20
62.70464958899999
 30
0.0
 41
2.0
 42
2.0
 43
2.0
 50
269.9997912533
  0
ENDBLK
  5
348
330
21F
100
AcDbEntity
  8
0
  6
ByBlock
 62
     0
100
AcDbBlockEnd
  0
BLOCK
  5
349
330
220
100
AcDbEntity
  8
0
  6
Continuous
 62
     7
100
AcDbBlockBegin
  2
*D8
 70
     1
 10
0.0
 20
0.0
 30
0.0
  3
*D8
  1

  0
MTEXT
  5
34A
330
220
100
AcDbEntity
  8
0
  6
Continuous
 62
     7
100
AcDbMText
 10
91.45597134299999
 20
105.6824707143
 30
0.0
 40
1.333333333299999
 41
5.333333333299999
 71
     1
 72
     1
  1
1-5/8\P[4]
 73
     1
 44
0.9
  0
LINE
  5
34B
330
220
100
AcDbEntity
  8
0
  6
Continuous
 62
     7
100
AcDbLine
 10
85.0507694991
 20
78.30352391169999
 30
0.0
 11
85.04662546490001
 21
106.3481903153
 31
0.0
  0
LINE
  5
34C
330
220
100
AcDbEntity
  8
0
  6
Continuous
 62
     7
100
AcDbLine
 10
83.46994537569999
 20
86.16171094329999
 30
0.0
 11
83.46696254500001
 21
106.3479568956
 31
0.0
  0
LINE
  5
34D
330
220
100
AcDbEntity
  8
0
  6
Continuous
 62
     7
100
AcDbLine
 10
85.04682248559999
 20
105.0148569965
 30
0.0
 11
90.7893046763
 21
105.0157055373
 31
0.0
  0
LINE
  5
34E
330
220
100
AcDbEntity
  8
0
  6
Continuous
 62
     7
100
AcDbLine
 10
83.46715956569999
 20
105.0146235768
 30
0.0
 11
78.1338262906
 21
105.0138354942
 31
0.0
  0
INSERT
  5
34F
330
220
100
AcDbEntity
  8
0
  6
Continuous
 62
     7
100
AcDbBlockReference
  2
_FILLED
 10
85.04682248559999
 20
105.0148569965
 30
0.0
 41
2.0
 42
2.0
 43
2.0
 50
180.0084663395
  0
INSERT
  5
350
330
220
100
AcDbEntity
  8
0
  6
Continuous
 62
     7
100
AcDbBlockReference
  2
_FILLED
 10
83.46715956569999
 20
105.0146235768
 30
0.0
 41
2.0
 42
2.0
 43
2.0
 50
0.0084663395
  0
ENDBLK
  5
351
330
220
100
AcDbEntity
  8
0
  6
ByBlock
 62
     0
100
AcDbBlockEnd
  0
BLOCK
  5
352
330
221
100
AcDbEntity
  8
0
  6
Continuous
 62
     7
100
AcDbBlockBegin
  2
*D9
 70
     1
 10
0.0
 20
0.0
 30
0.0
  3
*D9
  1

  0
MTEXT
  5
353
330
221
100
AcDbEntity
  8
0
  6
Continuous
 62
     7
100
AcDbMText
 10
113.8423843384
 20
55.40333464109999
 30
0.0
 40
1.333333333299999
 41
5.333333333299999
 71
     1
 72
     1
  1
1-5/8\P[4]
 73
     1
 44
0.9
  0
LINE
  5
354
330
221
100
AcDbEntity
  8
0
  6
Continuous
 62
     7
100
AcDbLine
 10
52.71781014470001
 20
59.6372512774
 30
0.0
 11
112.5090830321
 21
59.63686048949999
 31
0.0
  0
LINE
  5
355
330
221
100
AcDbEntity
  8
0
  6
Continuous
 62
     7
100
AcDbLine
 10
72.1152416104
 20
61.2167223107
 30
0.0
 11
112.5090933561
 21
61.2164583018
 31
0.0
  0
LINE
  5
356
330
221
100
AcDbEntity
  8
0
  6
Continuous
 62
     7
100
AcDbLine
 10
111.1757496988
 20
59.63686920399999
 30
0.0
 11
111.1757176717
 21
54.7366679745
 31
0.0
  0
LINE
  5
357
330
221
100
AcDbEntity
  8
0
  6
Continuous
 62
     7
100
AcDbLine
 10
111.1757176717
 20
54.7366679745
 30
0.0
 11
113.1757176717
 21
54.7366679745
 31
0.0
  0
LINE
  5
358
330
221
100
AcDbEntity
  8
0
  6
Continuous
 62
     7
100
AcDbLine
 10
111.1757600228
 20
61.2164670163
 30
0.0
 11
111.1757948808
 21
66.5498003495
 31
0.0
  0
INSERT
  5
359
330
221
100
AcDbEntity
  8
0
  6
Continuous
 62
     7
100
AcDbBlockReference
  2
_FILLED
 10
111.1757496988
 20
59.63686920399999
 30
0.0
 41
2.0
 42
2.0
 43
2.0
 50
89.9996255223
  0
INSERT
  5
35A
330
221
100
AcDbEntity
  8
0
  6
Continuous
 62
     7
100
AcDbBlockReference
  2
_FILLED
 10
111.1757600228
 20
61.2164670163
 30
0.0
 41
2.0
 42
2.0
 43
2.0
 50
269.9996255223
  0
ENDBLK
  5
35B
330
221
100
AcDbEntity
  8
0
  6
ByBlock
 62
     0
100
AcDbBlockEnd
  0
BLOCK
  5
35C
330
222
100
AcDbEntity
  8
0
  6
Continuous
 62
     7
100
AcDbBlockBegin
  2
*D10
 70
     1
 10
0.0
 20
0.0
 30
0.0
  3
*D10
  1

  0
MTEXT
  5
35D
330
222
100
AcDbEntity
  8
0
  6
Continuous
 62
     7
100
AcDbMText
 10
54.43673400689999
 20
10.1604870652
 30
0.0
 40
1.333333333299999
 41
6.4
 71
     2
 72
     1
  1
32-3/8\P[82]
 73
     1
 44
0.9
  0
LINE
  5
35E
330
222
100
AcDbEntity
  8
0
  6
Continuous
 62
     7
100
AcDbLine
 10
38.2467304001
 20
15.1709863042
 30
0.0
 11
38.2467304001
 21
8.160487065199999
 31
0.0
  0
LINE
  5
35F
330
222
100
AcDbEntity
  8
0
  6
Continuous
 62
     7
100
AcDbLine
 10
70.6267376136
 20
15.1733479982
 30
0.0
 11
70.6267376136
 21
8.160487065199999
 31
0.0
  0
LINE
  5
360
330
222
100
AcDbEntity
  8
0
  6
Continuous
 62
     7
100
AcDbLine
 10
38.2467304001
 20
9.4938203986
 30
0.0
 11
50.5700673402
 21
9.4938203986
 31
0.0
  0
LINE
  5
361
330
222
100
AcDbEntity
  8
0
  6
Continuous
 62
     7
100
AcDbLine
 10
70.6267376136
 20
9.4938203986
 30
0.0
 11
58.30340067359999
 21
9.4938203986
 31
0.0
  0
INSERT
  5
362
330
222
100
AcDbEntity
  8
0
  6
Continuous
 62
     7
100
AcDbBlockReference
  2
_FILLED
 10
38.2467304001
 20
9.4938203986
 30
0.0
 41
2.0
 42
2.0
 43
2.0
 50
180.0
  0
INSERT
  5
363
330
222
100
AcDbEntity
  8
0
  6
Continuous
 62
     7
100
AcDbBlockReference
  2
_FILLED
 10
70.6267376136
 20
9.4938203986
 30
0.0
 41
2.0
 42
2.0
 43
2.0
  0
ENDBLK
  5
364
330
222
100
AcDbEntity
  8
0
  6
ByBlock
 62
     0
100
AcDbBlockEnd
  0
BLOCK
  5
365
330
223
100
AcDbEntity
  8
0
  6
Continuous
 62
     7
100
AcDbBlockBegin
  2
*D11
 70
     1
 10
0.0
 20
0.0
 30
0.0
  3
*D11
  1

  0
MTEXT
  5
366
330
223
100
AcDbEntity
  8
0
  6
Continuous
 62
     7
100
AcDbMText
 10
140.0817359731
 20
29.8544170609
 30
0.0
 40
1.333333333299999
 41
6.4
 71
     2
 72
     1
  1
16-5/8\P[42]
 73
     1
 44
0.9
  0
LINE
  5
367
330
223
100
AcDbEntity
  8
0
  6
Continuous
 62
     7
100
AcDbLine
 10
132.9375685523
 20
20.5867206771
 30
0.0
 11
141.4150693065
 21
20.5867206771
 31
0.0
  0
LINE
  5
368
330
223
100
AcDbEntity
  8
0
  6
Continuous
 62
     7
100
AcDbLine
 10
137.6103363886
 20
37.1520692234
 30
0.0
 11
141.4150693065
 21
37.1520692234
 31
0.0
  0
LINE
  5
369
330
223
100
AcDbEntity
  8
0
  6
Continuous
 62
     7
100
AcDbLine
 10
140.0817359731
 20
20.5867206771
 30
0.0
 11
140.0817359731
 21
25.8544170609
 31
0.0
  0
LINE
  5
36A
330
223
100
AcDbEntity
  8
0
  6
Continuous
 62
     7
100
AcDbLine
 10
140.0817359731
 20
37.1520692234
 30
0.0
 11
140.0817359731
 21
30.5210837276
 31
0.0
  0
INSERT
  5
36B
330
223
100
AcDbEntity
  8
0
  6
Continuous
 62
     7
100
AcDbBlockReference
  2
_FILLED
 10
140.0817359731
 20
20.5867206771
 30
0.0
 41
2.0
 42
2.0
 43
2.0
 50
270.0
  0
INSERT
  5
36C
330
223
100
AcDbEntity
  8
0
  6
Continuous
 62
     7
100
AcDbBlockReference
  2
_FILLED
 10
140.0817359731
 20
37.1520692234
 30
0.0
 41
2.0
 42
2.0
 43
2.0
 50
90.0
  0
ENDBLK
  5
36D
330
223
100
AcDbEntity
  8
0
  6
ByBlock
 62
     0
100
AcDbBlockEnd
  0
BLOCK
  5
36E
330
224
100
AcDbEntity
  8
0
  6
Continuous
 62
     7
100
AcDbBlockBegin
  2
*D12
 70
     1
 10
0.0
 20
0.0
 30
0.0
  3
*D12
  1

  0
MTEXT
  5
36F
330
224
100
AcDbEntity
  8
0
  6
Continuous
 62
     7
100
AcDbMText
 10
97.87238635740001
 20
32.347055345
 30
0.0
 40
1.333333333299999
 41
6.4
 71
     2
 72
     1
  1
19-1/4\P[49]
 73
     1
 44
0.9
  0
LINE
  5
370
330
224
100
AcDbEntity
  8
0
  6
Continuous
 62
     7
100
AcDbLine
 10
105.30768852
 20
20.5867206771
 30
0.0
 11
96.539053024
 21
20.5867206771
 31
0.0
  0
LINE
  5
371
330
224
100
AcDbEntity
  8
0
  6
Continuous
 62
     7
100
AcDbLine
 10
100.7657581831
 20
39.8367206771
 30
0.0
 11
96.539053024
 21
39.8367206771
 31
0.0
  0
LINE
  5
372
330
224
100
AcDbEntity
  8
0
  6
Continuous
 62
     7
100
AcDbLine
 10
97.87238635740001
 20
20.5867206771
 30
0.0
 11
97.87238635740001
 21
28.347055345
 31
0.0
  0
LINE
  5
373
330
224
100
AcDbEntity
  8
0
  6
Continuous
 62
     7
100
AcDbLine
 10
97.87238635740001
 20
39.8367206771
 30
0.0
 11
97.87238635740001
 21
33.01372201159999
 31
0.0
  0
INSERT
  5
374
330
224
100
AcDbEntity
  8
0
  6
Continuous
 62
     7
100
AcDbBlockReference
  2
_FILLED
 10
97.87238635740001
 20
20.5867206771
 30
0.0
 41
2.0
 42
2.0
 43
2.0
 50
270.0
  0
INSERT
  5
375
330
224
100
AcDbEntity
  8
0
  6
Continuous
 62
     7
100
AcDbBlockReference
  2
_FILLED
 10
97.87238635740001
 20
39.8367206771
 30
0.0
 41
2.0
 42
2.0
 43
2.0
 50
90.0
  0
ENDBLK
  5
376
330
224
100
AcDbEntity
  8
0
  6
ByBlock
 62
     0
100
AcDbBlockEnd
  0
BLOCK
  5
377
330
225
100
AcDbEntity
  8
0
  6
Continuous
 62
     7
100
AcDbBlockBegin
  2
*D13
 70
     1
 10
0.0
 20
0.0
 30
0.0
  3
*D13
  1

  0
MTEXT
  5
378
330
225
100
AcDbEntity
  8
0
  6
Continuous
 62
     7
100
AcDbMText
 10
7.8502170363
 20
27.9942753791
 30
0.0
 40
1.333333333299999
 41
4.266666666699999
 71
     2
 72
     1
  1
24\P[61]
 73
     1
 44
0.9
  0
LINE
  5
379
330
225
100
AcDbEntity
  8
0
  6
Continuous
 62
     7
100
AcDbLine
 10
35.89912579510001
 20
15.8367206771
 30
0.0
 11
7.5835503697
 21
15.8367206771
 31
0.0
  0
LINE
  5
37A
330
225
100
AcDbEntity
  8
0
  6
Continuous
 62
     7
100
AcDbLine
 10
12.2432386238
 20
39.8367206771
 30
0.0
 11
7.5835503697
 21
39.8367206771
 31
0.0
  0
LINE
  5
37B
330
225
100
AcDbEntity
  8
0
  6
Continuous
 62
     7
100
AcDbLine
 10
8.916883702999999
 20
15.8367206771
 30
0.0
 11
8.916883702999999
 21
23.9942753791
 31
0.0
  0
LINE
  5
37C
330
225
100
AcDbEntity
  8
0
  6
Continuous
 62
     7
100
AcDbLine
 10
8.916883702999999
 20
39.8367206771
 30
0.0
 11
8.916883702999999
 21
28.6609420458
 31
0.0
  0
INSERT
  5
37D
330
225
100
AcDbEntity
  8
0
  6
Continuous
 62
     7
100
AcDbBlockReference
  2
_FILLED
 10
8.916883702999999
 20
15.8367206771
 30
0.0
 41
2.0
 42
2.0
 43
2.0
 50
270.0
  0
INSERT
  5
37E
330
225
100
AcDbEntity
  8
0
  6
Continuous
 62
     7
100
AcDbBlockReference
  2
_FILLED
 10
8.916883702999999
 20
39.8367206771
 30
0.0
 41
2.0
 42
2.0
 43
2.0
 50
90.0
  0
ENDBLK
  5
37F
330
225
100
AcDbEntity
  8
0
  6
ByBlock
 62
     0
100
AcDbBlockEnd
  0
BLOCK
  5
380
330
226
100
AcDbEntity
  8
0
  6
Continuous
 62
     7
100
AcDbBlockBegin
  2
*D14
 70
     1
 10
0.0
 20
0.0
 30
0.0
  3
*D14
  1

  0
MTEXT
  5
381
330
226
100
AcDbEntity
  8
0
  6
Continuous
 62
     7
100
AcDbMText
 10
118.1021707016
 20
14.5191905338
 30
0.0
 40
1.333333333299999
 41
4.266666666699999
 71
     2
 72
     1
  1
19\P[48]
 73
     1
 44
0.9
  0
LINE
  5
382
330
226
100
AcDbEntity
  8
0
  6
Continuous
 62
     7
100
AcDbLine
 10
128.5645701656
 20
15.1818704283
 30
0.0
 11
128.5645701656
 21
12.5191905338
 31
0.0
  0
LINE
  5
383
330
226
100
AcDbEntity
  8
0
  6
Continuous
 62
     7
100
AcDbLine
 10
109.7731045709
 20
15.2105695579
 30
0.0
 11
109.7731045709
 21
12.5191905338
 31
0.0
  0
LINE
  5
384
330
226
100
AcDbEntity
  8
0
  6
Continuous
 62
     7
100
AcDbLine
 10
128.5645701656
 20
13.8525238672
 30
0.0
 11
121.9688373682
 21
13.8525238672
 31
0.0
  0
LINE
  5
385
330
226
100
AcDbEntity
  8
0
  6
Continuous
 62
     7
100
AcDbLine
 10
109.7731045709
 20
13.8525238672
 30
0.0
 11
116.3688373682
 21
13.8525238672
 31
0.0
  0
INSERT
  5
386
330
226
100
AcDbEntity
  8
0
  6
Continuous
 62
     7
100
AcDbBlockReference
  2
_FILLED
 10
128.5645701656
 20
13.8525238672
 30
0.0
 41
2.0
 42
2.0
 43
2.0
  0
INSERT
  5
387
330
226
100
AcDbEntity
  8
0
  6
Continuous
 62
     7
100
AcDbBlockReference
  2
_FILLED
 10
109.7731045709
 20
13.8525238672
 30
0.0
 41
2.0
 42
2.0
 43
2.0
 50
180.0
  0
ENDBLK
  5
388
330
226
100
AcDbEntity
  8
0
  6
ByBlock
 62
     0
100
AcDbBlockEnd
  0
BLOCK
  5
389
330
227
100
AcDbEntity
  8
0
  6
Continuous
 62
     7
100
AcDbBlockBegin
  2
*D15
 70
     1
 10
0.0
 20
0.0
 30
0.0
  3
*D15
  1

  0
MTEXT
  5
38A
330
227
100
AcDbEntity
  8
0
  6
Continuous
 62
     7
100
AcDbMText
 10
60.42999744439999
 20
13.6572405184
 30
0.0
 40
1.333333333299999
 41
1.955555555599999
 71
     2
 72
     1
  1
2\Fgdt;{\Fgdt;~}
 73
     1
 44
0.9
  0
LINE
  5
38B
330
227
100
AcDbEntity
  8
0
  6
Continuous
 62
     7
100
AcDbLine
 10
46.092871271
 20
20.5867206771
 30
0.0
 11
63.576649645
 21
20.5867206771
 31
0.0
  0
ARC
  5
38C
330
227
100
AcDbEntity
  8
0
  6
Continuous
 62
     7
100
AcDbCircle
 10
45.4262046043
 20
20.5867206771
 30
0.0
 40
16.8171117074
100
AcDbArc
 50
333.1477376952
 51
360.0
  0
ARC
  5
38D
330
227
100
AcDbEntity
  8
0
  6
Continuous
 62
     7
100
AcDbCircle
 10
45.4262046043
 20
20.5867206771
 30
0.0
 40
16.8171117074
100
AcDbArc
 50
1.9020172515
 51
20.0726458382
  0
SOLID
  5
38E
330
227
100
AcDbEntity
  8
0
  6
Continuous
 62
     7
100
AcDbTrace
 10
62.45720409229999
 20
18.5704461103
 30
0.0
 11
62.2433163117
 21
20.5867206771
 31
0.0
 12
61.7917157042
 22
18.6100649148
 32
0.0
 13
61.7917157042
 23
18.6100649148
 33
0.0
  0
SOLID
  5
38F
330
227
100
AcDbEntity
  8
0
  6
Continuous
 62
     7
100
AcDbTrace
 10
61.7170931636
 20
23.1054647114
 30
0.0
 11
62.2340508905
 21
21.1448867813
 31
0.0
 12
62.380899937
 22
23.1671494914
 32
0.0
 13
62.380899937
 23
23.1671494914
 33
0.0
  0
ENDBLK
  5
390
330
227
100
AcDbEntity
  8
0
  6
ByBlock
 62
     0
100
AcDbBlockEnd
  0
BLOCK
  5
391
330
228
100
AcDbEntity
  8
0
  6
Continuous
 62
     7
100
AcDbBlockBegin
  2
*D16
 70
     1
 10
0.0
 20
0.0
 30
0.0
  3
*D16
  1

  0
MTEXT
  5
392
330
228
100
AcDbEntity
  8
0
  6
Continuous
 62
     7
100
AcDbMText
 10
87.75624420280001
 20
26.3315598369
 30
0.0
 40
1.333333333299999
 41
3.0222222222
 71
     2
 72
     1
  1
29\Fgdt;{\Fgdt;~}
 73
     1
 44
0.9
  0
LINE
  5
393
330
228
100
AcDbEntity
  8
0
  6
Continuous
 62
     7
100
AcDbLine
 10
75.5766330008
 20
26.6903084416
 30
0.0
 11
74.45438402509999
 21
24.671916637
 31
0.0
  0
LINE
  5
394
330
228
100
AcDbEntity
  8
0
  6
Continuous
 62
     7
100
AcDbLine
 10
81.58935329270001
 20
36.837663996
 30
0.0
 11
81.58935329270001
 21
22.8217342923
 31
0.0
  0
ARC
  5
395
330
228
100
AcDbEntity
  8
0
  6
Continuous
 62
     7
100
AcDbCircle
 10
81.58935329270001
 20
37.5043306627
 30
0.0
 40
13.3492630371
100
AcDbArc
 50
240.9254390377
 51
287.3871317461
  0
SOLID
  5
396
330
228
100
AcDbEntity
  8
0
  6
Continuous
 62
     7
100
AcDbTrace
 10
77.0578498517
 20
25.3015194655
 30
0.0
 11
75.10231386779999
 21
25.8372340602
 31
0.0
 12
76.7783999299
 22
24.6962491245
 32
0.0
 13
76.7783999299
 23
24.6962491245
 33
0.0
  0
SOLID
  5
397
330
228
100
AcDbEntity
  8
0
  6
Continuous
 62
     7
100
AcDbTrace
 10
79.57001543210001
 20
23.9723500407
 30
0.0
 11
81.58935329270001
 21
24.1550676256
 31
0.0
 12
79.61990907270001
 22
24.6371470541
 32
0.0
 13
79.61990907270001
 23
24.6371470541
 33
0.0
  0
ENDBLK
  5
398
330
228
100
AcDbEntity
  8
0
  6
ByBlock
 62
     0
100
AcDbBlockEnd
  0
BLOCK
  5
399
330
229
100
AcDbEntity
  8
0
  6
Continuous
 62
     7
100
AcDbBlockBegin
  2
*D17
 70
     1
 10
0.0
 20
0.0
 30
0.0
  3
*D17
  1

  0
MTEXT
  5
39A
330
229
100
AcDbEntity
  8
0
  6
Continuous
 62
     7
100
AcDbMText
 10
12.6363787376
 20
22.0769829537
 30
0.0
 40
1.333333333299999
 41
3.0222222222
 71
     2
 72
     1
  1
40\Fgdt;{\Fgdt;~}
 73
     1
 44
0.9
  0
LINE
  5
39B
330
229
100
AcDbEntity
  8
0
  6
Continuous
 62
     7
100
AcDbLine
 10
16.6562707909
 20
35.8654200746
 30
0.0
 11
16.6562707909
 21
19.5517896836
 31
0.0
  0
LINE
  5
39C
330
229
100
AcDbEntity
  8
0
  6
Continuous
 62
     7
100
AcDbLine
 10
26.2209523106
 20
25.2221856048
 30
0.0
 11
27.62106433
 21
23.5666021453
 31
0.0
  0
ARC
  5
39D
330
229
100
AcDbEntity
  8
0
  6
Continuous
 62
     7
100
AcDbCircle
 10
16.6562707909
 20
36.5320867412
 30
0.0
 40
15.6469637243
100
AcDbArc
 50
263.2388977251
 51
310.2209002863
  0
SOLID
  5
39E
330
229
100
AcDbEntity
  8
0
  6
Continuous
 62
     7
100
AcDbTrace
 10
18.6308987838
 20
21.3455091601
 30
0.0
 11
16.6562707909
 21
20.885123017
 31
0.0
 12
18.6734765603
 22
20.6802035331
 32
0.0
 13
18.6734765603
 23
20.6802035331
 33
0.0
  0
SOLID
  5
39F
330
229
100
AcDbEntity
  8
0
  6
Continuous
 62
     7
100
AcDbTrace
 10
25.3521478861
 20
23.1256315085
 30
0.0
 11
26.7600826482
 21
24.58468285
 31
0.0
 12
24.9550466274
 22
23.661126639
 32
0.0
 13
24.9550466274
 23
23.661126639
 33
0.0
  0
ENDBLK
  5
3A0
330
229
100
AcDbEntity
  8
0
  6
ByBlock
 62
     0
100
AcDbBlockEnd
  0
BLOCK
  5
235
330
22A
100
AcDbEntity
  8
0
  6
Continuous
 62
     7
100
AcDbBlockBegin
  2
L03-USAGE_INTERNE_SEULEM_BL3
 70
     0
 10
120.401880998
 20
44.6769857358
 30
0.0
  3
L03-USAGE_INTERNE_SEULEM_BL3
  1

  0
TEXT
  5
236
330
22A
100
AcDbEntity
  8
0
  6
Continuous
 62
     7
100
AcDbText
 10
114.0878206962
 20
46.9220197216
 30
0.0
 40
1.1626666667
  1
INTERNAL USE 
 50
10.0
  7
TEXTSTYLE_3
100
AcDbText
  0
TEXT
  5
237
330
22A
100
AcDbEntity
  8
0
  6
Continuous
 62
     7
100
AcDbText
 10
113.3441364922
 20
44.9204985439
 30
0.0
 40
1.1626666667
  1
DOCUMENT ONLY
 50
10.0
  7
TEXTSTYLE_3
100
AcDbText
  0
TEXT
  5
238
330
22A
100
AcDbEntity
  8
0
  6
Continuous
 62
     7
100
AcDbText
 10
119.1288640555
 20
44.67207049339999
 30
0.0
 40
1.1626666667
  1
 
 50
10.0
  7
TEXTSTYLE_5
100
AcDbText
  0
TEXT
  5
239
330
22A
100
AcDbEntity
  8
0
  6
Continuous
 62
     7
100
AcDbText
 10
110.6842161725
 20
40.4949760871
 30
0.0
 40
1.1626666667
  1
DOCUMENT POUR USAGE
 50
10.0
  7
TEXTSTYLE_3
100
AcDbText
  0
TEXT
  5
23A
330
22A
100
AcDbEntity
  8
0
  6
Continuous
 62
     7
100
AcDbText
 10
111.1133156185
 20
38.47822762670001
 30
0.0
 40
1.1626666667
  1
A L'INTERNE SEULEMENT
 50
10.0
  7
TEXTSTYLE_3
100
AcDbText
  0
LINE
  5
23B
330
22A
100
AcDbEntity
  8
0
  6
Continuous
 62
     7
100
AcDbLine
 10
134.2584327213
 20
40.3334521178
 30
0.0
 11
134.265191654
 21
40.3402110505
 31
0.0
  0
LINE
  5
23C
330
22A
100
AcDbEntity
  8
0
  6
Continuous
 62
     7
100
AcDbLine
 10
133.5258631549
 20
40.204280338
 30
0.0
 11
134.1747446
 21
40.8531617831
 31
0.0
  0
LINE
  5
23D
330
22A
100
AcDbEntity
  8
0
  6
Continuous
 62
     7
100
AcDbLine
 10
132.7932935885
 20
40.0751085582
 30
0.0
 11
134.0842975461
 21
41.36611251579999
 31
0.0
  0
LINE
  5
23E
330
22A
100
AcDbEntity
  8
0
  6
Continuous
 62
     7
100
AcDbLine
 10
132.0607240221
 20
39.94593677840001
 30
0.0
 11
133.9938504921
 21
41.8790632485
 31
0.0
  0
LINE
  5
23F
330
22A
100
AcDbEntity
  8
0
  6
Continuous
 62
     7
100
AcDbLine
 10
131.3281544556
 20
39.8167649986
 30
0.0
 11
133.9034034382
 21
42.3920139811
 31
0.0
  0
LINE
  5
240
330
22A
100
AcDbEntity
  8
0
  6
Continuous
 62
     7
100
AcDbLine
 10
130.5955848892
 20
39.6875932188
 30
0.0
 11
132.136588704
 21
41.2285970336
 31
0.0
  0
LINE
  5
241
330
22A
100
AcDbEntity
  8
0
  6
Continuous
 62
     7
100
AcDbLine
 10
132.7339338967
 20
41.8259422263
 30
0.0
 11
133.8129563842
 21
42.9049647138
 31
0.0
  0
LINE
  5
242
330
22A
100
AcDbEntity
  8
0
  6
Continuous
 62
     7
100
AcDbLine
 10
129.8630153228
 20
39.558421439
 30
0.0
 11
131.4040191376
 21
41.0994252538
 31
0.0
  0
LINE
  5
243
330
22A
100
AcDbEntity
  8
0
  6
Continuous
 62
     7
100
AcDbLine
 10
132.6434868428
 20
42.3388929589
 30
0.0
 11
133.7225093303
 21
43.41791544649999
 31
0.0
  0
LINE
  5
244
330
22A
100
AcDbEntity
  8
0
  6
Continuous
 62
     7
100
AcDbLine
 10
129.1304457564
 20
39.42924965920001
 30
0.0
 11
130.6714495712
 21
40.9702534739
 31
0.0
  0
LINE
  5
245
330
22A
100
AcDbEntity
  8
0
  6
Continuous
 62
     7
100
AcDbLine
 10
132.5530397888
 20
42.85184369159999
 30
0.0
 11
133.6320622764
 21
43.93086617909999
 31
0.0
  0
LINE
  5
246
330
22A
100
AcDbEntity
  8
0
  6
Continuous
 62
     7
100
AcDbLine
 10
128.39787619
 20
39.3000778794
 30
0.0
 11
129.9388800048
 21
40.8410816941
 31
0.0
  0
LINE
  5
247
330
22A
100
AcDbEntity
  8
0
  6
Continuous
 62
     7
100
AcDbLine
 10
132.4625927349
 20
43.36479442429999
 30
0.0
 11
133.5416152224
 21
44.44381691180001
 31
0.0
  0
LINE
  5
248
330
22A
100
AcDbEntity
  8
0
  6
Continuous
 62
     7
100
AcDbLine
 10
127.6653066236
 20
39.17090609960001
 30
0.0
 11
129.2063104383
 21
40.71190991429999
 31
0.0
  0
LINE
  5
249
330
22A
100
AcDbEntity
  8
0
  6
Continuous
 62
     7
100
AcDbLine
 10
132.372145681
 20
43.877745157
 30
0.0
 11
133.4511681685
 21
44.95676764449999
 31
0.0
  0
LINE
  5
24A
330
22A
100
AcDbEntity
  8
0
  6
Continuous
 62
     7
100
AcDbLine
 10
126.9327370571
 20
39.0417343198
 30
0.0
 11
128.4737408719
 21
40.58273813449999
 31
0.0
  0
LINE
  5
24B
330
22A
100
AcDbEntity
  8
0
  6
Continuous
 62
     7
100
AcDbLine
 10
132.281698627
 20
44.3906958896
 30
0.0
 11
133.3607211145
 21
45.4697183771
 31
0.0
  0
LINE
  5
24C
330
22A
100
AcDbEntity
  8
0
  6
Continuous
 62
     7
100
AcDbLine
 10
126.2001674907
 20
38.91256253989999
 30
0.0
 11
127.7411713055
 21
40.4535663547
 31
0.0
  0
LINE
  5
24D
330
22A
100
AcDbEntity
  8
0
  6
Continuous
 62
     7
100
AcDbLine
 10
132.1912515731
 20
44.90364662229999
 30
0.0
 11
133.2702740606
 21
45.98266910979999
 31
0.0
  0
LINE
  5
24E
330
22A
100
AcDbEntity
  8
0
  6
Continuous
 62
     7
100
AcDbLine
 10
125.4675979243
 20
38.7833907601
 30
0.0
 11
127.0086017391
 21
40.32439457489999
 31
0.0
  0
LINE
  5
24F
330
22A
100
AcDbEntity
  8
0
  6
Continuous
 62
     7
100
AcDbLine
 10
132.1008045191
 20
45.416597355
 30
0.0
 11
133.1798270066
 21
46.4956198425
 31
0.0
  0
LINE
  5
250
330
22A
100
AcDbEntity
  8
0
  6
Continuous
 62
     7
100
AcDbLine
 10
124.7350283579
 20
38.6542189803
 30
0.0
 11
126.2760321727
 21
40.1952227951
 31
0.0
  0
LINE
  5
251
330
22A
100
AcDbEntity
  8
0
  6
Continuous
 62
     7
100
AcDbLine
 10
132.0103574652
 20
45.9295480876
 30
0.0
 11
133.0893799527
 21
47.0085705751
 31
0.0
  0
LINE
  5
252
330
22A
100
AcDbEntity
  8
0
  6
Continuous
 62
     7
100
AcDbLine
 10
124.0024587915
 20
38.52504720050001
 30
0.0
 11
125.5434626062
 21
40.0660510153
 31
0.0
  0
LINE
  5
253
330
22A
100
AcDbEntity
  8
0
  6
Continuous
 62
     7
100
AcDbLine
 10
131.7074778654
 20
46.23006627439999
 30
0.0
 11
132.9989328988
 21
47.52152130779999
 31
0.0
  0
LINE
  5
254
330
22A
100
AcDbEntity
  8
0
  6
Continuous
 62
     7
100
AcDbLine
 10
123.269889225
 20
38.3958754207
 30
0.0
 11
124.8108930398
 21
39.9368792355
 31
0.0
  0
LINE
  5
255
330
22A
100
AcDbEntity
  8
0
  6
Continuous
 62
     7
100
AcDbLine
 10
130.9749082989
 20
46.1008944946
 30
0.0
 11
132.9084858448
 21
48.0344720405
 31
0.0
  0
LINE
  5
256
330
22A
100
AcDbEntity
  8
0
  6
Continuous
 62
     7
100
AcDbLine
 10
122.5373196586
 20
38.26670364090001
 30
0.0
 11
124.0783234734
 21
39.8077074557
 31
0.0
  0
LINE
  5
257
330
22A
100
AcDbEntity
  8
0
  6
Continuous
 62
     7
100
AcDbLine
 10
130.2423387325
 20
45.97172271479999
 30
0.0
 11
131.2696810308
 21
46.9990650131
 31
0.0
  0
LINE
  5
258
330
22A
100
AcDbEntity
  8
0
  6
Continuous
 62
     7
100
AcDbLine
 10
131.7390163033
 20
47.4684002856
 30
0.0
 11
132.8180387909
 21
48.54742277319999
 31
0.0
  0
LINE
  5
259
330
22A
100
AcDbEntity
  8
0
  6
Continuous
 62
     7
100
AcDbLine
 10
121.8047500922
 20
38.1375318611
 30
0.0
 11
123.345753907
 21
39.6785356759
 31
0.0
  0
LINE
  5
25A
330
22A
100
AcDbEntity
  8
0
  6
Continuous
 62
     7
100
AcDbLine
 10
129.5097691661
 20
45.842550935
 30
0.0
 11
130.5371112547
 21
46.8698930237
 31
0.0
  0
LINE
  5
25B
330
22A
100
AcDbEntity
  8
0
  6
Continuous
 62
     7
100
AcDbLine
 10
131.6485692494
 20
47.98135101829999
 30
0.0
 11
132.7275917369
 21
49.0603735058
 31
0.0
  0
LINE
  5
25C
330
22A
100
AcDbEntity
  8
0
  6
Continuous
 62
     7
100
AcDbLine
 10
121.0721805258
 20
38.0083600813
 30
0.0
 11
122.6131843406
 21
39.54936389610001
 31
0.0
  0
LINE
  5
25D
330
22A
100
AcDbEntity
  8
0
  6
Continuous
 62
     7
100
AcDbLine
 10
128.7771995997
 20
45.7133791552
 30
0.0
 11
129.8045414787
 21
46.7407210342
 31
0.0
  0
LINE
  5
25E
330
22A
100
AcDbEntity
  8
0
  6
Continuous
 62
     7
100
AcDbLine
 10
131.5581221955
 20
48.494301751
 30
0.0
 11
132.637144683
 21
49.57332423850001
 31
0.0
  0
LINE
  5
25F
330
22A
100
AcDbEntity
  8
0
  6
Continuous
 62
     7
100
AcDbLine
 10
120.3396109594
 20
37.8791883015
 30
0.0
 11
121.8806147742
 21
39.4201921163
 31
0.0
  0
LINE
  5
260
330
22A
100
AcDbEntity
  8
0
  6
Continuous
 62
     7
100
AcDbLine
 10
128.0446300333
 20
45.58420737539999
 30
0.0
 11
129.0719717027
 21
46.61154904479999
 31
0.0
  0
LINE
  5
261
330
22A
100
AcDbEntity
  8
0
  6
Continuous
 62
     7
100
AcDbLine
 10
131.4676751415
 20
49.0072524836
 30
0.0
 11
132.546697629
 21
50.08627497119999
 31
0.0
  0
LINE
  5
262
330
22A
100
AcDbEntity
  8
0
  6
Continuous
 62
     7
100
AcDbLine
 10
119.607041393
 20
37.7500165217
 30
0.0
 11
121.1480452077
 21
39.2910203365
 31
0.0
  0
LINE
  5
263
330
22A
100
AcDbEntity
  8
0
  6
Continuous
 62
     7
100
AcDbLine
 10
127.3120604668
 20
45.4550355956
 30
0.0
 11
128.3394019267
 21
46.4823770554
 31
0.0
  0
LINE
  5
264
330
22A
100
AcDbEntity
  8
0
  6
Continuous
 62
     7
100
AcDbLine
 10
131.3772280876
 20
49.5202032163
 30
0.0
 11
132.4562505751
 21
50.5992257038
 31
0.0
  0
LINE
  5
265
330
22A
100
AcDbEntity
  8
0
  6
Continuous
 62
     7
100
AcDbLine
 10
118.8744718265
 20
37.6208447419
 30
0.0
 11
120.4154756413
 21
39.1618485567
 31
0.0
  0
LINE
  5
266
330
22A
100
AcDbEntity
  8
0
  6
Continuous
 62
     7
100
AcDbLine
 10
126.5794909004
 20
45.32586381579999
 30
0.0
 11
127.6068321506
 21
46.353205066
 31
0.0
  0
LINE
  5
267
330
22A
100
AcDbEntity
  8
0
  6
Continuous
 62
     7
100
AcDbLine
 10
131.2867810336
 20
50.03315394899999
 30
0.0
 11
132.3658035211
 21
51.11217643649999
 31
0.0
  0
LINE
  5
268
330
22A
100
AcDbEntity
  8
0
  6
Continuous
 62
     7
100
AcDbLine
 10
118.1419022601
 20
37.4916729621
 30
0.0
 11
119.6829060749
 21
39.0326767769
 31
0.0
  0
LINE
  5
269
330
22A
100
AcDbEntity
  8
0
  6
Continuous
 62
     7
100
AcDbLine
 10
125.846921334
 20
45.196692036
 30
0.0
 11
126.8742623746
 21
46.22403307659999
 31
0.0
  0
LINE
  5
26A
330
22A
100
AcDbEntity
  8
0
  6
Continuous
 62
     7
100
AcDbLine
 10
131.1963339797
 20
50.5461046817
 30
0.0
 11
132.2753564672
 21
51.6251271692
 31
0.0
  0
LINE
  5
26B
330
22A
100
AcDbEntity
  8
0
  6
Continuous
 62
     7
100
AcDbLine
 10
117.4093326937
 20
37.3625011823
 30
0.0
 11
118.9503365085
 21
38.9035049971
 31
0.0
  0
LINE
  5
26C
330
22A
100
AcDbEntity
  8
0
  6
Continuous
 62
     7
100
AcDbLine
 10
125.1143517676
 20
45.06752025619999
 30
0.0
 11
126.1416925986
 21
46.0948610872
 31
0.0
  0
LINE
  5
26D
330
22A
100
AcDbEntity
  8
0
  6
Continuous
 62
     7
100
AcDbLine
 10
131.1058869257
 20
51.05905541430001
 30
0.0
 11
132.1849094133
 21
52.1380779018
 31
0.0
  0
LINE
  5
26E
330
22A
100
AcDbEntity
  8
0
  6
Continuous
 62
     7
100
AcDbLine
 10
116.6767631273
 20
37.2333294025
 30
0.0
 11
118.2177669420999
 21
38.7743332173
 31
0.0
  0
LINE
  5
26F
330
22A
100
AcDbEntity
  8
0
  6
Continuous
 62
     7
100
AcDbLine
 10
124.3817822012
 20
44.9383484764
 30
0.0
 11
125.4091228225
 21
45.96568909770001
 31
0.0
  0
LINE
  5
270
330
22A
100
AcDbEntity
  8
0
  6
Continuous
 62
     7
100
AcDbLine
 10
131.0154398718
 20
51.57200614699999
 30
0.0
 11
132.0944623593
 21
52.6510286345
 31
0.0
  0
LINE
  5
271
330
22A
100
AcDbEntity
  8
0
  6
Continuous
 62
     7
100
AcDbLine
 10
115.9441935609
 20
37.1041576227
 30
0.0
 11
117.4851973756
 21
38.6451614374
 31
0.0
  0
LINE
  5
272
330
22A
100
AcDbEntity
  8
0
  6
Continuous
 62
     7
100
AcDbLine
 10
123.6492126348
 20
44.8091766966
 30
0.0
 11
124.6765530465
 21
45.83651710829999
 31
0.0
  0
LINE
  5
273
330
22A
100
AcDbEntity
  8
0
  6
Continuous
 62
     7
100
AcDbLine
 10
130.8405637704
 20
52.0005278322
 30
0.0
 11
132.0040153054
 21
53.1639793672
 31
0.0
  0
LINE
  5
274
330
22A
100
AcDbEntity
  8
0
  6
Continuous
 62
     7
100
AcDbLine
 10
115.2116239945
 20
36.9749858429
 30
0.0
 11
116.7526278092
 21
38.5159896576
 31
0.0
  0
LINE
  5
275
330
22A
100
AcDbEntity
  8
0
  6
Continuous
 62
     7
100
AcDbLine
 10
122.9166430683
 20
44.6800049168
 30
0.0
 11
123.9439832705
 21
45.7073451189
 31
0.0
  0
LINE
  5
276
330
22A
100
AcDbEntity
  8
0
  6
Continuous
 62
     7
100
AcDbLine
 10
130.107994204
 20
51.87135605239999
 30
0.0
 11
131.6489980187
 21
53.4123598672
 31
0.0
  0
LINE
  5
277
330
22A
100
AcDbEntity
  8
0
  6
Continuous
 62
     7
100
AcDbLine
 10
114.479054428
 20
36.8458140631
 30
0.0
 11
116.0200582428
 21
38.3868178778
 31
0.0
  0
LINE
  5
278
330
22A
100
AcDbEntity
  8
0
  6
Continuous
 62
     7
100
AcDbLine
 10
122.1840735019
 20
44.55083313689999
 30
0.0
 11
123.2114134945
 21
45.5781731295
 31
0.0
  0
LINE
  5
279
330
22A
100
AcDbEntity
  8
0
  6
Continuous
 62
     7
100
AcDbLine
 10
129.3754246375
 20
51.7421842726
 30
0.0
 11
130.9164284523
 21
53.28318808729999
 31
0.0
  0
LINE
  5
27A
330
22A
100
AcDbEntity
  8
0
  6
Continuous
 62
     7
100
AcDbLine
 10
113.7464848616
 20
36.7166422833
 30
0.0
 11
115.2874886764
 21
38.257646098
 31
0.0
  0
LINE
  5
27B
330
22A
100
AcDbEntity
  8
0
  6
Continuous
 62
     7
100
AcDbLine
 10
121.4515039355
 20
44.42166135709999
 30
0.0
 11
122.4788437184
 21
45.4490011401
 31
0.0
  0
LINE
  5
27C
330
22A
100
AcDbEntity
  8
0
  6
Continuous
 62
     7
100
AcDbLine
 10
128.6428550711
 20
51.6130124928
 30
0.0
 11
130.1838588859
 21
53.1540163075
 31
0.0
  0
LINE
  5
27D
330
22A
100
AcDbEntity
  8
0
  6
Continuous
 62
     7
100
AcDbLine
 10
113.0139152952
 20
36.5874705035
 30
0.0
 11
114.55491911
 21
38.1284743182
 31
0.0
  0
LINE
  5
27E
330
22A
100
AcDbEntity
  8
0
  6
Continuous
 62
     7
100
AcDbLine
 10
120.7189343691
 20
44.29248957729999
 30
0.0
 11
121.7462739424
 21
45.31982915069999
 31
0.0
  0
LINE
  5
27F
330
22A
100
AcDbEntity
  8
0
  6
Continuous
 62
     7
100
AcDbLine
 10
127.9102855047
 20
51.483840713
 30
0.0
 11
129.4512893195
 21
53.0248445277
 31
0.0
  0
LINE
  5
280
330
22A
100
AcDbEntity
  8
0
  6
Continuous
 62
     7
100
AcDbLine
 10
112.2813457288
 20
36.4582987236
 30
0.0
 11
113.8223495436
 21
37.9993025384
 31
0.0
  0
LINE
  5
281
330
22A
100
AcDbEntity
  8
0
  6
Continuous
 62
     7
100
AcDbLine
 10
119.9863648027
 20
44.1633177975
 30
0.0
 11
121.0137041664
 21
45.1906571612
 31
0.0
  0
LINE
  5
282
330
22A
100
AcDbEntity
  8
0
  6
Continuous
 62
     7
100
AcDbLine
 10
127.1777159383
 20
51.3546689332
 30
0.0
 11
128.7187197531
 21
52.8956727479
 31
0.0
  0
LINE
  5
283
330
22A
100
AcDbEntity
  8
0
  6
Continuous
 62
     7
100
AcDbLine
 10
111.5487761624
 20
36.3291269438
 30
0.0
 11
113.0897799771
 21
37.8701307586
 31
0.0
  0
LINE
  5
284
330
22A
100
AcDbEntity
  8
0
  6
Continuous
 62
     7
100
AcDbLine
 10
119.2537952362
 20
44.0341460177
 30
0.0
 11
120.2811343903
 21
45.0614851718
 31
0.0
  0
LINE
  5
285
330
22A
100
AcDbEntity
  8
0
  6
Continuous
 62
     7
100
AcDbLine
 10
126.4451463719
 20
51.22549715339999
 30
0.0
 11
127.9861501867
 21
52.7665009681
 31
0.0
  0
LINE
  5
286
330
22A
100
AcDbEntity
  8
0
  6
Continuous
 62
     7
100
AcDbLine
 10
110.8162065959
 20
36.199955164
 30
0.0
 11
112.3572104107
 21
37.7409589788
 31
0.0
  0
LINE
  5
287
330
22A
100
AcDbEntity
  8
0
  6
Continuous
 62
     7
100
AcDbLine
 10
118.5212256698
 20
43.9049742379
 30
0.0
 11
119.5485646143
 21
44.93231318239999
 31
0.0
  0
LINE
  5
288
330
22A
100
AcDbEntity
  8
0
  6
Continuous
 62
     7
100
AcDbLine
 10
125.7125768055
 20
51.0963253735
 30
0.0
 11
127.2535806202
 21
52.6373291883
 31
0.0
  0
LINE
  5
289
330
22A
100
AcDbEntity
  8
0
  6
Continuous
 62
     7
100
AcDbLine
 10
110.0836370295
 20
36.0707833842
 30
0.0
 11
111.6246408443
 21
37.611787199
 31
0.0
  0
LINE
  5
28A
330
22A
100
AcDbEntity
  8
0
  6
Continuous
 62
     7
100
AcDbLine
 10
117.7886561034
 20
43.7758024581
 30
0.0
 11
118.8159948383
 21
44.803141193
 31
0.0
  0
LINE
  5
28B
330
22A
100
AcDbEntity
  8
0
  6
Continuous
 62
     7
100
AcDbLine
 10
124.980007239
 20
50.9671535937
 30
0.0
 11
126.5210110538
 21
52.50815740850001
 31
0.0
  0
LINE
  5
28C
330
22A
100
AcDbEntity
  8
0
  6
Continuous
 62
     7
100
AcDbLine
 10
109.3510674631
 20
35.94161160440001
 30
0.0
 11
110.8920712779
 21
37.4826154192
 31
0.0
  0
LINE
  5
28D
330
22A
100
AcDbEntity
  8
0
  6
Continuous
 62
     7
100
AcDbLine
 10
117.056086537
 20
43.6466306783
 30
0.0
 11
118.0834250623
 21
44.67396920359999
 31
0.0
  0
LINE
  5
28E
330
22A
100
AcDbEntity
  8
0
  6
Continuous
 62
     7
100
AcDbLine
 10
124.2474376726
 20
50.8379818139
 30
0.0
 11
125.7884414874
 21
52.3789856287
 31
0.0
  0
LINE
  5
28F
330
22A
100
AcDbEntity
  8
0
  6
Continuous
 62
     7
100
AcDbLine
 10
108.7997466906
 20
35.9936886185
 30
0.0
 11
110.1595017115
 21
37.3534436394
 31
0.0
  0
LINE
  5
290
330
22A
100
AcDbEntity
  8
0
  6
Continuous
 62
     7
100
AcDbLine
 10
116.3235169706
 20
43.5174588985
 30
0.0
 11
117.3508552862
 21
44.5447972142
 31
0.0
  0
LINE
  5
291
330
22A
100
AcDbEntity
  8
0
  6
Continuous
 62
     7
100
AcDbLine
 10
123.5148681062
 20
50.7088100341
 30
0.0
 11
125.055871921
 21
52.2498138489
 31
0.0
  0
LINE
  5
292
330
22A
100
AcDbEntity
  8
0
  6
Continuous
 62
     7
100
AcDbLine
 10
108.7092996366
 20
36.5066393512
 30
0.0
 11
109.7883221242
 21
37.5856618387
 31
0.0
  0
LINE
  5
293
330
22A
100
AcDbEntity
  8
0
  6
Continuous
 62
     7
100
AcDbLine
 10
115.5909474042
 20
43.38828711869999
 30
0.0
 11
116.6182855102
 21
44.41562522469999
 31
0.0
  0
LINE
  5
294
330
22A
100
AcDbEntity
  8
0
  6
Continuous
 62
     7
100
AcDbLine
 10
122.7822985398
 20
50.5796382543
 30
0.0
 11
124.3233023546
 21
52.1206420691
 31
0.0
  0
LINE
  5
295
330
22A
100
AcDbEntity
  8
0
  6
Continuous
 62
     7
100
AcDbLine
 10
108.6188525827
 20
37.0195900839
 30
0.0
 11
109.6978750702
 21
38.0986125714
 31
0.0
  0
LINE
  5
296
330
22A
100
AcDbEntity
  8
0
  6
Continuous
 62
     7
100
AcDbLine
 10
114.8583778377
 20
43.2591153389
 30
0.0
 11
115.8857157342
 21
44.28645323529999
 31
0.0
  0
LINE
  5
297
330
22A
100
AcDbEntity
  8
0
  6
Continuous
 62
     7
100
AcDbLine
 10
122.0497289734
 20
50.4504664745
 30
0.0
 11
123.5907327881
 21
51.9914702893
 31
0.0
  0
LINE
  5
298
330
22A
100
AcDbEntity
  8
0
  6
Continuous
 62
     7
100
AcDbLine
 10
108.5284055288
 20
37.53254081650001
 30
0.0
 11
109.6074280163
 21
38.611563304
 31
0.0
  0
LINE
  5
299
330
22A
100
AcDbEntity
  8
0
  6
Continuous
 62
     7
100
AcDbLine
 10
114.1258082713
 20
43.12994355909999
 30
0.0
 11
115.1531459581
 21
44.1572812459
 31
0.0
  0
LINE
  5
29A
330
22A
100
AcDbEntity
  8
0
  6
Continuous
 62
     7
100
AcDbLine
 10
121.3171594069
 20
50.3212946947
 30
0.0
 11
122.8581632217
 21
51.8622985095
 31
0.0
  0
LINE
  5
29B
330
22A
100
AcDbEntity
  8
0
  6
Continuous
 62
     7
100
AcDbLine
 10
108.4379584748
 20
38.0454915492
 30
0.0
 11
109.5169809623
 21
39.1245140367
 31
0.0
  0
LINE
  5
29C
330
22A
100
AcDbEntity
  8
0
  6
Continuous
 62
     7
100
AcDbLine
 10
113.3932387049
 20
43.0007717793
 30
0.0
 11
114.4205761821
 21
44.02810925649999
 31
0.0
  0
LINE
  5
29D
330
22A
100
AcDbEntity
  8
0
  6
Continuous
 62
     7
100
AcDbLine
 10
120.5845898405
 20
50.19212291489999
 30
0.0
 11
122.1255936553
 21
51.7331267297
 31
0.0
  0
LINE
  5
29E
330
22A
100
AcDbEntity
  8
0
  6
Continuous
 62
     7
100
AcDbLine
 10
108.3475114209
 20
38.5584422819
 30
0.0
 11
109.4265339084
 21
39.6374647694
 31
0.0
  0
LINE
  5
29F
330
22A
100
AcDbEntity
  8
0
  6
Continuous
 62
     7
100
AcDbLine
 10
112.6606691385
 20
42.8715999995
 30
0.0
 11
113.6880064061
 21
43.8989372671
 31
0.0
  0
LINE
  5
2A0
330
22A
100
AcDbEntity
  8
0
  6
Continuous
 62
     7
100
AcDbLine
 10
119.8520202741
 20
50.0629511351
 30
0.0
 11
121.3930240889
 21
51.6039549499
 31
0.0
  0
LINE
  5
2A1
330
22A
100
AcDbEntity
  8
0
  6
Continuous
 62
     7
100
AcDbLine
 10
108.2570643669
 20
39.0713930145
 30
0.0
 11
109.3360868544
 21
40.150415502
 31
0.0
  0
LINE
  5
2A2
330
22A
100
AcDbEntity
  8
0
  6
Continuous
 62
     7
100
AcDbLine
 10
111.9280995721
 20
42.74242821969999
 30
0.0
 11
112.9554366301
 21
43.7697652777
 31
0.0
  0
LINE
  5
2A3
330
22A
100
AcDbEntity
  8
0
  6
Continuous
 62
     7
100
AcDbLine
 10
119.1194507077
 20
49.93377935529999
 30
0.0
 11
120.6604545225
 21
51.4747831701
 31
0.0
  0
LINE
  5
2A4
330
22A
100
AcDbEntity
  8
0
  6
Continuous
 62
     7
100
AcDbLine
 10
108.166617313
 20
39.58434374719999
 30
0.0
 11
109.2456398005
 21
40.66336623469999
 31
0.0
  0
LINE
  5
2A5
330
22A
100
AcDbEntity
  8
0
  6
Continuous
 62
     7
100
AcDbLine
 10
111.1955300057
 20
42.6132564399
 30
0.0
 11
112.222866854
 21
43.64059328829999
 31
0.0
  0
LINE
  5
2A6
330
22A
100
AcDbEntity
  8
0
  6
Continuous
 62
     7
100
AcDbLine
 10
118.3868811413
 20
49.8046075755
 30
0.0
 11
119.9278849561
 21
51.3456113903
 31
0.0
  0
LINE
  5
2A7
330
22A
100
AcDbEntity
  8
0
  6
Continuous
 62
     7
100
AcDbLine
 10
108.076170259
 20
40.09729447989999
 30
0.0
 11
109.1551927466
 21
41.1763169674
 31
0.0
  0
LINE
  5
2A8
330
22A
100
AcDbEntity
  8
0
  6
Continuous
 62
     7
100
AcDbLine
 10
110.4629604392
 20
42.4840846601
 30
0.0
 11
111.490297078
 21
43.5114212988
 31
0.0
  0
LINE
  5
2A9
330
22A
100
AcDbEntity
  8
0
  6
Continuous
 62
     7
100
AcDbLine
 10
117.6543115749
 20
49.6754357957
 30
0.0
 11
119.1953153896
 21
51.21643961050001
 31
0.0
  0
LINE
  5
2AA
330
22A
100
AcDbEntity
  8
0
  6
Continuous
 62
     7
100
AcDbLine
 10
107.9857232051
 20
40.6102452125
 30
0.0
 11
109.0647456926
 21
41.6892677001
 31
0.0
  0
LINE
  5
2AB
330
22A
100
AcDbEntity
  8
0
  6
Continuous
 62
     7
100
AcDbLine
 10
109.7303908728
 20
42.3549128803
 30
0.0
 11
110.757727302
 21
43.3822493094
 31
0.0
  0
LINE
  5
2AC
330
22A
100
AcDbEntity
  8
0
  6
Continuous
 62
     7
100
AcDbLine
 10
116.9217420084
 20
49.5462640159
 30
0.0
 11
118.4627458232
 21
51.0872678307
 31
0.0
  0
LINE
  5
2AD
330
22A
100
AcDbEntity
  8
0
  6
Continuous
 62
     7
100
AcDbLine
 10
107.8952761512
 20
41.1231959452
 30
0.0
 11
108.9742986387
 21
42.2022184327
 31
0.0
  0
LINE
  5
2AE
330
22A
100
AcDbEntity
  8
0
  6
Continuous
 62
     7
100
AcDbLine
 10
108.9978213064
 20
42.2257411004
 30
0.0
 11
110.025157526
 21
43.25307732
 31
0.0
  0
LINE
  5
2AF
330
22A
100
AcDbEntity
  8
0
  6
Continuous
 62
     7
100
AcDbLine
 10
116.189172442
 20
49.4170922361
 30
0.0
 11
117.7301762568
 21
50.9580960509
 31
0.0
  0
LINE
  5
2B0
330
22A
100
AcDbEntity
  8
0
  6
Continuous
 62
     7
100
AcDbLine
 10
107.8048290972
 20
41.6361466779
 30
0.0
 11
109.2925877499
 21
43.1239053306
 31
0.0
  0
LINE
  5
2B1
330
22A
100
AcDbEntity
  8
0
  6
Continuous
 62
     7
100
AcDbLine
 10
115.4566028756
 20
49.2879204563
 30
0.0
 11
116.9976066904
 21
50.828924271
 31
0.0
  0
LINE
  5
2B2
330
22A
100
AcDbEntity
  8
0
  6
Continuous
 62
     7
100
AcDbLine
 10
107.7143820433
 20
42.1490974105
 30
0.0
 11
108.7934045308
 21
43.2281198981
 31
0.0
  0
LINE
  5
2B3
330
22A
100
AcDbEntity
  8
0
  6
Continuous
 62
     7
100
AcDbLine
 10
114.7240333092
 20
49.1587486765
 30
0.0
 11
116.265037124
 21
50.6997524912
 31
0.0
  0
LINE
  5
2B4
330
22A
100
AcDbEntity
  8
0
  6
Continuous
 62
     7
100
AcDbLine
 10
107.6239349893
 20
42.6620481432
 30
0.0
 11
108.7029574768
 21
43.74107063069999
 31
0.0
  0
LINE
  5
2B5
330
22A
100
AcDbEntity
  8
0
  6
Continuous
 62
     7
100
AcDbLine
 10
113.9914637428
 20
49.0295768967
 30
0.0
 11
115.5324675575
 21
50.57058071140001
 31
0.0
  0
LINE
  5
2B6
330
22A
100
AcDbEntity
  8
0
  6
Continuous
 62
     7
100
AcDbLine
 10
107.5334879354
 20
43.1749988759
 30
0.0
 11
108.6125104229
 21
44.25402136339999
 31
0.0
  0
LINE
  5
2B7
330
22A
100
AcDbEntity
  8
0
  6
Continuous
 62
     7
100
AcDbLine
 10
113.2588941764
 20
48.90040511689999
 30
0.0
 11
114.7998979911
 21
50.4414089316
 31
0.0
  0
LINE
  5
2B8
330
22A
100
AcDbEntity
  8
0
  6
Continuous
 62
     7
100
AcDbLine
 10
107.4430408814
 20
43.6879496085
 30
0.0
 11
108.5220633689
 21
44.7669720961
 31
0.0
  0
LINE
  5
2B9
330
22A
100
AcDbEntity
  8
0
  6
Continuous
 62
     7
100
AcDbLine
 10
112.5263246099
 20
48.771233337
 30
0.0
 11
114.0673284247
 21
50.31223715180001
 31
0.0
  0
LINE
  5
2BA
330
22A
100
AcDbEntity
  8
0
  6
Continuous
 62
     7
100
AcDbLine
 10
107.3525938275
 20
44.2009003412
 30
0.0
 11
108.431616315
 21
45.2799228287
 31
0.0
  0
LINE
  5
2BB
330
22A
100
AcDbEntity
  8
0
  6
Continuous
 62
     7
100
AcDbLine
 10
111.7937550435
 20
48.6420615572
 30
0.0
 11
113.3347588583
 21
50.183065372
 31
0.0
  0
LINE
  5
2BC
330
22A
100
AcDbEntity
  8
0
  6
Continuous
 62
     7
100
AcDbLine
 10
107.2621467735
 20
44.7138510739
 30
0.0
 11
108.3411692611
 21
45.7928735614
 31
0.0
  0
LINE
  5
2BD
330
22A
100
AcDbEntity
  8
0
  6
Continuous
 62
     7
100
AcDbLine
 10
111.0611854771
 20
48.5128897774
 30
0.0
 11
112.6021892919
 21
50.0538935922
 31
0.0
  0
LINE
  5
2BE
330
22A
100
AcDbEntity
  8
0
  6
Continuous
 62
     7
100
AcDbLine
 10
107.1716997196
 20
45.2268018066
 30
0.0
 11
108.2507222071
 21
46.3058242941
 31
0.0
  0
LINE
  5
2BF
330
22A
100
AcDbEntity
  8
0
  6
Continuous
 62
     7
100
AcDbLine
 10
110.3286159107
 20
48.3837179976
 30
0.0
 11
111.8696197255
 21
49.9247218124
 31
0.0
  0
LINE
  5
2C0
330
22A
100
AcDbEntity
  8
0
  6
Continuous
 62
     7
100
AcDbLine
 10
107.0812526657
 20
45.73975253919999
 30
0.0
 11
108.1602751532
 21
46.8187750267
 31
0.0
  0
LINE
  5
2C1
330
22A
100
AcDbEntity
  8
0
  6
Continuous
 62
     7
100
AcDbLine
 10
109.5960463443
 20
48.2545462178
 30
0.0
 11
111.137050159
 21
49.7955500326
 31
0.0
  0
LINE
  5
2C2
330
22A
100
AcDbEntity
  8
0
  6
Continuous
 62
     7
100
AcDbLine
 10
106.9908056117
 20
46.25270327189999
 30
0.0
 11
108.0698280992
 21
47.33172575939999
 31
0.0
  0
LINE
  5
2C3
330
22A
100
AcDbEntity
  8
0
  6
Continuous
 62
     7
100
AcDbLine
 10
108.8634767778
 20
48.125374438
 30
0.0
 11
110.4044805926
 21
49.66637825279999
 31
0.0
  0
LINE
  5
2C4
330
22A
100
AcDbEntity
  8
0
  6
Continuous
 62
     7
100
AcDbLine
 10
106.9003585578
 20
46.7656540046
 30
0.0
 11
107.9793810453
 21
47.84467649209999
 31
0.0
  0
LINE
  5
2C5
330
22A
100
AcDbEntity
  8
0
  6
Continuous
 62
     7
100
AcDbLine
 10
108.1309072114
 20
47.99620265819999
 30
0.0
 11
109.6719110262
 21
49.537206473
 31
0.0
  0
LINE
  5
2C6
330
22A
100
AcDbEntity
  8
0
  6
Continuous
 62
     7
100
AcDbLine
 10
106.8099115038
 20
47.2786047372
 30
0.0
 11
108.9393414598
 21
49.40803469319999
 31
0.0
  0
LINE
  5
2C7
330
22A
100
AcDbEntity
  8
0
  6
Continuous
 62
     7
100
AcDbLine
 10
106.7194644499
 20
47.7915554699
 30
0.0
 11
108.2067718934
 21
49.27886291340001
 31
0.0
  0
LINE
  5
2C8
330
22A
100
AcDbEntity
  8
0
  6
Continuous
 62
     7
100
AcDbLine
 10
106.6290173959
 20
48.3045062026
 30
0.0
 11
107.4742023269
 21
49.14969113359999
 31
0.0
  0
LINE
  5
2C9
330
22A
100
AcDbEntity
  8
0
  6
Continuous
 62
     7
100
AcDbLine
 10
106.538570342
 20
48.8174569352
 30
0.0
 11
106.7416327605
 21
49.02051935380001
 31
0.0
  0
ENDBLK
  5
2CA
330
22A
100
AcDbEntity
  8
0
  6
ByBlock
 62
     0
100
AcDbBlockEnd
  0
BLOCK
  5
2CB
330
22B
100
AcDbEntity
  8
0
  6
Continuous
 62
     7
100
AcDbBlockBegin
  2
L03-MOTEUR-CONTROLE-LED_BL2
 70
     0
 10
41.37274066699999
 20
65.95403188569999
 30
0.0
  3
L03-MOTEUR-CONTROLE-LED_BL2
  1

  0
TEXT
  5
2CC
330
22B
100
AcDbEntity
  8
0
  6
Continuous
 62
     7
100
AcDbText
 10
40.8443453997
 20
65.2873649597
 30
0.0
 40
1.333333852099999
  1
L
  7
TEXTSTYLE_2
100
AcDbText
  0
ELLIPSE
  5
2CD
330
22B
100
AcDbEntity
  8
0
  6
Continuous
 62
     7
100
AcDbEllipse
 10
41.37274066699999
 20
65.95403188569999
 30
0.0
 11
-1.942887567899999
 21
0.0
 31
0.0
210
0.0
220
0.0
230
1.0
 40
0.6606458385
 41
0.0
 42
6.283185307179586
  0
ENDBLK
  5
2CE
330
22B
100
AcDbEntity
  8
0
  6
ByBlock
 62
     0
100
AcDbBlockEnd
  0
BLOCK
  5
2CF
330
22C
100
AcDbEntity
  8
0
  6
Continuous
 62
     7
100
AcDbBlockBegin
  2
L03-MOTEUR-CONTROLE-LED_BL1
 70
     0
 10
59.6222354517
 20
90.2045287642
 30
0.0
  3
L03-MOTEUR-CONTROLE-LED_BL1
  1

  0
TEXT
  5
2D0
330
22C
100
AcDbEntity
  8
0
  6
Continuous
 62
     7
100
AcDbText
 10
59.09384018439999
 20
89.5378618382
 30
0.0
 40
1.333333852099999
  1
L
  7
TEXTSTYLE_2
100
AcDbText
  0
ELLIPSE
  5
2D1
330
22C
100
AcDbEntity
  8
0
  6
Continuous
 62
     7
100
AcDbEllipse
 10
59.6222354517
 20
90.2045287642
 30
0.0
 11
-1.942887567899999
 21
0.0
 31
0.0
210
0.0
220
0.0
230
1.0
 40
0.6606458385
 41
0.0
 42
6.283185307179586
  0
ENDBLK
  5
2D2
330
22C
100
AcDbEntity
  8
0
  6
ByBlock
 62
     0
100
AcDbBlockEnd
  0
BLOCK
  5
2D3
330
22D
100
AcDbEntity
  8
0
  6
Continuous
 62
     7
100
AcDbBlockBegin
  2
L03-NOTE_SPECS_BAINS_BL0
 70
     0
 10
160.6668444051
 20
55.3329095399
 30
0.0
  3
L03-NOTE_SPECS_BAINS_BL0
  1

  0
TEXT
  5
2D4
330
22D
100
AcDbEntity
  8
0
  6
Continuous
 62
     7
100
AcDbText
 10
144.4190593289
 20
63.106342931
 30
0.0
 40
0.5
  1
Infomations Techniques/Technical Infomations
  7
TEXTSTYLE_2
100
AcDbText
  0
TEXT
  5
2D5
330
22D
100
AcDbEntity
  8
0
  6
Continuous
 62
     7
100
AcDbText
 10
144.6668444051
 20
61.6662428732
 30
0.0
 40
0.6666666667
  1
NOMBRE DE JETS:     
  7
TEXTSTYLE_2
100
AcDbText
  0
TEXT
  5
2D6
330
22D
100
AcDbEntity
  8
0
  6
Continuous
 62
     7
100
AcDbText
 10
154.5112888495
 20
61.6662428732
 30
0.0
 40
0.6666666667
  1
37
  7
TEXTSTYLE_2
100
AcDbText
  0
TEXT
  5
2D7
330
22D
100
AcDbEntity
  8
0
  6
Continuous
 62
     7
100
AcDbText
 10
144.6668444051
 20
60.66624287319999
 30
0.0
 40
0.6666666667
  1
 
  7
TEXTSTYLE_2
100
AcDbText
  0
TEXT
  5
2D8
330
22D
100
AcDbEntity
  8
0
  6
Continuous
 62
     7
100
AcDbText
 10
144.6668444051
 20
59.6662428732
 30
0.0
 40
0.6666666667
  1
NIVEAU D'EAU              GALLONS(US)        LITRES        GALLONS(UK)
  7
TEXTSTYLE_2
100
AcDbText
  0
TEXT
  5
2D9
330
22D
100
AcDbEntity
  8
0
  6
Continuous
 62
     7
100
AcDbText
 10
144.6668444051
 20
58.6662428732
 30
0.0
 40
0.6666666667
  1
PLEIN
  7
TEXTSTYLE_2
100
AcDbText
  0
TEXT
  5
2DA
330
22D
100
AcDbEntity
  8
0
  6
Continuous
 62
     7
100
AcDbText
 10
144.6668444051
 20
57.66624287319999
 30
0.0
 40
0.6666666667
  1
HAUT T.PLEIN
  7
TEXTSTYLE_2
100
AcDbText
  0
TEXT
  5
2DB
330
22D
100
AcDbEntity
  8
0
  6
Continuous
 62
     7
100
AcDbText
 10
144.6668444051
 20
56.6662428732
 30
0.0
 40
0.6666666667
  1
MILIEU T.PLEIN
  7
TEXTSTYLE_2
100
AcDbText
  0
TEXT
  5
2DC
330
22D
100
AcDbEntity
  8
0
  6
Continuous
 62
     7
100
AcDbText
 10
144.6668444051
 20
55.66624287319999
 30
0.0
 40
0.6666666667
  1
BAS T.PLEIN
  7
TEXTSTYLE_2
100
AcDbText
  0
TEXT
  5
2DD
330
22D
100
AcDbEntity
  8
0
  6
Continuous
 62
     7
100
AcDbText
 10
144.6668444051
 20
54.6662428732
 30
0.0
 40
0.6666666667
  1
3" EN BAS T.PLEIN
  7
TEXTSTYLE_2
100
AcDbText
  0
TEXT
  5
2DE
330
22D
100
AcDbEntity
  8
0
  6
Continuous
 62
     7
100
AcDbText
 10
144.6668444051
 20
53.6662428732
 30
0.0
 40
0.6666666667
  1
 
  7
TEXTSTYLE_2
100
AcDbText
  0
TEXT
  5
2DF
330
22D
100
AcDbEntity
  8
0
  6
Continuous
 62
     7
100
AcDbText
 10
144.4666828994
 20
53.1194559484
 30
0.0
 40
0.5
  1
Legende/Legend
  7
TEXTSTYLE_2
100
AcDbText
  0
TEXT
  5
2E0
330
22D
100
AcDbEntity
  8
0
  6
Continuous
 62
     7
100
AcDbText
 10
150.9955178435
 20
51.6081909707
 30
0.0
 40
0.6666666667
  1
ZONE DE ROBINETTERIE
  7
TEXTSTYLE_2
100
AcDbText
  0
TEXT
  5
2E1
330
22D
100
AcDbEntity
  8
0
  6
Continuous
 62
     7
100
AcDbText
 10
145.9157932765
 20
50.1129464563
 30
0.0
 40
0.6666666667
  1
L   :  SYSTEME LED       DC   :  DOUBLE DOSSIER CHAUFFANT
  7
TEXTSTYLE_2
100
AcDbText
  0
TEXT
  5
2E2
330
22D
100
AcDbEntity
  8
0
  6
Continuous
 62
     7
100
AcDbText
 10
145.9157932765
 20
48.779613123
 30
0.0
 40
0.6666666667
  1
C   :  CONTROLE
  7
TEXTSTYLE_2
100
AcDbText
  0
TEXT
  5
2E3
330
22D
100
AcDbEntity
  8
0
  6
Continuous
 62
     7
100
AcDbText
 10
145.9157932765
 20
47.44627978959999
 30
0.0
 40
0.6666666667
  1
T   :  MOTEUR
  7
TEXTSTYLE_2
100
AcDbText
  0
TEXT
  5
2E4
330
22D
100
AcDbEntity
  8
0
  6
Continuous
 62
     7
100
AcDbText
 10
157.2439855488
 20
58.6662428732
 30
0.0
 40
0.6666666667
  1
115
  7
TEXTSTYLE_2
100
AcDbText
  0
TEXT
  5
2E5
330
22D
100
AcDbEntity
  8
0
  6
Continuous
 62
     7
100
AcDbText
 10
157.4995411044
 20
57.66624287319999
 30
0.0
 40
0.6666666667
  1
75
  7
TEXTSTYLE_2
100
AcDbText
  0
TEXT
  5
2E6
330
22D
100
AcDbEntity
  8
0
  6
Continuous
 62
     7
100
AcDbText
 10
157.4995411044
 20
56.6662428732
 30
0.0
 40
0.6666666667
  1
74
  7
TEXTSTYLE_2
100
AcDbText
  0
TEXT
  5
2E7
330
22D
100
AcDbEntity
  8
0
  6
Continuous
 62
     7
100
AcDbText
 10
157.4995411044
 20
55.66624287319999
 30
0.0
 40
0.6666666667
  1
55
  7
TEXTSTYLE_2
100
AcDbText
  0
TEXT
  5
2E8
330
22D
100
AcDbEntity
  8
0
  6
Continuous
 62
     7
100
AcDbText
 10
164.4197470481
 20
58.6833222753
 30
0.0
 40
0.6666666667
  1
437
  7
TEXTSTYLE_2
100
AcDbText
  0
TEXT
  5
2E9
330
22D
100
AcDbEntity
  8
0
  6
Continuous
 62
     7
100
AcDbText
 10
164.4197470481
 20
57.6833222753
 30
0.0
 40
0.6666666667
  1
284
  7
TEXTSTYLE_2
100
AcDbText
  0
TEXT
  5
2EA
330
22D
100
AcDbEntity
  8
0
  6
Continuous
 62
     7
100
AcDbText
 10
164.4197470481
 20
56.6833222753
 30
0.0
 40
0.6666666667
  1
280
  7
TEXTSTYLE_2
100
AcDbText
  0
TEXT
  5
2EB
330
22D
100
AcDbEntity
  8
0
  6
Continuous
 62
     7
100
AcDbText
 10
164.4197470481
 20
55.6833222753
 30
0.0
 40
0.6666666667
  1
209
  7
TEXTSTYLE_2
100
AcDbText
  0
TEXT
  5
2EC
330
22D
100
AcDbEntity
  8
0
  6
Continuous
 62
     7
100
AcDbText
 10
171.3643859856
 20
58.6662428732
 30
0.0
 40
0.6666666667
  1
96
  7
TEXTSTYLE_2
100
AcDbText
  0
TEXT
  5
2ED
330
22D
100
AcDbEntity
  8
0
  6
Continuous
 62
     7
100
AcDbText
 10
171.3643859856
 20
57.66624287319999
 30
0.0
 40
0.6666666667
  1
63
  7
TEXTSTYLE_2
100
AcDbText
  0
TEXT
  5
2EE
330
22D
100
AcDbEntity
  8
0
  6
Continuous
 62
     7
100
AcDbText
 10
171.3643859856
 20
56.6662428732
 30
0.0
 40
0.6666666667
  1
62
  7
TEXTSTYLE_2
100
AcDbText
  0
TEXT
  5
2EF
330
22D
100
AcDbEntity
  8
0
  6
Continuous
 62
     7
100
AcDbText
 10
171.3643859856
 20
55.66624287319999
 30
0.0
 40
0.6666666667
  1
46
  7
TEXTSTYLE_2
100
AcDbText
  0
LINE
  5
2F0
330
22D
100
AcDbEntity
  8
0
  6
Continuous
 62
     7
100
AcDbLine
 10
144.0001777384
 20
63.9995762066
 30
0.0
 11
144.0001777384
 21
46.6662428732
 31
0.0
  0
LINE
  5
2F1
330
22D
100
AcDbEntity
  8
0
  6
Continuous
 62
     7
100
AcDbLine
 10
144.0001777384
 20
63.9995762066
 30
0.0
 11
177.3335110716999
 21
63.9995762066
 31
0.0
  0
LINE
  5
2F2
330
22D
100
AcDbEntity
  8
0
  6
Continuous
 62
     7
100
AcDbLine
 10
177.3335110716999
 20
63.9995762066
 30
0.0
 11
177.3335110716999
 21
46.6662428732
 31
0.0
  0
LINE
  5
2F3
330
22D
100
AcDbEntity
  8
0
  6
Continuous
 62
     7
100
AcDbLine
 10
144.0001777384
 20
46.6662428732
 30
0.0
 11
177.3335110716999
 21
46.6662428732
 31
0.0
  0
LINE
  5
2F4
330
22D
100
AcDbEntity
  8
0
  6
Continuous
 62
     7
100
AcDbLine
 10
145.3335110717
 20
53.9995762066
 30
0.0
 11
176.0001777384
 21
53.9995762066
 31
0.0
  0
LINE
  5
2F5
330
22D
100
AcDbEntity
  8
0
  6
Continuous
 62
     7
100
AcDbLine
 10
145.3335110717
 20
60.99957620659999
 30
0.0
 11
176.0001777384
 21
60.99957620659999
 31
0.0
  0
LINE
  5
2F6
330
22D
100
AcDbEntity
  8
0
  6
Continuous
 62
     7
100
AcDbLine
 10
144.8090842977
 20
52.3777407109
 30
0.0
 11
144.4400635553
 21
52.0087199686
 31
0.0
  0
LINE
  5
2F7
330
22D
100
AcDbEntity
  8
0
  6
Continuous
 62
     7
100
AcDbLine
 10
145.4757509643
 20
52.3777407109
 30
0.0
 11
144.6777351739
 21
51.57972492049999
 31
0.0
  0
LINE
  5
2F8
330
22D
100
AcDbEntity
  8
0
  6
Continuous
 62
     7
100
AcDbLine
 10
146.142417631
 20
52.3777407109
 30
0.0
 11
145.3444018406
 21
51.57972492049999
 31
0.0
  0
LINE
  5
2F9
330
22D
100
AcDbEntity
  8
0
  6
Continuous
 62
     7
100
AcDbLine
 10
146.8090842977
 20
52.3777407109
 30
0.0
 11
146.0110685072
 21
51.57972492049999
 31
0.0
  0
LINE
  5
2FA
330
22D
100
AcDbEntity
  8
0
  6
Continuous
 62
     7
100
AcDbLine
 10
147.4757509643
 20
52.3777407109
 30
0.0
 11
146.6777351739
 21
51.57972492049999
 31
0.0
  0
LINE
  5
2FB
330
22D
100
AcDbEntity
  8
0
  6
Continuous
 62
     7
100
AcDbLine
 10
148.142417631
 20
52.3777407109
 30
0.0
 11
147.3444018406
 21
51.57972492049999
 31
0.0
  0
LINE
  5
2FC
330
22D
100
AcDbEntity
  8
0
  6
Continuous
 62
     7
100
AcDbLine
 10
148.8090842977
 20
52.3777407109
 30
0.0
 11
148.0110685072
 21
51.57972492049999
 31
0.0
  0
LINE
  5
2FD
330
22D
100
AcDbEntity
  8
0
  6
Continuous
 62
     7
100
AcDbLine
 10
149.4757509643
 20
52.3777407109
 30
0.0
 11
148.6777351739
 21
51.57972492049999
 31
0.0
  0
LINE
  5
2FE
330
22D
100
AcDbEntity
  8
0
  6
Continuous
 62
     7
100
AcDbLine
 10
150.142417631
 20
52.3777407109
 30
0.0
 11
149.3444018406
 21
51.57972492049999
 31
0.0
  0
LINE
  5
2FF
330
22D
100
AcDbEntity
  8
0
  6
Continuous
 62
     7
100
AcDbLine
 10
150.5859050651
 20
52.1545614784
 30
0.0
 11
150.0110685072
 21
51.57972492049999
 31
0.0
  0
ELLIPSE
  5
300
330
22D
100
AcDbEntity
  8
0
  6
Continuous
 62
     7
100
AcDbEllipse
 10
146.1455802206
 20
50.4305239135
 30
0.0
 11
1.0473539356
 21
0.0
 31
0.0
210
0.0
220
0.0
230
1.0
 40
0.4938647983
 41
0.0
 42
6.283185307179586
  0
ELLIPSE
  5
301
330
22D
100
AcDbEntity
  8
0
  6
Continuous
 62
     7
100
AcDbEllipse
 10
146.1455802206
 20
49.09719058020001
 30
0.0
 11
1.0473539356
 21
0.0
 31
0.0
210
0.0
220
0.0
230
1.0
 40
0.4938647983
 41
0.0
 42
6.283185307179586
  0
ELLIPSE
  5
302
330
22D
100
AcDbEntity
  8
0
  6
Continuous
 62
     7
100
AcDbEllipse
 10
146.1455802206
 20
47.76385724679999
 30
0.0
 11
1.0473539356
 21
0.0
 31
0.0
210
0.0
220
0.0
230
1.0
 40
0.4938647983
 41
0.0
 42
6.283185307179586
  0
ELLIPSE
  5
303
330
22D
100
AcDbEntity
  8
0
  6
Continuous
 62
     7
100
AcDbEllipse
 10
157.1642158017
 20
50.45004527060001
 30
0.0
 11
1.0473539356
 21
0.0
 31
0.0
210
0.0
220
0.0
230
1.0
 40
0.4938647983
 41
0.0
 42
6.283185307179586
  0
ENDBLK
  5
304
330
22D
100
AcDbEntity
  8
0
  6
ByBlock
 62
     0
100
AcDbBlockEnd
  0
ENDSEC
  0
SECTION
  2
ENTITIES
  0
LINE
  5
45A
330
216
100
AcDbEntity
  8
DEFAULT_2
  6
HIDDEN
 62
     7
100
AcDbLine
 10
121.1881118318
 20
20.5897472477
 30
0.0
 11
128.0684036848
 21
20.9734572736
 31
0.0
  0
LINE
  5
460
330
216
100
AcDbEntity
  8
DEFAULT_2
  6
HIDDEN
 62
     7
100
AcDbLine
 10
117.9486181155
 20
20.0867206771
 30
0.0
 11
120.4915113343
 21
20.0867206771
 31
0.0
  0
LINE
  5
4D2
330
216
100
AcDbEntity
  8
DEFAULT_2
  6
HIDDEN
 62
     7
100
AcDbLine
 10
117.2528754701
 20
20.5889161383
 30
0.0
 11
110.3714870118
 21
20.9734706023
 31
0.0
  0
LWPOLYLINE
  5
4D3
330
216
100
AcDbEntity
  8
DEFAULT_2
  6
HIDDEN
 62
     7
100
AcDbPolyline
 90
       46
 70
     0
 43
0.0
 10
110.3953003152
 20
20.9722748261
 10
110.3402210852
 20
20.9754512913
 10
110.2853097309
 20
20.9800651867
 10
110.2305447522
 20
20.986117458
 10
110.175918933
 20
20.9936073061
 10
110.1214821911
 20
21.0025269522
 10
110.0672987282
 20
21.0128668727
 10
110.0134246407
 20
21.0246185251
 10
109.9598836041
 20
21.0377772899
 10
109.9066911887
 20
21.0523395291
 10
109.8538703593
 20
21.0682988529
 10
109.801473658
 20
21.0856378658
 10
109.7495610216
 20
21.1043364213
 10
109.6981839456
 20
21.1243771558
 10
109.6473601623
 20
21.1457538393
 10
109.5970989628
 20
21.1684630253
 10
109.5474183799
 20
21.192496462
 10
109.4983714117
 20
21.2178266779
 10
109.4500197977
 20
21.2444213965
 10
109.4024157367
 20
21.2722532647
 10
109.3555732645
 20
21.301314623
 10
109.3094968764
 20
21.3316027354
 10
109.2641999579
 20
21.363108201
 10
109.219731457
 20
21.3957949596
 10
109.1761492123
 20
21.429620286
 10
109.1335020253
 20
21.4645479768
 10
109.0918025505
 20
21.5005679147
 10
109.0510544051
 20
21.5376765043
 10
109.0112687741
 20
21.575862495
 10
108.9724871124
 20
21.6150840166
 10
108.9347584422
 20
21.6552915439
 10
108.8981245563
 20
21.6964425038
 10
108.8625983283
 20
21.7385221316
 10
108.8281854023
 20
21.7815226145
 10
108.7948966054
 20
21.8254289218
 10
108.7627634979
 20
21.8701971495
 10
108.7318228235
 20
21.9157761756
 10
108.7021064933
 20
21.9621211323
 10
108.6736270886
 20
22.0092121685
 10
108.6463923586
 20
22.0570356876
 10
108.6204134148
 20
22.1055706608
 10
108.5957148198
 20
22.1547663321
 10
108.5723244988
 20
22.2045645135
 10
108.5502644831
 20
22.2549200605
 10
108.5295332288
 20
22.3058400028
 10
108.510123298
 20
22.3573444135
  0
LWPOLYLINE
  5
4D7
330
216
100
AcDbEntity
  8
DEFAULT_2
  6
HIDDEN
 62
     7
100
AcDbPolyline
 90
       49
 70
     0
 43
0.0
 10
135.5999180757
 20
39.8367206771
 10
135.5518871396
 20
39.82786350940001
 10
135.5044074748
 20
39.8178187636
 10
135.4574846034
 20
39.8066033635
 10
135.4111189061
 20
39.794231472
 10
135.3652901964
 20
39.78070620710001
 10
135.3199731462
 20
39.7660279256
 10
135.2751487821
 20
39.7501980262
 10
135.2308235496
 20
39.7332220751
 10
135.1870102489
 20
39.7151066802
 10
135.1437164957
 20
39.6958551138
 10
135.1009291678
 20
39.6754573043
 10
135.0586299583
 20
39.6538998443
 10
135.0168116713
 20
39.6311744865
 10
134.975511555
 20
39.6072936225
 10
134.9347779683
 20
39.5822748044
 10
134.89466236
 20
39.5561404337
 10
134.8552285374
 20
39.5289323123
 10
134.8165433976
 20
39.5006970917
 10
134.7786729089
 20
39.4714850707
 10
134.7416793252
 20
39.4413611361
 10
134.7056239719
 20
39.4103938221
 10
134.6705578641
 20
39.3786448588
 10
134.6364907766
 20
39.3461487614
 10
134.6034221742
 20
39.3129332413
 10
134.571348888
 20
39.2790213391
 10
134.5402572164
 20
39.2444174117
 10
134.5101308239
 20
39.2091211452
 10
134.4809576891
 20
39.1731358721
 10
134.452743045
 20
39.1364795105
 10
134.4254964382
 20
39.0991736246
 10
134.3992272029
 20
39.061239948
 10
134.3739438231
 20
39.0227008899
 10
134.3496545702
 20
38.9835790287
 10
134.3263653723
 20
38.9438905421
 10
134.3040727829
 20
38.9036260062
 10
134.2827710124
 20
38.8627695961
 10
134.2624594006
 20
38.8213145542
 10
134.2431578068
 20
38.7792903903
 10
134.2248912195
 20
38.7367356811
 10
134.2076832065
 20
38.6936887353
 10
134.1915516495
 20
38.65018679070001
 10
134.1765130092
 20
38.606266817
 10
134.1625833943
 20
38.56197064070001
 10
134.1497775059
 20
38.517359515
 10
134.1381096928
 20
38.47249955010001
 10
134.127591214
 20
38.4274428762
 10
134.1182209668
 20
38.3821857056
 10
134.1099947584
 20
38.3367102711
  0
LWPOLYLINE
  5
536
330
216
100
AcDbEntity
  8
DEFAULT_2
  6
HIDDEN
 62
     7
100
AcDbPolyline
 90
       69
 70
     0
 43
0.0
 10
131.193143999
 20
37.0289682542
 10
131.1958850194
 20
37.02914107570001
 10
131.1986007508
 20
37.029631338
 10
131.2012652386
 20
37.0303967384
 10
131.2038525279
 20
37.031394974
 10
131.2068945393
 20
37.0328821139
 10
131.2097941238
 20
37.0346133953
 10
131.2125642465
 20
37.0365459381
 10
131.2152178724
 20
37.0386368625
 10
131.2194063081
 20
37.0423746075
 10
131.2233424755
 20
37.0463747142
 10
131.2270607943
 20
37.0505797109
 10
131.231332279
 20
37.0558953794
 10
131.2353658212
 20
37.0613926206
 10
131.2391945235
 20
37.0670351731
 10
131.2434764669
 20
37.0738161777
 10
131.2475458299
 20
37.0807262993
 10
131.251427704
 20
37.0877437369
 10
131.2556601126
 20
37.0958629661
 10
131.2597002069
 20
37.10407941750001
 10
131.2635674112
 20
37.1123788158
 10
131.2696841838
 20
37.1263856237
 10
131.2754221946
 20
37.1405518999
 10
131.2812909171999
 20
37.1561207121
 10
131.2868050972
 20
37.1718186827
 10
131.292339199
 20
37.18869900730001
 10
131.2975366039
 20
37.2056860685
 10
131.3026542447
 20
37.223608254
 10
131.3074474723
 20
37.2416199484
 10
131.3120729276
 20
37.2602989517
 10
131.3163814022
 20
37.2790536235
 10
131.3204464556
 20
37.298193175
 10
131.3241975002
 20
37.3173967425
 10
131.3276426753
 20
37.3366938545
 10
131.3307725016
 20
37.3560446116
 10
131.3335481627
 20
37.37519427800001
 10
131.3360027149
 20
37.3943877306
 10
131.3380700209
 20
37.4130877344
 10
131.3398056564
 20
37.4318214058
 10
131.3411373742
 20
37.449777163
 10
131.3421213515
 20
37.4677552856
 10
131.3427025453
 20
37.4846846787
 10
131.3429132803
 20
37.5016226714
 10
131.3427418659
 20
37.5172608941
 10
131.3421689535
 20
37.5328894543
 10
131.3416061717
 20
37.5422954695
 10
131.3408570295
 20
37.5516883609
 10
131.3399001097
 20
37.5610625383
 10
131.3388645862
 20
37.5693065282
 10
131.3376217688
 20
37.5775215722
 10
131.3361425299
 20
37.5856976172
 10
131.3346616238
 20
37.5926611577
 10
131.3329459121
 20
37.5995701841
 10
131.3309554733
 20
37.606406181
 10
131.3290628515
 20
37.6120027629
 10
131.3269019062
 20
37.6175000318
 10
131.324420743
 20
37.6228616433
 10
131.3227435184
 20
37.626014273
 10
131.3209049918
 20
37.6290750563
 10
131.3188795039
 20
37.6320148452
 10
131.3166413955
 20
37.6348044916
 10
131.3146684239
 20
37.6369156342
 10
131.3125327337
 20
37.6388600235
 10
131.3102260545
 20
37.6405871191
 10
131.3077401159
 20
37.64204638010001
 10
131.3053867715
 20
37.6430782854
 10
131.3029274876
 20
37.6438399447
 10
131.3004038095
 20
37.6443115017
 10
131.2978572825
 20
37.6444730999
  0
LWPOLYLINE
  5
537
330
216
100
AcDbEntity
  8
DEFAULT_2
  6
HIDDEN
 62
     7
100
AcDbPolyline
 90
       69
 70
     0
 43
0.0
 10
130.6078270405
 20
37.6444730999
 10
130.6050860201
 20
37.6443002785
 10
130.6023702887
 20
37.6438100161
 10
130.5997058009
 20
37.6430446157
 10
130.5971185116
 20
37.64204638010001
 10
130.5940765003
 20
37.6405592402
 10
130.5911769157
 20
37.6388279589
 10
130.588406793
 20
37.63689541610001
 10
130.5857531671
 20
37.6348044916
 10
130.5815647315
 20
37.6310667467
 10
130.5776285641
 20
37.6270666399
 10
130.5739102452
 20
37.6228616433
 10
130.5696387605
 20
37.6175459747
 10
130.5656052183
 20
37.6120487336
 10
130.561776516
 20
37.606406181
 10
130.5574945727
 20
37.5996251764
 10
130.5534252097
 20
37.5927150548
 10
130.5495433355
 20
37.5856976172
 10
130.5453109269
 20
37.577578388
 10
130.5412708327
 20
37.5693619367
 10
130.5374036284
 20
37.5610625383
 10
130.5312868557
 20
37.5470557304
 10
130.525548845
 20
37.5328894543
 10
130.5196801223
 20
37.5173206421
 10
130.5141659423
 20
37.5016226714
 10
130.5086318406
 20
37.4847423468
 10
130.5034344357
 20
37.4677552856
 10
130.4983167948
 20
37.4498331001
 10
130.4935235672
 20
37.4318214058
 10
130.488898112
 20
37.4131424025
 10
130.4845896373
 20
37.3943877306
 10
130.480524584
 20
37.3752481792
 10
130.4767735394
 20
37.3560446116
 10
130.4733283642
 20
37.3367474996
 10
130.4701985379
 20
37.3173967425
 10
130.4674228768
 20
37.29824707610001
 10
130.4649683246
 20
37.2790536235
 10
130.4629010186
 20
37.2603536197
 10
130.4611653831
 20
37.2416199484
 10
130.4598336653
 20
37.2236641911
 10
130.458849688
 20
37.2056860685
 10
130.4582684942
 20
37.1887566754
 10
130.4580577593
 20
37.1718186827
 10
130.4582291736
 20
37.15618046
 10
130.458802086
 20
37.1405518999
 10
130.4593648678
 20
37.1311458846
 10
130.46011401
 20
37.12175299320001
 10
130.4610709298
 20
37.1123788158
 10
130.4621064534
 20
37.10413482590001
 10
130.4633492707
 20
37.0959197819
 10
130.4648285097
 20
37.0877437369
 10
130.4663094158
 20
37.0807801964
 10
130.4680251274
 20
37.07387117
 10
130.4700155662
 20
37.0670351731
 10
130.471908188
 20
37.0614385912
 10
130.4740691333
 20
37.0559413223
 10
130.4765502965
 20
37.0505797109
 10
130.4782275212
 20
37.0474270812
 10
130.4800660478
 20
37.0443662978
 10
130.4820915356
 20
37.0414265089
 10
130.484329644
 20
37.0386368625
 10
130.4863026156
 20
37.0365257199
 10
130.4884383058
 20
37.0345813306
 10
130.4907449851
 20
37.03285423510001
 10
130.4932309237
 20
37.031394974
 10
130.4955842681
 20
37.0303630688
 10
130.4980435519
 20
37.0296014094
 10
130.50056723
 20
37.0291298524
 10
130.503113757
 20
37.0289682542
  0
LWPOLYLINE
  5
538
330
216
100
AcDbEntity
  8
DEFAULT_2
  6
HIDDEN
 62
     7
100
AcDbPolyline
 90
       78
 70
     0
 43
0.0
 10
131.2379185083
 20
36.9058672851
 10
131.2409903651
 20
36.9060190047
 10
131.2440378612
 20
36.9064577547
 10
131.247226549
 20
36.90721190530001
 10
131.2503413496
 20
36.9082275451
 10
131.2536280969
 20
36.9095857105
 10
131.2568116962
 20
36.9111718053
 10
131.2601816623
 20
36.9131300201
 10
131.2634311662
 20
36.9152824655
 10
131.2668702966
 20
36.917833312
 10
131.270181616
 20
36.9205482584
 10
131.27367777
 20
36.9236821385
 10
131.2770445432
 20
36.9269547511
 10
131.2805866106
 20
36.9306606017
 10
131.2840011369
 20
36.9344843837
 10
131.2875787157
 20
36.9387499312
 10
131.2910323296
 20
36.9431165179
 10
131.2981188493
 20
36.9528274939
 10
131.3052412723
 20
36.9635906943
 10
131.3123800766
 20
36.9753766181
 10
131.3195156952
 20
36.9881529609
 10
131.3266285699
 20
37.0018847035
 10
131.3336992047
 20
37.0165342083
 10
131.3407082196
 20
37.0320613219
 10
131.3476364033
 20
37.0484234857
 10
131.3544647662
 20
37.065575852
 10
131.3611745921
 20
37.0834714074
 10
131.36774749
 20
37.1020611014
 10
131.374165444
 20
37.1212939811
 10
131.3804108628
 20
37.14111733030001
 10
131.3864666283
 20
37.1614768148
 10
131.392316142
 20
37.1823166304
 10
131.3979433708
 20
37.20357965690001
 10
131.4033328909
 20
37.2252076136
 10
131.4084699299
 20
37.2471412198
 10
131.4133404076
 20
37.26932035719999
 10
131.4179309743
 20
37.2916842341
 10
131.4222290477
 20
37.31417155280001
 10
131.426222847
 20
37.3367206771
 10
131.4299014255
 20
37.3592698013
 10
131.4332547004
 20
37.38175712
 10
131.4362734807
 20
37.4041209969
 10
131.438949492
 20
37.4263001343
 10
131.4412753997
 20
37.4482337405
 10
131.4432448286
 20
37.4698616973
 10
131.4448523806
 20
37.4911247237
 10
131.4460936495
 20
37.5119645394
 10
131.4469652331
 20
37.5323240238
 10
131.4474647424
 20
37.55214737300001
 10
131.4475908083
 20
37.57138025270001
 10
131.4473430854
 20
37.5899699467
 10
131.4467222525
 20
37.6078655022
 10
131.4457300113
 20
37.62501786850001
 10
131.4443690815
 20
37.6413800322
 10
131.4426431934
 20
37.6569071458
 10
131.4405570774
 20
37.6715566506
 10
131.4381164514
 20
37.6852883932
 10
131.4353280051
 20
37.698064736
 10
131.4321993814
 20
37.7098506598
 10
131.4287391555
 20
37.72061386030001
 10
131.4269275803
 20
37.7255003856
 10
131.4249568118
 20
37.7303248362
 10
131.4229939581
 20
37.734680885
 10
131.4208627175
 20
37.7389569705
 10
131.418753586
 20
37.7427733272
 10
131.416468094
 20
37.746486603
 10
131.4142170623
 20
37.7497561318
 10
131.4117849868
 20
37.75289309570001
 10
131.4093950708
 20
37.7556104291
 10
131.406826232
 20
37.7581588887
 10
131.404298466
 20
37.7603194235
 10
131.4016054211
 20
37.7622695488
 10
131.3989385807
 20
37.7638675635
 10
131.396136864
 20
37.765213809
 10
131.3933304796
 20
37.7662404097
 10
131.3904355497
 20
37.7669835994
 10
131.3874897513999
 20
37.7674270752
 10
131.3845171051
 20
37.767574069
  0
LINE
  5
568
330
216
100
AcDbEntity
  8
DEFAULT_2
  6
HIDDEN
 62
     7
100
AcDbLine
 10
131.2379185083
 20
36.9058672851
 30
0.0
 11
130.4164539344
 21
36.9058672851
 31
0.0
  0
LINE
  5
56A
330
216
100
AcDbEntity
  8
DEFAULT_2
  6
HIDDEN
 62
     7
100
AcDbLine
 10
130.503113757
 20
37.0289682542
 30
0.0
 11
131.193143999
 21
37.0289682542
 31
0.0
  0
LINE
  5
56D
330
216
100
AcDbEntity
  8
DEFAULT_2
  6
HIDDEN
 62
     7
100
AcDbLine
 10
131.2978572825
 20
37.6444730999
 30
0.0
 11
130.6078270405
 21
37.6444730999
 31
0.0
  0
LINE
  5
56F
330
216
100
AcDbEntity
  8
DEFAULT_2
  6
HIDDEN
 62
     7
100
AcDbLine
 10
130.528758019
 20
37.77276167050001
 30
0.0
 11
131.3502225928
 21
37.77276167050001
 31
0.0
  0
LWPOLYLINE
  5
61F
330
216
100
AcDbEntity
  8
DEFAULT_2
  6
HIDDEN
 62
     7
100
AcDbPolyline
 90
       19
 70
     0
 43
0.0
 10
131.3673034524
 20
37.7712168352
 10
131.3663660754
 20
37.7713832733
 10
131.3654270045
 20
37.7715402814
 10
131.3644863543
 20
37.77168784420001
 10
131.3635442393
 20
37.771825946
 10
131.3626007742
 20
37.7719545714
 10
131.3616560734
 20
37.7720737048
 10
131.3607087831
 20
37.77218349530001
 10
131.3597604552
 20
37.7722837473
 10
131.3588111767
 20
37.7723744595
 10
131.3578610348
 20
37.7724556306
 10
131.3569101164
 20
37.7725272589
 10
131.3559585086
 20
37.77258934320001
 10
131.3550033637
 20
37.7726420308
 10
131.3540477283
 20
37.7726851216
 10
131.3530917179
 20
37.7727186233
 10
131.3521354481
 20
37.7727425435
 10
131.3511790345
 20
37.7727568901
 10
131.3502225928
 20
37.77276167050001
  0
LINE
  5
621
330
216
100
AcDbEntity
  8
DEFAULT_2
  6
HIDDEN
 62
     7
100
AcDbLine
 10
131.389870077
 20
37.767092691
 30
0.0
 11
131.3673034524
 21
37.7712168352
 31
0.0
  0
LWPOLYLINE
  5
62E
330
216
100
AcDbEntity
  8
DEFAULT_2
  6
HIDDEN
 62
     7
100
AcDbPolyline
 90
       91
 70
     0
 43
0.0
 10
130.388534338
 20
36.9104728073
 10
130.3841289108
 20
36.9113866967
 10
130.3797708004
 20
36.9125089257
 10
130.375515868
 20
36.91382137
 10
130.3713271153
 20
36.9153309071
 10
130.3672202587
 20
36.9170300691
 10
130.3631957748
 20
36.9189162345
 10
130.3592016198
 20
36.92101704280001
 10
130.3553076375
 20
36.9232982756
 10
130.3512751516
 20
36.9259204151
 10
130.3473710023
 20
36.9287302368
 10
130.3435286766
 20
36.9317785562
 10
130.3398312491
 20
36.9350011084
 10
130.3361873448
 20
36.9384821987
 10
130.3327033001
 20
36.9421234345
 10
130.3290340683
 20
36.9463272042
 10
130.3255625181
 20
36.9506958825
 10
130.3220709386
 20
36.9555262449
 10
130.3187983473
 20
36.96050777070001
 10
130.3153443775
 20
36.9663173523
 10
130.3121521687
 20
36.9722751296
 10
130.3088875561
 20
36.9790614875
 10
130.3059113797
 20
36.98597947190001
 10
130.3029001129
 20
36.99384151
 10
130.3001952119
 20
37.0018143809
 10
130.2976621647
 20
37.010254938
 10
130.2954065248
 20
37.0187738419
 10
130.2933752244
 20
37.02747621989999
 10
130.2915783863
 20
37.0362300146
 10
130.2899827719
 20
37.0450930418
 10
130.2885846027
 20
37.0539893498
 10
130.2873584162
 20
37.0629785126
 10
130.2863007973
 20
37.0719890629
 10
130.284624154
 20
37.09026887050001
 10
130.2834806842
 20
37.1089269995
 10
130.2828272603
 20
37.1279337831
 10
130.2826296738
 20
37.1473087283
 10
130.2828643839
 20
37.16706860489999
 10
130.2835130874
 20
37.1871606916
 10
130.2845623447
 20
37.2075887415
 10
130.2859995806
 20
37.2283034122
 10
130.2878141729
 20
37.24926867030001
 10
130.2899975421
 20
37.2704545698
 10
130.2925388328
 20
37.2918010838
 10
130.2954305426
 20
37.31327513730001
 10
130.2986623829
 20
37.334818842
 10
130.3022257617
 20
37.3563867332
 10
130.306111172
 20
37.3779269781
 10
130.3103095371
 20
37.3993904592
 10
130.3148107105
 20
37.4207229842
 10
130.3196061933
 20
37.4418785426
 10
130.3246866371
 20
37.4628066966
 10
130.3300425835
 20
37.4834565539
 10
130.3356695167
 20
37.5037944496
 10
130.3415544774
 20
37.5237544995
 10
130.3476999382
 20
37.5433212851
 10
130.3540992854
 20
37.5624435623
 10
130.3607543854
 20
37.5810911065
 10
130.367680168
 20
37.5992588352
 10
130.3748737755
 20
37.61688309610001
 10
130.3823791120999
 20
37.6339991799
 10
130.3902317816
 20
37.65059072360001
 10
130.3984858524
 20
37.6666471888
 10
130.4027880602
 20
37.6744743462
 10
130.4072507407
 20
37.6822111319
 10
130.4118438153
 20
37.6897763096
 10
130.4166220477
 20
37.6972259312
 10
130.4215449818
 20
37.7044628089
 10
130.4266820342
 20
37.7115492702
 10
130.431815423
 20
37.7181681618
 10
130.4371791304
 20
37.7246016646
 10
130.4422987769
 20
37.7302960619
 10
130.4476384657
 20
37.7357842911
 10
130.4525285697
 20
37.7404196943
 10
130.4576050132
 20
37.7448498905
 10
130.4623112698
 20
37.7486214646
 10
130.4671726597
 20
37.7521905067
 10
130.4716712833
 20
37.7552074389
 10
130.4762934592
 20
37.7580311363
 10
130.4806797505
 20
37.7604602588
 10
130.4851654745
 20
37.762700299
 10
130.4895622916
 20
37.7646632479
 10
130.4940404764
 20
37.7664324456
 10
130.4982652322
 20
37.7678937749
 10
130.5025482869
 20
37.7691739961
 10
130.5067600059
 20
37.7702388177
 10
130.511013438
 20
37.7711220258
 10
130.5153474685
 20
37.7718256208
 10
130.5197088632
 20
37.7723353835
 10
130.5242289601
 20
37.7726547214
 10
130.528758019
 20
37.77276167050001
  0
LINE
  5
68F
330
216
100
AcDbEntity
  8
DEFAULT_2
  6
HIDDEN
 62
     7
100
AcDbLine
 10
117.4157031129
 20
20.5160822891
 30
0.0
 11
117.7718414202
 21
20.1599439818
 31
0.0
  0
LWPOLYLINE
  5
75A
330
216
100
AcDbEntity
  8
DEFAULT_2
  6
HIDDEN
 62
     7
100
AcDbPolyline
 90
       34
 70
     0
 43
0.0
 10
108.5101233716
 20
22.3573444402
 10
108.4228167476
 20
22.5996557744
 10
108.3339924796
 20
22.8485065974
 10
108.243748618
 20
23.1037887612
 10
108.1521555454
 20
23.3654784607
 10
108.0591729721
 20
23.6338892643
 10
107.9647329402
 20
23.9094190834
 10
107.8688151944
 20
24.1923282197
 10
107.7715902887
 20
24.482326537
 10
107.6732764798
 20
24.7789862891
 10
107.5989841687
 20
25.0055077491
 10
107.5244522566
 20
25.2348295746
 10
107.3751567169
 20
25.7006360697
 10
107.2250857065
 20
26.1778820359
 10
107.074469858
 20
26.66640787
 10
106.9240371414
 20
27.1644045275
 10
106.7749644545
 20
27.6683705745
 10
106.6269561349
 20
28.1797515389
 10
106.4802677427
 20
28.6979052602
 10
106.3354156864
 20
29.2212468006
 10
106.1929163747
 20
29.748191222
 10
106.0531897707
 20
30.2774591926
 10
105.9162700564
 20
30.8089938051
 10
105.7821779972
 20
31.3427072153
 10
105.6512664746
 20
31.877165407
 10
105.523852338
 20
32.4110730452
 10
105.3997761945
 20
32.94503569110001
 10
105.1609865451
 20
34.0155877452
 10
105.0088171019
 20
34.730786688
 10
104.8622189039
 20
35.4474510907
 10
104.7210808118
 20
36.1661481731
 10
104.5853220145
 20
36.8873193374
 10
104.4549830125
 20
37.6109027131
 10
104.3301346343
 20
38.3367106116
  0
LWPOLYLINE
  5
7BC
330
216
100
AcDbEntity
  8
DEFAULT_2
  6
HIDDEN
 62
     7
100
AcDbPolyline
 90
       49
 70
     0
 43
0.0
 10
104.3301346343
 20
38.3367106116
 10
104.321908438
 20
38.3821859745
 10
104.3125382158
 20
38.4274429978
 10
104.3020197596
 20
38.4724995394
 10
104.2903519555
 20
38.51735945530001
 10
104.2775460657
 20
38.5619705931
 10
104.2636164468
 20
38.6062667981
 10
104.2485778058
 20
38.650186782
 10
104.2324462508
 20
38.6936887207
 10
104.2152382406
 20
38.7367356563
 10
104.1969716554
 20
38.7792903605
 10
104.177670063
 20
38.8213145237
 10
104.1573584528
 20
38.8627695657
 10
104.1360566844
 20
38.90362597420001
 10
104.1137640978
 20
38.9438905072
 10
104.0904749028
 20
38.9835789901
 10
104.0661856533
 20
39.0227008481
 10
104.040902277
 20
39.0612399033
 10
104.0146330453
 20
39.0991735773
 10
103.9873864422
 20
39.1364794607
 10
103.9591718017
 20
39.17313582030001
 10
103.9299986704
 20
39.2091210918
 10
103.8998722812
 20
39.2444173572
 10
103.8687806125
 20
39.2790212841
 10
103.836707329
 20
39.3129331864
 10
103.8036387287
 20
39.3461487071
 10
103.7695716428
 20
39.3786448057
 10
103.734505536
 20
39.4103937709
 10
103.6984501829
 20
39.4413610874
 10
103.6614565988
 20
39.47148502480001
 10
103.6235861088
 20
39.5006970492
 10
103.5849009671
 20
39.5289322735
 10
103.545467142
 20
39.5561403988
 10
103.5053515307
 20
39.5822747733
 10
103.4646179407
 20
39.6072935952
 10
103.4233178207
 20
39.6311744628
 10
103.3814995302
 20
39.653899824
 10
103.3392003173
 20
39.6754572869
 10
103.2964129861
 20
39.695855099
 10
103.25311923
 20
39.7151066678
 10
103.2093059264
 20
39.7332220647
 10
103.1649806911
 20
39.7501980176
 10
103.1201563242
 20
39.7660279187
 10
103.0748392711
 20
39.7807062016
 10
103.0290105583
 20
39.7942314679
 10
102.9826448578
 20
39.8066033606
 10
102.9357219829
 20
39.8178187618
 10
102.8882423143
 20
39.82786350860001
 10
102.8402113742
 20
39.8367206771
  0
LWPOLYLINE
  5
A69
330
216
100
AcDbEntity
  8
DEFAULT_2
  6
HIDDEN
 62
     7
100
AcDbPolyline
 90
       30
 70
     0
 43
0.0
 10
134.1099947584
 20
38.3367102711
 10
133.9233425077
 20
37.26370258780001
 10
133.7245455733
 20
36.1947543535
 10
133.5136673208
 20
35.1299037617
 10
133.2906881643
 20
34.0689007041
 10
133.0555477001
 20
33.0113929949
 10
132.8081052053
 20
31.9569084396
 10
132.6362666166
 20
31.2554879011
 10
132.459063014
 20
30.5558647898
 10
132.276668421
 20
29.8587161076
 10
132.1365753028
 20
29.3378898165
 10
131.9937619264
 20
28.8191465217
 10
131.8485446009
 20
28.3035130766
 10
131.7016516189
 20
27.7933754542
 10
131.552585741
 20
27.286915804
 10
131.4017811519
 20
26.7852402683
 10
131.2500164196
 20
26.2905627446
 10
131.0980701122
 20
25.8050971302
 10
130.9463597723
 20
25.3298504877
 10
130.7944177444
 20
24.8627940078
 10
130.7187570446
 20
24.6334196432
 10
130.6435906567
 20
24.4075885925
 10
130.569088543
 20
24.1857205537
 10
130.495298512
 20
23.9678611549
 10
130.3980340181
 20
23.6834972913
 10
130.3020151715
 20
23.405835912
 10
130.2071909928
 20
23.1345381666
 10
130.1135338138
 20
22.8693358053
 10
130.0211092126
 20
22.6102429792
 10
129.9300060783
 20
22.3573444402
  0
LWPOLYLINE
  5
A6A
330
216
100
AcDbEntity
  8
DEFAULT_2
  6
HIDDEN
 62
     7
100
AcDbPolyline
 90
       46
 70
     0
 43
0.0
 10
129.9300061518
 20
22.3573444135
 10
129.910596221
 20
22.3058400026
 10
129.8898649664
 20
22.2549200596
 10
129.8678049498
 20
22.2045645106
 10
129.8444146269
 20
22.1547663258
 10
129.8197160299
 20
22.1055706512
 10
129.793737085
 20
22.0570356762
 10
129.7665023552
 20
22.0092121581
 10
129.7380229517
 20
21.9621211242
 10
129.7083066223
 20
21.9157761694
 10
129.6773659475
 20
21.8701971434
 10
129.6452328392
 20
21.8254289148
 10
129.6119440417
 20
21.7815226069
 10
129.5775311158
 20
21.7385221245
 10
129.5420048884
 20
21.6964424977
 10
129.5053710027
 20
21.6552915385
 10
129.4676423318
 20
21.6150840109
 10
129.4288606689
 20
21.5758624884
 10
129.3890750369
 20
21.537676497
 10
129.3483268911
 20
21.5005679073
 10
129.3066274165
 20
21.46454797
 10
129.2639802304
 20
21.4296202803
 10
129.2203979869
 20
21.3957949551
 10
129.1759294873
 20
21.3631081976
 10
129.1306325696
 20
21.3316027328
 10
129.0845561815
 20
21.3013146207
 10
129.0377137093
 20
21.2722532624
 10
128.9901096488
 20
21.2444213946
 10
128.9417580365
 20
21.217826677
 10
128.8927110708
 20
21.1924964624
 10
128.8430304905
 20
21.1684630269
 10
128.7927692935
 20
21.1457538419
 10
128.7419455116
 20
21.1243771587
 10
128.6905684357
 20
21.1043364241
 10
128.6386557976
 20
21.0856378679
 10
128.5862590939
 20
21.068298854
 10
128.533438262
 20
21.0523395293
 10
128.4802458449
 20
21.0377772897
 10
128.4267048075
 20
21.0246185247
 10
128.3728307199
 20
21.0128668724
 10
128.3186472573
 20
21.0025269519
 10
128.264210516
 20
20.9936073059
 10
128.2095846972
 20
20.986117458
 10
128.1548197189
 20
20.9800651867
 10
128.0999083646999
 20
20.9754512914
 10
128.0448291347
 20
20.9722748261
  0
LINE
  5
A6B
330
216
100
AcDbEntity
  8
DEFAULT_2
  6
HIDDEN
 62
     7
100
AcDbLine
 10
121.0278345014
 20
20.5194904535
 30
0.0
 11
120.6682880296
 21
20.1599439818
 31
0.0
  0
LWPOLYLINE
  5
15B6
330
216
100
AcDbEntity
  8
0
  6
Continuous
 62
     7
100
AcDbPolyline
 90
        3
 70
     0
 43
0.0
 10
101.2210236088
 20
39.7117206771
 10
101.2207116954
 20
39.73395098960001
 10
101.2204632118
 20
39.7559243436
  0
LWPOLYLINE
  5
15B7
330
216
100
AcDbEntity
  8
0
  6
Continuous
 62
     7
100
AcDbPolyline
 90
        4
 70
     0
 43
0.0
 10
101.2673168358
 20
38.9617206771
 10
101.2441774651
 20
39.2112438493
 10
101.2287418544
 20
39.46134025590001
 10
101.2210236088
 20
39.7117206771
  0
LWPOLYLINE
  5
15B8
330
216
100
AcDbEntity
  8
0
  6
Continuous
 62
     7
100
AcDbPolyline
 90
       14
 70
     0
 43
0.0
 10
101.2680449089
 20
38.9549951053
 10
101.3550847921
 20
38.1745750401
 10
101.4494289329
 20
37.3775722813
 10
101.5511262314
 20
36.570462826
 10
101.6624445964
 20
35.7426318551
 10
101.7862817152
 20
34.8825211534
 10
101.9263494398
 20
33.97780835
 10
102.0873203918
 20
33.0162080332
 10
102.2745908896
 20
31.9884705258
 10
102.4873876041
 20
30.9218416997
 10
102.7184502966
 20
29.8668416568
 10
102.9577009479
 20
28.8701383466
 10
103.2015271395
 20
27.9393788339
 10
103.4516234533
 20
27.0608971834
  0
LWPOLYLINE
  5
15B9
330
216
100
AcDbEntity
  8
0
  6
Continuous
 62
     7
100
AcDbPolyline
 90
        6
 70
     0
 43
0.0
 10
109.7731045709
 20
15.8772362246
 10
109.7864718975
 20
15.8721223613
 10
109.8106335704
 20
15.8639657058
 10
109.8339978566
 20
15.8573534962
 10
109.8560912827
 20
15.8522076281
 10
109.8764803344
 20
15.8483831386
  0
LINE
  5
15BA
330
216
100
AcDbEntity
  8
0
  6
Continuous
 62
     7
100
AcDbLine
 10
109.4708918332
 20
16.0867387687
 30
0.0
 11
109.4709291127
 21
16.0867169408
 31
0.0
  0
LWPOLYLINE
  5
15BB
330
216
100
AcDbEntity
  8
0
  6
Continuous
 62
     7
100
AcDbPolyline
 90
        7
 70
     0
 43
0.0
 10
109.4708825294
 20
16.0867206771
 10
109.5181137328
 20
16.0411501211
 10
109.5735594977
 20
15.9944429607
 10
109.6298014636
 20
15.9536744367
 10
109.6864311484
 20
15.9188569849
 10
109.7430224335
 20
15.8900922576
 10
109.7730801175
 20
15.877248046
  0
LWPOLYLINE
  5
15BC
330
216
100
AcDbEntity
  8
0
  6
Continuous
 62
     7
100
AcDbPolyline
 90
       14
 70
     0
 43
0.0
 10
105.9233352757
 20
20.9549016009
 10
106.1828102732
 20
20.4896306636
 10
106.4421831792
 20
20.0469882969
 10
106.7115127624
 20
19.6091850885
 10
106.999024583
 20
19.164391625
 10
107.2969493028
 20
18.7260764054
 10
107.5906502114
 20
18.3146881591
 10
107.8711609935
 20
17.9395714023
 10
108.1406929541
 20
17.594474442
 10
108.4039637432
 20
17.2711098299
 10
108.665551985
 20
16.96258358
 10
108.9296268351
 20
16.6634517061
 10
109.1999900947
 20
16.3694536254
 10
109.4708918332
 20
16.0867387687
  0
LWPOLYLINE
  5
15BD
330
216
100
AcDbEntity
  8
0
  6
Continuous
 62
     7
100
AcDbPolyline
 90
       10
 70
     0
 43
0.0
 10
103.4516234533
 20
27.0608971834
 10
103.7107272102
 20
26.2208548274
 10
103.9799901739
 20
25.4133028859
 10
104.2570998166
 20
24.6428187817
 10
104.5390663770999
 20
23.9140531068
 10
104.8225311498
 20
23.2308736235
 10
105.1046223895
 20
22.5946759266
 10
105.3833188994
 20
22.0043630822
 10
105.6567759059
 20
21.4583883106
 10
105.9233352757
 20
20.9549016009
  0
LWPOLYLINE
  5
15BE
330
216
100
AcDbEntity
  8
0
  6
Continuous
 62
     7
100
AcDbPolyline
 90
        6
 70
     0
 43
0.0
 10
128.5645701656
 20
15.848537095
 10
128.5850023858
 20
15.8524102636
 10
128.607100706
 20
15.8576035488
 10
128.6304455216
 20
15.8642605752
 10
128.6545789093
 20
15.8724608313
 10
128.6670248845999
 20
15.8772362269
  0
LWPOLYLINE
  5
15BF
330
216
100
AcDbEntity
  8
0
  6
Continuous
 62
     7
100
AcDbPolyline
 90
        4
 70
     0
 43
0.0
 10
121.2162475538
 20
16.0867225257
 10
121.1967866538
 20
16.0821758679
 10
121.1766161156
 20
16.0779544036
 10
121.1551916514
 20
16.0740074501
  0
LINE
  5
15C0
330
216
100
AcDbEntity
  8
0
  6
Continuous
 62
     7
100
AcDbLine
 10
121.1551916514
 20
16.0740074501
 30
0.0
 11
121.0955736359
 21
16.0643854095
 31
0.0
  0
LWPOLYLINE
  5
15C1
330
216
100
AcDbEntity
  8
0
  6
Continuous
 62
     7
100
AcDbPolyline
 90
        9
 70
     0
 43
0.0
 10
120.9514523282
 20
16.0411249728
 10
120.8815532369
 20
16.0298436195
 10
120.6273112195
 20
15.9947681462
 10
120.3824782982
 20
15.9671047129
 10
120.1442792478
 20
15.9459865576
 10
119.9115409035
 20
15.9306014235
 10
119.6832042712
 20
15.9201796861
 10
119.4550257006
 20
15.9140430063
 10
119.2200647249
 20
15.9119455893
  0
LINE
  5
15C2
330
216
100
AcDbEntity
  8
0
  6
Continuous
 62
     7
100
AcDbLine
 10
121.1109454909
 20
16.2497133454
 30
0.0
 11
121.0522364636
 21
16.2402740221
 31
0.0
  0
LWPOLYLINE
  5
15C3
330
216
100
AcDbEntity
  8
0
  6
Continuous
 62
     7
100
AcDbPolyline
 90
        7
 70
     0
 43
0.0
 10
117.2238846582
 20
16.086722007
 10
117.2246382412
 20
16.0868127965
 10
117.2252756655
 20
16.0869335876
 10
117.2256112109
 20
16.0871905032
 10
117.2255202705
 20
16.0875013676
 10
117.2249360854
 20
16.0875414672
 10
117.2240260167
 20
16.0875057048
  0
LINE
  5
15C4
330
216
100
AcDbEntity
  8
0
  6
Continuous
 62
     7
100
AcDbLine
 10
109.9688870838
 20
15.8417396794
 30
0.0
 11
109.9624159846
 21
15.8414735366
 31
0.0
  0
LWPOLYLINE
  5
15C5
330
216
100
AcDbEntity
  8
0
  6
Continuous
 62
     7
100
AcDbPolyline
 90
        3
 70
     0
 43
0.0
 10
109.9688870838
 20
15.8417396794
 10
109.9864698487
 20
15.842309752
 10
110.0379896036
 20
15.8429400288
  0
LWPOLYLINE
  5
15C6
330
216
100
AcDbEntity
  8
0
  6
Continuous
 62
     7
100
AcDbPolyline
 90
        3
 70
     0
 43
0.0
 10
128.4516117202
 20
15.8412603897
 10
128.4774695123
 20
15.8414708588
 10
128.4712423691
 20
15.8417396793
  0
LWPOLYLINE
  5
15C7
330
216
100
AcDbEntity
  8
0
  6
Continuous
 62
     7
100
AcDbPolyline
 90
        3
 70
     0
 43
0.0
 10
110.0379896036
 20
15.8429400288
 10
110.1268338373
 20
15.8433465427
 10
110.2477639457
 20
15.8434718182
  0
LWPOLYLINE
  5
15C8
330
216
100
AcDbEntity
  8
0
  6
Continuous
 62
     7
100
AcDbPolyline
 90
       17
 70
     0
 43
0.0
 10
124.056109366
 20
15.8390790996
 10
124.6963628658
 20
15.8393840848
 10
125.006263172
 20
15.8394430094
 10
125.3091675622
 20
15.8394311979
 10
125.6085972822
 20
15.8394787979
 10
125.9033631633
 20
15.8396134301
 10
126.1929525242
 20
15.8398153779
 10
126.4751129045
 20
15.840093893
 10
126.7457101188
 20
15.8404602051
 10
127.0002565891
 20
15.8409032771
 10
127.2383533463
 20
15.8414072291
 10
127.4637913316
 20
15.8419231445
 10
127.6753081262
 20
15.8424518581
 10
127.869794441
 20
15.8428960527
 10
128.0441297183
 20
15.8432124302
 10
128.1923665812999
 20
15.8434718185
 10
128.3132966393
 20
15.8433465401
  0
LWPOLYLINE
  5
15C9
330
216
100
AcDbEntity
  8
0
  6
Continuous
 62
     7
100
AcDbPolyline
 90
       24
 70
     0
 43
0.0
 10
125.3570330102
 20
15.8378668426
 10
125.5977629051
 20
15.8379132878
 10
125.8169837162
 20
15.8379719147
 10
126.0175260114
 20
15.8380458656
 10
126.2055587521
 20
15.8381417213
 10
126.3804320027
 20
15.8382754383
 10
126.5368820194
 20
15.8383911521
 10
126.6881893598
 20
15.8384218723
 10
126.8381395878
 20
15.8384744935
 10
126.985578275
 20
15.8385386279
 10
127.1305834854
 20
15.8386224554
 10
127.2726787128
 20
15.8387285663
 10
127.4114657409
 20
15.8388595503
 10
127.5462717906
 20
15.839016668
 10
127.6759498631
 20
15.8391987233
 10
127.7993460621
 20
15.8394017237
 10
127.9153872548
 20
15.8396182874
 10
128.0231500504
 20
15.8398451018
 10
128.1218105452
 20
15.8400803853
 10
128.2105872704
 20
15.8403191801
 10
128.288647052
 20
15.8405580613
 10
128.355143516
 20
15.8407937763
 10
128.4092200306
 20
15.8410257404
 10
128.4516117202
 20
15.8412603897
  0
LWPOLYLINE
  5
15CA
330
216
100
AcDbEntity
  8
0
  6
Continuous
 62
     7
100
AcDbPolyline
 90
        4
 70
     0
 43
0.0
 10
123.0783853115
 20
15.8387493244
 10
123.4147413813
 20
15.8388324101
 10
123.7367161686
 20
15.8389419166
 10
124.056109366
 20
15.8390790996
  0
LINE
  5
15CB
330
216
100
AcDbEntity
  8
0
  6
Continuous
 62
     7
100
AcDbLine
 10
121.2182608412
 20
15.8383901624
 30
0.0
 11
123.0783853115
 21
15.8387493244
 31
0.0
  0
LINE
  5
15CC
330
216
100
AcDbEntity
  8
0
  6
Continuous
 62
     7
100
AcDbLine
 10
120.4211144135
 20
15.8382743372
 30
0.0
 11
121.2182608412
 21
15.8383901624
 31
0.0
  0
LINE
  5
15CD
330
216
100
AcDbEntity
  8
0
  6
Continuous
 62
     7
100
AcDbLine
 10
115.5950667465
 20
15.8367206771
 30
0.0
 11
117.8450627034
 21
15.8367206771
 31
0.0
  0
LINE
  5
15CE
330
216
100
AcDbEntity
  8
0
  6
Continuous
 62
     7
100
AcDbLine
 10
124.2158855514
 20
15.8377494125
 30
0.0
 11
125.3570330102
 21
15.8378668426
 31
0.0
  0
LINE
  5
15CF
330
216
100
AcDbEntity
  8
0
  6
Continuous
 62
     7
100
AcDbLine
 10
120.0397358433
 20
15.8374093514
 30
0.0
 11
122.0720884018
 21
15.8376173173
 31
0.0
  0
LINE
  5
15D0
330
216
100
AcDbEntity
  8
0
  6
Continuous
 62
     7
100
AcDbLine
 10
119.2200920323
 20
15.83736524
 30
0.0
 11
120.0397358433
 21
15.8374093514
 31
0.0
  0
LINE
  5
15D1
330
216
100
AcDbEntity
  8
0
  6
Continuous
 62
     7
100
AcDbLine
 10
122.0720884018
 20
15.8376173173
 30
0.0
 11
124.2158855514
 21
15.8377494125
 31
0.0
  0
LWPOLYLINE
  5
15D2
330
216
100
AcDbEntity
  8
0
  6
Continuous
 62
     7
100
AcDbPolyline
 90
        3
 70
     0
 43
0.0
 10
119.2200822891
 20
15.8381735318
 10
119.6121148362
 20
15.8381962623
 10
120.4211144135
 20
15.8382743372
  0
LINE
  5
15D3
330
216
100
AcDbEntity
  8
0
  6
Continuous
 62
     7
100
AcDbLine
 10
117.3450647249
 20
16.0411249728
 30
0.0
 11
121.0950647249
 21
16.0411249728
 31
0.0
  0
LINE
  5
15D4
330
216
100
AcDbEntity
  8
0
  6
Continuous
 62
     7
100
AcDbLine
 10
111.7519358792
 20
15.8384218735
 30
0.0
 11
111.9032423306
 21
15.8383911534
 31
0.0
  0
LINE
  5
15D5
330
216
100
AcDbEntity
  8
0
  6
Continuous
 62
     7
100
AcDbLine
 10
113.3429987779
 20
15.8378321369
 30
0.0
 11
114.2242158192
 21
15.8377494147
 31
0.0
  0
LINE
  5
15D6
330
216
100
AcDbEntity
  8
0
  6
Continuous
 62
     7
100
AcDbLine
 10
117.8450627816
 20
15.8374616871
 30
0.0
 11
119.2200920447
 21
15.8373652388
 31
0.0
  0
LINE
  5
15D7
330
216
100
AcDbEntity
  8
0
  6
Continuous
 62
     7
100
AcDbLine
 10
114.2242158192
 20
15.8377494147
 30
0.0
 11
115.5950647771
 21
15.8376721393
 31
0.0
  0
LINE
  5
15D8
330
216
100
AcDbEntity
  8
0
  6
Continuous
 62
     7
100
AcDbLine
 10
116.8324519731
 20
15.8384586885
 30
0.0
 11
117.6178491872
 21
15.8383281336
 31
0.0
  0
LINE
  5
15D9
330
216
100
AcDbEntity
  8
0
  6
Continuous
 62
     7
100
AcDbLine
 10
117.6178491872
 20
15.8383281336
 30
0.0
 11
118.4230793869
 21
15.8382301387
 31
0.0
  0
LINE
  5
15DA
330
216
100
AcDbEntity
  8
0
  6
Continuous
 62
     7
100
AcDbLine
 10
118.4230793869
 20
15.8382301387
 30
0.0
 11
119.2200822879
 21
15.8381735302
 31
0.0
  0
LWPOLYLINE
  5
15DB
330
216
100
AcDbEntity
  8
0
  6
Continuous
 62
     7
100
AcDbPolyline
 90
        5
 70
     0
 43
0.0
 10
111.9032423306
 20
15.8383911534
 10
112.2345618633
 20
15.8381417267
 10
112.4225924332
 20
15.8380458703
 10
112.6231326434
 20
15.8379719188
 10
113.3429987779
 20
15.8378321369
  0
LWPOLYLINE
  5
15DC
330
216
100
AcDbEntity
  8
0
  6
Continuous
 62
     7
100
AcDbPolyline
 90
       19
 70
     0
 43
0.0
 10
110.2477639457
 20
15.8434718182
 10
110.5703350473
 20
15.8428960526
 10
110.764820362
 20
15.8424518605
 10
110.9763360216
 20
15.8419231496
 10
111.2017728016
 20
15.8414072363
 10
111.439868201
 20
15.840903286
 10
111.6944130559
 20
15.8404602149
 10
111.9650084747
 20
15.8400939024
 10
112.2471669403
 20
15.8398153862
 10
112.536754322
 20
15.839613437
 10
112.8315182095
 20
15.8394788023
 10
113.1309459632
 20
15.839431198
 10
113.4338483834
 20
15.8394430092
 10
113.743746178
 20
15.839384092
 10
114.0621997116
 20
15.8392366969
 10
114.3839942185
 20
15.8390791117
 10
114.7033848511
 20
15.8389419275
 10
115.0253572593
 20
15.8388324192
 10
116.8324519731
 20
15.8384586885
  0
LWPOLYLINE
  5
15DD
330
216
100
AcDbEntity
  8
0
  6
Continuous
 62
     7
100
AcDbPolyline
 90
       15
 70
     0
 43
0.0
 10
110.0309119165
 20
15.8410257283
 10
110.0849892853
 20
15.8407937634
 10
110.1514862337
 20
15.8405580487
 10
110.2295460553
 20
15.840319169
 10
110.3183223912
 20
15.8400803765
 10
110.416982178
 20
15.8398450956
 10
110.5247441424
 20
15.8396182836
 10
110.640784616
 20
15.8394017216
 10
110.7641802571
 20
15.8391987223
 10
110.8938578707
 20
15.8390166677
 10
111.0286634556
 20
15.8388595505
 10
111.167449894
 20
15.838728567
 10
111.3095443965
 20
15.8386224564
 10
111.4545487787
 20
15.8385386291
 10
111.7519358792
 20
15.8384218735
  0
LINE
  5
15DE
330
216
100
AcDbEntity
  8
0
  6
Continuous
 62
     7
100
AcDbLine
 10
128.3132966393
 20
15.8433465401
 30
0.0
 11
128.4021405108
 21
15.8429400234
 31
0.0
  0
LWPOLYLINE
  5
15DF
330
216
100
AcDbEntity
  8
0
  6
Continuous
 62
     7
100
AcDbPolyline
 90
        3
 70
     0
 43
0.0
 10
109.9624159846
 20
15.8414735366
 10
109.9901188216
 20
15.8412499683
 10
110.0309119165
 20
15.8410257283
  0
LINE
  5
15E0
330
216
100
AcDbEntity
  8
0
  6
Continuous
 62
     7
100
AcDbLine
 10
128.4021405108
 20
15.8429400234
 30
0.0
 11
128.453659776
 21
15.8423097485
 31
0.0
  0
LINE
  5
15E1
330
216
100
AcDbEntity
  8
0
  6
Continuous
 62
     7
100
AcDbLine
 10
128.453659776
 20
15.8423097485
 30
0.0
 11
128.4712423691
 21
15.8417396793
 31
0.0
  0
LWPOLYLINE
  5
15E2
330
216
100
AcDbEntity
  8
0
  6
Continuous
 62
     7
100
AcDbPolyline
 90
        7
 70
     0
 43
0.0
 10
121.2162447917
 20
16.086722007
 10
121.2154912087
 20
16.0868127965
 10
121.2148537844
 20
16.0869335876
 10
121.214518239
 20
16.0871905032
 10
121.2146091793
 20
16.0875013676
 10
121.2151933644
 20
16.0875414672
 10
121.2161034332
 20
16.0875057048
  0
LINE
  5
15E3
330
216
100
AcDbEntity
  8
0
  6
Continuous
 62
     7
100
AcDbLine
 10
117.3291839589
 20
16.2497133454
 30
0.0
 11
117.3878929863
 21
16.2402740222
 31
0.0
  0
LINE
  5
15E4
330
216
100
AcDbEntity
  8
0
  6
Continuous
 62
     7
100
AcDbLine
 10
117.2849377985
 20
16.0740074501
 30
0.0
 11
117.3445558126
 21
16.0643854034
 31
0.0
  0
LWPOLYLINE
  5
15E5
330
216
100
AcDbEntity
  8
0
  6
Continuous
 62
     7
100
AcDbPolyline
 90
        9
 70
     0
 43
0.0
 10
117.4886769886
 20
16.0411249728
 10
117.55857367
 20
16.0298440011
 10
117.8128134223
 20
15.9947687493
 10
118.0576441716
 20
15.9671054147
 10
118.2958411284
 20
15.9459872561
 10
118.528577442
 20
15.9306020397
 10
118.7569119854
 20
15.9201801616
 10
118.9850881338
 20
15.9140432863
 10
119.2200647249
 20
15.9119455892
  0
LWPOLYLINE
  5
15E6
330
216
100
AcDbEntity
  8
0
  6
Continuous
 62
     7
100
AcDbPolyline
 90
        4
 70
     0
 43
0.0
 10
117.223881896
 20
16.0867225257
 10
117.243342796
 20
16.0821758679
 10
117.2635133343
 20
16.0779544036
 10
117.2849377985
 20
16.0740074501
  0
LWPOLYLINE
  5
15E7
330
216
100
AcDbEntity
  8
0
  6
Continuous
 62
     7
100
AcDbPolyline
 90
        4
 70
     0
 43
0.0
 10
117.306069507
 20
16.2549067737
 10
117.3133241182
 20
16.2526314423
 10
117.3209631326
 20
16.2508907609
 10
117.3291839589
 20
16.2497133454
  0
LWPOLYLINE
  5
15E8
330
216
100
AcDbEntity
  8
0
  6
Continuous
 62
     7
100
AcDbPolyline
 90
       22
 70
     0
 43
0.0
 10
119.2200647249
 20
18.0178643741
 10
119.113769507
 20
18.0175490254
 10
118.9946532347
 20
18.0162547238
 10
118.8600036203
 20
18.0131780383
 10
118.7099691885
 20
18.0071247152
 10
118.5550277534
 20
17.9971696197
 10
118.4090502277
 20
17.9834968439
 10
118.2758340981
 20
17.9665818181
 10
118.152320995
 20
17.9463551378
 10
118.036133572
 20
17.9225818077
 10
117.9259928115
 20
17.8950174573
 10
117.8205897504
 20
17.8632207051
 10
117.7186908197
 20
17.8265149696
 10
117.6196174462
 20
17.7841082516
 10
117.5235304569
 20
17.7353164923
 10
117.4308674305
 20
17.6794474575
 10
117.342016136
 20
17.6156118758
 10
117.2575221573
 20
17.5427946636
 10
117.1781030396
 20
17.4598309525
 10
117.1053527403
 20
17.3662046072
 10
117.0408136434
 20
17.2613309374
 10
116.9872275542
 20
17.1472850201
  0
LWPOLYLINE
  5
15E9
330
216
100
AcDbEntity
  8
0
  6
Continuous
 62
     7
100
AcDbPolyline
 90
       22
 70
     0
 43
0.0
 10
119.2200647249
 20
18.017864374
 10
119.3263485137
 20
18.0175490969
 10
119.4454639896
 20
18.0162549187
 10
119.5801128333
 20
18.0131784332
 10
119.7301471102
 20
18.007125388
 10
119.8850894871
 20
17.9971705765
 10
120.0310686057
 20
17.9834980119
 10
120.16428624
 20
17.9665831392
 10
120.2878005543
 20
17.9463565888
 10
120.4039889912
 20
17.9225833695
 10
120.514130625
 20
17.8950191117
 10
120.6195344398
 20
17.8632224396
 10
120.721434039
 20
17.8265167718
 10
120.8205080394
 20
17.7841100985
 10
120.9165956371
 20
17.7353183473
 10
121.0092592518
 20
17.6794492763
 10
121.0981111101
 20
17.6156136063
 10
121.1826056243
 20
17.5427962421
 10
121.2620252483
 20
17.4598322949
 10
121.3347760102
 20
17.3662056134
 10
121.3993155061
 20
17.2613314925
 10
121.4529018956
 20
17.1472850201
  0
LWPOLYLINE
  5
15EA
330
216
100
AcDbEntity
  8
0
  6
Continuous
 62
     7
100
AcDbPolyline
 90
       22
 70
     0
 43
0.0
 10
119.2200496953
 20
17.9481212786
 10
119.3644918875
 20
17.9474386436
 10
119.514808563
 20
17.9447672959
 10
119.6592675991
 20
17.9395386079
 10
119.7969958184
 20
17.9313383248
 10
119.9270386204
 20
17.9199332021
 10
120.0483998007
 20
17.9053110049
 10
120.1601539287
 20
17.8876832023
 10
120.261877369
 20
17.8674136585
 10
120.3546442775
 20
17.8446747502
 10
120.4400914912
 20
17.8193876993
 10
120.5206877252
 20
17.7909173821
 10
120.598242371
 20
17.758342344
 10
120.6718386155
 20
17.7215823177
 10
120.7398520407
 20
17.6811744805
 10
120.8012715084
 20
17.6377834951
 10
120.855965971
 20
17.5918564913
 10
120.9045216142
 20
17.5433627132
 10
120.9475071984
 20
17.4920877906
 10
120.985351681
 20
17.4376961395
 10
121.0183014647
 20
17.3797706937
 10
121.0450059083
 20
17.3213009324
  0
LINE
  5
15EB
330
216
100
AcDbEntity
  8
0
  6
Continuous
 62
     7
100
AcDbLine
 10
115.5950647249
 20
15.8367206771
 30
0.0
 11
115.5950647249
 21
15.8387015984
 31
0.0
  0
LINE
  5
15EC
330
216
100
AcDbEntity
  8
0
  6
Continuous
 62
     7
100
AcDbLine
 10
117.3450647249
 20
16.0675386142
 30
0.0
 11
117.3450647249
 21
16.0411249728
 31
0.0
  0
LINE
  5
15ED
330
216
100
AcDbEntity
  8
0
  6
Continuous
 62
     7
100
AcDbLine
 10
117.7092654958
 20
17.5364371123
 30
0.0
 11
117.7092654958
 21
17.5100234709
 31
0.0
  0
LWPOLYLINE
  5
15EE
330
216
100
AcDbEntity
  8
0
  6
Continuous
 62
     7
100
AcDbPolyline
 90
        4
 70
     0
 43
0.0
 10
121.0449917154
 20
17.3213366732
 10
121.0657223945
 20
17.2652512782
 10
121.0868341406
 20
17.1975388795
 10
121.0929107257
 20
17.176251446
  0
LWPOLYLINE
  5
15EF
330
216
100
AcDbEntity
  8
0
  6
Continuous
 62
     7
100
AcDbPolyline
 90
        4
 70
     0
 43
0.0
 10
121.4529018956
 20
17.1472850201
 10
121.480635674
 20
17.0718713614
 10
121.5057076807
 20
16.9911064867
 10
121.5292666046
 20
16.9049537971
  0
LINE
  5
15F0
330
216
100
AcDbEntity
  8
0
  6
Continuous
 62
     7
100
AcDbLine
 10
119.2200920323
 20
15.83736524
 30
0.0
 11
119.220075086
 21
15.8381735306
 31
0.0
  0
LINE
  5
15F1
330
216
100
AcDbEntity
  8
0
  6
Continuous
 62
     7
100
AcDbLine
 10
117.8450647249
 20
15.8367206771
 30
0.0
 11
117.8450647249
 21
15.8382976636
 31
0.0
  0
LINE
  5
15F2
330
216
100
AcDbEntity
  8
0
  6
Continuous
 62
     7
100
AcDbLine
 10
119.2200271442
 20
16.0411249728
 30
0.0
 11
119.2200279619
 21
15.9119450139
 31
0.0
  0
LINE
  5
15F3
330
216
100
AcDbEntity
  8
DEFAULT_1
  6
CENTER
 62
     7
100
AcDbLine
 10
119.2200647249
 20
43.06584407489999
 30
0.0
 11
119.2200647249
 21
15.9119455893
 31
0.0
  0
LINE
  5
15F4
330
216
100
AcDbEntity
  8
DEFAULT_1
  6
CENTER
 62
     7
100
AcDbLine
 10
119.2200647249
 20
15.8400146649
 30
0.0
 11
119.2200647249
 21
14.9869702184
 31
0.0
  0
LINE
  5
15F5
330
216
100
AcDbEntity
  8
0
  6
Continuous
 62
     7
100
AcDbLine
 10
119.2200647249
 20
15.8400146649
 30
0.0
 11
119.2200647249
 21
15.9119455893
 31
0.0
  0
LINE
  5
15F6
330
216
100
AcDbEntity
  8
0
  6
Continuous
 62
     7
100
AcDbLine
 10
119.2201053798
 20
15.8400146682
 30
0.0
 11
119.2200822891
 21
15.8381735318
 31
0.0
  0
LWPOLYLINE
  5
15F7
330
216
100
AcDbEntity
  8
0
  6
Continuous
 62
     7
100
AcDbPolyline
 90
       21
 70
     0
 43
0.0
 10
116.8323300849
 20
16.6055642492
 10
116.8252561005
 20
16.5729930847
 10
116.8211614049
 20
16.5413888512
 10
116.8198025722
 20
16.5101916458
 10
116.8211351492
 20
16.4791667845
 10
116.8252344394
 20
16.4480475983
 10
116.8323002556
 20
16.4166074717
 10
116.8426394649
 20
16.384710498
 10
116.8566317345
 20
16.3523482715
 10
116.8747258833
 20
16.3195892164
 10
116.897425293
 20
16.2865941201
 10
116.9249549891
 20
16.2539658112
 10
116.9566541327
 20
16.222980019
 10
116.9908855809
 20
16.1950681733
 10
117.0259247842
 20
16.1709506845
 10
117.0608437219
 20
16.1504508552
 10
117.0952945675
 20
16.133080951
 10
117.128892523
 20
16.1184791482
 10
117.1613489257
 20
16.1063048705
 10
117.1928917755
 20
16.0961123558
 10
117.2240260167
 20
16.0875057048
  0
LINE
  5
15F8
330
216
100
AcDbEntity
  8
0
  6
Continuous
 62
     7
100
AcDbLine
 10
121.0928380455
 20
17.1765101173
 30
0.0
 11
121.1001942601
 21
17.1499176651
 31
0.0
  0
LINE
  5
15F9
330
216
100
AcDbEntity
  8
0
  6
Continuous
 62
     7
100
AcDbLine
 10
121.1001942601
 20
17.1499176651
 30
0.0
 11
121.1073993787
 21
17.1232128592
 31
0.0
  0
LINE
  5
15FA
330
216
100
AcDbEntity
  8
0
  6
Continuous
 62
     7
100
AcDbLine
 10
121.1042224797
 20
17.1350527383
 30
0.0
 11
121.1854704074
 21
16.8318538315
 31
0.0
  0
LWPOLYLINE
  5
15FB
330
216
100
AcDbEntity
  8
0
  6
Continuous
 62
     7
100
AcDbPolyline
 90
        3
 70
     0
 43
0.0
 10
121.5292666046
 20
16.9049537971
 10
121.5689683533
 20
16.7537340005
 10
121.607799365
 20
16.6055642492
  0
LWPOLYLINE
  5
15FC
330
216
100
AcDbEntity
  8
0
  6
Continuous
 62
     7
100
AcDbPolyline
 90
       21
 70
     0
 43
0.0
 10
121.1854704074
 20
16.8318538315
 10
121.1960891408
 20
16.79010221359999
 10
121.2051852435
 20
16.7500562946
 10
121.2129944055
 20
16.7109768941
 10
121.2195899831
 20
16.6725645248
 10
121.2250003994
 20
16.6344996181
 10
121.2291900783
 20
16.5965347701
 10
121.2320553354
 20
16.5585551866
 10
121.2334308602
 20
16.5206184472
 10
121.2331029646
 20
16.4828911755
 10
121.2308127478
 20
16.4456711032
 10
121.2263227967
 20
16.4097680438
 10
121.219630129
 20
16.3766712603
 10
121.2111216223
 20
16.3478754813
 10
121.2013841586
 20
16.3239668648
 10
121.1908632511
 20
16.3045570322
 10
121.1798227241
 20
16.288974345
 10
121.1685132924
 20
16.2766990863
 10
121.157138422
 20
16.2672550944
 10
121.1456977038
 20
16.2601251955
 10
121.1340599429
 20
16.2549067737
  0
LINE
  5
15FD
330
216
100
AcDbEntity
  8
0
  6
Continuous
 62
     7
100
AcDbLine
 10
121.0950647249
 20
16.0411249728
 30
0.0
 11
120.730863954
 21
17.5100234709
 31
0.0
  0
LINE
  5
15FE
330
216
100
AcDbEntity
  8
0
  6
Continuous
 62
     7
100
AcDbLine
 10
121.0950647249
 20
16.0675386142
 30
0.0
 11
120.730863954
 21
17.5364371123
 31
0.0
  0
LWPOLYLINE
  5
15FF
330
216
100
AcDbEntity
  8
0
  6
Continuous
 62
     7
100
AcDbPolyline
 90
       21
 70
     0
 43
0.0
 10
121.607799365
 20
16.6055642492
 10
121.6148733494
 20
16.5729930847
 10
121.6189680449
 20
16.5413888512
 10
121.6203268776
 20
16.5101916458
 10
121.6189943007
 20
16.4791667845
 10
121.6148950105
 20
16.4480475983
 10
121.6078291942
 20
16.4166074717
 10
121.5974899849
 20
16.384710498
 10
121.5834977153
 20
16.3523482715
 10
121.5654035666
 20
16.3195892164
 10
121.5427041569
 20
16.2865941201
 10
121.5151744607
 20
16.2539658112
 10
121.4834753172
 20
16.222980019
 10
121.4492438689
 20
16.1950681733
 10
121.4142046656
 20
16.1709506845
 10
121.3792857279
 20
16.1504508552
 10
121.3448348823
 20
16.133080951
 10
121.3112369269
 20
16.1184791482
 10
121.2787805241
 20
16.1063048705
 10
121.2472376743
 20
16.0961123558
 10
121.2161034332
 20
16.0875057048
  0
LINE
  5
1600
330
216
100
AcDbEntity
  8
0
  6
Continuous
 62
     7
100
AcDbLine
 10
120.730863954
 20
17.5364371123
 30
0.0
 11
120.730863954
 21
17.5100234709
 31
0.0
  0
LINE
  5
1601
330
216
100
AcDbEntity
  8
0
  6
Continuous
 62
     7
100
AcDbLine
 10
117.7092654958
 20
17.5364371123
 30
0.0
 11
117.3450647249
 21
16.0675386142
 31
0.0
  0
LINE
  5
1602
330
216
100
AcDbEntity
  8
0
  6
Continuous
 62
     7
100
AcDbLine
 10
117.7092654958
 20
17.5100234709
 30
0.0
 11
117.3450647249
 21
16.0411249728
 31
0.0
  0
LWPOLYLINE
  5
1603
330
216
100
AcDbEntity
  8
0
  6
Continuous
 62
     7
100
AcDbPolyline
 90
       21
 70
     0
 43
0.0
 10
117.2546590424
 20
16.8318538315
 10
117.244040309
 20
16.79010221359999
 10
117.2349442064
 20
16.7500562946
 10
117.2271350443
 20
16.7109768941
 10
117.2205394668
 20
16.6725645248
 10
117.2151290504
 20
16.6344996181
 10
117.2109393715
 20
16.5965347701
 10
117.2080741145
 20
16.5585551866
 10
117.2066985897
 20
16.5206184472
 10
117.2070264853
 20
16.4828911755
 10
117.209316702
 20
16.4456711032
 10
117.2138066532
 20
16.4097680438
 10
117.2204993209
 20
16.3766712603
 10
117.2290078276
 20
16.3478754813
 10
117.2387452912
 20
16.3239668648
 10
117.2492661987
 20
16.3045570322
 10
117.2603067257
 20
16.288974345
 10
117.2716161574
 20
16.2766990863
 10
117.2829910278
 20
16.2672550944
 10
117.294431746
 20
16.2601251955
 10
117.306069507
 20
16.2549067737
  0
LWPOLYLINE
  5
1604
330
216
100
AcDbEntity
  8
0
  6
Continuous
 62
     7
100
AcDbPolyline
 90
        3
 70
     0
 43
0.0
 10
116.9108628453
 20
16.9049537971
 10
116.8711610965
 20
16.7537340005
 10
116.8323300849
 20
16.6055642492
  0
LINE
  5
1605
330
216
100
AcDbEntity
  8
0
  6
Continuous
 62
     7
100
AcDbLine
 10
117.2546590424
 20
16.8318538315
 30
0.0
 11
117.337135643
 21
17.1395946149
 31
0.0
  0
LINE
  5
1606
330
216
100
AcDbEntity
  8
0
  6
Continuous
 62
     7
100
AcDbLine
 10
117.3399352032
 20
17.1499177145
 30
0.0
 11
117.3327301015
 21
17.1232129722
 31
0.0
  0
LINE
  5
1607
330
216
100
AcDbEntity
  8
0
  6
Continuous
 62
     7
100
AcDbLine
 10
117.3472914044
 20
17.1765101173
 30
0.0
 11
117.3399352032
 21
17.1499177145
 31
0.0
  0
LWPOLYLINE
  5
1608
330
216
100
AcDbEntity
  8
0
  6
Continuous
 62
     7
100
AcDbPolyline
 90
        4
 70
     0
 43
0.0
 10
117.3472187241
 20
17.176251446
 10
117.3532953092
 20
17.1975388795
 10
117.3744070554
 20
17.2652512782
 10
117.3951377345
 20
17.3213366732
  0
LWPOLYLINE
  5
1609
330
216
100
AcDbEntity
  8
0
  6
Continuous
 62
     7
100
AcDbPolyline
 90
        4
 70
     0
 43
0.0
 10
116.9872275542
 20
17.1472850201
 10
116.9594937759
 20
17.0718713614
 10
116.9344217692
 20
16.9911064867
 10
116.9108628453
 20
16.9049537971
  0
LINE
  5
160A
330
216
100
AcDbEntity
  8
0
  6
Continuous
 62
     7
100
AcDbLine
 10
121.0950647249
 20
16.0675386142
 30
0.0
 11
121.0950647249
 21
16.0411249728
 31
0.0
  0
LWPOLYLINE
  5
160B
330
216
100
AcDbEntity
  8
0
  6
Continuous
 62
     7
100
AcDbPolyline
 90
       22
 70
     0
 43
0.0
 10
117.3951235415
 20
17.3213009324
 10
117.4218277149
 20
17.3797701641
 10
117.4547771287
 20
17.4376951246
 10
117.4926211302
 20
17.4920863244
 10
117.5356061029
 20
17.5433608229
 10
117.5841609809
 20
17.5918542035
 10
117.6388544987
 20
17.637780842
 10
117.7002728101
 20
17.6811715002
 10
117.7682848848
 20
17.721579077
 10
117.8418796507
 20
17.7583389437
 10
117.9194327847
 20
17.7909139406
 10
118.0000275425
 20
17.8193843288
 10
118.0854731272
 20
17.8446714982
 10
118.1782380377
 20
17.8674105438
 10
118.279959247
 20
17.8876803031
 10
118.3917111025
 20
17.9053084335
 10
118.5130700132
 20
17.919931047
 10
118.6431105605
 20
17.9313366411
 10
118.780836529
 20
17.939537414
 10
118.9252932965
 20
17.9447665725
 10
119.0756076574
 20
17.9474383369
 10
119.2200496953
 20
17.9481212786
  0
LINE
  5
160C
330
216
100
AcDbEntity
  8
0
  6
Continuous
 62
     7
100
AcDbLine
 10
136.8415259278
 20
39.7555380911
 30
0.0
 11
136.8889327671
 21
39.7557731991
 31
0.0
  0
LWPOLYLINE
  5
160D
330
216
100
AcDbEntity
  8
0
  6
Continuous
 62
     7
100
AcDbPolyline
 90
        6
 70
     0
 43
0.0
 10
136.8889327671
 20
39.7557731991
 10
136.936424837
 20
39.7559498688
 10
136.9619590196
 20
39.7560096387
 10
136.988738668
 20
39.75604235170001
 10
137.0161813648
 20
39.7560473354
 10
137.04390243
 20
39.7560257234
  0
LINE
  5
160E
330
216
100
AcDbEntity
  8
0
  6
Continuous
 62
     7
100
AcDbLine
 10
101.7256335441
 20
39.7548175528
 30
0.0
 11
101.8238410757
 21
39.75501436760001
 31
0.0
  0
LINE
  5
160F
330
216
100
AcDbEntity
  8
0
  6
Continuous
 62
     7
100
AcDbLine
 10
137.2001167237
 20
39.7558969085
 30
0.0
 11
137.219666238
 21
39.7559243436
 31
0.0
  0
LINE
  5
1610
330
216
100
AcDbEntity
  8
0
  6
Continuous
 62
     7
100
AcDbLine
 10
101.8238410757
 20
39.75501436760001
 30
0.0
 11
101.9900568993
 21
39.75524705
 31
0.0
  0
LWPOLYLINE
  5
1611
330
216
100
AcDbEntity
  8
0
  6
Continuous
 62
     7
100
AcDbPolyline
 90
        6
 70
     0
 43
0.0
 10
101.3781477519
 20
39.7559997492
 10
101.4041100285
 20
39.7560343473
 10
101.4299502859
 20
39.7560485995
 10
101.4552498131
 20
39.7560394007
 10
101.4795392539
 20
39.7560071475
 10
101.5027087045
 20
39.755952721
  0
LINE
  5
1612
330
216
100
AcDbEntity
  8
0
  6
Continuous
 62
     7
100
AcDbLine
 10
132.2243782593
 20
39.7554879624
 30
0.0
 11
132.3974683085
 21
39.75569219710001
 31
0.0
  0
LWPOLYLINE
  5
1613
330
216
100
AcDbEntity
  8
0
  6
Continuous
 62
     7
100
AcDbPolyline
 90
        3
 70
     0
 43
0.0
 10
132.3974683085
 20
39.75569219710001
 10
132.4974804792
 20
39.755793625
 10
132.5470273161
 20
39.7558384823
  0
LWPOLYLINE
  5
1614
330
216
100
AcDbEntity
  8
0
  6
Continuous
 62
     7
100
AcDbPolyline
 90
        3
 70
     0
 43
0.0
 10
132.5470273161
 20
39.7558384823
 10
132.6454071685
 20
39.7559200618
 10
132.695570643
 20
39.75595766460001
  0
LINE
  5
1615
330
216
100
AcDbEntity
  8
0
  6
Continuous
 62
     7
100
AcDbLine
 10
101.9900568993
 20
39.75524705
 30
0.0
 11
102.2597191005
 21
39.7554936807
 31
0.0
  0
LWPOLYLINE
  5
1616
330
216
100
AcDbEntity
  8
0
  6
Continuous
 62
     7
100
AcDbPolyline
 90
        4
 70
     0
 43
0.0
 10
132.695570643
 20
39.75595766460001
 10
132.8070012642
 20
39.7560320488
 10
132.8709166478
 20
39.7560700084
 10
132.9407185528
 20
39.7561080368
  0
LINE
  5
1617
330
216
100
AcDbEntity
  8
0
  6
Continuous
 62
     7
100
AcDbLine
 10
102.2597191005
 20
39.7554936807
 30
0.0
 11
102.6260279756
 21
39.7557374838
 31
0.0
  0
LWPOLYLINE
  5
1618
330
216
100
AcDbEntity
  8
0
  6
Continuous
 62
     7
100
AcDbPolyline
 90
        3
 70
     0
 43
0.0
 10
132.9407185528
 20
39.7561080368
 10
133.099811611
 20
39.7561822244
 10
133.1925484577
 20
39.7562183922
  0
LWPOLYLINE
  5
1619
330
216
100
AcDbEntity
  8
0
  6
Continuous
 62
     7
100
AcDbPolyline
 90
        3
 70
     0
 43
0.0
 10
101.277237203
 20
39.7558544264
 10
101.3012583733
 20
39.7558621433
 10
101.3781477519
 20
39.7559997492
  0
LINE
  5
161A
330
216
100
AcDbEntity
  8
0
  6
Continuous
 62
     7
100
AcDbLine
 10
102.6260279756
 20
39.7557374838
 30
0.0
 11
103.1887148728
 21
39.75602187510001
 31
0.0
  0
LWPOLYLINE
  5
161B
330
216
100
AcDbEntity
  8
0
  6
Continuous
 62
     7
100
AcDbPolyline
 90
        3
 70
     0
 43
0.0
 10
133.1925484577
 20
39.7562183922
 10
133.4101342904
 20
39.7562844916
 10
133.5322201004
 20
39.7563105842
  0
LWPOLYLINE
  5
161C
330
216
100
AcDbEntity
  8
0
  6
Continuous
 62
     7
100
AcDbPolyline
 90
       15
 70
     0
 43
0.0
 10
123.4823112162
 20
39.7568542193
 10
124.1686337009
 20
39.7570082308
 10
124.8430417886
 20
39.7571460137
 10
125.5041598147
 20
39.7572614122
 10
126.1500743462
 20
39.7573387319
 10
126.7782821619
 20
39.7573679474
 10
127.3890326777
 20
39.757341443
 10
127.9817340104
 20
39.7572534168
 10
128.5491242228
 20
39.7571033631
 10
129.0728657297
 20
39.7569002166
 10
129.5381972843
 20
39.756658904
 10
129.9419756573
 20
39.7563945931
 10
130.2879250191
 20
39.7561344418
 10
130.584967374
 20
39.7558993981
 10
131.0700047038
 20
39.7555314543
  0
LINE
  5
161D
330
216
100
AcDbEntity
  8
0
  6
Continuous
 62
     7
100
AcDbLine
 10
103.1887148728
 20
39.75602187510001
 30
0.0
 11
103.8058668381
 21
39.7562337455
 31
0.0
  0
LINE
  5
161E
330
216
100
AcDbEntity
  8
0
  6
Continuous
 62
     7
100
AcDbLine
 10
133.5322201004
 20
39.7563105842
 30
0.0
 11
133.8057205777
 21
39.7563378622
 31
0.0
  0
LWPOLYLINE
  5
161F
330
216
100
AcDbEntity
  8
0
  6
Continuous
 62
     7
100
AcDbPolyline
 90
        5
 70
     0
 43
0.0
 10
119.2200647249
 20
39.756053154
 10
119.9372072941
 20
39.7560930248
 10
120.6513370321
 20
39.7561972764
 10
121.3686358151
 20
39.7563439624
 10
123.4823112162
 20
39.7568542193
  0
LINE
  5
1620
330
216
100
AcDbEntity
  8
0
  6
Continuous
 62
     7
100
AcDbLine
 10
103.8058668381
 20
39.7562337455
 30
0.0
 11
104.325436377
 21
39.7563251332
 31
0.0
  0
LINE
  5
1621
330
216
100
AcDbEntity
  8
0
  6
Continuous
 62
     7
100
AcDbLine
 10
101.3004591963
 20
39.8367206771
 30
0.0
 11
137.1396691428
 21
39.8367206771
 31
0.0
  0
LINE
  5
1622
330
216
100
AcDbEntity
  8
0
  6
Continuous
 62
     7
100
AcDbLine
 10
104.325436377
 20
39.7563251332
 30
0.0
 11
104.7600834201
 21
39.7563305823
 31
0.0
  0
LWPOLYLINE
  5
1623
330
216
100
AcDbEntity
  8
0
  6
Continuous
 62
     7
100
AcDbPolyline
 90
        3
 70
     0
 43
0.0
 10
133.8057205777
 20
39.7563378622
 10
134.1205016684
 20
39.7563245737
 10
134.2908678249
 20
39.7563037675
  0
LINE
  5
1624
330
216
100
AcDbEntity
  8
0
  6
Continuous
 62
     7
100
AcDbLine
 10
104.7600834201
 20
39.7563305823
 30
0.0
 11
105.1157340403
 21
39.756261456
 31
0.0
  0
LWPOLYLINE
  5
1625
330
216
100
AcDbEntity
  8
0
  6
Continuous
 62
     7
100
AcDbPolyline
 90
        5
 70
     0
 43
0.0
 10
114.9707858614
 20
39.7568511842
 10
117.0703076919
 20
39.7563442291
 10
117.7826177856
 20
39.7561983872
 10
118.4994833786
 20
39.7560933938
 10
119.2200647249
 20
39.756053154
  0
LINE
  5
1626
330
216
100
AcDbEntity
  8
0
  6
Continuous
 62
     7
100
AcDbLine
 10
113.6195284474
 20
39.7571416669
 30
0.0
 11
114.9707858614
 21
39.7568511842
 31
0.0
  0
LWPOLYLINE
  5
1627
330
216
100
AcDbEntity
  8
0
  6
Continuous
 62
     7
100
AcDbPolyline
 90
        3
 70
     0
 43
0.0
 10
134.2908678249
 20
39.7563037675
 10
134.6747855937
 20
39.75622301980001
 10
134.8925856291
 20
39.756157494
  0
LINE
  5
1628
330
216
100
AcDbEntity
  8
0
  6
Continuous
 62
     7
100
AcDbLine
 10
105.1157340403
 20
39.756261456
 30
0.0
 11
105.3888829344
 21
39.7561612884
 31
0.0
  0
LWPOLYLINE
  5
1629
330
216
100
AcDbEntity
  8
0
  6
Continuous
 62
     7
100
AcDbPolyline
 90
        3
 70
     0
 43
0.0
 10
134.8925856291
 20
39.756157494
 10
135.3348980288
 20
39.75598533260001
 10
135.5356494204
 20
39.7558897623
  0
LINE
  5
162A
330
216
100
AcDbEntity
  8
0
  6
Continuous
 62
     7
100
AcDbLine
 10
105.3888829344
 20
39.7561612884
 30
0.0
 11
105.650028689
 21
39.756021484
 31
0.0
  0
LWPOLYLINE
  5
162B
330
216
100
AcDbEntity
  8
0
  6
Continuous
 62
     7
100
AcDbPolyline
 90
        9
 70
     0
 43
0.0
 10
131.0700047038
 20
39.7555314543
 10
131.2701322120999
 20
39.75540449989999
 10
131.4460851161
 20
39.7553167129
 10
131.6008258212
 20
39.75526546320001
 10
131.7379229852
 20
39.75524555
 10
131.8604854656
 20
39.7552523646
 10
131.9700032149
 20
39.7552838421
 10
132.0667033043
 20
39.7553377084
 10
132.2243782593
 20
39.7554879624
  0
LWPOLYLINE
  5
162C
330
216
100
AcDbEntity
  8
0
  6
Continuous
 62
     7
100
AcDbPolyline
 90
        4
 70
     0
 43
0.0
 10
135.5356494204
 20
39.7558897623
 10
135.8673017345999
 20
39.7557057578
 10
135.9955582493
 20
39.7556248132
 10
136.102233421
 20
39.755551437
  0
LWPOLYLINE
  5
162D
330
216
100
AcDbEntity
  8
0
  6
Continuous
 62
     7
100
AcDbPolyline
 90
       21
 70
     0
 43
0.0
 10
106.3103600534
 20
39.7553889595
 10
106.4024577197
 20
39.7553185968
 10
106.5071863513
 20
39.7552700461
 10
106.6248014804
 20
39.7552468101
 10
106.7575790481
 20
39.7552503928
 10
106.9092869713
 20
39.7552852026
 10
107.0835265714
 20
39.7553579879
 10
107.282719514
 20
39.7554731596
 10
107.5101787332
 20
39.75563181840001
 10
107.7734805006
 20
39.7558346853
 10
108.0841462411
 20
39.756081031
 10
108.4538413784
 20
39.7563627169
 10
108.8885081759
 20
39.756650937
 10
109.3862029142
 20
39.75690869040001
 10
109.9300432788
 20
39.7571159847
 10
110.4998425803
 20
39.7572617406
 10
111.0883089478
 20
39.7573447964
 10
111.6950373367
 20
39.7573677242
 10
112.3207782384
 20
39.7573360828
 10
112.9628750527
 20
39.7572573
 10
113.6195284474
 20
39.7571416669
  0
LINE
  5
162E
330
216
100
AcDbEntity
  8
0
  6
Continuous
 62
     7
100
AcDbLine
 10
136.102233421
 20
39.755551437
 30
0.0
 11
136.2672476836
 21
39.7554242594
 31
0.0
  0
LINE
  5
162F
330
216
100
AcDbEntity
  8
0
  6
Continuous
 62
     7
100
AcDbLine
 10
105.650028689
 20
39.756021484
 30
0.0
 11
105.9955049325
 21
39.7557421769
 31
0.0
  0
LINE
  5
1630
330
216
100
AcDbEntity
  8
0
  6
Continuous
 62
     7
100
AcDbLine
 10
136.2672476836
 20
39.7554242594
 30
0.0
 11
136.389432217
 21
39.75531262070001
 31
0.0
  0
LWPOLYLINE
  5
1631
330
216
100
AcDbEntity
  8
0
  6
Continuous
 62
     7
100
AcDbPolyline
 90
        4
 70
     0
 43
0.0
 10
105.9955049325
 20
39.7557421769
 10
106.100745778
 20
39.7556250604
 10
106.1613942064
 20
39.75555206300001
 10
106.3103600534
 20
39.7553889595
  0
LWPOLYLINE
  5
1632
330
216
100
AcDbEntity
  8
0
  6
Continuous
 62
     7
100
AcDbPolyline
 90
        3
 70
     0
 43
0.0
 10
136.389432217
 20
39.75531262070001
 10
136.5294946048
 20
39.755145527
 10
136.5697734545999
 20
39.7550873656
  0
LINE
  5
1633
330
216
100
AcDbEntity
  8
0
  6
Continuous
 62
     7
100
AcDbLine
 10
101.2204632118
 20
39.7559243436
 30
0.0
 11
101.277237203
 21
39.7558544264
 31
0.0
  0
LINE
  5
1634
330
216
100
AcDbEntity
  8
0
  6
Continuous
 62
     7
100
AcDbLine
 10
136.5697734545999
 20
39.7550873656
 30
0.0
 11
136.6435220592
 21
39.75496632329999
 31
0.0
  0
LWPOLYLINE
  5
1635
330
216
100
AcDbEntity
  8
0
  6
Continuous
 62
     7
100
AcDbPolyline
 90
        5
 70
     0
 43
0.0
 10
137.04390243
 20
39.7560257234
 10
137.1000356682
 20
39.7559285918
 10
137.1280029042
 20
39.7558766449
 10
137.1549698416
 20
39.7558526498
 10
137.2001167237
 20
39.7558969085
  0
LWPOLYLINE
  5
1636
330
216
100
AcDbEntity
  8
0
  6
Continuous
 62
     7
100
AcDbPolyline
 90
        7
 70
     0
 43
0.0
 10
136.6435220592
 20
39.75496632329999
 10
136.7081580141
 20
39.7548283022
 10
136.7372012834
 20
39.75482566
 10
136.7646096059
 20
39.7549405525
 10
136.7909406036
 20
39.7551590452
 10
136.8165939973
 20
39.7553709554
 10
136.8415259278
 20
39.7555380911
  0
LINE
  5
1637
330
216
100
AcDbEntity
  8
0
  6
Continuous
 62
     7
100
AcDbLine
 10
101.5027087045
 20
39.755952721
 30
0.0
 11
101.5474455561
 21
39.7557893937
 31
0.0
  0
LWPOLYLINE
  5
1638
330
216
100
AcDbEntity
  8
0
  6
Continuous
 62
     7
100
AcDbPolyline
 90
        7
 70
     0
 43
0.0
 10
101.5474455561
 20
39.7557893937
 10
101.5941395624
 20
39.7555639155
 10
101.6187333878
 20
39.7554061447
 10
101.6440674221
 20
39.7552045551
 10
101.6701326391
 20
39.7549773192
 10
101.6971519584
 20
39.7548400047
 10
101.7256335441
 20
39.7548175528
  0
LWPOLYLINE
  5
1639
330
216
100
AcDbEntity
  8
0
  6
Continuous
 62
     7
100
AcDbPolyline
 90
        4
 70
     0
 43
0.0
 10
121.1340599429
 20
16.2549067737
 10
121.1268053317
 20
16.2526314423
 10
121.1191663172
 20
16.2508907609
 10
121.1109454909
 20
16.2497133454
  0
LINE
  5
163A
330
216
100
AcDbEntity
  8
0
  6
Continuous
 62
     7
100
AcDbLine
 10
137.1536270744
 20
39.8354918351
 30
0.0
 11
137.1396702583
 21
39.8367206771
 31
0.0
  0
LWPOLYLINE
  5
163B
330
216
100
AcDbEntity
  8
0
  6
Continuous
 62
     7
100
AcDbPolyline
 90
       14
 70
     0
 43
0.0
 10
134.7294022397
 20
26.2208548274
 10
134.9885059966
 20
27.0608971834
 10
135.2386023104
 20
27.9393788339
 10
135.4824285019
 20
28.8701383466
 10
135.7216791532
 20
29.8668416568
 10
135.9527418457
 20
30.9218416997
 10
136.1655385602
 20
31.9884705258
 10
136.3528090581
 20
33.0162080332
 10
136.5137800101
 20
33.97780835
 10
136.6538477346
 20
34.8825211534
 10
136.7776848534
 20
35.7426318551
 10
136.8890032185
 20
36.570462826
 10
136.990700517
 20
37.3775722813
 10
137.0850446577
 20
38.1745750401
  0
LWPOLYLINE
  5
163C
330
216
100
AcDbEntity
  8
0
  6
Continuous
 62
     7
100
AcDbPolyline
 90
       10
 70
     0
 43
0.0
 10
132.2573191766
 20
20.4896306636
 10
132.5167941741
 20
20.9549016009
 10
132.7833535439
 20
21.4583883106
 10
133.0568105505
 20
22.0043630822
 10
133.3355070604
 20
22.5946759266
 10
133.6175983
 20
23.2308736235
 10
133.9010630728
 20
23.9140531068
 10
134.1830296332
 20
24.6428187817
 10
134.460139276
 20
25.4133028859
 10
134.7294022397
 20
26.2208548274
  0
LWPOLYLINE
  5
163D
330
216
100
AcDbEntity
  8
0
  6
Continuous
 62
     7
100
AcDbPolyline
 90
       13
 70
     0
 43
0.0
 10
128.9692376166
 20
16.0867387687
 10
129.2401393551
 20
16.3694536254
 10
129.5105026148
 20
16.6634517061
 10
129.7745774648
 20
16.96258358
 10
130.0361657067
 20
17.2711098299
 10
130.2994364957
 20
17.594474442
 10
130.5689684563
 20
17.9395714023
 10
130.8494792384
 20
18.3146881591
 10
131.1431801471
 20
18.7260764054
 10
131.4411048669
 20
19.164391625
 10
131.7286166875
 20
19.6091850885
 10
131.9979462707
 20
20.0469882969
 10
132.2573191766
 20
20.4896306636
  0
LINE
  5
163E
330
216
100
AcDbEntity
  8
0
  6
Continuous
 62
     7
100
AcDbLine
 10
128.9692376166
 20
16.0867387687
 30
0.0
 11
128.9692003370999
 21
16.0867169408
 31
0.0
  0
LWPOLYLINE
  5
163F
330
216
100
AcDbEntity
  8
0
  6
Continuous
 62
     7
100
AcDbPolyline
 90
        7
 70
     0
 43
0.0
 10
128.6670493323
 20
15.877248046
 10
128.6971070163
 20
15.8900922576
 10
128.7536983014
 20
15.9188569849
 10
128.8103279862
 20
15.9536744367
 10
128.8665699522
 20
15.9944429607
 10
128.922015717
 20
16.0411501211
 10
128.9692469205
 20
16.0867206771
  0
LWPOLYLINE
  5
1640
330
216
100
AcDbEntity
  8
0
  6
Continuous
 62
     7
100
AcDbPolyline
 90
        3
 70
     0
 43
0.0
 10
137.219105841
 20
39.7117206771
 10
137.2194177544
 20
39.7339509899
 10
137.219666238
 20
39.7559243436
  0
LWPOLYLINE
  5
1641
330
216
100
AcDbEntity
  8
0
  6
Continuous
 62
     7
100
AcDbPolyline
 90
        4
 70
     0
 43
0.0
 10
137.172812614
 20
38.9617206771
 10
137.1959519847
 20
39.2112438493
 10
137.2113875955
 20
39.46134025590001
 10
137.219105841
 20
39.7117206771
  0
LINE
  5
1642
330
216
100
AcDbEntity
  8
0
  6
Continuous
 62
     7
100
AcDbLine
 10
137.0850446577
 20
38.1745750401
 30
0.0
 11
137.1720845409
 21
38.9549951053
 31
0.0
  0
LWPOLYLINE
  5
1643
330
216
100
AcDbEntity
  8
0
  6
Continuous
 62
     7
100
AcDbPolyline
 90
        9
 70
     0
 43
0.0
 10
137.2196662956
 20
39.75592442070001
 10
137.2185537507
 20
39.7700396347
 10
137.21501662
 20
39.7836079563
 10
137.2091647913
 20
39.7963503363
 10
137.2011778843
 20
39.8078754613
 10
137.1913010415
 20
39.8178292872
 10
137.179838074
 20
39.8259055496
 10
137.1671424016
 20
39.8318557644
 10
137.1536270744
 20
39.8354918351
  0
ARC
  5
164D
330
216
100
AcDbEntity
  8
DEFAULT_2
  6
HIDDEN
 62
     7
100
AcDbCircle
 10
121.2020325604
 20
20.3401351219
 30
0.0
 40
0.25
100
AcDbArc
 50
91.90201726209998
 51
134.9999999896
  0
ARC
  5
164E
330
216
100
AcDbEntity
  8
DEFAULT_2
  6
HIDDEN
 62
     7
100
AcDbCircle
 10
120.4915113343
 20
20.3367206771
 30
0.0
 40
0.25
100
AcDbArc
 50
270.0
 51
315.0
  0
ARC
  5
164F
330
216
100
AcDbEntity
  8
DEFAULT_2
  6
HIDDEN
 62
     7
100
AcDbCircle
 10
117.9486181155
 20
20.3367206771
 30
0.0
 40
0.25
100
AcDbArc
 50
225.0
 51
270.0
  0
ARC
  5
1650
330
216
100
AcDbEntity
  8
DEFAULT_2
  6
HIDDEN
 62
     7
100
AcDbCircle
 10
117.2389264176
 20
20.3393055938
 30
0.0
 40
0.25
100
AcDbArc
 50
45.0000000104
 51
88.56241630620001
  0
ARC
  5
1659
330
216
100
AcDbEntity
  8
0
  6
Continuous
 62
     7
100
AcDbCircle
 10
101.3004591963
 20
39.7567206771
 30
0.0
 40
0.08
100
AcDbArc
 50
90.0
 51
180.5703415973
  0
ARC
  5
165A
330
216
100
AcDbEntity
  8
0
  6
Continuous
 62
     7
100
AcDbCircle
 10
137.1396702536
 20
39.7567206771
 30
0.0
 40
0.08
100
AcDbArc
 50
359.4296952813
 51
90.0000000001
  0
ELLIPSE
  5
165B
330
216
100
AcDbEntity
  8
0
  6
Continuous
 62
     7
100
AcDbEllipse
 10
119.2200647249
 20
17.370356058
 30
0.0
 11
1.531249999999999
 21
0.0
 31
0.0
210
0.0
220
0.0
230
1.0
 40
0.6658587822999999
 41
0.1636180951
 42
0.3622777376
  0
ELLIPSE
  5
165C
330
216
100
AcDbEntity
  8
0
  6
Continuous
 62
     7
100
AcDbEllipse
 10
119.2200647249
 20
17.370356058
 30
0.0
 11
1.531249999999999
 21
0.0
 31
0.0
210
0.0
220
0.0
230
1.0
 40
0.6658587822999999
 41
2.779315077099999
 42
2.9779745585
  0
ELLIPSE
  5
165D
330
216
100
AcDbEntity
  8
0
  6
Continuous
 62
     7
100
AcDbEllipse
 10
119.2200647249
 20
17.3439424167
 30
0.0
 11
1.531249999999999
 21
0.0
 31
0.0
210
0.0
220
0.0
230
1.0
 40
0.6658587822999999
 41
0.1636180951
 42
0.4021931885
  0
ELLIPSE
  5
165E
330
216
100
AcDbEntity
  8
0
  6
Continuous
 62
     7
100
AcDbEllipse
 10
119.2200647249
 20
17.3439424167
 30
0.0
 11
1.531249999999999
 21
0.0
 31
0.0
210
0.0
220
0.0
230
1.0
 40
0.6658587822999999
 41
2.7393993606
 42
2.9779745585
  0
ENDSEC
  0
SECTION
  2
OBJECTS
  0
DICTIONARY
  5
C
330
0
100
AcDbDictionary
281
     1
  3
ACAD_COLOR
350
1695
  3
ACAD_DETAILVIEWSTYLE
350
16AF
  3
ACAD_GROUP
350
D
  3
ACAD_LAYOUT
350
1A
  3
ACAD_MATERIAL
350
1663
  3
ACAD_MLEADERSTYLE
350
16AA
  3
ACAD_MLINESTYLE
350
17
  3
ACAD_PLOTSETTINGS
350
19
  3
ACAD_PLOTSTYLENAME
350
E
  3
ACAD_SCALELIST
350
1698
  3
ACAD_SECTIONVIEWSTYLE
350
16AC
  3
ACAD_TABLESTYLE
350
1696
  3
ACAD_VISUALSTYLE
350
167C
  3
ACDB_RECOMPOSE_DATA
350
16B3
  3
AcDbVariableDictionary
350
16F0
  0
DICTIONARY
  5
16B4
330
8
100
AcDbDictionary
280
     1
281
     1
  0
DICTIONARY
  5
1703
330
10
100
AcDbDictionary
280
     1
281
     1
  3
ADSK_XREC_LAYER_RECONCILED
360
1704
  0
DICTIONARY
  5
1705
330
1FA
100
AcDbDictionary
280
     1
281
     1
  3
ADSK_XREC_LAYER_RECONCILED
360
1706
  0
DICTIONARY
  5
1707
330
1FB
100
AcDbDictionary
280
     1
281
     1
  3
ADSK_XREC_LAYER_RECONCILED
360
1708
  0
DICTIONARY
  5
1709
330
1FC
100
AcDbDictionary
280
     1
281
     1
  3
ADSK_XREC_LAYER_RECONCILED
360
170A
  0
DICTIONARY
  5
170B
330
1FD
100
AcDbDictionary
280
     1
281
     1
  3
ADSK_XREC_LAYER_RECONCILED
360
170C
  0
DICTIONARY
  5
170D
330
1FE
100
AcDbDictionary
280
     1
281
     1
  3
ADSK_XREC_LAYER_RECONCILED
360
170E
  0
DICTIONARY
  5
170F
330
1FF
100
AcDbDictionary
280
     1
281
     1
  3
ADSK_XREC_LAYER_RECONCILED
360
1710
  0
DICTIONARY
  5
1711
330
200
100
AcDbDictionary
280
     1
281
     1
  3
ADSK_XREC_LAYER_RECONCILED
360
1712
  0
DICTIONARY
  5
1713
330
201
100
AcDbDictionary
280
     1
281
     1
  3
ADSK_XREC_LAYER_RECONCILED
360
1714
  0
DICTIONARY
  5
1715
330
202
100
AcDbDictionary
280
     1
281
     1
  3
ADSK_XREC_LAYER_RECONCILED
360
1716
  0
DICTIONARY
  5
1717
330
203
100
AcDbDictionary
280
     1
281
     1
  3
ADSK_XREC_LAYER_RECONCILED
360
1718
  0
DICTIONARY
  5
1719
330
204
100
AcDbDictionary
280
     1
281
     1
  3
ADSK_XREC_LAYER_RECONCILED
360
171A
  0
DICTIONARY
  5
171B
330
205
100
AcDbDictionary
280
     1
281
     1
  3
ADSK_XREC_LAYER_RECONCILED
360
171C
  0
DICTIONARY
  5
171D
330
206
100
AcDbDictionary
280
     1
281
     1
  3
ADSK_XREC_LAYER_RECONCILED
360
171E
  0
DICTIONARY
  5
171F
330
207
100
AcDbDictionary
280
     1
281
     1
  3
ADSK_XREC_LAYER_RECONCILED
360
1720
  0
DICTIONARY
  5
1721
330
208
100
AcDbDictionary
280
     1
281
     1
  3
ADSK_XREC_LAYER_RECONCILED
360
1722
  0
DICTIONARY
  5
1723
330
209
100
AcDbDictionary
280
     1
281
     1
  3
ADSK_XREC_LAYER_RECONCILED
360
1724
  0
DICTIONARY
  5
1725
330
20A
100
AcDbDictionary
280
     1
281
     1
  3
ADSK_XREC_LAYER_RECONCILED
360
1726
  0
DICTIONARY
  5
1727
330
20B
100
AcDbDictionary
280
     1
281
     1
  3
ADSK_XREC_LAYER_RECONCILED
360
1728
  0
DICTIONARY
  5
1729
330
20C
100
AcDbDictionary
280
     1
281
     1
  3
ADSK_XREC_LAYER_RECONCILED
360
172A
  0
DICTIONARY
  5
172B
330
20D
100
AcDbDictionary
280
     1
281
     1
  3
ADSK_XREC_LAYER_RECONCILED
360
172C
  0
DICTIONARY
  5
1695
102
{ACAD_REACTORS
330
C
102
}
330
C
100
AcDbDictionary
281
     1
  0
DICTIONARY
  5
16AF
102
{ACAD_REACTORS
330
C
102
}
330
C
100
AcDbDictionary
281
     1
  3
Imperial24
350
16B0
  0
DICTIONARY
  5
D
102
{ACAD_REACTORS
330
C
102
}
330
C
100
AcDbDictionary
281
     1
  0
DICTIONARY
  5
1A
102
{ACAD_REACTORS
330
C
102
}
330
C
100
AcDbDictionary
281
     1
  3
Layout1
350
1660
  3
Model
350
165F
  0
DICTIONARY
  5
1663
102
{ACAD_REACTORS
330
C
102
}
330
C
100
AcDbDictionary
281
     1
  3
ByBlock
350
166C
  3
ByLayer
350
1664
  3
Global
350
1674
  0
DICTIONARY
  5
16AA
102
{ACAD_REACTORS
330
C
102
}
330
C
100
AcDbDictionary
281
     1
  3
Standard
350
16AB
  0
DICTIONARY
  5
17
102
{ACAD_REACTORS
330
C
102
}
330
C
100
AcDbDictionary
281
     1
  3
Standard
350
18
  0
DICTIONARY
  5
19
102
{ACAD_REACTORS
330
C
102
}
330
C
100
AcDbDictionary
281
     1
  0
ACDBDICTIONARYWDFLT
  5
E
102
{ACAD_REACTORS
330
C
102
}
330
C
100
AcDbDictionary
281
     1
  3
Normal
350
F
100
AcDbDictionaryWithDefault
340
F
  0
DICTIONARY
  5
1698
102
{ACAD_REACTORS
330
C
102
}
330
C
100
AcDbDictionary
281
     1
  3
A0
350
1699
  3
A1
350
169A
  3
A2
350
169B
  3
A3
350
169C
  3
A4
350
169D
  3
A5
350
169E
  3
A6
350
169F
  3
A7
350
16A0
  3
A8
350
16A1
  3
A9
350
16A2
  3
B0
350
16A3
  3
B1
350
16A4
  3
B2
350
16A5
  3
B3
350
16A6
  3
B4
350
16A7
  3
B5
350
16A8
  3
B6
350
16A9
  0
DICTIONARY
  5
16AC
102
{ACAD_REACTORS
330
C
102
}
330
C
100
AcDbDictionary
281
     1
  3
Imperial24
350
16AE
  0
DICTIONARY
  5
1696
102
{ACAD_REACTORS
330
C
102
}
330
C
100
AcDbDictionary
281
     1
  3
Standard
350
1697
  0
DICTIONARY
  5
167C
102
{ACAD_REACTORS
330
C
102
}
330
C
100
AcDbDictionary
281
     1
  3
2dWireframe
350
1682
  3
3D Hidden
350
16FC
  3
3dWireframe
350
16FB
  3
Basic
350
1681
  3
Brighten
350
1688
  3
ColorChange
350
168C
  3
Conceptual
350
1685
  3
Dim
350
1687
  3
EdgeColorOff
350
1694
  3
Facepattern
350
168B
  3
Flat
350
167D
  3
FlatWithEdges
350
167E
  3
Gouraud
350
167F
  3
GouraudWithEdges
350
1680
  3
Hidden
350
1684
  3
JitterOff
350
1692
  3
Linepattern
350
168A
  3
OverhangOff
350
1693
  3
Realistic
350
1686
  3
Shaded
350
1691
  3
Shaded with edges
350
1690
  3
Shades of Gray
350
168D
  3
Sketchy
350
168E
  3
Thicken
350
1689
  3
Wireframe
350
1683
  3
X-Ray
350
168F
  0
XRECORD
  5
16B3
102
{ACAD_REACTORS
330
C
102
}
330
C
100
AcDbXrecord
280
     1
 90
        1
330
1697
  0
DICTIONARY
  5
16F0
102
{ACAD_REACTORS
330
C
102
}
330
C
100
AcDbDictionary
281
     1
  3
CANNOSCALE
350
16F5
  3
CMLEADERSTYLE
350
16F2
  3
CTABLESTYLE
350
16F1
  3
CVIEWDETAILSTYLE
350
16F3
  3
CVIEWSECTIONSTYLE
350
16F4
  3
DIMASSOC
350
16F8
  3
INDEXCTL
350
16F7
  3
SORTENTS
350
16F6
  3
XCLIPFRAME
350
16F9
  0
XRECORD
  5
1704
102
{ACAD_REACTORS
330
1703
102
}
330
1703
100
AcDbXrecord
280
     1
290
     1
  0
XRECORD
  5
1706
102
{ACAD_REACTORS
330
1705
102
}
330
1705
100
AcDbXrecord
280
     1
290
     1
  0
XRECORD
  5
1708
102
{ACAD_REACTORS
330
1707
102
}
330
1707
100
AcDbXrecord
280
     1
290
     1
  0
XRECORD
  5
170A
102
{ACAD_REACTORS
330
1709
102
}
330
1709
100
AcDbXrecord
280
     1
290
     1
  0
XRECORD
  5
170C
102
{ACAD_REACTORS
330
170B
102
}
330
170B
100
AcDbXrecord
280
     1
290
     1
  0
XRECORD
  5
170E
102
{ACAD_REACTORS
330
170D
102
}
330
170D
100
AcDbXrecord
280
     1
290
     1
  0
XRECORD
  5
1710
102
{ACAD_REACTORS
330
170F
102
}
330
170F
100
AcDbXrecord
280
     1
290
     1
  0
XRECORD
  5
1712
102
{ACAD_REACTORS
330
1711
102
}
330
1711
100
AcDbXrecord
280
     1
290
     1
  0
XRECORD
  5
1714
102
{ACAD_REACTORS
330
1713
102
}
330
1713
100
AcDbXrecord
280
     1
290
     1
  0
XRECORD
  5
1716
102
{ACAD_REACTORS
330
1715
102
}
330
1715
100
AcDbXrecord
280
     1
290
     1
  0
XRECORD
  5
1718
102
{ACAD_REACTORS
330
1717
102
}
330
1717
100
AcDbXrecord
280
     1
290
     1
  0
XRECORD
  5
171A
102
{ACAD_REACTORS
330
1719
102
}
330
1719
100
AcDbXrecord
280
     1
290
     1
  0
XRECORD
  5
171C
102
{ACAD_REACTORS
330
171B
102
}
330
171B
100
AcDbXrecord
280
     1
290
     1
  0
XRECORD
  5
171E
102
{ACAD_REACTORS
330
171D
102
}
330
171D
100
AcDbXrecord
280
     1
290
     1
  0
XRECORD
  5
1720
102
{ACAD_REACTORS
330
171F
102
}
330
171F
100
AcDbXrecord
280
     1
290
     1
  0
XRECORD
  5
1722
102
{ACAD_REACTORS
330
1721
102
}
330
1721
100
AcDbXrecord
280
     1
290
     1
  0
XRECORD
  5
1724
102
{ACAD_REACTORS
330
1723
102
}
330
1723
100
AcDbXrecord
280
     1
290
     1
  0
XRECORD
  5
1726
102
{ACAD_REACTORS
330
1725
102
}
330
1725
100
AcDbXrecord
280
     1
290
     1
  0
XRECORD
  5
1728
102
{ACAD_REACTORS
330
1727
102
}
330
1727
100
AcDbXrecord
280
     1
290
     1
  0
XRECORD
  5
172A
102
{ACAD_REACTORS
330
1729
102
}
330
1729
100
AcDbXrecord
280
     1
290
     1
  0
XRECORD
  5
172C
102
{ACAD_REACTORS
330
172B
102
}
330
172B
100
AcDbXrecord
280
     1
290
     1
  0
ACAD_PROXY_OBJECT
  5
16B0
102
{ACAD_REACTORS
330
16AF
102
}
330
16AF
100
AcDbProxyObject
 90
      499
 91
      509
 95
   983063
 70
     0
 93
     1261
310
90B496D70657269616C323400481E5C0F42F5A8DC671FC056BD1B81E856B9F81E5C0F42F5A8DC671FA33E5C0F42F5A8DC671FA02000000000000741FA02AD929E2E20B1AB30B9102B34B2BBAA3CB832902E33101112BA3198911F1290129E2E20B1AB30B9102B34B2BBA232BA30B4B624B21F12AE2829A1A0A62290129E2E2
310
0B1AB30B9102B34B2BBA9B1B0B632902E33101112B9B7111F1280233A33804
340
11
340
0
340
16
340
11
340
16
340
16
 94
        0
  0
LAYOUT
  5
1660
102
{ACAD_REACTORS
330
1A
102
}
330
1A
100
AcDbPlotSettings
  1

  2
none_device
  4
ANSI_B_(17.00_x_11.00_Inches)
  6

 40
0.0
 41
0.0
 42
0.0
 43
0.0
 44
431.8
 45
279.4
 46
0.0
 47
0.0
 48
0.0
 49
0.0
140
0.0
141
0.0
142
1.0
143
1.0
 70
     0
 72
     0
 73
     0
 74
     0
  7

 75
     0
147
1.0
 76
     0
 77
     2
 78
   300
148
0.0
149
0.0
100
AcDbLayout
  1
Layout1
 70
     1
 71
     1
 10
0.0
 20
0.0
 11
12.0
 21
9.0
 12
0.0
 22
0.0
 32
0.0
 14
1.000000000000000E+20
 24
1.000000000000000E+20
 34
1.000000000000000E+20
 15
-1.000000000000000E+20
 25
-1.000000000000000E+20
 35
-1.000000000000000E+20
146
0.0
 13
0.0
 23
0.0
 33
0.0
 16
1.0
 26
0.0
 36
0.0
 17
0.0
 27
1.0
 37
0.0
 76
     0
330
217
  0
LAYOUT
  5
165F
102
{ACAD_REACTORS
330
1A
102
}
330
1A
100
AcDbPlotSettings
  1

  2
none_device
  4
ANSI_B_(17.00_x_11.00_Inches)
  6

 40
0.0
 41
0.0
 42
0.0
 43
0.0
 44
431.8
 45
279.4
 46
0.0
 47
0.0
 48
0.0
 49
0.0
140
0.0
141
0.0
142
1.0
143
1.0
 70
  1024
 72
     0
 73
     0
 74
     0
  7

 75
     0
147
1.0
 76
     0
 77
     2
 78
   300
148
0.0
149
0.0
100
AcDbLayout
  1
Model
 70
     0
 71
     0
 10
0.0
 20
0.0
 11
17.0
 21
11.0
 12
0.0
 22
0.0
 32
0.0
 14
0.0
 24
0.0
 34
0.0
 15
0.0
 25
0.0
 35
0.0
146
0.0
 13
0.0
 23
0.0
 33
0.0
 16
1.0
 26
0.0
 36
0.0
 17
0.0
 27
1.0
 37
0.0
 76
     0
330
216
331
1F4
  0
MATERIAL
  5
166C
102
{ACAD_XDICTIONARY
360
166D
102
}
102
{ACAD_REACTORS
330
1663
102
}
330
1663
100
AcDbMaterial
  1
ByBlock
 72
     0
 43
0.0208333333333333
 43
0.0
 43
0.0
 43
0.0
 43
0.0
 43
0.0208333333333333
 43
0.0
 43
0.0
 43
0.0
 43
0.0
 43
1.0
 43
0.0
 43
0.0
 43
0.0
 43
0.0
 43
1.0
 77
     0
 47
0.0208333333333333
 47
0.0
 47
0.0
 47
0.0
 47
0.0
 47
0.0208333333333333
 47
0.0
 47
0.0
 47
0.0
 47
0.0
 47
1.0
 47
0.0
 47
0.0
 47
0.0
 47
0.0
 47
1.0
171
     0
 49
0.0208333333333333
 49
0.0
 49
0.0
 49
0.0
 49
0.0
 49
0.0208333333333333
 49
0.0
 49
0.0
 49
0.0
 49
0.0
 49
1.0
 49
0.0
 49
0.0
 49
0.0
 49
0.0
 49
1.0
175
     0
142
0.0208333333333333
142
0.0
142
0.0
142
0.0
142
0.0
142
0.0208333333333333
142
0.0
142
0.0
142
0.0
142
0.0
142
1.0
142
0.0
142
0.0
142
0.0
142
0.0
142
1.0
179
     0
144
0.0208333333333333
144
0.0
144
0.0
144
0.0
144
0.0
144
0.0208333333333333
144
0.0
144
0.0
144
0.0
144
0.0
144
1.0
144
0.0
144
0.0
144
0.0
144
0.0
144
1.0
147
0.0208333333333333
147
0.0
147
0.0
147
0.0
147
0.0
147
0.0208333333333333
147
0.0
147
0.0
147
0.0
147
0.0
147
1.0
147
0.0
147
0.0
147
0.0
147
0.0
147
1.0
  0
MATERIAL
  5
1664
102
{ACAD_XDICTIONARY
360
1665
102
}
102
{ACAD_REACTORS
330
1663
102
}
330
1663
100
AcDbMaterial
  1
ByLayer
 72
     0
 43
0.0208333333333333
 43
0.0
 43
0.0
 43
0.0
 43
0.0
 43
0.0208333333333333
 43
0.0
 43
0.0
 43
0.0
 43
0.0
 43
1.0
 43
0.0
 43
0.0
 43
0.0
 43
0.0
 43
1.0
 77
     0
 47
0.0208333333333333
 47
0.0
 47
0.0
 47
0.0
 47
0.0
 47
0.0208333333333333
 47
0.0
 47
0.0
 47
0.0
 47
0.0
 47
1.0
 47
0.0
 47
0.0
 47
0.0
 47
0.0
 47
1.0
171
     0
 49
0.0208333333333333
 49
0.0
 49
0.0
 49
0.0
 49
0.0
 49
0.0208333333333333
 49
0.0
 49
0.0
 49
0.0
 49
0.0
 49
1.0
 49
0.0
 49
0.0
 49
0.0
 49
0.0
 49
1.0
175
     0
142
0.0208333333333333
142
0.0
142
0.0
142
0.0
142
0.0
142
0.0208333333333333
142
0.0
142
0.0
142
0.0
142
0.0
142
1.0
142
0.0
142
0.0
142
0.0
142
0.0
142
1.0
179
     0
144
0.0208333333333333
144
0.0
144
0.0
144
0.0
144
0.0
144
0.0208333333333333
144
0.0
144
0.0
144
0.0
144
0.0
144
1.0
144
0.0
144
0.0
144
0.0
144
0.0
144
1.0
147
0.0208333333333333
147
0.0
147
0.0
147
0.0
147
0.0
147
0.0208333333333333
147
0.0
147
0.0
147
0.0
147
0.0
147
1.0
147
0.0
147
0.0
147
0.0
147
0.0
147
1.0
  0
MATERIAL
  5
1674
102
{ACAD_XDICTIONARY
360
1675
102
}
102
{ACAD_REACTORS
330
1663
102
}
330
1663
100
AcDbMaterial
  1
Global
 72
     0
 43
0.0208333333333333
 43
0.0
 43
0.0
 43
0.0
 43
0.0
 43
0.0208333333333333
 43
0.0
 43
0.0
 43
0.0
 43
0.0
 43
1.0
 43
0.0
 43
0.0
 43
0.0
 43
0.0
 43
1.0
 77
     0
 47
0.0208333333333333
 47
0.0
 47
0.0
 47
0.0
 47
0.0
 47
0.0208333333333333
 47
0.0
 47
0.0
 47
0.0
 47
0.0
 47
1.0
 47
0.0
 47
0.0
 47
0.0
 47
0.0
 47
1.0
171
     0
 49
0.0208333333333333
 49
0.0
 49
0.0
 49
0.0
 49
0.0
 49
0.0208333333333333
 49
0.0
 49
0.0
 49
0.0
 49
0.0
 49
1.0
 49
0.0
 49
0.0
 49
0.0
 49
0.0
 49
1.0
175
     0
142
0.0208333333333333
142
0.0
142
0.0
142
0.0
142
0.0
142
0.0208333333333333
142
0.0
142
0.0
142
0.0
142
0.0
142
1.0
142
0.0
142
0.0
142
0.0
142
0.0
142
1.0
179
     0
144
0.0208333333333333
144
0.0
144
0.0
144
0.0
144
0.0
144
0.0208333333333333
144
0.0
144
0.0
144
0.0
144
0.0
144
1.0
144
0.0
144
0.0
144
0.0
144
0.0
144
1.0
147
0.0208333333333333
147
0.0
147
0.0
147
0.0
147
0.0
147
0.0208333333333333
147
0.0
147
0.0
147
0.0
147
0.0
147
1.0
147
0.0
147
0.0
147
0.0
147
0.0
147
1.0
  0
MLEADERSTYLE
  5
16AB
102
{ACAD_REACTORS
330
16AA
102
}
330
16AA
100
AcDbMLeaderStyle
170
     2
171
     1
172
     0
 90
        2
 40
0.0
 41
0.0
173
     1
 91
-1056964608
340
14
 92
       -2
290
     1
 42
0.09
291
     1
 43
0.36
  3
Standard
 44
0.18
300

342
11
174
     1
178
     6
175
     1
176
     0
 93
-1056964608
 45
0.18
292
     0
297
     0
 46
0.18
 94
-1056964608
 47
1.0
 49
1.0
140
1.0
293
     1
141
0.0
294
     1
177
     0
142
1.0
295
     0
296
     0
143
0.125
1001
ACAD_MLEADERVER
1070
     2
  0
MLINESTYLE
  5
18
102
{ACAD_REACTORS
330
17
102
}
330
17
100
AcDbMlineStyle
  2
STANDARD
 70
     0
  3

 62
   256
 51
90.0
 52
90.0
 71
     2
 49
0.5
 62
   256
  6
BYLAYER
 49
-0.5
 62
   256
  6
BYLAYER
  0
ACDBPLACEHOLDER
  5
F
102
{ACAD_REACTORS
330
E
102
}
330
E
  0
SCALE
  5
1699
102
{ACAD_REACTORS
330
1698
102
}
330
1698
100
AcDbScale
 70
     0
300
1:1
140
1.0
141
1.0
290
     1
  0
SCALE
  5
169A
102
{ACAD_REACTORS
330
1698
102
}
330
1698
100
AcDbScale
 70
     0
300
1/128" = 1'-0"
140
0.0078125
141
12.0
290
     0
  0
SCALE
  5
169B
102
{ACAD_REACTORS
330
1698
102
}
330
1698
100
AcDbScale
 70
     0
300
1/64" = 1'-0"
140
0.015625
141
12.0
290
     0
  0
SCALE
  5
169C
102
{ACAD_REACTORS
330
1698
102
}
330
1698
100
AcDbScale
 70
     0
300
1/32" = 1'-0"
140
0.03125
141
12.0
290
     0
  0
SCALE
  5
169D
102
{ACAD_REACTORS
330
1698
102
}
330
1698
100
AcDbScale
 70
     0
300
1/16" = 1'-0"
140
0.0625
141
12.0
290
     0
  0
SCALE
  5
169E
102
{ACAD_REACTORS
330
1698
102
}
330
1698
100
AcDbScale
 70
     0
300
3/32" = 1'-0"
140
0.09375
141
12.0
290
     0
  0
SCALE
  5
169F
102
{ACAD_REACTORS
330
1698
102
}
330
1698
100
AcDbScale
 70
     0
300
1/8" = 1'-0"
140
0.125
141
12.0
290
     0
  0
SCALE
  5
16A0
102
{ACAD_REACTORS
330
1698
102
}
330
1698
100
AcDbScale
 70
     0
300
3/16" = 1'-0"
140
0.1875
141
12.0
290
     0
  0
SCALE
  5
16A1
102
{ACAD_REACTORS
330
1698
102
}
330
1698
100
AcDbScale
 70
     0
300
1/4" = 1'-0"
140
0.25
141
12.0
290
     0
  0
SCALE
  5
16A2
102
{ACAD_REACTORS
330
1698
102
}
330
1698
100
AcDbScale
 70
     0
300
3/8" = 1'-0"
140
0.375
141
12.0
290
     0
  0
SCALE
  5
16A3
102
{ACAD_REACTORS
330
1698
102
}
330
1698
100
AcDbScale
 70
     0
300
1/2" = 1'-0"
140
0.5
141
12.0
290
     0
  0
SCALE
  5
16A4
102
{ACAD_REACTORS
330
1698
102
}
330
1698
100
AcDbScale
 70
     0
300
3/4" = 1'-0"
140
0.75
141
12.0
290
     0
  0
SCALE
  5
16A5
102
{ACAD_REACTORS
330
1698
102
}
330
1698
100
AcDbScale
 70
     0
300
1" = 1'-0"
140
1.0
141
12.0
290
     0
  0
SCALE
  5
16A6
102
{ACAD_REACTORS
330
1698
102
}
330
1698
100
AcDbScale
 70
     0
300
1-1/2" = 1'-0"
140
1.5
141
12.0
290
     0
  0
SCALE
  5
16A7
102
{ACAD_REACTORS
330
1698
102
}
330
1698
100
AcDbScale
 70
     0
300
3" = 1'-0"
140
3.0
141
12.0
290
     0
  0
SCALE
  5
16A8
102
{ACAD_REACTORS
330
1698
102
}
330
1698
100
AcDbScale
 70
     0
300
6" = 1'-0"
140
6.0
141
12.0
290
     0
  0
SCALE
  5
16A9
102
{ACAD_REACTORS
330
1698
102
}
330
1698
100
AcDbScale
 70
     0
300
1'-0" = 1'-0"
140
12.0
141
12.0
290
     0
  0
ACAD_PROXY_OBJECT
  5
16AE
102
{ACAD_REACTORS
330
16AC
102
}
330
16AC
100
AcDbProxyObject
 90
      499
 91
      508
 95
   983063
 70
     0
 93
     2303
310
90B496D70657269616C3234004A765C0F42F5A8DC671FE5C0F42F5A8DC671FA229258409E5840A25840A65840B05840B4005C0F42F5A8DC6F1FA33A659703D0BD6A3719C7E5C0F42F5A8DC671FE5C0F42F5A8DC671FA02000000000000741FA02BE929E2E20B1AB30B9102B34B2BBAA3CB832902E33101112BA3198911F129
310
0129E2E20B1AB30B9102B34B2BBA9B2B1BA34B7B729BA30B93A24B21F1296929E2E20B1AB30B9102B34B2BBA9B2B1BA34B7B722B73224B21F12AE2829A1A0A62290129E2E20B1AB30B9102B34B2BBA9B1B0B632902E33101112B9B7111F128060080A0E829CA692666200C206056BD1B81E85639FA0320D0305A88A9F643F2
310
7E32B9969C2960E81F87FA0718D4DE3E87E32B9969C2960E85F9E5129FC49EA5FA7E
340
11
340
0
340
0
340
16AD
340
16
340
11
 94
        0
  0
TABLESTYLE
  5
1697
102
{ACAD_XDICTIONARY
360
16B1
102
}
102
{ACAD_REACTORS
330
1696
102
}
330
1696
100
AcDbTableStyle
  3
Standard
 70
     0
 71
     0
 40
0.06
 41
0.06
280
     0
281
     0
  7
STANDARD
140
0.18
170
     2
 62
     0
 63
     7
283
     0
274
    -2
284
     1
 64
     0
275
    -2
285
     1
 65
     0
276
    -2
286
     1
 66
     0
277
    -2
287
     1
 67
     0
278
    -2
288
     1
 68
     0
279
    -2
289
     1
 69
     0
  7
STANDARD
140
0.25
170
     5
 62
     0
 63
     7
283
     0
274
    -2
284
     1
 64
     0
275
    -2
285
     1
 65
     0
276
    -2
286
     1
 66
     0
277
    -2
287
     1
 67
     0
278
    -2
288
     1
 68
     0
279
    -2
289
     1
 69
     0
  7
STANDARD
140
0.18
170
     5
 62
     0
 63
     7
283
     0
274
    -2
284
     1
 64
     0
275
    -2
285
     1
 65
     0
276
    -2
286
     1
 66
     0
277
    -2
287
     1
 67
     0
278
    -2
288
     1
 68
     0
279
    -2
289
     1
 69
     0
  0
VISUALSTYLE
  5
1682
102
{ACAD_XDICTIONARY
360
16C8
102
}
102
{ACAD_REACTORS
330
167C
102
}
330
167C
100
AcDbVisualStyle
  2
2dWireframe
 70
     4
 71
     0
 72
     2
 73
     0
 90
        0
 40
-0.6
 41
-30.0
 62
     5
 63
     7
 74
     1
 91
        4
 64
     7
 65
   257
 75
     1
175
     1
 42
1.0
 92
        0
 66
   257
 43
1.0
 76
     1
 77
     6
 78
     2
 67
     7
 79
     5
170
     0
171
     0
290
     0
174
     0
 93
        1
 44
0.0
173
     0
291
     0
 45
0.0
1001
ACAD
1000
AcDbSavedByObjectVersion
1070
     0
  0
VISUALSTYLE
  5
16FC
102
{ACAD_REACTORS
330
167C
102
}
330
167C
100
AcDbVisualStyle
  2
3D Hidden
 70
     6
 71
     1
 72
     2
 73
     2
 90
        0
 40
-0.6
 41
-30.0
 62
     5
 63
     7
421
 16777215
 74
     2
 91
        2
 64
     7
 65
   257
 75
     2
175
     1
 42
40.0
 92
        0
 66
   257
 43
1.0
 76
     1
 77
     6
 78
     2
 67
     7
 79
     3
170
     0
171
     0
290
     0
174
     0
 93
        1
 44
0.0
173
     0
291
     0
 45
0.0
1001
ACAD
1000
AcDbSavedByObjectVersion
1070
     0
  0
VISUALSTYLE
  5
16FB
102
{ACAD_REACTORS
330
167C
102
}
330
167C
100
AcDbVisualStyle
  2
3dWireframe
 70
     5
 71
     0
 72
     2
 73
     0
 90
        0
 40
-0.6
 41
-30.0
 62
     5
 63
     7
421
 16777215
 74
     1
 91
        4
 64
     7
 65
   257
 75
     1
175
     1
 42
1.0
 92
        0
 66
   257
 43
1.0
 76
     1
 77
     6
 78
     2
 67
     7
 79
     5
170
     0
171
     0
290
     0
174
     0
 93
        1
 44
0.0
173
     0
291
     0
 45
0.0
1001
ACAD
1000
AcDbSavedByObjectVersion
1070
     0
  0
VISUALSTYLE
  5
1681
102
{ACAD_XDICTIONARY
360
16C6
102
}
102
{ACAD_REACTORS
330
167C
102
}
330
167C
100
AcDbVisualStyle
  2
Basic
 70
     7
 71
     1
 72
     0
 73
     1
 90
        0
 40
-0.6
 41
-30.0
 62
     5
 63
     7
 74
     0
 91
        4
 64
     7
 65
   257
 75
     1
175
     1
 42
1.0
 92
        8
 66
     7
 43
1.0
 76
     1
 77
     6
 78
     2
 67
     7
 79
     5
170
     0
171
     0
290
     0
174
     0
 93
        1
 44
0.0
173
     0
291
     1
 45
0.0
1001
ACAD
1000
AcDbSavedByObjectVersion
1070
     0
  0
VISUALSTYLE
  5
1688
102
{ACAD_XDICTIONARY
360
16D4
102
}
102
{ACAD_REACTORS
330
167C
102
}
330
167C
100
AcDbVisualStyle
  2
Brighten
 70
    12
 71
     2
 72
     2
 73
     0
 90
        0
 40
-0.6
 41
-30.0
 62
     5
 63
     7
 74
     1
 91
        4
 64
     7
 65
   257
 75
     1
175
     1
 42
1.0
 92
        8
 66
     7
 43
1.0
 76
     1
 77
     6
 78
     2
 67
     7
 79
     5
170
     0
171
     0
290
     0
174
     0
 93
        1
 44
50.0
173
     0
291
     1
 45
0.0
1001
ACAD
1000
AcDbSavedByObjectVersion
1070
     0
  0
VISUALSTYLE
  5
168C
102
{ACAD_XDICTIONARY
360
16DC
102
}
102
{ACAD_REACTORS
330
167C
102
}
330
167C
100
AcDbVisualStyle
  2
ColorChange
 70
    16
 71
     2
 72
     2
 73
     3
 90
        0
 40
-0.6
 41
-30.0
 62
     5
 63
     8
 74
     1
 91
        4
 64
     7
 65
   257
 75
     1
175
     1
 42
1.0
 92
        8
 66
     8
 43
1.0
 76
     1
 77
     6
 78
     2
 67
     7
 79
     5
170
     0
171
     0
290
     0
174
     0
 93
        1
 44
0.0
173
     0
291
     1
 45
0.0
1001
ACAD
1000
AcDbSavedByObjectVersion
1070
     0
  0
VISUALSTYLE
  5
1685
102
{ACAD_XDICTIONARY
360
16CE
102
}
102
{ACAD_REACTORS
330
167C
102
}
330
167C
100
AcDbVisualStyle
  2
Conceptual
 70
     9
 71
     3
 72
     2
 73
     0
 90
        0
 40
-0.6
 41
-30.0
 62
     5
 63
     7
 74
     2
 91
        2
 64
     7
 65
   257
 75
     1
175
     1
 42
179.0
 92
        8
 66
     7
 43
1.0
 76
     1
 77
     6
 78
     2
 67
     7
 79
     3
170
     0
171
     0
290
     0
174
     0
 93
        1
 44
0.0
173
     0
291
     0
 45
0.0
1001
ACAD
1000
AcDbSavedByObjectVersion
1070
     0
  0
VISUALSTYLE
  5
1687
102
{ACAD_XDICTIONARY
360
16D2
102
}
102
{ACAD_REACTORS
330
167C
102
}
330
167C
100
AcDbVisualStyle
  2
Dim
 70
    11
 71
     2
 72
     2
 73
     0
 90
        0
 40
-0.6
 41
-30.0
 62
     5
 63
     7
 74
     1
 91
        4
 64
     7
 65
   257
 75
     1
175
     1
 42
1.0
 92
        8
 66
     7
 43
1.0
 76
     1
 77
     6
 78
     2
 67
     7
 79
     5
170
     0
171
     0
290
     0
174
     0
 93
        1
 44
-50.0
173
     0
291
     1
 45
0.0
1001
ACAD
1000
AcDbSavedByObjectVersion
1070
     0
  0
VISUALSTYLE
  5
1694
102
{ACAD_XDICTIONARY
360
16EC
102
}
102
{ACAD_REACTORS
330
167C
102
}
330
167C
100
AcDbVisualStyle
  2
EdgeColorOff
 70
    22
 71
     2
 72
     2
 73
     0
 90
        0
 40
-0.6
 41
-30.0
 62
     5
 63
     7
 74
     1
 91
        4
 64
     7
 65
   257
 75
     1
175
     1
 42
1.0
 92
        8
 66
     7
 43
1.0
 76
     1
 77
     6
 78
     2
 67
     7
 79
     5
170
     0
171
     0
290
     0
174
     0
 93
        1
 44
0.0
173
     0
291
     1
 45
0.0
1001
ACAD
1000
AcDbSavedByObjectVersion
1070
     0
  0
VISUALSTYLE
  5
168B
102
{ACAD_XDICTIONARY
360
16DA
102
}
102
{ACAD_REACTORS
330
167C
102
}
330
167C
100
AcDbVisualStyle
  2
Facepattern
 70
    15
 71
     2
 72
     2
 73
     0
 90
        0
 40
-0.6
 41
-30.0
 62
     5
 63
     7
 74
     1
 91
        4
 64
     7
 65
   257
 75
     1
175
     1
 42
1.0
 92
        8
 66
     7
 43
1.0
 76
     1
 77
     6
 78
     2
 67
     7
 79
     5
170
     0
171
     0
290
     0
174
     0
 93
        1
 44
0.0
173
     0
291
     1
 45
0.0
1001
ACAD
1000
AcDbSavedByObjectVersion
1070
     0
  0
VISUALSTYLE
  5
167D
102
{ACAD_XDICTIONARY
360
16BE
102
}
102
{ACAD_REACTORS
330
167C
102
}
330
167C
100
AcDbVisualStyle
  2
Flat
 70
     0
 71
     2
 72
     1
 73
     1
 90
        2
 40
-0.6
 41
30.0
 62
     5
 63
     7
 74
     0
 91
        0
 64
     7
 65
   257
 75
     1
175
     1
 42
1.0
 92
        8
 66
     7
 43
1.0
 76
     1
 77
     6
 78
     2
 67
     7
 79
     5
170
     0
171
     0
290
     0
174
     0
 93
       13
 44
0.0
173
     0
291
     1
 45
0.0
1001
ACAD
1000
AcDbSavedByObjectVersion
1070
     0
  0
VISUALSTYLE
  5
167E
102
{ACAD_XDICTIONARY
360
16C0
102
}
102
{ACAD_REACTORS
330
167C
102
}
330
167C
100
AcDbVisualStyle
  2
FlatWithEdges
 70
     1
 71
     2
 72
     1
 73
     1
 90
        2
 40
-0.6
 41
30.0
 62
     5
 63
     7
 74
     1
 91
        0
 64
     7
 65
   257
 75
     1
175
     1
 42
1.0
 92
        0
 66
   257
 43
1.0
 76
     1
 77
     6
 78
     2
 67
     7
 79
     5
170
     0
171
     0
290
     0
174
     0
 93
       13
 44
0.0
173
     0
291
     1
 45
0.0
1001
ACAD
1000
AcDbSavedByObjectVersion
1070
     0
  0
VISUALSTYLE
  5
167F
102
{ACAD_XDICTIONARY
360
16C2
102
}
102
{ACAD_REACTORS
330
167C
102
}
330
167C
100
AcDbVisualStyle
  2
Gouraud
 70
     2
 71
     2
 72
     2
 73
     1
 90
        2
 40
-0.6
 41
30.0
 62
     5
 63
     7
 74
     0
 91
        0
 64
     7
 65
   257
 75
     1
175
     1
 42
1.0
 92
        0
 66
     7
 43
1.0
 76
     1
 77
     6
 78
     2
 67
     7
 79
     5
170
     0
171
     0
290
     0
174
     0
 93
       13
 44
0.0
173
     0
291
     1
 45
0.0
1001
ACAD
1000
AcDbSavedByObjectVersion
1070
     0
  0
VISUALSTYLE
  5
1680
102
{ACAD_XDICTIONARY
360
16C4
102
}
102
{ACAD_REACTORS
330
167C
102
}
330
167C
100
AcDbVisualStyle
  2
GouraudWithEdges
 70
     3
 71
     2
 72
     2
 73
     1
 90
        2
 40
-0.6
 41
30.0
 62
     5
 63
     7
 74
     1
 91
        0
 64
     7
 65
   257
 75
     1
175
     1
 42
1.0
 92
        0
 66
   257
 43
1.0
 76
     1
 77
     6
 78
     2
 67
     7
 79
     5
170
     0
171
     0
290
     0
174
     0
 93
       13
 44
0.0
173
     0
291
     1
 45
0.0
1001
ACAD
1000
AcDbSavedByObjectVersion
1070
     0
  0
VISUALSTYLE
  5
1684
102
{ACAD_XDICTIONARY
360
16CC
102
}
102
{ACAD_REACTORS
330
167C
102
}
330
167C
100
AcDbVisualStyle
  2
Hidden
 70
     6
 71
     1
 72
     2
 73
     2
 90
        0
 40
-0.6
 41
-30.0
 62
     5
 63
     7
 74
     2
 91
        2
 64
     7
 65
   257
 75
     2
175
     1
 42
40.0
 92
        0
 66
   257
 43
1.0
 76
     1
 77
     6
 78
     2
 67
     7
 79
     3
170
     0
171
     0
290
     0
174
     0
 93
        1
 44
0.0
173
     0
291
     0
 45
0.0
1001
ACAD
1000
AcDbSavedByObjectVersion
1070
     0
  0
VISUALSTYLE
  5
1692
102
{ACAD_XDICTIONARY
360
16E8
102
}
102
{ACAD_REACTORS
330
167C
102
}
330
167C
100
AcDbVisualStyle
  2
JitterOff
 70
    20
 71
     2
 72
     2
 73
     0
 90
        0
 40
-0.6
 41
-30.0
 62
     5
 63
     7
 74
     1
 91
        4
 64
     7
 65
   257
 75
     1
175
     1
 42
1.0
 92
       10
 66
     7
 43
1.0
 76
     1
 77
     6
 78
     2
 67
     7
 79
     5
170
     0
171
     0
290
     0
174
     0
 93
        1
 44
0.0
173
     0
291
     1
 45
0.0
1001
ACAD
1000
AcDbSavedByObjectVersion
1070
     0
  0
VISUALSTYLE
  5
168A
102
{ACAD_XDICTIONARY
360
16D8
102
}
102
{ACAD_REACTORS
330
167C
102
}
330
167C
100
AcDbVisualStyle
  2
Linepattern
 70
    14
 71
     2
 72
     2
 73
     0
 90
        0
 40
-0.6
 41
-30.0
 62
     5
 63
     7
 74
     1
 91
        4
 64
     7
 65
   257
 75
     7
175
     7
 42
1.0
 92
        8
 66
     7
 43
1.0
 76
     1
 77
     6
 78
     2
 67
     7
 79
     5
170
     0
171
     0
290
     0
174
     0
 93
        1
 44
0.0
173
     0
291
     1
 45
0.0
1001
ACAD
1000
AcDbSavedByObjectVersion
1070
     0
  0
VISUALSTYLE
  5
1693
102
{ACAD_XDICTIONARY
360
16EA
102
}
102
{ACAD_REACTORS
330
167C
102
}
330
167C
100
AcDbVisualStyle
  2
OverhangOff
 70
    21
 71
     2
 72
     2
 73
     0
 90
        0
 40
-0.6
 41
-30.0
 62
     5
 63
     7
 74
     1
 91
        4
 64
     7
 65
   257
 75
     1
175
     1
 42
1.0
 92
        9
 66
     7
 43
1.0
 76
     1
 77
     6
 78
     2
 67
     7
 79
     5
170
     0
171
     0
290
     0
174
     0
 93
        1
 44
0.0
173
     0
291
     1
 45
0.0
1001
ACAD
1000
AcDbSavedByObjectVersion
1070
     0
  0
VISUALSTYLE
  5
1686
102
{ACAD_XDICTIONARY
360
16D0
102
}
102
{ACAD_REACTORS
330
167C
102
}
330
167C
100
AcDbVisualStyle
  2
Realistic
 70
     8
 71
     2
 72
     2
 73
     0
 90
        2
 40
-0.6
 41
30.0
 62
     5
 63
     7
 74
     0
 91
        0
 64
     7
 65
   257
 75
     1
175
     1
 42
1.0
 92
        8
 66
   257
 43
1.0
 76
     1
 77
     6
 78
     2
 67
     7
 79
     3
170
     0
171
     0
290
     0
174
     0
 93
       13
 44
0.0
173
     0
291
     0
 45
0.0
1001
ACAD
1000
AcDbSavedByObjectVersion
1070
     0
  0
VISUALSTYLE
  5
1691
102
{ACAD_XDICTIONARY
360
16E6
102
}
102
{ACAD_REACTORS
330
167C
102
}
330
167C
100
AcDbVisualStyle
  2
Shaded
 70
    27
 71
     2
 72
     2
 73
     1
 90
        2
 40
-0.6
 41
30.0
 62
     5
 63
     7
 74
     0
 91
        4
 64
     7
 65
   257
 75
     1
175
     1
 42
1.0
 92
        8
 66
   257
 43
1.0
 76
     1
 77
     6
 78
     2
 67
     8
 79
     3
170
     0
171
     0
290
     0
174
     0
 93
        5
 44
0.0
173
     0
291
     0
 45
0.0
1001
ACAD
1000
AcDbSavedByObjectVersion
1070
     0
  0
VISUALSTYLE
  5
1690
102
{ACAD_XDICTIONARY
360
16E4
102
}
102
{ACAD_REACTORS
330
167C
102
}
330
167C
100
AcDbVisualStyle
  2
Shaded with edges
 70
    26
 71
     2
 72
     2
 73
     1
 90
        2
 40
-0.6
 41
30.0
 62
     5
 63
     7
 74
     1
 91
       10
 64
     7
 65
   257
 75
     2
175
     1
 42
1.0
 92
        8
 66
   257
 43
1.0
 76
     1
 77
     6
 78
     2
 67
     7
 79
     3
170
     0
171
     0
290
     0
174
     0
 93
        5
 44
0.0
173
     0
291
     0
 45
0.0
1001
ACAD
1000
AcDbSavedByObjectVersion
1070
     0
  0
VISUALSTYLE
  5
168D
102
{ACAD_XDICTIONARY
360
16DE
102
}
102
{ACAD_REACTORS
330
167C
102
}
330
167C
100
AcDbVisualStyle
  2
Shades of Gray
 70
    23
 71
     2
 72
     2
 73
     3
 90
        0
 40
-0.6
 41
-30.0
 62
     5
 63
     7
 74
     2
 91
        2
 64
     7
 65
     7
 75
     1
175
     1
 42
40.0
 92
        8
 66
     7
 43
1.0
 76
     1
 77
     6
 78
     2
 67
     7
 79
     3
170
     0
171
     0
290
     0
174
     0
 93
        1
 44
0.0
173
     0
291
     0
 45
0.0
1001
ACAD
1000
AcDbSavedByObjectVersion
1070
     0
  0
VISUALSTYLE
  5
168E
102
{ACAD_XDICTIONARY
360
16E0
102
}
102
{ACAD_REACTORS
330
167C
102
}
330
167C
100
AcDbVisualStyle
  2
Sketchy
 70
    24
 71
     1
 72
     2
 73
     2
 90
        0
 40
-0.6
 41
-30.0
 62
     5
 63
     7
 74
     2
 91
        2
 64
     7
 65
     7
 75
     1
175
     1
 42
40.0
 92
       11
 66
     7
 43
1.0
 76
     1
 77
     6
 78
     2
 67
     7
 79
     6
170
     0
171
     0
290
     0
174
     0
 93
        1
 44
0.0
173
     0
291
     0
 45
0.0
1001
ACAD
1000
AcDbSavedByObjectVersion
1070
     0
  0
VISUALSTYLE
  5
1689
102
{ACAD_XDICTIONARY
360
16D6
102
}
102
{ACAD_REACTORS
330
167C
102
}
330
167C
100
AcDbVisualStyle
  2
Thicken
 70
    13
 71
     2
 72
     2
 73
     0
 90
        0
 40
-0.6
 41
-30.0
 62
     5
 63
     7
 74
     1
 91
        4
 64
     7
 65
   257
 75
     1
175
     1
 42
1.0
 92
       12
 66
     7
 43
1.0
 76
     1
 77
     6
 78
     2
 67
     7
 79
     5
170
     0
171
     0
290
     0
174
     0
 93
        1
 44
0.0
173
     0
291
     1
 45
0.0
1001
ACAD
1000
AcDbSavedByObjectVersion
1070
     0
  0
VISUALSTYLE
  5
1683
102
{ACAD_XDICTIONARY
360
16CA
102
}
102
{ACAD_REACTORS
330
167C
102
}
330
167C
100
AcDbVisualStyle
  2
Wireframe
 70
     5
 71
     0
 72
     2
 73
     0
 90
        0
 40
-0.6
 41
-30.0
 62
     5
 63
     7
 74
     1
 91
        4
 64
     7
 65
   257
 75
     1
175
     1
 42
1.0
 92
        0
 66
   257
 43
1.0
 76
     1
 77
     6
 78
     2
 67
     7
 79
     3
170
     0
171
     0
290
     0
174
     0
 93
        1
 44
0.0
173
     0
291
     0
 45
0.0
1001
ACAD
1000
AcDbSavedByObjectVersion
1070
     0
  0
VISUALSTYLE
  5
168F
102
{ACAD_XDICTIONARY
360
16E2
102
}
102
{ACAD_REACTORS
330
167C
102
}
330
167C
100
AcDbVisualStyle
  2
X-Ray
 70
    25
 71
     2
 72
     2
 73
     1
 90
        1
 40
0.5
 41
-30.0
 62
     5
 63
     7
 74
     1
 91
        0
 64
     7
 65
   257
 75
     1
175
     1
 42
1.0
 92
        8
 66
     7
 43
1.0
 76
     1
 77
     6
 78
     2
 67
     7
 79
     3
170
     0
171
     0
290
     0
174
     0
 93
       13
 44
0.0
173
     0
291
     0
 45
0.0
1001
ACAD
1000
AcDbSavedByObjectVersion
1070
     0
  0
DICTIONARYVAR
  5
16F5
102
{ACAD_REACTORS
330
16F0
102
}
330
16F0
100
DictionaryVariables
280
     0
  1
1:1
  0
DICTIONARYVAR
  5
16F2
102
{ACAD_REACTORS
330
16F0
102
}
330
16F0
100
DictionaryVariables
280
     0
  1
STANDARD
  0
DICTIONARYVAR
  5
16F1
102
{ACAD_REACTORS
330
16F0
102
}
330
16F0
100
DictionaryVariables
280
     0
  1
STANDARD
  0
DICTIONARYVAR
  5
16F3
102
{ACAD_REACTORS
330
16F0
102
}
330
16F0
100
DictionaryVariables
280
     0
  1
Imperial24
  0
DICTIONARYVAR
  5
16F4
102
{ACAD_REACTORS
330
16F0
102
}
330
16F0
100
DictionaryVariables
280
     0
  1
Imperial24
  0
DICTIONARYVAR
  5
16F8
102
{ACAD_REACTORS
330
16F0
102
}
330
16F0
100
DictionaryVariables
280
     0
  1
1
  0
DICTIONARYVAR
  5
16F7
102
{ACAD_REACTORS
330
16F0
102
}
330
16F0
100
DictionaryVariables
280
     0
  1
0
  0
DICTIONARYVAR
  5
16F6
102
{ACAD_REACTORS
330
16F0
102
}
330
16F0
100
DictionaryVariables
280
     0
  1
127
  0
DICTIONARYVAR
  5
16F9
102
{ACAD_REACTORS
330
16F0
102
}
330
16F0
100
DictionaryVariables
280
     0
  1
2
  0
DICTIONARY
  5
166D
330
166C
100
AcDbDictionary
280
     1
281
     1
  3
ACAD_XREC_ROUNDTRIP
360
173B
  3
BUMPTILE
360
166F
  3
DIFFUSETILE
360
166E
  3
OPACITYTILE
360
1672
  3
REFLECTIONTILE
360
1671
  3
REFRACTIONTILE
360
1673
  3
SPECULARTILE
360
1670
  0
DICTIONARY
  5
1665
330
1664
100
AcDbDictionary
280
     1
281
     1
  3
ACAD_XREC_ROUNDTRIP
360
173A
  3
BUMPTILE
360
1667
  3
DIFFUSETILE
360
1666
  3
OPACITYTILE
360
166A
  3
REFLECTIONTILE
360
1669
  3
REFRACTIONTILE
360
166B
  3
SPECULARTILE
360
1668
  0
DICTIONARY
  5
1675
330
1674
100
AcDbDictionary
280
     1
281
     1
  3
ACAD_XREC_ROUNDTRIP
360
173C
  3
BUMPTILE
360
1677
  3
DIFFUSETILE
360
1676
  3
OPACITYTILE
360
167A
  3
REFLECTIONTILE
360
1679
  3
REFRACTIONTILE
360
167B
  3
SPECULARTILE
360
1678
  0
DICTIONARY
  5
16B1
330
1697
100
AcDbDictionary
280
     1
281
     1
  3
ACAD_ROUNDTRIP_2008_TABLESTYLE_CELLSTYLEMAP
360
1739
  3
ACAD_XREC_ROUNDTRIP
360
173D
  0
DICTIONARY
  5
16C8
330
1682
100
AcDbDictionary
280
     1
281
     1
  3
ACAD_XREC_ROUNDTRIP
360
16C9
  0
DICTIONARY
  5
16C6
330
1681
100
AcDbDictionary
280
     1
281
     1
  3
ACAD_XREC_ROUNDTRIP
360
16C7
  0
DICTIONARY
  5
16D4
330
1688
100
AcDbDictionary
280
     1
281
     1
  3
ACAD_XREC_ROUNDTRIP
360
16D5
  0
DICTIONARY
  5
16DC
330
168C
100
AcDbDictionary
280
     1
281
     1
  3
ACAD_XREC_ROUNDTRIP
360
16DD
  0
DICTIONARY
  5
16CE
330
1685
100
AcDbDictionary
280
     1
281
     1
  3
ACAD_XREC_ROUNDTRIP
360
16CF
  0
DICTIONARY
  5
16D2
330
1687
100
AcDbDictionary
280
     1
281
     1
  3
ACAD_XREC_ROUNDTRIP
360
16D3
  0
DICTIONARY
  5
16EC
330
1694
100
AcDbDictionary
280
     1
281
     1
  3
ACAD_XREC_ROUNDTRIP
360
16ED
  0
DICTIONARY
  5
16DA
330
168B
100
AcDbDictionary
280
     1
281
     1
  3
ACAD_XREC_ROUNDTRIP
360
16DB
  0
DICTIONARY
  5
16BE
330
167D
100
AcDbDictionary
280
     1
281
     1
  3
ACAD_XREC_ROUNDTRIP
360
16BF
  0
DICTIONARY
  5
16C0
330
167E
100
AcDbDictionary
280
     1
281
     1
  3
ACAD_XREC_ROUNDTRIP
360
16C1
  0
DICTIONARY
  5
16C2
330
167F
100
AcDbDictionary
280
     1
281
     1
  3
ACAD_XREC_ROUNDTRIP
360
16C3
  0
DICTIONARY
  5
16C4
330
1680
100
AcDbDictionary
280
     1
281
     1
  3
ACAD_XREC_ROUNDTRIP
360
16C5
  0
DICTIONARY
  5
16CC
330
1684
100
AcDbDictionary
280
     1
281
     1
  3
ACAD_XREC_ROUNDTRIP
360
16CD
  0
DICTIONARY
  5
16E8
330
1692
100
AcDbDictionary
280
     1
281
     1
  3
ACAD_XREC_ROUNDTRIP
360
16E9
  0
DICTIONARY
  5
16D8
330
168A
100
AcDbDictionary
280
     1
281
     1
  3
ACAD_XREC_ROUNDTRIP
360
16D9
  0
DICTIONARY
  5
16EA
330
1693
100
AcDbDictionary
280
     1
281
     1
  3
ACAD_XREC_ROUNDTRIP
360
16EB
  0
DICTIONARY
  5
16D0
330
1686
100
AcDbDictionary
280
     1
281
     1
  3
ACAD_XREC_ROUNDTRIP
360
16D1
  0
DICTIONARY
  5
16E6
330
1691
100
AcDbDictionary
280
     1
281
     1
  3
ACAD_XREC_ROUNDTRIP
360
16E7
  0
DICTIONARY
  5
16E4
330
1690
100
AcDbDictionary
280
     1
281
     1
  3
ACAD_XREC_ROUNDTRIP
360
16E5
  0
DICTIONARY
  5
16DE
330
168D
100
AcDbDictionary
280
     1
281
     1
  3
ACAD_XREC_ROUNDTRIP
360
16DF
  0
DICTIONARY
  5
16E0
330
168E
100
AcDbDictionary
280
     1
281
     1
  3
ACAD_XREC_ROUNDTRIP
360
16E1
  0
DICTIONARY
  5
16D6
330
1689
100
AcDbDictionary
280
     1
281
     1
  3
ACAD_XREC_ROUNDTRIP
360
16D7
  0
DICTIONARY
  5
16CA
330
1683
100
AcDbDictionary
280
     1
281
     1
  3
ACAD_XREC_ROUNDTRIP
360
16CB
  0
DICTIONARY
  5
16E2
330
168F
100
AcDbDictionary
280
     1
281
     1
  3
ACAD_XREC_ROUNDTRIP
360
16E3
  0
XRECORD
  5
173B
102
{ACAD_REACTORS
330
166D
102
}
330
166D
100
AcDbXrecord
280
     1
102
MATERIAL
148
0.0
149
0.0
149
0.0
 93
        0
 94
      127
282
     0
 72
     0
 77
     0
171
     0
175
     0
179
     0
273
     0
  0
XRECORD
  5
166F
102
{ACAD_REACTORS
330
166D
102
}
330
166D
100
AcDbXrecord
280
     1
270
     1
271
     1
  0
XRECORD
  5
166E
102
{ACAD_REACTORS
330
166D
102
}
330
166D
100
AcDbXrecord
280
     1
270
     1
271
     1
  0
XRECORD
  5
1672
102
{ACAD_REACTORS
330
166D
102
}
330
166D
100
AcDbXrecord
280
     1
270
     1
271
     1
  0
XRECORD
  5
1671
102
{ACAD_REACTORS
330
166D
102
}
330
166D
100
AcDbXrecord
280
     1
270
     1
271
     1
  0
XRECORD
  5
1673
102
{ACAD_REACTORS
330
166D
102
}
330
166D
100
AcDbXrecord
280
     1
270
     1
271
     1
  0
XRECORD
  5
1670
102
{ACAD_REACTORS
330
166D
102
}
330
166D
100
AcDbXrecord
280
     1
270
     1
271
     1
  0
XRECORD
  5
173A
102
{ACAD_REACTORS
330
1665
102
}
330
1665
100
AcDbXrecord
280
     1
102
MATERIAL
148
0.0
149
0.0
149
0.0
 93
        0
 94
      127
282
     0
 72
     0
 77
     0
171
     0
175
     0
179
     0
273
     0
  0
XRECORD
  5
1667
102
{ACAD_REACTORS
330
1665
102
}
330
1665
100
AcDbXrecord
280
     1
270
     1
271
     1
  0
XRECORD
  5
1666
102
{ACAD_REACTORS
330
1665
102
}
330
1665
100
AcDbXrecord
280
     1
270
     1
271
     1
  0
XRECORD
  5
166A
102
{ACAD_REACTORS
330
1665
102
}
330
1665
100
AcDbXrecord
280
     1
270
     1
271
     1
  0
XRECORD
  5
1669
102
{ACAD_REACTORS
330
1665
102
}
330
1665
100
AcDbXrecord
280
     1
270
     1
271
     1
  0
XRECORD
  5
166B
102
{ACAD_REACTORS
330
1665
102
}
330
1665
100
AcDbXrecord
280
     1
270
     1
271
     1
  0
XRECORD
  5
1668
102
{ACAD_REACTORS
330
1665
102
}
330
1665
100
AcDbXrecord
280
     1
270
     1
271
     1
  0
XRECORD
  5
173C
102
{ACAD_REACTORS
330
1675
102
}
330
1675
100
AcDbXrecord
280
     1
102
MATERIAL
148
0.0
149
0.0
149
0.0
 93
        0
 94
      127
282
     0
 72
     0
 77
     0
171
     0
175
     0
179
     0
273
     0
  0
XRECORD
  5
1677
102
{ACAD_REACTORS
330
1675
102
}
330
1675
100
AcDbXrecord
280
     1
270
     1
271
     1
  0
XRECORD
  5
1676
102
{ACAD_REACTORS
330
1675
102
}
330
1675
100
AcDbXrecord
280
     1
270
     1
271
     1
  0
XRECORD
  5
167A
102
{ACAD_REACTORS
330
1675
102
}
330
1675
100
AcDbXrecord
280
     1
270
     1
271
     1
  0
XRECORD
  5
1679
102
{ACAD_REACTORS
330
1675
102
}
330
1675
100
AcDbXrecord
280
     1
270
     1
271
     1
  0
XRECORD
  5
167B
102
{ACAD_REACTORS
330
1675
102
}
330
1675
100
AcDbXrecord
280
     1
270
     1
271
     1
  0
XRECORD
  5
1678
102
{ACAD_REACTORS
330
1675
102
}
330
1675
100
AcDbXrecord
280
     1
270
     1
271
     1
  0
CELLSTYLEMAP
  5
1739
102
{ACAD_REACTORS
330
16B1
102
}
330
16B1
100
AcDbCellStyleMap
 90
        3
300
CELLSTYLE
  1
TABLEFORMAT_BEGIN
 90
        5
170
     1
 91
        0
 92
    32768
 62
   257
 93
        1
300
CONTENTFORMAT
  1
CONTENTFORMAT_BEGIN
 90
        0
 91
        0
 92
      512
 93
        0
300

 40
0.0
140
1.0
 94
        5
 62
     0
340
11
144
0.25
309
CONTENTFORMAT_END
171
     0
 94
        0
309
TABLEFORMAT_END
  1
CELLSTYLE_BEGIN
 90
        1
 91
        1
300
_TITLE
309
CELLSTYLE_END
300
CELLSTYLE
  1
TABLEFORMAT_BEGIN
 90
        5
170
     1
 91
        0
 92
        0
 62
   257
 93
        1
300
CONTENTFORMAT
  1
CONTENTFORMAT_BEGIN
 90
        0
 91
        0
 92
      512
 93
        0
300

 40
0.0
140
1.0
 94
        5
 62
     0
340
11
144
0.18
309
CONTENTFORMAT_END
171
     0
 94
        0
309
TABLEFORMAT_END
  1
CELLSTYLE_BEGIN
 90
        2
 91
        1
300
_HEADER
309
CELLSTYLE_END
300
CELLSTYLE
  1
TABLEFORMAT_BEGIN
 90
        5
170
     1
 91
        0
 92
        0
 62
   257
 93
        1
300
CONTENTFORMAT
  1
CONTENTFORMAT_BEGIN
 90
        0
 91
        0
 92
      512
 93
        0
300

 40
0.0
140
1.0
 94
        2
 62
     0
340
11
144
0.18
309
CONTENTFORMAT_END
171
     0
 94
        0
309
TABLEFORMAT_END
  1
CELLSTYLE_BEGIN
 90
        3
 91
        2
300
_DATA
309
CELLSTYLE_END
  0
XRECORD
  5
173D
102
{ACAD_REACTORS
330
16B1
102
}
330
16B1
100
AcDbXrecord
280
     1
102
ACAD_ROUNDTRIP_PRE2007_TABLESTYLE
 90
      512
 91
        0
  1

 92
      512
 93
        0
  2

 94
      512
 95
        0
  3

  0
XRECORD
  5
16C9
102
{ACAD_REACTORS
330
16C8
102
}
330
16C8
100
AcDbXrecord
280
     1
102
RTVSPost2010Prop28
280
     1
102
RTVSPost2010PropOp28
 70
     1
102
RTVSPost2010Prop29
280
     1
102
RTVSPost2010PropOp29
 70
     1
102
RTVSPost2010Prop30
280
     0
102
RTVSPost2010PropOp30
 70
     1
102
RTVSPost2010Prop31
280
     0
102
RTVSPost2010PropOp31
 70
     1
102
RTVSPost2010Prop32
280
     0
102
RTVSPost2010PropOp32
 70
     1
102
RTVSPost2010Prop33
280
     0
102
RTVSPost2010PropOp33
 70
     1
102
RTVSPost2010Prop34
280
     0
102
RTVSPost2010PropOp34
 70
     1
102
RTVSPost2010Prop35
280
     0
102
RTVSPost2010PropOp35
 70
     1
102
RTVSPost2010Prop36
280
     0
102
RTVSPost2010PropOp36
 70
     1
102
RTVSPost2010Prop37
 90
       50
102
RTVSPost2010PropOp37
 70
     1
102
RTVSPost2010Prop38
140
0.0
102
RTVSPost2010PropOp38
 70
     1
102
RTVSPost2010Prop39
140
1.0
102
RTVSPost2010PropOp39
 70
     1
102
RTVSPost2010Prop40
 90
        0
102
RTVSPost2010PropOp40
 70
     1
102
RTVSPost2010Prop41ColorIndex
 90
       18
102
RTVSPost2010Prop41ColorRGB
 90
        0
102
RTVSPost2010PropOp41
 70
     1
102
RTVSPost2010Prop42
 90
       50
102
RTVSPost2010PropOp42
 70
     1
102
RTVSPost2010Prop43
 90
        3
102
RTVSPost2010PropOp43
 70
     1
102
RTVSPost2010Prop44ColorIndex
 90
        5
102
RTVSPost2010Prop44ColorRGB
 90
      255
102
RTVSPost2010PropOp44
 70
     1
102
RTVSPost2010Prop45
280
     0
102
RTVSPost2010PropOp45
 70
     1
102
RTVSPost2010Prop46
 90
       50
102
RTVSPost2010PropOp46
 70
     1
102
RTVSPost2010Prop47
 90
       50
102
RTVSPost2010PropOp47
 70
     1
102
RTVSPost2010Prop48
 90
       50
102
RTVSPost2010PropOp48
 70
     1
102
RTVSPost2010Prop49
280
     0
102
RTVSPost2010PropOp49
 70
     1
102
RTVSPost2010Prop50
 90
       50
102
RTVSPost2010PropOp50
 70
     1
102
RTVSPost2010Prop51ColorIndex
 90
      256
102
RTVSPost2010Prop51ColorRGB
 90
-16777216
102
RTVSPost2010PropOp51
 70
     0
102
RTVSPost2010Prop52
140
1.0
102
RTVSPost2010PropOp52
 70
     0
102
RTVSPost2010Prop53
 90
        2
102
RTVSPost2010PropOp53
 70
     1
102
RTVSPost2010Prop54
  1
strokes_ogs.tif
102
RTVSPost2010PropOp54
 70
     1
102
RTVSPost2010Prop55
280
     0
102
RTVSPost2010PropOp55
 70
     1
102
RTVSPost2010Prop56
140
1.0
102
RTVSPost2010PropOp56
 70
     1
102
RTVSPost2010Prop57
140
1.0
102
RTVSPost2010PropOp57
 70
     1
102
RTVSPropertyOp0
 70
     1
102
RTVSPropertyOp1
 70
     1
102
RTVSPropertyOp2
 70
     1
102
RTVSPropertyOp3
 70
     1
102
RTVSPropertyOp4
 70
     1
102
RTVSPropertyOp5
 70
     1
102
RTVSPropertyOp6
 70
     1
102
RTVSPropertyOp7
 70
     1
102
RTVSPropertyOp8
 70
     1
102
RTVSPropertyOp9
 70
     1
102
RTVSPropertyOp10
 70
     1
102
RTVSPropertyOp11
 70
     1
102
RTVSPropertyOp12
 70
     1
102
RTVSPropertyOp13
 70
     1
102
RTVSPropertyOp14
 70
     1
102
RTVSPropertyOp15
 70
     1
102
RTVSPropertyOp16
 70
     1
102
RTVSPropertyOp17
 70
     1
102
RTVSPropertyOp18
 70
     1
102
RTVSPropertyOp19
 70
     1
102
RTVSPropertyOp20
 70
     1
102
RTVSPropertyOp21
 70
     1
102
RTVSPropertyOp22
 70
     1
102
RTVSPropertyOp23
 70
     1
102
RTVSPropertyOp24
 70
     1
102
RTVSPropertyOp25
 70
     1
102
RTVSPropertyOp26
 70
     1
102
RTVSPropertyOp27
 70
     1
102
RTVSPropertyOp28
 70
     1
102
RTVSPropertyOp29
 70
     1
102
RTVSPropertyOp30
 70
     1
102
RTVSPropertyOp31
 70
     1
102
RTVSPropertyOp32
 70
     1
102
RTVSPropertyOp33
 70
     1
102
RTVSPropertyOp34
 70
     1
102
RTVSPropertyOp35
 70
     1
102
RTVSPropertyOp36
 70
     1
102
RTVSPropertyOp37
 70
     1
102
RTVSPropertyOp38
 70
     1
102
RTVSPropertyOp39
 70
     1
102
RTVSPropertyOp40
 70
     1
102
RTVSPropertyOp41
 70
     1
102
RTVSPropertyOp42
 70
     1
102
RTVSPropertyOp43
 70
     1
102
RTVSPropertyOp44
 70
     1
102
RTVSPropertyOp45
 70
     1
102
RTVSPropertyOp46
 70
     1
102
RTVSPropertyOp47
 70
     1
102
RTVSPropertyOp48
 70
     1
102
RTVSPropertyOp49
 70
     1
102
RTVSPropertyOp50
 70
     1
102
RTVSPropertyOp51
 70
     0
102
RTVSPropertyOp52
 70
     0
102
RTVSPropertyOp53
 70
     1
102
RTVSPropertyOp54
 70
     1
102
RTVSPropertyOp55
 70
     1
102
RTVSPropertyOp56
 70
     1
102
RTVSPropertyOp57
 70
     1
102
RTVSPropertyOp58
 70
     1
102
RTVSPropertyOp59
 70
     1
102
RTVSPropertyOp60
 70
     1
102
RTVSPropertyOp61
 70
     1
102
RTVSPropertyOp62
 70
     1
  0
XRECORD
  5
16C7
102
{ACAD_REACTORS
330
16C6
102
}
330
16C6
100
AcDbXrecord
280
     1
102
RTVSPost2010Prop28
280
     0
102
RTVSPost2010PropOp28
 70
     1
102
RTVSPost2010Prop29
280
     1
102
RTVSPost2010PropOp29
 70
     1
102
RTVSPost2010Prop30
280
     1
102
RTVSPost2010PropOp30
 70
     1
102
RTVSPost2010Prop31
280
     0
102
RTVSPost2010PropOp31
 70
     1
102
RTVSPost2010Prop32
280
     0
102
RTVSPost2010PropOp32
 70
     1
102
RTVSPost2010Prop33
280
     0
102
RTVSPost2010PropOp33
 70
     1
102
RTVSPost2010Prop34
280
     0
102
RTVSPost2010PropOp34
 70
     1
102
RTVSPost2010Prop35
280
     0
102
RTVSPost2010PropOp35
 70
     1
102
RTVSPost2010Prop36
280
     0
102
RTVSPost2010PropOp36
 70
     1
102
RTVSPost2010Prop37
 90
       50
102
RTVSPost2010PropOp37
 70
     1
102
RTVSPost2010Prop38
140
0.0
102
RTVSPost2010PropOp38
 70
     1
102
RTVSPost2010Prop39
140
1.0
102
RTVSPost2010PropOp39
 70
     1
102
RTVSPost2010Prop40
 90
        0
102
RTVSPost2010PropOp40
 70
     1
102
RTVSPost2010Prop41ColorIndex
 90
       18
102
RTVSPost2010Prop41ColorRGB
 90
        0
102
RTVSPost2010PropOp41
 70
     1
102
RTVSPost2010Prop42
 90
       50
102
RTVSPost2010PropOp42
 70
     1
102
RTVSPost2010Prop43
 90
        3
102
RTVSPost2010PropOp43
 70
     1
102
RTVSPost2010Prop44ColorIndex
 90
        5
102
RTVSPost2010Prop44ColorRGB
 90
      255
102
RTVSPost2010PropOp44
 70
     1
102
RTVSPost2010Prop45
280
     0
102
RTVSPost2010PropOp45
 70
     1
102
RTVSPost2010Prop46
 90
       50
102
RTVSPost2010PropOp46
 70
     1
102
RTVSPost2010Prop47
 90
       50
102
RTVSPost2010PropOp47
 70
     1
102
RTVSPost2010Prop48
 90
       50
102
RTVSPost2010PropOp48
 70
     1
102
RTVSPost2010Prop49
280
     0
102
RTVSPost2010PropOp49
 70
     1
102
RTVSPost2010Prop50
 90
       50
102
RTVSPost2010PropOp50
 70
     1
102
RTVSPost2010Prop51ColorIndex
 90
      256
102
RTVSPost2010Prop51ColorRGB
 90
-16777216
102
RTVSPost2010PropOp51
 70
     0
102
RTVSPost2010Prop52
140
1.0
102
RTVSPost2010PropOp52
 70
     0
102
RTVSPost2010Prop53
 90
        2
102
RTVSPost2010PropOp53
 70
     1
102
RTVSPost2010Prop54
  1
strokes_ogs.tif
102
RTVSPost2010PropOp54
 70
     1
102
RTVSPost2010Prop55
280
     0
102
RTVSPost2010PropOp55
 70
     1
102
RTVSPost2010Prop56
140
1.0
102
RTVSPost2010PropOp56
 70
     1
102
RTVSPost2010Prop57
140
1.0
102
RTVSPost2010PropOp57
 70
     1
102
RTVSPropertyOp0
 70
     1
102
RTVSPropertyOp1
 70
     1
102
RTVSPropertyOp2
 70
     1
102
RTVSPropertyOp3
 70
     1
102
RTVSPropertyOp4
 70
     1
102
RTVSPropertyOp5
 70
     1
102
RTVSPropertyOp6
 70
     1
102
RTVSPropertyOp7
 70
     1
102
RTVSPropertyOp8
 70
     1
102
RTVSPropertyOp9
 70
     1
102
RTVSPropertyOp10
 70
     1
102
RTVSPropertyOp11
 70
     1
102
RTVSPropertyOp12
 70
     1
102
RTVSPropertyOp13
 70
     1
102
RTVSPropertyOp14
 70
     1
102
RTVSPropertyOp15
 70
     1
102
RTVSPropertyOp16
 70
     1
102
RTVSPropertyOp17
 70
     1
102
RTVSPropertyOp18
 70
     1
102
RTVSPropertyOp19
 70
     1
102
RTVSPropertyOp20
 70
     1
102
RTVSPropertyOp21
 70
     1
102
RTVSPropertyOp22
 70
     1
102
RTVSPropertyOp23
 70
     1
102
RTVSPropertyOp24
 70
     1
102
RTVSPropertyOp25
 70
     1
102
RTVSPropertyOp26
 70
     1
102
RTVSPropertyOp27
 70
     1
102
RTVSPropertyOp28
 70
     1
102
RTVSPropertyOp29
 70
     1
102
RTVSPropertyOp30
 70
     1
102
RTVSPropertyOp31
 70
     1
102
RTVSPropertyOp32
 70
     1
102
RTVSPropertyOp33
 70
     1
102
RTVSPropertyOp34
 70
     1
102
RTVSPropertyOp35
 70
     1
102
RTVSPropertyOp36
 70
     1
102
RTVSPropertyOp37
 70
     1
102
RTVSPropertyOp38
 70
     1
102
RTVSPropertyOp39
 70
     1
102
RTVSPropertyOp40
 70
     1
102
RTVSPropertyOp41
 70
     1
102
RTVSPropertyOp42
 70
     1
102
RTVSPropertyOp43
 70
     1
102
RTVSPropertyOp44
 70
     1
102
RTVSPropertyOp45
 70
     1
102
RTVSPropertyOp46
 70
     1
102
RTVSPropertyOp47
 70
     1
102
RTVSPropertyOp48
 70
     1
102
RTVSPropertyOp49
 70
     1
102
RTVSPropertyOp50
 70
     1
102
RTVSPropertyOp51
 70
     0
102
RTVSPropertyOp52
 70
     0
102
RTVSPropertyOp53
 70
     1
102
RTVSPropertyOp54
 70
     1
102
RTVSPropertyOp55
 70
     1
102
RTVSPropertyOp56
 70
     1
102
RTVSPropertyOp57
 70
     1
102
RTVSPropertyOp58
 70
     1
102
RTVSPropertyOp59
 70
     1
102
RTVSPropertyOp60
 70
     1
102
RTVSPropertyOp61
 70
     1
102
RTVSPropertyOp62
 70
     1
  0
XRECORD
  5
16D5
102
{ACAD_REACTORS
330
16D4
102
}
330
16D4
100
AcDbXrecord
280
     1
102
RTVSPost2010Prop28
280
     0
102
RTVSPost2010PropOp28
 70
     1
102
RTVSPost2010Prop29
280
     1
102
RTVSPost2010PropOp29
 70
     1
102
RTVSPost2010Prop30
280
     1
102
RTVSPost2010PropOp30
 70
     1
102
RTVSPost2010Prop31
280
     0
102
RTVSPost2010PropOp31
 70
     1
102
RTVSPost2010Prop32
280
     0
102
RTVSPost2010PropOp32
 70
     1
102
RTVSPost2010Prop33
280
     0
102
RTVSPost2010PropOp33
 70
     1
102
RTVSPost2010Prop34
280
     0
102
RTVSPost2010PropOp34
 70
     1
102
RTVSPost2010Prop35
280
     0
102
RTVSPost2010PropOp35
 70
     1
102
RTVSPost2010Prop36
280
     0
102
RTVSPost2010PropOp36
 70
     1
102
RTVSPost2010Prop37
 90
       50
102
RTVSPost2010PropOp37
 70
     1
102
RTVSPost2010Prop38
140
0.0
102
RTVSPost2010PropOp38
 70
     1
102
RTVSPost2010Prop39
140
1.0
102
RTVSPost2010PropOp39
 70
     1
102
RTVSPost2010Prop40
 90
        0
102
RTVSPost2010PropOp40
 70
     1
102
RTVSPost2010Prop41ColorIndex
 90
       18
102
RTVSPost2010Prop41ColorRGB
 90
        0
102
RTVSPost2010PropOp41
 70
     1
102
RTVSPost2010Prop42
 90
       50
102
RTVSPost2010PropOp42
 70
     1
102
RTVSPost2010Prop43
 90
        3
102
RTVSPost2010PropOp43
 70
     1
102
RTVSPost2010Prop44ColorIndex
 90
        5
102
RTVSPost2010Prop44ColorRGB
 90
      255
102
RTVSPost2010PropOp44
 70
     1
102
RTVSPost2010Prop45
280
     0
102
RTVSPost2010PropOp45
 70
     1
102
RTVSPost2010Prop46
 90
       50
102
RTVSPost2010PropOp46
 70
     1
102
RTVSPost2010Prop47
 90
       50
102
RTVSPost2010PropOp47
 70
     1
102
RTVSPost2010Prop48
 90
       50
102
RTVSPost2010PropOp48
 70
     1
102
RTVSPost2010Prop49
280
     0
102
RTVSPost2010PropOp49
 70
     1
102
RTVSPost2010Prop50
 90
       50
102
RTVSPost2010PropOp50
 70
     1
102
RTVSPost2010Prop51ColorIndex
 90
      256
102
RTVSPost2010Prop51ColorRGB
 90
-16777216
102
RTVSPost2010PropOp51
 70
     0
102
RTVSPost2010Prop52
140
1.0
102
RTVSPost2010PropOp52
 70
     0
102
RTVSPost2010Prop53
 90
        2
102
RTVSPost2010PropOp53
 70
     1
102
RTVSPost2010Prop54
  1
strokes_ogs.tif
102
RTVSPost2010PropOp54
 70
     1
102
RTVSPost2010Prop55
280
     0
102
RTVSPost2010PropOp55
 70
     1
102
RTVSPost2010Prop56
140
1.0
102
RTVSPost2010PropOp56
 70
     1
102
RTVSPost2010Prop57
140
1.0
102
RTVSPost2010PropOp57
 70
     1
102
RTVSPropertyOp0
 70
     1
102
RTVSPropertyOp1
 70
     1
102
RTVSPropertyOp2
 70
     1
102
RTVSPropertyOp3
 70
     1
102
RTVSPropertyOp4
 70
     1
102
RTVSPropertyOp5
 70
     1
102
RTVSPropertyOp6
 70
     1
102
RTVSPropertyOp7
 70
     1
102
RTVSPropertyOp8
 70
     1
102
RTVSPropertyOp9
 70
     1
102
RTVSPropertyOp10
 70
     1
102
RTVSPropertyOp11
 70
     1
102
RTVSPropertyOp12
 70
     1
102
RTVSPropertyOp13
 70
     1
102
RTVSPropertyOp14
 70
     1
102
RTVSPropertyOp15
 70
     1
102
RTVSPropertyOp16
 70
     1
102
RTVSPropertyOp17
 70
     1
102
RTVSPropertyOp18
 70
     1
102
RTVSPropertyOp19
 70
     1
102
RTVSPropertyOp20
 70
     1
102
RTVSPropertyOp21
 70
     1
102
RTVSPropertyOp22
 70
     1
102
RTVSPropertyOp23
 70
     1
102
RTVSPropertyOp24
 70
     1
102
RTVSPropertyOp25
 70
     1
102
RTVSPropertyOp26
 70
     1
102
RTVSPropertyOp27
 70
     1
102
RTVSPropertyOp28
 70
     1
102
RTVSPropertyOp29
 70
     1
102
RTVSPropertyOp30
 70
     1
102
RTVSPropertyOp31
 70
     1
102
RTVSPropertyOp32
 70
     1
102
RTVSPropertyOp33
 70
     1
102
RTVSPropertyOp34
 70
     1
102
RTVSPropertyOp35
 70
     1
102
RTVSPropertyOp36
 70
     1
102
RTVSPropertyOp37
 70
     1
102
RTVSPropertyOp38
 70
     1
102
RTVSPropertyOp39
 70
     1
102
RTVSPropertyOp40
 70
     1
102
RTVSPropertyOp41
 70
     1
102
RTVSPropertyOp42
 70
     1
102
RTVSPropertyOp43
 70
     1
102
RTVSPropertyOp44
 70
     1
102
RTVSPropertyOp45
 70
     1
102
RTVSPropertyOp46
 70
     1
102
RTVSPropertyOp47
 70
     1
102
RTVSPropertyOp48
 70
     1
102
RTVSPropertyOp49
 70
     1
102
RTVSPropertyOp50
 70
     1
102
RTVSPropertyOp51
 70
     0
102
RTVSPropertyOp52
 70
     0
102
RTVSPropertyOp53
 70
     1
102
RTVSPropertyOp54
 70
     1
102
RTVSPropertyOp55
 70
     1
102
RTVSPropertyOp56
 70
     1
102
RTVSPropertyOp57
 70
     1
102
RTVSPropertyOp58
 70
     1
102
RTVSPropertyOp59
 70
     1
102
RTVSPropertyOp60
 70
     1
102
RTVSPropertyOp61
 70
     1
102
RTVSPropertyOp62
 70
     1
  0
XRECORD
  5
16DD
102
{ACAD_REACTORS
330
16DC
102
}
330
16DC
100
AcDbXrecord
280
     1
102
RTVSPost2010Prop28
280
     0
102
RTVSPost2010PropOp28
 70
     1
102
RTVSPost2010Prop29
280
     1
102
RTVSPost2010PropOp29
 70
     1
102
RTVSPost2010Prop30
280
     1
102
RTVSPost2010PropOp30
 70
     1
102
RTVSPost2010Prop31
280
     0
102
RTVSPost2010PropOp31
 70
     1
102
RTVSPost2010Prop32
280
     0
102
RTVSPost2010PropOp32
 70
     1
102
RTVSPost2010Prop33
280
     0
102
RTVSPost2010PropOp33
 70
     1
102
RTVSPost2010Prop34
280
     0
102
RTVSPost2010PropOp34
 70
     1
102
RTVSPost2010Prop35
280
     0
102
RTVSPost2010PropOp35
 70
     1
102
RTVSPost2010Prop36
280
     0
102
RTVSPost2010PropOp36
 70
     1
102
RTVSPost2010Prop37
 90
       50
102
RTVSPost2010PropOp37
 70
     1
102
RTVSPost2010Prop38
140
0.0
102
RTVSPost2010PropOp38
 70
     1
102
RTVSPost2010Prop39
140
1.0
102
RTVSPost2010PropOp39
 70
     1
102
RTVSPost2010Prop40
 90
        0
102
RTVSPost2010PropOp40
 70
     1
102
RTVSPost2010Prop41ColorIndex
 90
       18
102
RTVSPost2010Prop41ColorRGB
 90
        0
102
RTVSPost2010PropOp41
 70
     1
102
RTVSPost2010Prop42
 90
       50
102
RTVSPost2010PropOp42
 70
     1
102
RTVSPost2010Prop43
 90
        3
102
RTVSPost2010PropOp43
 70
     1
102
RTVSPost2010Prop44ColorIndex
 90
        5
102
RTVSPost2010Prop44ColorRGB
 90
      255
102
RTVSPost2010PropOp44
 70
     1
102
RTVSPost2010Prop45
280
     0
102
RTVSPost2010PropOp45
 70
     1
102
RTVSPost2010Prop46
 90
       50
102
RTVSPost2010PropOp46
 70
     1
102
RTVSPost2010Prop47
 90
       50
102
RTVSPost2010PropOp47
 70
     1
102
RTVSPost2010Prop48
 90
       50
102
RTVSPost2010PropOp48
 70
     1
102
RTVSPost2010Prop49
280
     0
102
RTVSPost2010PropOp49
 70
     1
102
RTVSPost2010Prop50
 90
       50
102
RTVSPost2010PropOp50
 70
     1
102
RTVSPost2010Prop51ColorIndex
 90
      256
102
RTVSPost2010Prop51ColorRGB
 90
-16777216
102
RTVSPost2010PropOp51
 70
     0
102
RTVSPost2010Prop52
140
1.0
102
RTVSPost2010PropOp52
 70
     0
102
RTVSPost2010Prop53
 90
        2
102
RTVSPost2010PropOp53
 70
     1
102
RTVSPost2010Prop54
  1
strokes_ogs.tif
102
RTVSPost2010PropOp54
 70
     1
102
RTVSPost2010Prop55
280
     0
102
RTVSPost2010PropOp55
 70
     1
102
RTVSPost2010Prop56
140
1.0
102
RTVSPost2010PropOp56
 70
     1
102
RTVSPost2010Prop57
140
1.0
102
RTVSPost2010PropOp57
 70
     1
102
RTVSPropertyOp0
 70
     1
102
RTVSPropertyOp1
 70
     1
102
RTVSPropertyOp2
 70
     1
102
RTVSPropertyOp3
 70
     1
102
RTVSPropertyOp4
 70
     1
102
RTVSPropertyOp5
 70
     1
102
RTVSPropertyOp6
 70
     1
102
RTVSPropertyOp7
 70
     1
102
RTVSPropertyOp8
 70
     1
102
RTVSPropertyOp9
 70
     1
102
RTVSPropertyOp10
 70
     1
102
RTVSPropertyOp11
 70
     1
102
RTVSPropertyOp12
 70
     1
102
RTVSPropertyOp13
 70
     1
102
RTVSPropertyOp14
 70
     1
102
RTVSPropertyOp15
 70
     1
102
RTVSPropertyOp16
 70
     1
102
RTVSPropertyOp17
 70
     1
102
RTVSPropertyOp18
 70
     1
102
RTVSPropertyOp19
 70
     1
102
RTVSPropertyOp20
 70
     1
102
RTVSPropertyOp21
 70
     1
102
RTVSPropertyOp22
 70
     1
102
RTVSPropertyOp23
 70
     1
102
RTVSPropertyOp24
 70
     1
102
RTVSPropertyOp25
 70
     1
102
RTVSPropertyOp26
 70
     1
102
RTVSPropertyOp27
 70
     1
102
RTVSPropertyOp28
 70
     1
102
RTVSPropertyOp29
 70
     1
102
RTVSPropertyOp30
 70
     1
102
RTVSPropertyOp31
 70
     1
102
RTVSPropertyOp32
 70
     1
102
RTVSPropertyOp33
 70
     1
102
RTVSPropertyOp34
 70
     1
102
RTVSPropertyOp35
 70
     1
102
RTVSPropertyOp36
 70
     1
102
RTVSPropertyOp37
 70
     1
102
RTVSPropertyOp38
 70
     1
102
RTVSPropertyOp39
 70
     1
102
RTVSPropertyOp40
 70
     1
102
RTVSPropertyOp41
 70
     1
102
RTVSPropertyOp42
 70
     1
102
RTVSPropertyOp43
 70
     1
102
RTVSPropertyOp44
 70
     1
102
RTVSPropertyOp45
 70
     1
102
RTVSPropertyOp46
 70
     1
102
RTVSPropertyOp47
 70
     1
102
RTVSPropertyOp48
 70
     1
102
RTVSPropertyOp49
 70
     1
102
RTVSPropertyOp50
 70
     1
102
RTVSPropertyOp51
 70
     0
102
RTVSPropertyOp52
 70
     0
102
RTVSPropertyOp53
 70
     1
102
RTVSPropertyOp54
 70
     1
102
RTVSPropertyOp55
 70
     1
102
RTVSPropertyOp56
 70
     1
102
RTVSPropertyOp57
 70
     1
102
RTVSPropertyOp58
 70
     1
102
RTVSPropertyOp59
 70
     1
102
RTVSPropertyOp60
 70
     1
102
RTVSPropertyOp61
 70
     1
102
RTVSPropertyOp62
 70
     1
  0
XRECORD
  5
16CF
102
{ACAD_REACTORS
330
16CE
102
}
330
16CE
100
AcDbXrecord
280
     1
102
RTVSPost2010Prop28
280
     0
102
RTVSPost2010PropOp28
 70
     1
102
RTVSPost2010Prop29
280
     1
102
RTVSPost2010PropOp29
 70
     1
102
RTVSPost2010Prop30
280
     1
102
RTVSPost2010PropOp30
 70
     1
102
RTVSPost2010Prop31
280
     0
102
RTVSPost2010PropOp31
 70
     1
102
RTVSPost2010Prop32
280
     0
102
RTVSPost2010PropOp32
 70
     1
102
RTVSPost2010Prop33
280
     0
102
RTVSPost2010PropOp33
 70
     1
102
RTVSPost2010Prop34
280
     0
102
RTVSPost2010PropOp34
 70
     1
102
RTVSPost2010Prop35
280
     0
102
RTVSPost2010PropOp35
 70
     1
102
RTVSPost2010Prop36
280
     0
102
RTVSPost2010PropOp36
 70
     1
102
RTVSPost2010Prop37
 90
       50
102
RTVSPost2010PropOp37
 70
     1
102
RTVSPost2010Prop38
140
0.0
102
RTVSPost2010PropOp38
 70
     1
102
RTVSPost2010Prop39
140
1.0
102
RTVSPost2010PropOp39
 70
     1
102
RTVSPost2010Prop40
 90
        0
102
RTVSPost2010PropOp40
 70
     1
102
RTVSPost2010Prop41ColorIndex
 90
       18
102
RTVSPost2010Prop41ColorRGB
 90
        0
102
RTVSPost2010PropOp41
 70
     1
102
RTVSPost2010Prop42
 90
       50
102
RTVSPost2010PropOp42
 70
     1
102
RTVSPost2010Prop43
 90
        3
102
RTVSPost2010PropOp43
 70
     1
102
RTVSPost2010Prop44ColorIndex
 90
        5
102
RTVSPost2010Prop44ColorRGB
 90
      255
102
RTVSPost2010PropOp44
 70
     1
102
RTVSPost2010Prop45
280
     0
102
RTVSPost2010PropOp45
 70
     1
102
RTVSPost2010Prop46
 90
       50
102
RTVSPost2010PropOp46
 70
     1
102
RTVSPost2010Prop47
 90
       50
102
RTVSPost2010PropOp47
 70
     1
102
RTVSPost2010Prop48
 90
       50
102
RTVSPost2010PropOp48
 70
     1
102
RTVSPost2010Prop49
280
     0
102
RTVSPost2010PropOp49
 70
     1
102
RTVSPost2010Prop50
 90
       50
102
RTVSPost2010PropOp50
 70
     1
102
RTVSPost2010Prop51ColorIndex
 90
      256
102
RTVSPost2010Prop51ColorRGB
 90
-16777216
102
RTVSPost2010PropOp51
 70
     0
102
RTVSPost2010Prop52
140
1.0
102
RTVSPost2010PropOp52
 70
     0
102
RTVSPost2010Prop53
 90
        2
102
RTVSPost2010PropOp53
 70
     1
102
RTVSPost2010Prop54
  1
strokes_ogs.tif
102
RTVSPost2010PropOp54
 70
     1
102
RTVSPost2010Prop55
280
     0
102
RTVSPost2010PropOp55
 70
     1
102
RTVSPost2010Prop56
140
1.0
102
RTVSPost2010PropOp56
 70
     1
102
RTVSPost2010Prop57
140
1.0
102
RTVSPost2010PropOp57
 70
     1
102
RTVSPropertyOp0
 70
     1
102
RTVSPropertyOp1
 70
     1
102
RTVSPropertyOp2
 70
     1
102
RTVSPropertyOp3
 70
     1
102
RTVSPropertyOp4
 70
     1
102
RTVSPropertyOp5
 70
     1
102
RTVSPropertyOp6
 70
     1
102
RTVSPropertyOp7
 70
     1
102
RTVSPropertyOp8
 70
     1
102
RTVSPropertyOp9
 70
     1
102
RTVSPropertyOp10
 70
     1
102
RTVSPropertyOp11
 70
     1
102
RTVSPropertyOp12
 70
     1
102
RTVSPropertyOp13
 70
     1
102
RTVSPropertyOp14
 70
     1
102
RTVSPropertyOp15
 70
     1
102
RTVSPropertyOp16
 70
     1
102
RTVSPropertyOp17
 70
     1
102
RTVSPropertyOp18
 70
     1
102
RTVSPropertyOp19
 70
     1
102
RTVSPropertyOp20
 70
     1
102
RTVSPropertyOp21
 70
     1
102
RTVSPropertyOp22
 70
     1
102
RTVSPropertyOp23
 70
     1
102
RTVSPropertyOp24
 70
     1
102
RTVSPropertyOp25
 70
     1
102
RTVSPropertyOp26
 70
     1
102
RTVSPropertyOp27
 70
     1
102
RTVSPropertyOp28
 70
     1
102
RTVSPropertyOp29
 70
     1
102
RTVSPropertyOp30
 70
     1
102
RTVSPropertyOp31
 70
     1
102
RTVSPropertyOp32
 70
     1
102
RTVSPropertyOp33
 70
     1
102
RTVSPropertyOp34
 70
     1
102
RTVSPropertyOp35
 70
     1
102
RTVSPropertyOp36
 70
     1
102
RTVSPropertyOp37
 70
     1
102
RTVSPropertyOp38
 70
     1
102
RTVSPropertyOp39
 70
     1
102
RTVSPropertyOp40
 70
     1
102
RTVSPropertyOp41
 70
     1
102
RTVSPropertyOp42
 70
     1
102
RTVSPropertyOp43
 70
     1
102
RTVSPropertyOp44
 70
     1
102
RTVSPropertyOp45
 70
     1
102
RTVSPropertyOp46
 70
     1
102
RTVSPropertyOp47
 70
     1
102
RTVSPropertyOp48
 70
     1
102
RTVSPropertyOp49
 70
     1
102
RTVSPropertyOp50
 70
     1
102
RTVSPropertyOp51
 70
     0
102
RTVSPropertyOp52
 70
     0
102
RTVSPropertyOp53
 70
     1
102
RTVSPropertyOp54
 70
     1
102
RTVSPropertyOp55
 70
     1
102
RTVSPropertyOp56
 70
     1
102
RTVSPropertyOp57
 70
     1
102
RTVSPropertyOp58
 70
     1
102
RTVSPropertyOp59
 70
     1
102
RTVSPropertyOp60
 70
     1
102
RTVSPropertyOp61
 70
     1
102
RTVSPropertyOp62
 70
     1
  0
XRECORD
  5
16D3
102
{ACAD_REACTORS
330
16D2
102
}
330
16D2
100
AcDbXrecord
280
     1
102
RTVSPost2010Prop28
280
     0
102
RTVSPost2010PropOp28
 70
     1
102
RTVSPost2010Prop29
280
     1
102
RTVSPost2010PropOp29
 70
     1
102
RTVSPost2010Prop30
280
     1
102
RTVSPost2010PropOp30
 70
     1
102
RTVSPost2010Prop31
280
     0
102
RTVSPost2010PropOp31
 70
     1
102
RTVSPost2010Prop32
280
     0
102
RTVSPost2010PropOp32
 70
     1
102
RTVSPost2010Prop33
280
     0
102
RTVSPost2010PropOp33
 70
     1
102
RTVSPost2010Prop34
280
     0
102
RTVSPost2010PropOp34
 70
     1
102
RTVSPost2010Prop35
280
     0
102
RTVSPost2010PropOp35
 70
     1
102
RTVSPost2010Prop36
280
     0
102
RTVSPost2010PropOp36
 70
     1
102
RTVSPost2010Prop37
 90
       50
102
RTVSPost2010PropOp37
 70
     1
102
RTVSPost2010Prop38
140
0.0
102
RTVSPost2010PropOp38
 70
     1
102
RTVSPost2010Prop39
140
1.0
102
RTVSPost2010PropOp39
 70
     1
102
RTVSPost2010Prop40
 90
        0
102
RTVSPost2010PropOp40
 70
     1
102
RTVSPost2010Prop41ColorIndex
 90
       18
102
RTVSPost2010Prop41ColorRGB
 90
        0
102
RTVSPost2010PropOp41
 70
     1
102
RTVSPost2010Prop42
 90
       50
102
RTVSPost2010PropOp42
 70
     1
102
RTVSPost2010Prop43
 90
        3
102
RTVSPost2010PropOp43
 70
     1
102
RTVSPost2010Prop44ColorIndex
 90
        5
102
RTVSPost2010Prop44ColorRGB
 90
      255
102
RTVSPost2010PropOp44
 70
     1
102
RTVSPost2010Prop45
280
     0
102
RTVSPost2010PropOp45
 70
     1
102
RTVSPost2010Prop46
 90
       50
102
RTVSPost2010PropOp46
 70
     1
102
RTVSPost2010Prop47
 90
       50
102
RTVSPost2010PropOp47
 70
     1
102
RTVSPost2010Prop48
 90
       50
102
RTVSPost2010PropOp48
 70
     1
102
RTVSPost2010Prop49
280
     0
102
RTVSPost2010PropOp49
 70
     1
102
RTVSPost2010Prop50
 90
       50
102
RTVSPost2010PropOp50
 70
     1
102
RTVSPost2010Prop51ColorIndex
 90
      256
102
RTVSPost2010Prop51ColorRGB
 90
-16777216
102
RTVSPost2010PropOp51
 70
     0
102
RTVSPost2010Prop52
140
1.0
102
RTVSPost2010PropOp52
 70
     0
102
RTVSPost2010Prop53
 90
        2
102
RTVSPost2010PropOp53
 70
     1
102
RTVSPost2010Prop54
  1
strokes_ogs.tif
102
RTVSPost2010PropOp54
 70
     1
102
RTVSPost2010Prop55
280
     0
102
RTVSPost2010PropOp55
 70
     1
102
RTVSPost2010Prop56
140
1.0
102
RTVSPost2010PropOp56
 70
     1
102
RTVSPost2010Prop57
140
1.0
102
RTVSPost2010PropOp57
 70
     1
102
RTVSPropertyOp0
 70
     1
102
RTVSPropertyOp1
 70
     1
102
RTVSPropertyOp2
 70
     1
102
RTVSPropertyOp3
 70
     1
102
RTVSPropertyOp4
 70
     1
102
RTVSPropertyOp5
 70
     1
102
RTVSPropertyOp6
 70
     1
102
RTVSPropertyOp7
 70
     1
102
RTVSPropertyOp8
 70
     1
102
RTVSPropertyOp9
 70
     1
102
RTVSPropertyOp10
 70
     1
102
RTVSPropertyOp11
 70
     1
102
RTVSPropertyOp12
 70
     1
102
RTVSPropertyOp13
 70
     1
102
RTVSPropertyOp14
 70
     1
102
RTVSPropertyOp15
 70
     1
102
RTVSPropertyOp16
 70
     1
102
RTVSPropertyOp17
 70
     1
102
RTVSPropertyOp18
 70
     1
102
RTVSPropertyOp19
 70
     1
102
RTVSPropertyOp20
 70
     1
102
RTVSPropertyOp21
 70
     1
102
RTVSPropertyOp22
 70
     1
102
RTVSPropertyOp23
 70
     1
102
RTVSPropertyOp24
 70
     1
102
RTVSPropertyOp25
 70
     1
102
RTVSPropertyOp26
 70
     1
102
RTVSPropertyOp27
 70
     1
102
RTVSPropertyOp28
 70
     1
102
RTVSPropertyOp29
 70
     1
102
RTVSPropertyOp30
 70
     1
102
RTVSPropertyOp31
 70
     1
102
RTVSPropertyOp32
 70
     1
102
RTVSPropertyOp33
 70
     1
102
RTVSPropertyOp34
 70
     1
102
RTVSPropertyOp35
 70
     1
102
RTVSPropertyOp36
 70
     1
102
RTVSPropertyOp37
 70
     1
102
RTVSPropertyOp38
 70
     1
102
RTVSPropertyOp39
 70
     1
102
RTVSPropertyOp40
 70
     1
102
RTVSPropertyOp41
 70
     1
102
RTVSPropertyOp42
 70
     1
102
RTVSPropertyOp43
 70
     1
102
RTVSPropertyOp44
 70
     1
102
RTVSPropertyOp45
 70
     1
102
RTVSPropertyOp46
 70
     1
102
RTVSPropertyOp47
 70
     1
102
RTVSPropertyOp48
 70
     1
102
RTVSPropertyOp49
 70
     1
102
RTVSPropertyOp50
 70
     1
102
RTVSPropertyOp51
 70
     0
102
RTVSPropertyOp52
 70
     0
102
RTVSPropertyOp53
 70
     1
102
RTVSPropertyOp54
 70
     1
102
RTVSPropertyOp55
 70
     1
102
RTVSPropertyOp56
 70
     1
102
RTVSPropertyOp57
 70
     1
102
RTVSPropertyOp58
 70
     1
102
RTVSPropertyOp59
 70
     1
102
RTVSPropertyOp60
 70
     1
102
RTVSPropertyOp61
 70
     1
102
RTVSPropertyOp62
 70
     1
  0
XRECORD
  5
16ED
102
{ACAD_REACTORS
330
16EC
102
}
330
16EC
100
AcDbXrecord
280
     1
102
RTVSPost2010Prop28
280
     0
102
RTVSPost2010PropOp28
 70
     1
102
RTVSPost2010Prop29
280
     1
102
RTVSPost2010PropOp29
 70
     1
102
RTVSPost2010Prop30
280
     1
102
RTVSPost2010PropOp30
 70
     1
102
RTVSPost2010Prop31
280
     0
102
RTVSPost2010PropOp31
 70
     1
102
RTVSPost2010Prop32
280
     0
102
RTVSPost2010PropOp32
 70
     1
102
RTVSPost2010Prop33
280
     0
102
RTVSPost2010PropOp33
 70
     1
102
RTVSPost2010Prop34
280
     0
102
RTVSPost2010PropOp34
 70
     1
102
RTVSPost2010Prop35
280
     0
102
RTVSPost2010PropOp35
 70
     1
102
RTVSPost2010Prop36
280
     0
102
RTVSPost2010PropOp36
 70
     1
102
RTVSPost2010Prop37
 90
       50
102
RTVSPost2010PropOp37
 70
     0
102
RTVSPost2010Prop38
140
0.0
102
RTVSPost2010PropOp38
 70
     0
102
RTVSPost2010Prop39
140
1.0
102
RTVSPost2010PropOp39
 70
     0
102
RTVSPost2010Prop40
 90
        0
102
RTVSPost2010PropOp40
 70
     0
102
RTVSPost2010Prop41ColorIndex
 90
       18
102
RTVSPost2010Prop41ColorRGB
 90
        0
102
RTVSPost2010PropOp41
 70
     0
102
RTVSPost2010Prop42
 90
       50
102
RTVSPost2010PropOp42
 70
     0
102
RTVSPost2010Prop43
 90
        3
102
RTVSPost2010PropOp43
 70
     0
102
RTVSPost2010Prop44ColorIndex
 90
        5
102
RTVSPost2010Prop44ColorRGB
 90
      255
102
RTVSPost2010PropOp44
 70
     0
102
RTVSPost2010Prop45
280
     0
102
RTVSPost2010PropOp45
 70
     1
102
RTVSPost2010Prop46
 90
       50
102
RTVSPost2010PropOp46
 70
     0
102
RTVSPost2010Prop47
 90
       50
102
RTVSPost2010PropOp47
 70
     0
102
RTVSPost2010Prop48
 90
       50
102
RTVSPost2010PropOp48
 70
     0
102
RTVSPost2010Prop49
280
     0
102
RTVSPost2010PropOp49
 70
     1
102
RTVSPost2010Prop50
 90
       50
102
RTVSPost2010PropOp50
 70
     0
102
RTVSPost2010Prop51ColorIndex
 90
      256
102
RTVSPost2010Prop51ColorRGB
 90
-16777216
102
RTVSPost2010PropOp51
 70
     0
102
RTVSPost2010Prop52
140
1.0
102
RTVSPost2010PropOp52
 70
     0
102
RTVSPost2010Prop53
 90
        2
102
RTVSPost2010PropOp53
 70
     0
102
RTVSPost2010Prop54
  1
strokes_ogs.tif
102
RTVSPost2010PropOp54
 70
     0
102
RTVSPost2010Prop55
280
     0
102
RTVSPost2010PropOp55
 70
     1
102
RTVSPost2010Prop56
140
1.0
102
RTVSPost2010PropOp56
 70
     0
102
RTVSPost2010Prop57
140
1.0
102
RTVSPost2010PropOp57
 70
     0
102
RTVSPropertyOp0
 70
     0
102
RTVSPropertyOp1
 70
     0
102
RTVSPropertyOp2
 70
     0
102
RTVSPropertyOp3
 70
     0
102
RTVSPropertyOp4
 70
     0
102
RTVSPropertyOp5
 70
     0
102
RTVSPropertyOp6
 70
     0
102
RTVSPropertyOp7
 70
     0
102
RTVSPropertyOp8
 70
     0
102
RTVSPropertyOp9
 70
     0
102
RTVSPropertyOp10
 70
     0
102
RTVSPropertyOp11
 70
     0
102
RTVSPropertyOp12
 70
     0
102
RTVSPropertyOp13
 70
     0
102
RTVSPropertyOp14
 70
     2
102
RTVSPropertyOp15
 70
     0
102
RTVSPropertyOp16
 70
     0
102
RTVSPropertyOp17
 70
     0
102
RTVSPropertyOp18
 70
     0
102
RTVSPropertyOp19
 70
     0
102
RTVSPropertyOp20
 70
     0
102
RTVSPropertyOp21
 70
     0
102
RTVSPropertyOp22
 70
     0
102
RTVSPropertyOp23
 70
     0
102
RTVSPropertyOp24
 70
     0
102
RTVSPropertyOp25
 70
     0
102
RTVSPropertyOp26
 70
     0
102
RTVSPropertyOp27
 70
     0
102
RTVSPropertyOp28
 70
     1
102
RTVSPropertyOp29
 70
     1
102
RTVSPropertyOp30
 70
     1
102
RTVSPropertyOp31
 70
     1
102
RTVSPropertyOp32
 70
     1
102
RTVSPropertyOp33
 70
     1
102
RTVSPropertyOp34
 70
     1
102
RTVSPropertyOp35
 70
     1
102
RTVSPropertyOp36
 70
     1
102
RTVSPropertyOp37
 70
     0
102
RTVSPropertyOp38
 70
     0
102
RTVSPropertyOp39
 70
     0
102
RTVSPropertyOp40
 70
     0
102
RTVSPropertyOp41
 70
     0
102
RTVSPropertyOp42
 70
     0
102
RTVSPropertyOp43
 70
     0
102
RTVSPropertyOp44
 70
     0
102
RTVSPropertyOp45
 70
     1
102
RTVSPropertyOp46
 70
     0
102
RTVSPropertyOp47
 70
     0
102
RTVSPropertyOp48
 70
     0
102
RTVSPropertyOp49
 70
     1
102
RTVSPropertyOp50
 70
     0
102
RTVSPropertyOp51
 70
     0
102
RTVSPropertyOp52
 70
     0
102
RTVSPropertyOp53
 70
     0
102
RTVSPropertyOp54
 70
     0
102
RTVSPropertyOp55
 70
     1
102
RTVSPropertyOp56
 70
     0
102
RTVSPropertyOp57
 70
     0
102
RTVSPropertyOp58
 70
     0
102
RTVSPropertyOp59
 70
     0
102
RTVSPropertyOp60
 70
     0
102
RTVSPropertyOp61
 70
     0
102
RTVSPropertyOp62
 70
     0
  0
XRECORD
  5
16DB
102
{ACAD_REACTORS
330
16DA
102
}
330
16DA
100
AcDbXrecord
280
     1
102
RTVSPost2010Prop28
280
     0
102
RTVSPost2010PropOp28
 70
     1
102
RTVSPost2010Prop29
280
     1
102
RTVSPost2010PropOp29
 70
     1
102
RTVSPost2010Prop30
280
     1
102
RTVSPost2010PropOp30
 70
     1
102
RTVSPost2010Prop31
280
     0
102
RTVSPost2010PropOp31
 70
     1
102
RTVSPost2010Prop32
280
     0
102
RTVSPost2010PropOp32
 70
     1
102
RTVSPost2010Prop33
280
     0
102
RTVSPost2010PropOp33
 70
     1
102
RTVSPost2010Prop34
280
     0
102
RTVSPost2010PropOp34
 70
     1
102
RTVSPost2010Prop35
280
     0
102
RTVSPost2010PropOp35
 70
     1
102
RTVSPost2010Prop36
280
     0
102
RTVSPost2010PropOp36
 70
     1
102
RTVSPost2010Prop37
 90
       50
102
RTVSPost2010PropOp37
 70
     1
102
RTVSPost2010Prop38
140
0.0
102
RTVSPost2010PropOp38
 70
     1
102
RTVSPost2010Prop39
140
1.0
102
RTVSPost2010PropOp39
 70
     1
102
RTVSPost2010Prop40
 90
        0
102
RTVSPost2010PropOp40
 70
     1
102
RTVSPost2010Prop41ColorIndex
 90
       18
102
RTVSPost2010Prop41ColorRGB
 90
        0
102
RTVSPost2010PropOp41
 70
     1
102
RTVSPost2010Prop42
 90
       50
102
RTVSPost2010PropOp42
 70
     1
102
RTVSPost2010Prop43
 90
        3
102
RTVSPost2010PropOp43
 70
     1
102
RTVSPost2010Prop44ColorIndex
 90
        5
102
RTVSPost2010Prop44ColorRGB
 90
      255
102
RTVSPost2010PropOp44
 70
     1
102
RTVSPost2010Prop45
280
     0
102
RTVSPost2010PropOp45
 70
     1
102
RTVSPost2010Prop46
 90
       50
102
RTVSPost2010PropOp46
 70
     1
102
RTVSPost2010Prop47
 90
       50
102
RTVSPost2010PropOp47
 70
     1
102
RTVSPost2010Prop48
 90
       50
102
RTVSPost2010PropOp48
 70
     1
102
RTVSPost2010Prop49
280
     0
102
RTVSPost2010PropOp49
 70
     1
102
RTVSPost2010Prop50
 90
       50
102
RTVSPost2010PropOp50
 70
     1
102
RTVSPost2010Prop51ColorIndex
 90
      256
102
RTVSPost2010Prop51ColorRGB
 90
-16777216
102
RTVSPost2010PropOp51
 70
     0
102
RTVSPost2010Prop52
140
1.0
102
RTVSPost2010PropOp52
 70
     0
102
RTVSPost2010Prop53
 90
        2
102
RTVSPost2010PropOp53
 70
     1
102
RTVSPost2010Prop54
  1
strokes_ogs.tif
102
RTVSPost2010PropOp54
 70
     1
102
RTVSPost2010Prop55
280
     0
102
RTVSPost2010PropOp55
 70
     1
102
RTVSPost2010Prop56
140
1.0
102
RTVSPost2010PropOp56
 70
     1
102
RTVSPost2010Prop57
140
1.0
102
RTVSPost2010PropOp57
 70
     1
102
RTVSPropertyOp0
 70
     1
102
RTVSPropertyOp1
 70
     1
102
RTVSPropertyOp2
 70
     1
102
RTVSPropertyOp3
 70
     1
102
RTVSPropertyOp4
 70
     1
102
RTVSPropertyOp5
 70
     1
102
RTVSPropertyOp6
 70
     1
102
RTVSPropertyOp7
 70
     1
102
RTVSPropertyOp8
 70
     1
102
RTVSPropertyOp9
 70
     1
102
RTVSPropertyOp10
 70
     1
102
RTVSPropertyOp11
 70
     1
102
RTVSPropertyOp12
 70
     1
102
RTVSPropertyOp13
 70
     1
102
RTVSPropertyOp14
 70
     1
102
RTVSPropertyOp15
 70
     1
102
RTVSPropertyOp16
 70
     1
102
RTVSPropertyOp17
 70
     1
102
RTVSPropertyOp18
 70
     1
102
RTVSPropertyOp19
 70
     1
102
RTVSPropertyOp20
 70
     1
102
RTVSPropertyOp21
 70
     1
102
RTVSPropertyOp22
 70
     1
102
RTVSPropertyOp23
 70
     1
102
RTVSPropertyOp24
 70
     1
102
RTVSPropertyOp25
 70
     1
102
RTVSPropertyOp26
 70
     1
102
RTVSPropertyOp27
 70
     1
102
RTVSPropertyOp28
 70
     1
102
RTVSPropertyOp29
 70
     1
102
RTVSPropertyOp30
 70
     1
102
RTVSPropertyOp31
 70
     1
102
RTVSPropertyOp32
 70
     1
102
RTVSPropertyOp33
 70
     1
102
RTVSPropertyOp34
 70
     1
102
RTVSPropertyOp35
 70
     1
102
RTVSPropertyOp36
 70
     1
102
RTVSPropertyOp37
 70
     1
102
RTVSPropertyOp38
 70
     1
102
RTVSPropertyOp39
 70
     1
102
RTVSPropertyOp40
 70
     1
102
RTVSPropertyOp41
 70
     1
102
RTVSPropertyOp42
 70
     1
102
RTVSPropertyOp43
 70
     1
102
RTVSPropertyOp44
 70
     1
102
RTVSPropertyOp45
 70
     1
102
RTVSPropertyOp46
 70
     1
102
RTVSPropertyOp47
 70
     1
102
RTVSPropertyOp48
 70
     1
102
RTVSPropertyOp49
 70
     1
102
RTVSPropertyOp50
 70
     1
102
RTVSPropertyOp51
 70
     0
102
RTVSPropertyOp52
 70
     0
102
RTVSPropertyOp53
 70
     1
102
RTVSPropertyOp54
 70
     1
102
RTVSPropertyOp55
 70
     1
102
RTVSPropertyOp56
 70
     1
102
RTVSPropertyOp57
 70
     1
102
RTVSPropertyOp58
 70
     1
102
RTVSPropertyOp59
 70
     1
102
RTVSPropertyOp60
 70
     1
102
RTVSPropertyOp61
 70
     1
102
RTVSPropertyOp62
 70
     1
  0
XRECORD
  5
16BF
102
{ACAD_REACTORS
330
16BE
102
}
330
16BE
100
AcDbXrecord
280
     1
102
RTVSPost2010Prop28
280
     0
102
RTVSPost2010PropOp28
 70
     1
102
RTVSPost2010Prop29
280
     1
102
RTVSPost2010PropOp29
 70
     1
102
RTVSPost2010Prop30
280
     1
102
RTVSPost2010PropOp30
 70
     1
102
RTVSPost2010Prop31
280
     0
102
RTVSPost2010PropOp31
 70
     1
102
RTVSPost2010Prop32
280
     0
102
RTVSPost2010PropOp32
 70
     1
102
RTVSPost2010Prop33
280
     0
102
RTVSPost2010PropOp33
 70
     1
102
RTVSPost2010Prop34
280
     0
102
RTVSPost2010PropOp34
 70
     1
102
RTVSPost2010Prop35
280
     0
102
RTVSPost2010PropOp35
 70
     1
102
RTVSPost2010Prop36
280
     0
102
RTVSPost2010PropOp36
 70
     1
102
RTVSPost2010Prop37
 90
       50
102
RTVSPost2010PropOp37
 70
     1
102
RTVSPost2010Prop38
140
0.0
102
RTVSPost2010PropOp38
 70
     1
102
RTVSPost2010Prop39
140
1.0
102
RTVSPost2010PropOp39
 70
     1
102
RTVSPost2010Prop40
 90
        0
102
RTVSPost2010PropOp40
 70
     1
102
RTVSPost2010Prop41ColorIndex
 90
       18
102
RTVSPost2010Prop41ColorRGB
 90
        0
102
RTVSPost2010PropOp41
 70
     1
102
RTVSPost2010Prop42
 90
       50
102
RTVSPost2010PropOp42
 70
     1
102
RTVSPost2010Prop43
 90
        3
102
RTVSPost2010PropOp43
 70
     1
102
RTVSPost2010Prop44ColorIndex
 90
        5
102
RTVSPost2010Prop44ColorRGB
 90
      255
102
RTVSPost2010PropOp44
 70
     1
102
RTVSPost2010Prop45
280
     0
102
RTVSPost2010PropOp45
 70
     1
102
RTVSPost2010Prop46
 90
       50
102
RTVSPost2010PropOp46
 70
     1
102
RTVSPost2010Prop47
 90
       50
102
RTVSPost2010PropOp47
 70
     1
102
RTVSPost2010Prop48
 90
       50
102
RTVSPost2010PropOp48
 70
     1
102
RTVSPost2010Prop49
280
     0
102
RTVSPost2010PropOp49
 70
     1
102
RTVSPost2010Prop50
 90
       50
102
RTVSPost2010PropOp50
 70
     1
102
RTVSPost2010Prop51ColorIndex
 90
      256
102
RTVSPost2010Prop51ColorRGB
 90
-16777216
102
RTVSPost2010PropOp51
 70
     0
102
RTVSPost2010Prop52
140
1.0
102
RTVSPost2010PropOp52
 70
     0
102
RTVSPost2010Prop53
 90
        2
102
RTVSPost2010PropOp53
 70
     1
102
RTVSPost2010Prop54
  1
strokes_ogs.tif
102
RTVSPost2010PropOp54
 70
     1
102
RTVSPost2010Prop55
280
     0
102
RTVSPost2010PropOp55
 70
     1
102
RTVSPost2010Prop56
140
1.0
102
RTVSPost2010PropOp56
 70
     1
102
RTVSPost2010Prop57
140
1.0
102
RTVSPost2010PropOp57
 70
     1
102
RTVSPropertyOp0
 70
     1
102
RTVSPropertyOp1
 70
     1
102
RTVSPropertyOp2
 70
     1
102
RTVSPropertyOp3
 70
     1
102
RTVSPropertyOp4
 70
     1
102
RTVSPropertyOp5
 70
     1
102
RTVSPropertyOp6
 70
     1
102
RTVSPropertyOp7
 70
     1
102
RTVSPropertyOp8
 70
     1
102
RTVSPropertyOp9
 70
     1
102
RTVSPropertyOp10
 70
     1
102
RTVSPropertyOp11
 70
     1
102
RTVSPropertyOp12
 70
     1
102
RTVSPropertyOp13
 70
     1
102
RTVSPropertyOp14
 70
     1
102
RTVSPropertyOp15
 70
     1
102
RTVSPropertyOp16
 70
     1
102
RTVSPropertyOp17
 70
     1
102
RTVSPropertyOp18
 70
     1
102
RTVSPropertyOp19
 70
     1
102
RTVSPropertyOp20
 70
     1
102
RTVSPropertyOp21
 70
     1
102
RTVSPropertyOp22
 70
     1
102
RTVSPropertyOp23
 70
     1
102
RTVSPropertyOp24
 70
     1
102
RTVSPropertyOp25
 70
     1
102
RTVSPropertyOp26
 70
     1
102
RTVSPropertyOp27
 70
     1
102
RTVSPropertyOp28
 70
     1
102
RTVSPropertyOp29
 70
     1
102
RTVSPropertyOp30
 70
     1
102
RTVSPropertyOp31
 70
     1
102
RTVSPropertyOp32
 70
     1
102
RTVSPropertyOp33
 70
     1
102
RTVSPropertyOp34
 70
     1
102
RTVSPropertyOp35
 70
     1
102
RTVSPropertyOp36
 70
     1
102
RTVSPropertyOp37
 70
     1
102
RTVSPropertyOp38
 70
     1
102
RTVSPropertyOp39
 70
     1
102
RTVSPropertyOp40
 70
     1
102
RTVSPropertyOp41
 70
     1
102
RTVSPropertyOp42
 70
     1
102
RTVSPropertyOp43
 70
     1
102
RTVSPropertyOp44
 70
     1
102
RTVSPropertyOp45
 70
     1
102
RTVSPropertyOp46
 70
     1
102
RTVSPropertyOp47
 70
     1
102
RTVSPropertyOp48
 70
     1
102
RTVSPropertyOp49
 70
     1
102
RTVSPropertyOp50
 70
     1
102
RTVSPropertyOp51
 70
     0
102
RTVSPropertyOp52
 70
     0
102
RTVSPropertyOp53
 70
     1
102
RTVSPropertyOp54
 70
     1
102
RTVSPropertyOp55
 70
     1
102
RTVSPropertyOp56
 70
     1
102
RTVSPropertyOp57
 70
     1
102
RTVSPropertyOp58
 70
     1
102
RTVSPropertyOp59
 70
     1
102
RTVSPropertyOp60
 70
     1
102
RTVSPropertyOp61
 70
     1
102
RTVSPropertyOp62
 70
     1
  0
XRECORD
  5
16C1
102
{ACAD_REACTORS
330
16C0
102
}
330
16C0
100
AcDbXrecord
280
     1
102
RTVSPost2010Prop28
280
     0
102
RTVSPost2010PropOp28
 70
     1
102
RTVSPost2010Prop29
280
     1
102
RTVSPost2010PropOp29
 70
     1
102
RTVSPost2010Prop30
280
     1
102
RTVSPost2010PropOp30
 70
     1
102
RTVSPost2010Prop31
280
     0
102
RTVSPost2010PropOp31
 70
     1
102
RTVSPost2010Prop32
280
     0
102
RTVSPost2010PropOp32
 70
     1
102
RTVSPost2010Prop33
280
     0
102
RTVSPost2010PropOp33
 70
     1
102
RTVSPost2010Prop34
280
     0
102
RTVSPost2010PropOp34
 70
     1
102
RTVSPost2010Prop35
280
     0
102
RTVSPost2010PropOp35
 70
     1
102
RTVSPost2010Prop36
280
     0
102
RTVSPost2010PropOp36
 70
     1
102
RTVSPost2010Prop37
 90
       50
102
RTVSPost2010PropOp37
 70
     1
102
RTVSPost2010Prop38
140
0.0
102
RTVSPost2010PropOp38
 70
     1
102
RTVSPost2010Prop39
140
1.0
102
RTVSPost2010PropOp39
 70
     1
102
RTVSPost2010Prop40
 90
        0
102
RTVSPost2010PropOp40
 70
     1
102
RTVSPost2010Prop41ColorIndex
 90
       18
102
RTVSPost2010Prop41ColorRGB
 90
        0
102
RTVSPost2010PropOp41
 70
     1
102
RTVSPost2010Prop42
 90
       50
102
RTVSPost2010PropOp42
 70
     1
102
RTVSPost2010Prop43
 90
        3
102
RTVSPost2010PropOp43
 70
     1
102
RTVSPost2010Prop44ColorIndex
 90
        5
102
RTVSPost2010Prop44ColorRGB
 90
      255
102
RTVSPost2010PropOp44
 70
     1
102
RTVSPost2010Prop45
280
     0
102
RTVSPost2010PropOp45
 70
     1
102
RTVSPost2010Prop46
 90
       50
102
RTVSPost2010PropOp46
 70
     1
102
RTVSPost2010Prop47
 90
       50
102
RTVSPost2010PropOp47
 70
     1
102
RTVSPost2010Prop48
 90
       50
102
RTVSPost2010PropOp48
 70
     1
102
RTVSPost2010Prop49
280
     0
102
RTVSPost2010PropOp49
 70
     1
102
RTVSPost2010Prop50
 90
       50
102
RTVSPost2010PropOp50
 70
     1
102
RTVSPost2010Prop51ColorIndex
 90
      256
102
RTVSPost2010Prop51ColorRGB
 90
-16777216
102
RTVSPost2010PropOp51
 70
     0
102
RTVSPost2010Prop52
140
1.0
102
RTVSPost2010PropOp52
 70
     0
102
RTVSPost2010Prop53
 90
        2
102
RTVSPost2010PropOp53
 70
     1
102
RTVSPost2010Prop54
  1
strokes_ogs.tif
102
RTVSPost2010PropOp54
 70
     1
102
RTVSPost2010Prop55
280
     0
102
RTVSPost2010PropOp55
 70
     1
102
RTVSPost2010Prop56
140
1.0
102
RTVSPost2010PropOp56
 70
     1
102
RTVSPost2010Prop57
140
1.0
102
RTVSPost2010PropOp57
 70
     1
102
RTVSPropertyOp0
 70
     1
102
RTVSPropertyOp1
 70
     1
102
RTVSPropertyOp2
 70
     1
102
RTVSPropertyOp3
 70
     1
102
RTVSPropertyOp4
 70
     1
102
RTVSPropertyOp5
 70
     1
102
RTVSPropertyOp6
 70
     1
102
RTVSPropertyOp7
 70
     1
102
RTVSPropertyOp8
 70
     1
102
RTVSPropertyOp9
 70
     1
102
RTVSPropertyOp10
 70
     1
102
RTVSPropertyOp11
 70
     1
102
RTVSPropertyOp12
 70
     1
102
RTVSPropertyOp13
 70
     1
102
RTVSPropertyOp14
 70
     1
102
RTVSPropertyOp15
 70
     1
102
RTVSPropertyOp16
 70
     1
102
RTVSPropertyOp17
 70
     1
102
RTVSPropertyOp18
 70
     1
102
RTVSPropertyOp19
 70
     1
102
RTVSPropertyOp20
 70
     1
102
RTVSPropertyOp21
 70
     1
102
RTVSPropertyOp22
 70
     1
102
RTVSPropertyOp23
 70
     1
102
RTVSPropertyOp24
 70
     1
102
RTVSPropertyOp25
 70
     1
102
RTVSPropertyOp26
 70
     1
102
RTVSPropertyOp27
 70
     1
102
RTVSPropertyOp28
 70
     1
102
RTVSPropertyOp29
 70
     1
102
RTVSPropertyOp30
 70
     1
102
RTVSPropertyOp31
 70
     1
102
RTVSPropertyOp32
 70
     1
102
RTVSPropertyOp33
 70
     1
102
RTVSPropertyOp34
 70
     1
102
RTVSPropertyOp35
 70
     1
102
RTVSPropertyOp36
 70
     1
102
RTVSPropertyOp37
 70
     1
102
RTVSPropertyOp38
 70
     1
102
RTVSPropertyOp39
 70
     1
102
RTVSPropertyOp40
 70
     1
102
RTVSPropertyOp41
 70
     1
102
RTVSPropertyOp42
 70
     1
102
RTVSPropertyOp43
 70
     1
102
RTVSPropertyOp44
 70
     1
102
RTVSPropertyOp45
 70
     1
102
RTVSPropertyOp46
 70
     1
102
RTVSPropertyOp47
 70
     1
102
RTVSPropertyOp48
 70
     1
102
RTVSPropertyOp49
 70
     1
102
RTVSPropertyOp50
 70
     1
102
RTVSPropertyOp51
 70
     0
102
RTVSPropertyOp52
 70
     0
102
RTVSPropertyOp53
 70
     1
102
RTVSPropertyOp54
 70
     1
102
RTVSPropertyOp55
 70
     1
102
RTVSPropertyOp56
 70
     1
102
RTVSPropertyOp57
 70
     1
102
RTVSPropertyOp58
 70
     1
102
RTVSPropertyOp59
 70
     1
102
RTVSPropertyOp60
 70
     1
102
RTVSPropertyOp61
 70
     1
102
RTVSPropertyOp62
 70
     1
  0
XRECORD
  5
16C3
102
{ACAD_REACTORS
330
16C2
102
}
330
16C2
100
AcDbXrecord
280
     1
102
RTVSPost2010Prop28
280
     0
102
RTVSPost2010PropOp28
 70
     1
102
RTVSPost2010Prop29
280
     1
102
RTVSPost2010PropOp29
 70
     1
102
RTVSPost2010Prop30
280
     1
102
RTVSPost2010PropOp30
 70
     1
102
RTVSPost2010Prop31
280
     0
102
RTVSPost2010PropOp31
 70
     1
102
RTVSPost2010Prop32
280
     0
102
RTVSPost2010PropOp32
 70
     1
102
RTVSPost2010Prop33
280
     0
102
RTVSPost2010PropOp33
 70
     1
102
RTVSPost2010Prop34
280
     0
102
RTVSPost2010PropOp34
 70
     1
102
RTVSPost2010Prop35
280
     0
102
RTVSPost2010PropOp35
 70
     1
102
RTVSPost2010Prop36
280
     0
102
RTVSPost2010PropOp36
 70
     1
102
RTVSPost2010Prop37
 90
       50
102
RTVSPost2010PropOp37
 70
     1
102
RTVSPost2010Prop38
140
0.0
102
RTVSPost2010PropOp38
 70
     1
102
RTVSPost2010Prop39
140
1.0
102
RTVSPost2010PropOp39
 70
     1
102
RTVSPost2010Prop40
 90
        0
102
RTVSPost2010PropOp40
 70
     1
102
RTVSPost2010Prop41ColorIndex
 90
       18
102
RTVSPost2010Prop41ColorRGB
 90
        0
102
RTVSPost2010PropOp41
 70
     1
102
RTVSPost2010Prop42
 90
       50
102
RTVSPost2010PropOp42
 70
     1
102
RTVSPost2010Prop43
 90
        3
102
RTVSPost2010PropOp43
 70
     1
102
RTVSPost2010Prop44ColorIndex
 90
        5
102
RTVSPost2010Prop44ColorRGB
 90
      255
102
RTVSPost2010PropOp44
 70
     1
102
RTVSPost2010Prop45
280
     0
102
RTVSPost2010PropOp45
 70
     1
102
RTVSPost2010Prop46
 90
       50
102
RTVSPost2010PropOp46
 70
     1
102
RTVSPost2010Prop47
 90
       50
102
RTVSPost2010PropOp47
 70
     1
102
RTVSPost2010Prop48
 90
       50
102
RTVSPost2010PropOp48
 70
     1
102
RTVSPost2010Prop49
280
     0
102
RTVSPost2010PropOp49
 70
     1
102
RTVSPost2010Prop50
 90
       50
102
RTVSPost2010PropOp50
 70
     1
102
RTVSPost2010Prop51ColorIndex
 90
      256
102
RTVSPost2010Prop51ColorRGB
 90
-16777216
102
RTVSPost2010PropOp51
 70
     0
102
RTVSPost2010Prop52
140
1.0
102
RTVSPost2010PropOp52
 70
     0
102
RTVSPost2010Prop53
 90
        2
102
RTVSPost2010PropOp53
 70
     1
102
RTVSPost2010Prop54
  1
strokes_ogs.tif
102
RTVSPost2010PropOp54
 70
     1
102
RTVSPost2010Prop55
280
     0
102
RTVSPost2010PropOp55
 70
     1
102
RTVSPost2010Prop56
140
1.0
102
RTVSPost2010PropOp56
 70
     1
102
RTVSPost2010Prop57
140
1.0
102
RTVSPost2010PropOp57
 70
     1
102
RTVSPropertyOp0
 70
     1
102
RTVSPropertyOp1
 70
     1
102
RTVSPropertyOp2
 70
     1
102
RTVSPropertyOp3
 70
     1
102
RTVSPropertyOp4
 70
     1
102
RTVSPropertyOp5
 70
     1
102
RTVSPropertyOp6
 70
     1
102
RTVSPropertyOp7
 70
     1
102
RTVSPropertyOp8
 70
     1
102
RTVSPropertyOp9
 70
     1
102
RTVSPropertyOp10
 70
     1
102
RTVSPropertyOp11
 70
     1
102
RTVSPropertyOp12
 70
     1
102
RTVSPropertyOp13
 70
     1
102
RTVSPropertyOp14
 70
     1
102
RTVSPropertyOp15
 70
     1
102
RTVSPropertyOp16
 70
     1
102
RTVSPropertyOp17
 70
     1
102
RTVSPropertyOp18
 70
     1
102
RTVSPropertyOp19
 70
     1
102
RTVSPropertyOp20
 70
     1
102
RTVSPropertyOp21
 70
     1
102
RTVSPropertyOp22
 70
     1
102
RTVSPropertyOp23
 70
     1
102
RTVSPropertyOp24
 70
     1
102
RTVSPropertyOp25
 70
     1
102
RTVSPropertyOp26
 70
     1
102
RTVSPropertyOp27
 70
     1
102
RTVSPropertyOp28
 70
     1
102
RTVSPropertyOp29
 70
     1
102
RTVSPropertyOp30
 70
     1
102
RTVSPropertyOp31
 70
     1
102
RTVSPropertyOp32
 70
     1
102
RTVSPropertyOp33
 70
     1
102
RTVSPropertyOp34
 70
     1
102
RTVSPropertyOp35
 70
     1
102
RTVSPropertyOp36
 70
     1
102
RTVSPropertyOp37
 70
     1
102
RTVSPropertyOp38
 70
     1
102
RTVSPropertyOp39
 70
     1
102
RTVSPropertyOp40
 70
     1
102
RTVSPropertyOp41
 70
     1
102
RTVSPropertyOp42
 70
     1
102
RTVSPropertyOp43
 70
     1
102
RTVSPropertyOp44
 70
     1
102
RTVSPropertyOp45
 70
     1
102
RTVSPropertyOp46
 70
     1
102
RTVSPropertyOp47
 70
     1
102
RTVSPropertyOp48
 70
     1
102
RTVSPropertyOp49
 70
     1
102
RTVSPropertyOp50
 70
     1
102
RTVSPropertyOp51
 70
     0
102
RTVSPropertyOp52
 70
     0
102
RTVSPropertyOp53
 70
     1
102
RTVSPropertyOp54
 70
     1
102
RTVSPropertyOp55
 70
     1
102
RTVSPropertyOp56
 70
     1
102
RTVSPropertyOp57
 70
     1
102
RTVSPropertyOp58
 70
     1
102
RTVSPropertyOp59
 70
     1
102
RTVSPropertyOp60
 70
     1
102
RTVSPropertyOp61
 70
     1
102
RTVSPropertyOp62
 70
     1
  0
XRECORD
  5
16C5
102
{ACAD_REACTORS
330
16C4
102
}
330
16C4
100
AcDbXrecord
280
     1
102
RTVSPost2010Prop28
280
     0
102
RTVSPost2010PropOp28
 70
     1
102
RTVSPost2010Prop29
280
     1
102
RTVSPost2010PropOp29
 70
     1
102
RTVSPost2010Prop30
280
     1
102
RTVSPost2010PropOp30
 70
     1
102
RTVSPost2010Prop31
280
     0
102
RTVSPost2010PropOp31
 70
     1
102
RTVSPost2010Prop32
280
     0
102
RTVSPost2010PropOp32
 70
     1
102
RTVSPost2010Prop33
280
     0
102
RTVSPost2010PropOp33
 70
     1
102
RTVSPost2010Prop34
280
     0
102
RTVSPost2010PropOp34
 70
     1
102
RTVSPost2010Prop35
280
     0
102
RTVSPost2010PropOp35
 70
     1
102
RTVSPost2010Prop36
280
     0
102
RTVSPost2010PropOp36
 70
     1
102
RTVSPost2010Prop37
 90
       50
102
RTVSPost2010PropOp37
 70
     1
102
RTVSPost2010Prop38
140
0.0
102
RTVSPost2010PropOp38
 70
     1
102
RTVSPost2010Prop39
140
1.0
102
RTVSPost2010PropOp39
 70
     1
102
RTVSPost2010Prop40
 90
        0
102
RTVSPost2010PropOp40
 70
     1
102
RTVSPost2010Prop41ColorIndex
 90
       18
102
RTVSPost2010Prop41ColorRGB
 90
        0
102
RTVSPost2010PropOp41
 70
     1
102
RTVSPost2010Prop42
 90
       50
102
RTVSPost2010PropOp42
 70
     1
102
RTVSPost2010Prop43
 90
        3
102
RTVSPost2010PropOp43
 70
     1
102
RTVSPost2010Prop44ColorIndex
 90
        5
102
RTVSPost2010Prop44ColorRGB
 90
      255
102
RTVSPost2010PropOp44
 70
     1
102
RTVSPost2010Prop45
280
     0
102
RTVSPost2010PropOp45
 70
     1
102
RTVSPost2010Prop46
 90
       50
102
RTVSPost2010PropOp46
 70
     1
102
RTVSPost2010Prop47
 90
       50
102
RTVSPost2010PropOp47
 70
     1
102
RTVSPost2010Prop48
 90
       50
102
RTVSPost2010PropOp48
 70
     1
102
RTVSPost2010Prop49
280
     0
102
RTVSPost2010PropOp49
 70
     1
102
RTVSPost2010Prop50
 90
       50
102
RTVSPost2010PropOp50
 70
     1
102
RTVSPost2010Prop51ColorIndex
 90
      256
102
RTVSPost2010Prop51ColorRGB
 90
-16777216
102
RTVSPost2010PropOp51
 70
     0
102
RTVSPost2010Prop52
140
1.0
102
RTVSPost2010PropOp52
 70
     0
102
RTVSPost2010Prop53
 90
        2
102
RTVSPost2010PropOp53
 70
     1
102
RTVSPost2010Prop54
  1
strokes_ogs.tif
102
RTVSPost2010PropOp54
 70
     1
102
RTVSPost2010Prop55
280
     0
102
RTVSPost2010PropOp55
 70
     1
102
RTVSPost2010Prop56
140
1.0
102
RTVSPost2010PropOp56
 70
     1
102
RTVSPost2010Prop57
140
1.0
102
RTVSPost2010PropOp57
 70
     1
102
RTVSPropertyOp0
 70
     1
102
RTVSPropertyOp1
 70
     1
102
RTVSPropertyOp2
 70
     1
102
RTVSPropertyOp3
 70
     1
102
RTVSPropertyOp4
 70
     1
102
RTVSPropertyOp5
 70
     1
102
RTVSPropertyOp6
 70
     1
102
RTVSPropertyOp7
 70
     1
102
RTVSPropertyOp8
 70
     1
102
RTVSPropertyOp9
 70
     1
102
RTVSPropertyOp10
 70
     1
102
RTVSPropertyOp11
 70
     1
102
RTVSPropertyOp12
 70
     1
102
RTVSPropertyOp13
 70
     1
102
RTVSPropertyOp14
 70
     1
102
RTVSPropertyOp15
 70
     1
102
RTVSPropertyOp16
 70
     1
102
RTVSPropertyOp17
 70
     1
102
RTVSPropertyOp18
 70
     1
102
RTVSPropertyOp19
 70
     1
102
RTVSPropertyOp20
 70
     1
102
RTVSPropertyOp21
 70
     1
102
RTVSPropertyOp22
 70
     1
102
RTVSPropertyOp23
 70
     1
102
RTVSPropertyOp24
 70
     1
102
RTVSPropertyOp25
 70
     1
102
RTVSPropertyOp26
 70
     1
102
RTVSPropertyOp27
 70
     1
102
RTVSPropertyOp28
 70
     1
102
RTVSPropertyOp29
 70
     1
102
RTVSPropertyOp30
 70
     1
102
RTVSPropertyOp31
 70
     1
102
RTVSPropertyOp32
 70
     1
102
RTVSPropertyOp33
 70
     1
102
RTVSPropertyOp34
 70
     1
102
RTVSPropertyOp35
 70
     1
102
RTVSPropertyOp36
 70
     1
102
RTVSPropertyOp37
 70
     1
102
RTVSPropertyOp38
 70
     1
102
RTVSPropertyOp39
 70
     1
102
RTVSPropertyOp40
 70
     1
102
RTVSPropertyOp41
 70
     1
102
RTVSPropertyOp42
 70
     1
102
RTVSPropertyOp43
 70
     1
102
RTVSPropertyOp44
 70
     1
102
RTVSPropertyOp45
 70
     1
102
RTVSPropertyOp46
 70
     1
102
RTVSPropertyOp47
 70
     1
102
RTVSPropertyOp48
 70
     1
102
RTVSPropertyOp49
 70
     1
102
RTVSPropertyOp50
 70
     1
102
RTVSPropertyOp51
 70
     0
102
RTVSPropertyOp52
 70
     0
102
RTVSPropertyOp53
 70
     1
102
RTVSPropertyOp54
 70
     1
102
RTVSPropertyOp55
 70
     1
102
RTVSPropertyOp56
 70
     1
102
RTVSPropertyOp57
 70
     1
102
RTVSPropertyOp58
 70
     1
102
RTVSPropertyOp59
 70
     1
102
RTVSPropertyOp60
 70
     1
102
RTVSPropertyOp61
 70
     1
102
RTVSPropertyOp62
 70
     1
  0
XRECORD
  5
16CD
102
{ACAD_REACTORS
330
16CC
102
}
330
16CC
100
AcDbXrecord
280
     1
102
RTVSPost2010Prop28
280
     0
102
RTVSPost2010PropOp28
 70
     1
102
RTVSPost2010Prop29
280
     1
102
RTVSPost2010PropOp29
 70
     1
102
RTVSPost2010Prop30
280
     1
102
RTVSPost2010PropOp30
 70
     1
102
RTVSPost2010Prop31
280
     0
102
RTVSPost2010PropOp31
 70
     1
102
RTVSPost2010Prop32
280
     0
102
RTVSPost2010PropOp32
 70
     1
102
RTVSPost2010Prop33
280
     0
102
RTVSPost2010PropOp33
 70
     1
102
RTVSPost2010Prop34
280
     0
102
RTVSPost2010PropOp34
 70
     1
102
RTVSPost2010Prop35
280
     0
102
RTVSPost2010PropOp35
 70
     1
102
RTVSPost2010Prop36
280
     0
102
RTVSPost2010PropOp36
 70
     1
102
RTVSPost2010Prop37
 90
       50
102
RTVSPost2010PropOp37
 70
     1
102
RTVSPost2010Prop38
140
0.0
102
RTVSPost2010PropOp38
 70
     1
102
RTVSPost2010Prop39
140
1.0
102
RTVSPost2010PropOp39
 70
     1
102
RTVSPost2010Prop40
 90
        0
102
RTVSPost2010PropOp40
 70
     1
102
RTVSPost2010Prop41ColorIndex
 90
       18
102
RTVSPost2010Prop41ColorRGB
 90
        0
102
RTVSPost2010PropOp41
 70
     1
102
RTVSPost2010Prop42
 90
       50
102
RTVSPost2010PropOp42
 70
     1
102
RTVSPost2010Prop43
 90
        3
102
RTVSPost2010PropOp43
 70
     1
102
RTVSPost2010Prop44ColorIndex
 90
        5
102
RTVSPost2010Prop44ColorRGB
 90
      255
102
RTVSPost2010PropOp44
 70
     1
102
RTVSPost2010Prop45
280
     0
102
RTVSPost2010PropOp45
 70
     1
102
RTVSPost2010Prop46
 90
       50
102
RTVSPost2010PropOp46
 70
     1
102
RTVSPost2010Prop47
 90
       50
102
RTVSPost2010PropOp47
 70
     1
102
RTVSPost2010Prop48
 90
       50
102
RTVSPost2010PropOp48
 70
     1
102
RTVSPost2010Prop49
280
     0
102
RTVSPost2010PropOp49
 70
     1
102
RTVSPost2010Prop50
 90
       50
102
RTVSPost2010PropOp50
 70
     1
102
RTVSPost2010Prop51ColorIndex
 90
      256
102
RTVSPost2010Prop51ColorRGB
 90
-16777216
102
RTVSPost2010PropOp51
 70
     0
102
RTVSPost2010Prop52
140
1.0
102
RTVSPost2010PropOp52
 70
     0
102
RTVSPost2010Prop53
 90
        2
102
RTVSPost2010PropOp53
 70
     1
102
RTVSPost2010Prop54
  1
strokes_ogs.tif
102
RTVSPost2010PropOp54
 70
     1
102
RTVSPost2010Prop55
280
     0
102
RTVSPost2010PropOp55
 70
     1
102
RTVSPost2010Prop56
140
1.0
102
RTVSPost2010PropOp56
 70
     1
102
RTVSPost2010Prop57
140
1.0
102
RTVSPost2010PropOp57
 70
     1
102
RTVSPropertyOp0
 70
     1
102
RTVSPropertyOp1
 70
     1
102
RTVSPropertyOp2
 70
     1
102
RTVSPropertyOp3
 70
     1
102
RTVSPropertyOp4
 70
     1
102
RTVSPropertyOp5
 70
     1
102
RTVSPropertyOp6
 70
     1
102
RTVSPropertyOp7
 70
     1
102
RTVSPropertyOp8
 70
     1
102
RTVSPropertyOp9
 70
     1
102
RTVSPropertyOp10
 70
     1
102
RTVSPropertyOp11
 70
     1
102
RTVSPropertyOp12
 70
     1
102
RTVSPropertyOp13
 70
     1
102
RTVSPropertyOp14
 70
     1
102
RTVSPropertyOp15
 70
     1
102
RTVSPropertyOp16
 70
     1
102
RTVSPropertyOp17
 70
     1
102
RTVSPropertyOp18
 70
     1
102
RTVSPropertyOp19
 70
     1
102
RTVSPropertyOp20
 70
     1
102
RTVSPropertyOp21
 70
     1
102
RTVSPropertyOp22
 70
     1
102
RTVSPropertyOp23
 70
     1
102
RTVSPropertyOp24
 70
     1
102
RTVSPropertyOp25
 70
     1
102
RTVSPropertyOp26
 70
     1
102
RTVSPropertyOp27
 70
     1
102
RTVSPropertyOp28
 70
     1
102
RTVSPropertyOp29
 70
     1
102
RTVSPropertyOp30
 70
     1
102
RTVSPropertyOp31
 70
     1
102
RTVSPropertyOp32
 70
     1
102
RTVSPropertyOp33
 70
     1
102
RTVSPropertyOp34
 70
     1
102
RTVSPropertyOp35
 70
     1
102
RTVSPropertyOp36
 70
     1
102
RTVSPropertyOp37
 70
     1
102
RTVSPropertyOp38
 70
     1
102
RTVSPropertyOp39
 70
     1
102
RTVSPropertyOp40
 70
     1
102
RTVSPropertyOp41
 70
     1
102
RTVSPropertyOp42
 70
     1
102
RTVSPropertyOp43
 70
     1
102
RTVSPropertyOp44
 70
     1
102
RTVSPropertyOp45
 70
     1
102
RTVSPropertyOp46
 70
     1
102
RTVSPropertyOp47
 70
     1
102
RTVSPropertyOp48
 70
     1
102
RTVSPropertyOp49
 70
     1
102
RTVSPropertyOp50
 70
     1
102
RTVSPropertyOp51
 70
     0
102
RTVSPropertyOp52
 70
     0
102
RTVSPropertyOp53
 70
     1
102
RTVSPropertyOp54
 70
     1
102
RTVSPropertyOp55
 70
     1
102
RTVSPropertyOp56
 70
     1
102
RTVSPropertyOp57
 70
     1
102
RTVSPropertyOp58
 70
     1
102
RTVSPropertyOp59
 70
     1
102
RTVSPropertyOp60
 70
     1
102
RTVSPropertyOp61
 70
     1
102
RTVSPropertyOp62
 70
     1
  0
XRECORD
  5
16E9
102
{ACAD_REACTORS
330
16E8
102
}
330
16E8
100
AcDbXrecord
280
     1
102
RTVSPost2010Prop28
280
     0
102
RTVSPost2010PropOp28
 70
     1
102
RTVSPost2010Prop29
280
     1
102
RTVSPost2010PropOp29
 70
     1
102
RTVSPost2010Prop30
280
     1
102
RTVSPost2010PropOp30
 70
     1
102
RTVSPost2010Prop31
280
     0
102
RTVSPost2010PropOp31
 70
     1
102
RTVSPost2010Prop32
280
     0
102
RTVSPost2010PropOp32
 70
     1
102
RTVSPost2010Prop33
280
     0
102
RTVSPost2010PropOp33
 70
     1
102
RTVSPost2010Prop34
280
     0
102
RTVSPost2010PropOp34
 70
     1
102
RTVSPost2010Prop35
280
     0
102
RTVSPost2010PropOp35
 70
     1
102
RTVSPost2010Prop36
280
     0
102
RTVSPost2010PropOp36
 70
     1
102
RTVSPost2010Prop37
 90
       50
102
RTVSPost2010PropOp37
 70
     0
102
RTVSPost2010Prop38
140
0.0
102
RTVSPost2010PropOp38
 70
     0
102
RTVSPost2010Prop39
140
1.0
102
RTVSPost2010PropOp39
 70
     0
102
RTVSPost2010Prop40
 90
        0
102
RTVSPost2010PropOp40
 70
     0
102
RTVSPost2010Prop41ColorIndex
 90
       18
102
RTVSPost2010Prop41ColorRGB
 90
        0
102
RTVSPost2010PropOp41
 70
     0
102
RTVSPost2010Prop42
 90
       50
102
RTVSPost2010PropOp42
 70
     0
102
RTVSPost2010Prop43
 90
        3
102
RTVSPost2010PropOp43
 70
     0
102
RTVSPost2010Prop44ColorIndex
 90
        5
102
RTVSPost2010Prop44ColorRGB
 90
      255
102
RTVSPost2010PropOp44
 70
     0
102
RTVSPost2010Prop45
280
     0
102
RTVSPost2010PropOp45
 70
     1
102
RTVSPost2010Prop46
 90
       50
102
RTVSPost2010PropOp46
 70
     0
102
RTVSPost2010Prop47
 90
       50
102
RTVSPost2010PropOp47
 70
     0
102
RTVSPost2010Prop48
 90
       50
102
RTVSPost2010PropOp48
 70
     0
102
RTVSPost2010Prop49
280
     0
102
RTVSPost2010PropOp49
 70
     1
102
RTVSPost2010Prop50
 90
       50
102
RTVSPost2010PropOp50
 70
     0
102
RTVSPost2010Prop51ColorIndex
 90
      256
102
RTVSPost2010Prop51ColorRGB
 90
-16777216
102
RTVSPost2010PropOp51
 70
     0
102
RTVSPost2010Prop52
140
1.0
102
RTVSPost2010PropOp52
 70
     0
102
RTVSPost2010Prop53
 90
        2
102
RTVSPost2010PropOp53
 70
     0
102
RTVSPost2010Prop54
  1
strokes_ogs.tif
102
RTVSPost2010PropOp54
 70
     0
102
RTVSPost2010Prop55
280
     0
102
RTVSPost2010PropOp55
 70
     1
102
RTVSPost2010Prop56
140
1.0
102
RTVSPost2010PropOp56
 70
     0
102
RTVSPost2010Prop57
140
1.0
102
RTVSPost2010PropOp57
 70
     0
102
RTVSPropertyOp0
 70
     0
102
RTVSPropertyOp1
 70
     0
102
RTVSPropertyOp2
 70
     0
102
RTVSPropertyOp3
 70
     0
102
RTVSPropertyOp4
 70
     0
102
RTVSPropertyOp5
 70
     0
102
RTVSPropertyOp6
 70
     0
102
RTVSPropertyOp7
 70
     0
102
RTVSPropertyOp8
 70
     0
102
RTVSPropertyOp9
 70
     0
102
RTVSPropertyOp10
 70
     0
102
RTVSPropertyOp11
 70
     0
102
RTVSPropertyOp12
 70
     0
102
RTVSPropertyOp13
 70
     0
102
RTVSPropertyOp14
 70
     2
102
RTVSPropertyOp15
 70
     0
102
RTVSPropertyOp16
 70
     0
102
RTVSPropertyOp17
 70
     0
102
RTVSPropertyOp18
 70
     0
102
RTVSPropertyOp19
 70
     0
102
RTVSPropertyOp20
 70
     0
102
RTVSPropertyOp21
 70
     0
102
RTVSPropertyOp22
 70
     0
102
RTVSPropertyOp23
 70
     0
102
RTVSPropertyOp24
 70
     0
102
RTVSPropertyOp25
 70
     0
102
RTVSPropertyOp26
 70
     0
102
RTVSPropertyOp27
 70
     0
102
RTVSPropertyOp28
 70
     1
102
RTVSPropertyOp29
 70
     1
102
RTVSPropertyOp30
 70
     1
102
RTVSPropertyOp31
 70
     1
102
RTVSPropertyOp32
 70
     1
102
RTVSPropertyOp33
 70
     1
102
RTVSPropertyOp34
 70
     1
102
RTVSPropertyOp35
 70
     1
102
RTVSPropertyOp36
 70
     1
102
RTVSPropertyOp37
 70
     0
102
RTVSPropertyOp38
 70
     0
102
RTVSPropertyOp39
 70
     0
102
RTVSPropertyOp40
 70
     0
102
RTVSPropertyOp41
 70
     0
102
RTVSPropertyOp42
 70
     0
102
RTVSPropertyOp43
 70
     0
102
RTVSPropertyOp44
 70
     0
102
RTVSPropertyOp45
 70
     1
102
RTVSPropertyOp46
 70
     0
102
RTVSPropertyOp47
 70
     0
102
RTVSPropertyOp48
 70
     0
102
RTVSPropertyOp49
 70
     1
102
RTVSPropertyOp50
 70
     0
102
RTVSPropertyOp51
 70
     0
102
RTVSPropertyOp52
 70
     0
102
RTVSPropertyOp53
 70
     0
102
RTVSPropertyOp54
 70
     0
102
RTVSPropertyOp55
 70
     1
102
RTVSPropertyOp56
 70
     0
102
RTVSPropertyOp57
 70
     0
102
RTVSPropertyOp58
 70
     0
102
RTVSPropertyOp59
 70
     0
102
RTVSPropertyOp60
 70
     0
102
RTVSPropertyOp61
 70
     0
102
RTVSPropertyOp62
 70
     0
  0
XRECORD
  5
16D9
102
{ACAD_REACTORS
330
16D8
102
}
330
16D8
100
AcDbXrecord
280
     1
102
RTVSPost2010Prop28
280
     0
102
RTVSPost2010PropOp28
 70
     1
102
RTVSPost2010Prop29
280
     1
102
RTVSPost2010PropOp29
 70
     1
102
RTVSPost2010Prop30
280
     1
102
RTVSPost2010PropOp30
 70
     1
102
RTVSPost2010Prop31
280
     0
102
RTVSPost2010PropOp31
 70
     1
102
RTVSPost2010Prop32
280
     0
102
RTVSPost2010PropOp32
 70
     1
102
RTVSPost2010Prop33
280
     0
102
RTVSPost2010PropOp33
 70
     1
102
RTVSPost2010Prop34
280
     0
102
RTVSPost2010PropOp34
 70
     1
102
RTVSPost2010Prop35
280
     0
102
RTVSPost2010PropOp35
 70
     1
102
RTVSPost2010Prop36
280
     0
102
RTVSPost2010PropOp36
 70
     1
102
RTVSPost2010Prop37
 90
       50
102
RTVSPost2010PropOp37
 70
     1
102
RTVSPost2010Prop38
140
0.0
102
RTVSPost2010PropOp38
 70
     1
102
RTVSPost2010Prop39
140
1.0
102
RTVSPost2010PropOp39
 70
     1
102
RTVSPost2010Prop40
 90
        0
102
RTVSPost2010PropOp40
 70
     1
102
RTVSPost2010Prop41ColorIndex
 90
       18
102
RTVSPost2010Prop41ColorRGB
 90
        0
102
RTVSPost2010PropOp41
 70
     1
102
RTVSPost2010Prop42
 90
       50
102
RTVSPost2010PropOp42
 70
     1
102
RTVSPost2010Prop43
 90
        3
102
RTVSPost2010PropOp43
 70
     1
102
RTVSPost2010Prop44ColorIndex
 90
        5
102
RTVSPost2010Prop44ColorRGB
 90
      255
102
RTVSPost2010PropOp44
 70
     1
102
RTVSPost2010Prop45
280
     0
102
RTVSPost2010PropOp45
 70
     1
102
RTVSPost2010Prop46
 90
       50
102
RTVSPost2010PropOp46
 70
     1
102
RTVSPost2010Prop47
 90
       50
102
RTVSPost2010PropOp47
 70
     1
102
RTVSPost2010Prop48
 90
       50
102
RTVSPost2010PropOp48
 70
     1
102
RTVSPost2010Prop49
280
     0
102
RTVSPost2010PropOp49
 70
     1
102
RTVSPost2010Prop50
 90
       50
102
RTVSPost2010PropOp50
 70
     1
102
RTVSPost2010Prop51ColorIndex
 90
      256
102
RTVSPost2010Prop51ColorRGB
 90
-16777216
102
RTVSPost2010PropOp51
 70
     0
102
RTVSPost2010Prop52
140
1.0
102
RTVSPost2010PropOp52
 70
     0
102
RTVSPost2010Prop53
 90
        2
102
RTVSPost2010PropOp53
 70
     1
102
RTVSPost2010Prop54
  1
strokes_ogs.tif
102
RTVSPost2010PropOp54
 70
     1
102
RTVSPost2010Prop55
280
     0
102
RTVSPost2010PropOp55
 70
     1
102
RTVSPost2010Prop56
140
1.0
102
RTVSPost2010PropOp56
 70
     1
102
RTVSPost2010Prop57
140
1.0
102
RTVSPost2010PropOp57
 70
     1
102
RTVSPropertyOp0
 70
     1
102
RTVSPropertyOp1
 70
     1
102
RTVSPropertyOp2
 70
     1
102
RTVSPropertyOp3
 70
     1
102
RTVSPropertyOp4
 70
     1
102
RTVSPropertyOp5
 70
     1
102
RTVSPropertyOp6
 70
     1
102
RTVSPropertyOp7
 70
     1
102
RTVSPropertyOp8
 70
     1
102
RTVSPropertyOp9
 70
     1
102
RTVSPropertyOp10
 70
     1
102
RTVSPropertyOp11
 70
     1
102
RTVSPropertyOp12
 70
     1
102
RTVSPropertyOp13
 70
     1
102
RTVSPropertyOp14
 70
     1
102
RTVSPropertyOp15
 70
     1
102
RTVSPropertyOp16
 70
     1
102
RTVSPropertyOp17
 70
     1
102
RTVSPropertyOp18
 70
     1
102
RTVSPropertyOp19
 70
     1
102
RTVSPropertyOp20
 70
     1
102
RTVSPropertyOp21
 70
     1
102
RTVSPropertyOp22
 70
     1
102
RTVSPropertyOp23
 70
     1
102
RTVSPropertyOp24
 70
     1
102
RTVSPropertyOp25
 70
     1
102
RTVSPropertyOp26
 70
     1
102
RTVSPropertyOp27
 70
     1
102
RTVSPropertyOp28
 70
     1
102
RTVSPropertyOp29
 70
     1
102
RTVSPropertyOp30
 70
     1
102
RTVSPropertyOp31
 70
     1
102
RTVSPropertyOp32
 70
     1
102
RTVSPropertyOp33
 70
     1
102
RTVSPropertyOp34
 70
     1
102
RTVSPropertyOp35
 70
     1
102
RTVSPropertyOp36
 70
     1
102
RTVSPropertyOp37
 70
     1
102
RTVSPropertyOp38
 70
     1
102
RTVSPropertyOp39
 70
     1
102
RTVSPropertyOp40
 70
     1
102
RTVSPropertyOp41
 70
     1
102
RTVSPropertyOp42
 70
     1
102
RTVSPropertyOp43
 70
     1
102
RTVSPropertyOp44
 70
     1
102
RTVSPropertyOp45
 70
     1
102
RTVSPropertyOp46
 70
     1
102
RTVSPropertyOp47
 70
     1
102
RTVSPropertyOp48
 70
     1
102
RTVSPropertyOp49
 70
     1
102
RTVSPropertyOp50
 70
     1
102
RTVSPropertyOp51
 70
     0
102
RTVSPropertyOp52
 70
     0
102
RTVSPropertyOp53
 70
     1
102
RTVSPropertyOp54
 70
     1
102
RTVSPropertyOp55
 70
     1
102
RTVSPropertyOp56
 70
     1
102
RTVSPropertyOp57
 70
     1
102
RTVSPropertyOp58
 70
     1
102
RTVSPropertyOp59
 70
     1
102
RTVSPropertyOp60
 70
     1
102
RTVSPropertyOp61
 70
     1
102
RTVSPropertyOp62
 70
     1
  0
XRECORD
  5
16EB
102
{ACAD_REACTORS
330
16EA
102
}
330
16EA
100
AcDbXrecord
280
     1
102
RTVSPost2010Prop28
280
     0
102
RTVSPost2010PropOp28
 70
     1
102
RTVSPost2010Prop29
280
     1
102
RTVSPost2010PropOp29
 70
     1
102
RTVSPost2010Prop30
280
     1
102
RTVSPost2010PropOp30
 70
     1
102
RTVSPost2010Prop31
280
     0
102
RTVSPost2010PropOp31
 70
     1
102
RTVSPost2010Prop32
280
     0
102
RTVSPost2010PropOp32
 70
     1
102
RTVSPost2010Prop33
280
     0
102
RTVSPost2010PropOp33
 70
     1
102
RTVSPost2010Prop34
280
     0
102
RTVSPost2010PropOp34
 70
     1
102
RTVSPost2010Prop35
280
     0
102
RTVSPost2010PropOp35
 70
     1
102
RTVSPost2010Prop36
280
     0
102
RTVSPost2010PropOp36
 70
     1
102
RTVSPost2010Prop37
 90
       50
102
RTVSPost2010PropOp37
 70
     0
102
RTVSPost2010Prop38
140
0.0
102
RTVSPost2010PropOp38
 70
     0
102
RTVSPost2010Prop39
140
1.0
102
RTVSPost2010PropOp39
 70
     0
102
RTVSPost2010Prop40
 90
        0
102
RTVSPost2010PropOp40
 70
     0
102
RTVSPost2010Prop41ColorIndex
 90
       18
102
RTVSPost2010Prop41ColorRGB
 90
        0
102
RTVSPost2010PropOp41
 70
     0
102
RTVSPost2010Prop42
 90
       50
102
RTVSPost2010PropOp42
 70
     0
102
RTVSPost2010Prop43
 90
        3
102
RTVSPost2010PropOp43
 70
     0
102
RTVSPost2010Prop44ColorIndex
 90
        5
102
RTVSPost2010Prop44ColorRGB
 90
      255
102
RTVSPost2010PropOp44
 70
     0
102
RTVSPost2010Prop45
280
     0
102
RTVSPost2010PropOp45
 70
     1
102
RTVSPost2010Prop46
 90
       50
102
RTVSPost2010PropOp46
 70
     0
102
RTVSPost2010Prop47
 90
       50
102
RTVSPost2010PropOp47
 70
     0
102
RTVSPost2010Prop48
 90
       50
102
RTVSPost2010PropOp48
 70
     0
102
RTVSPost2010Prop49
280
     0
102
RTVSPost2010PropOp49
 70
     1
102
RTVSPost2010Prop50
 90
       50
102
RTVSPost2010PropOp50
 70
     0
102
RTVSPost2010Prop51ColorIndex
 90
      256
102
RTVSPost2010Prop51ColorRGB
 90
-16777216
102
RTVSPost2010PropOp51
 70
     0
102
RTVSPost2010Prop52
140
1.0
102
RTVSPost2010PropOp52
 70
     0
102
RTVSPost2010Prop53
 90
        2
102
RTVSPost2010PropOp53
 70
     0
102
RTVSPost2010Prop54
  1
strokes_ogs.tif
102
RTVSPost2010PropOp54
 70
     0
102
RTVSPost2010Prop55
280
     0
102
RTVSPost2010PropOp55
 70
     1
102
RTVSPost2010Prop56
140
1.0
102
RTVSPost2010PropOp56
 70
     0
102
RTVSPost2010Prop57
140
1.0
102
RTVSPost2010PropOp57
 70
     0
102
RTVSPropertyOp0
 70
     0
102
RTVSPropertyOp1
 70
     0
102
RTVSPropertyOp2
 70
     0
102
RTVSPropertyOp3
 70
     0
102
RTVSPropertyOp4
 70
     0
102
RTVSPropertyOp5
 70
     0
102
RTVSPropertyOp6
 70
     0
102
RTVSPropertyOp7
 70
     0
102
RTVSPropertyOp8
 70
     0
102
RTVSPropertyOp9
 70
     0
102
RTVSPropertyOp10
 70
     0
102
RTVSPropertyOp11
 70
     0
102
RTVSPropertyOp12
 70
     0
102
RTVSPropertyOp13
 70
     0
102
RTVSPropertyOp14
 70
     2
102
RTVSPropertyOp15
 70
     0
102
RTVSPropertyOp16
 70
     0
102
RTVSPropertyOp17
 70
     0
102
RTVSPropertyOp18
 70
     0
102
RTVSPropertyOp19
 70
     0
102
RTVSPropertyOp20
 70
     0
102
RTVSPropertyOp21
 70
     0
102
RTVSPropertyOp22
 70
     0
102
RTVSPropertyOp23
 70
     0
102
RTVSPropertyOp24
 70
     0
102
RTVSPropertyOp25
 70
     0
102
RTVSPropertyOp26
 70
     0
102
RTVSPropertyOp27
 70
     0
102
RTVSPropertyOp28
 70
     1
102
RTVSPropertyOp29
 70
     1
102
RTVSPropertyOp30
 70
     1
102
RTVSPropertyOp31
 70
     1
102
RTVSPropertyOp32
 70
     1
102
RTVSPropertyOp33
 70
     1
102
RTVSPropertyOp34
 70
     1
102
RTVSPropertyOp35
 70
     1
102
RTVSPropertyOp36
 70
     1
102
RTVSPropertyOp37
 70
     0
102
RTVSPropertyOp38
 70
     0
102
RTVSPropertyOp39
 70
     0
102
RTVSPropertyOp40
 70
     0
102
RTVSPropertyOp41
 70
     0
102
RTVSPropertyOp42
 70
     0
102
RTVSPropertyOp43
 70
     0
102
RTVSPropertyOp44
 70
     0
102
RTVSPropertyOp45
 70
     1
102
RTVSPropertyOp46
 70
     0
102
RTVSPropertyOp47
 70
     0
102
RTVSPropertyOp48
 70
     0
102
RTVSPropertyOp49
 70
     1
102
RTVSPropertyOp50
 70
     0
102
RTVSPropertyOp51
 70
     0
102
RTVSPropertyOp52
 70
     0
102
RTVSPropertyOp53
 70
     0
102
RTVSPropertyOp54
 70
     0
102
RTVSPropertyOp55
 70
     1
102
RTVSPropertyOp56
 70
     0
102
RTVSPropertyOp57
 70
     0
102
RTVSPropertyOp58
 70
     0
102
RTVSPropertyOp59
 70
     0
102
RTVSPropertyOp60
 70
     0
102
RTVSPropertyOp61
 70
     0
102
RTVSPropertyOp62
 70
     0
  0
XRECORD
  5
16D1
102
{ACAD_REACTORS
330
16D0
102
}
330
16D0
100
AcDbXrecord
280
     1
102
RTVSPost2010Prop28
280
     0
102
RTVSPost2010PropOp28
 70
     1
102
RTVSPost2010Prop29
280
     1
102
RTVSPost2010PropOp29
 70
     1
102
RTVSPost2010Prop30
280
     1
102
RTVSPost2010PropOp30
 70
     1
102
RTVSPost2010Prop31
280
     0
102
RTVSPost2010PropOp31
 70
     1
102
RTVSPost2010Prop32
280
     0
102
RTVSPost2010PropOp32
 70
     1
102
RTVSPost2010Prop33
280
     0
102
RTVSPost2010PropOp33
 70
     1
102
RTVSPost2010Prop34
280
     0
102
RTVSPost2010PropOp34
 70
     1
102
RTVSPost2010Prop35
280
     0
102
RTVSPost2010PropOp35
 70
     1
102
RTVSPost2010Prop36
280
     0
102
RTVSPost2010PropOp36
 70
     1
102
RTVSPost2010Prop37
 90
       50
102
RTVSPost2010PropOp37
 70
     1
102
RTVSPost2010Prop38
140
0.0
102
RTVSPost2010PropOp38
 70
     1
102
RTVSPost2010Prop39
140
1.0
102
RTVSPost2010PropOp39
 70
     1
102
RTVSPost2010Prop40
 90
        0
102
RTVSPost2010PropOp40
 70
     1
102
RTVSPost2010Prop41ColorIndex
 90
       18
102
RTVSPost2010Prop41ColorRGB
 90
        0
102
RTVSPost2010PropOp41
 70
     1
102
RTVSPost2010Prop42
 90
       50
102
RTVSPost2010PropOp42
 70
     1
102
RTVSPost2010Prop43
 90
        3
102
RTVSPost2010PropOp43
 70
     1
102
RTVSPost2010Prop44ColorIndex
 90
        5
102
RTVSPost2010Prop44ColorRGB
 90
      255
102
RTVSPost2010PropOp44
 70
     1
102
RTVSPost2010Prop45
280
     0
102
RTVSPost2010PropOp45
 70
     1
102
RTVSPost2010Prop46
 90
       50
102
RTVSPost2010PropOp46
 70
     1
102
RTVSPost2010Prop47
 90
       50
102
RTVSPost2010PropOp47
 70
     1
102
RTVSPost2010Prop48
 90
       50
102
RTVSPost2010PropOp48
 70
     1
102
RTVSPost2010Prop49
280
     0
102
RTVSPost2010PropOp49
 70
     1
102
RTVSPost2010Prop50
 90
       50
102
RTVSPost2010PropOp50
 70
     1
102
RTVSPost2010Prop51ColorIndex
 90
      256
102
RTVSPost2010Prop51ColorRGB
 90
-16777216
102
RTVSPost2010PropOp51
 70
     0
102
RTVSPost2010Prop52
140
1.0
102
RTVSPost2010PropOp52
 70
     0
102
RTVSPost2010Prop53
 90
        2
102
RTVSPost2010PropOp53
 70
     1
102
RTVSPost2010Prop54
  1
strokes_ogs.tif
102
RTVSPost2010PropOp54
 70
     1
102
RTVSPost2010Prop55
280
     0
102
RTVSPost2010PropOp55
 70
     1
102
RTVSPost2010Prop56
140
1.0
102
RTVSPost2010PropOp56
 70
     1
102
RTVSPost2010Prop57
140
1.0
102
RTVSPost2010PropOp57
 70
     1
102
RTVSPropertyOp0
 70
     1
102
RTVSPropertyOp1
 70
     1
102
RTVSPropertyOp2
 70
     1
102
RTVSPropertyOp3
 70
     1
102
RTVSPropertyOp4
 70
     1
102
RTVSPropertyOp5
 70
     1
102
RTVSPropertyOp6
 70
     1
102
RTVSPropertyOp7
 70
     1
102
RTVSPropertyOp8
 70
     1
102
RTVSPropertyOp9
 70
     1
102
RTVSPropertyOp10
 70
     1
102
RTVSPropertyOp11
 70
     1
102
RTVSPropertyOp12
 70
     1
102
RTVSPropertyOp13
 70
     1
102
RTVSPropertyOp14
 70
     1
102
RTVSPropertyOp15
 70
     1
102
RTVSPropertyOp16
 70
     1
102
RTVSPropertyOp17
 70
     1
102
RTVSPropertyOp18
 70
     1
102
RTVSPropertyOp19
 70
     1
102
RTVSPropertyOp20
 70
     1
102
RTVSPropertyOp21
 70
     1
102
RTVSPropertyOp22
 70
     1
102
RTVSPropertyOp23
 70
     1
102
RTVSPropertyOp24
 70
     1
102
RTVSPropertyOp25
 70
     1
102
RTVSPropertyOp26
 70
     1
102
RTVSPropertyOp27
 70
     1
102
RTVSPropertyOp28
 70
     1
102
RTVSPropertyOp29
 70
     1
102
RTVSPropertyOp30
 70
     1
102
RTVSPropertyOp31
 70
     1
102
RTVSPropertyOp32
 70
     1
102
RTVSPropertyOp33
 70
     1
102
RTVSPropertyOp34
 70
     1
102
RTVSPropertyOp35
 70
     1
102
RTVSPropertyOp36
 70
     1
102
RTVSPropertyOp37
 70
     1
102
RTVSPropertyOp38
 70
     1
102
RTVSPropertyOp39
 70
     1
102
RTVSPropertyOp40
 70
     1
102
RTVSPropertyOp41
 70
     1
102
RTVSPropertyOp42
 70
     1
102
RTVSPropertyOp43
 70
     1
102
RTVSPropertyOp44
 70
     1
102
RTVSPropertyOp45
 70
     1
102
RTVSPropertyOp46
 70
     1
102
RTVSPropertyOp47
 70
     1
102
RTVSPropertyOp48
 70
     1
102
RTVSPropertyOp49
 70
     1
102
RTVSPropertyOp50
 70
     1
102
RTVSPropertyOp51
 70
     0
102
RTVSPropertyOp52
 70
     0
102
RTVSPropertyOp53
 70
     1
102
RTVSPropertyOp54
 70
     1
102
RTVSPropertyOp55
 70
     1
102
RTVSPropertyOp56
 70
     1
102
RTVSPropertyOp57
 70
     1
102
RTVSPropertyOp58
 70
     1
102
RTVSPropertyOp59
 70
     1
102
RTVSPropertyOp60
 70
     1
102
RTVSPropertyOp61
 70
     1
102
RTVSPropertyOp62
 70
     1
  0
XRECORD
  5
16E7
102
{ACAD_REACTORS
330
16E6
102
}
330
16E6
100
AcDbXrecord
280
     1
102
RTVSPost2010Prop28
280
     0
102
RTVSPost2010PropOp28
 70
     1
102
RTVSPost2010Prop29
280
     1
102
RTVSPost2010PropOp29
 70
     1
102
RTVSPost2010Prop30
280
     1
102
RTVSPost2010PropOp30
 70
     1
102
RTVSPost2010Prop31
280
     0
102
RTVSPost2010PropOp31
 70
     1
102
RTVSPost2010Prop32
280
     0
102
RTVSPost2010PropOp32
 70
     1
102
RTVSPost2010Prop33
280
     0
102
RTVSPost2010PropOp33
 70
     1
102
RTVSPost2010Prop34
280
     0
102
RTVSPost2010PropOp34
 70
     1
102
RTVSPost2010Prop35
280
     0
102
RTVSPost2010PropOp35
 70
     1
102
RTVSPost2010Prop36
280
     0
102
RTVSPost2010PropOp36
 70
     1
102
RTVSPost2010Prop37
 90
       50
102
RTVSPost2010PropOp37
 70
     1
102
RTVSPost2010Prop38
140
0.0
102
RTVSPost2010PropOp38
 70
     1
102
RTVSPost2010Prop39
140
1.0
102
RTVSPost2010PropOp39
 70
     1
102
RTVSPost2010Prop40
 90
        0
102
RTVSPost2010PropOp40
 70
     1
102
RTVSPost2010Prop41ColorIndex
 90
       18
102
RTVSPost2010Prop41ColorRGB
 90
        0
102
RTVSPost2010PropOp41
 70
     1
102
RTVSPost2010Prop42
 90
       50
102
RTVSPost2010PropOp42
 70
     1
102
RTVSPost2010Prop43
 90
        3
102
RTVSPost2010PropOp43
 70
     1
102
RTVSPost2010Prop44ColorIndex
 90
        5
102
RTVSPost2010Prop44ColorRGB
 90
      255
102
RTVSPost2010PropOp44
 70
     1
102
RTVSPost2010Prop45
280
     0
102
RTVSPost2010PropOp45
 70
     1
102
RTVSPost2010Prop46
 90
       50
102
RTVSPost2010PropOp46
 70
     1
102
RTVSPost2010Prop47
 90
       50
102
RTVSPost2010PropOp47
 70
     1
102
RTVSPost2010Prop48
 90
       50
102
RTVSPost2010PropOp48
 70
     1
102
RTVSPost2010Prop49
280
     0
102
RTVSPost2010PropOp49
 70
     1
102
RTVSPost2010Prop50
 90
       50
102
RTVSPost2010PropOp50
 70
     1
102
RTVSPost2010Prop51ColorIndex
 90
      256
102
RTVSPost2010Prop51ColorRGB
 90
-16777216
102
RTVSPost2010PropOp51
 70
     0
102
RTVSPost2010Prop52
140
1.0
102
RTVSPost2010PropOp52
 70
     0
102
RTVSPost2010Prop53
 90
        2
102
RTVSPost2010PropOp53
 70
     1
102
RTVSPost2010Prop54
  1
strokes_ogs.tif
102
RTVSPost2010PropOp54
 70
     1
102
RTVSPost2010Prop55
280
     0
102
RTVSPost2010PropOp55
 70
     1
102
RTVSPost2010Prop56
140
1.0
102
RTVSPost2010PropOp56
 70
     1
102
RTVSPost2010Prop57
140
1.0
102
RTVSPost2010PropOp57
 70
     1
102
RTVSPropertyOp0
 70
     1
102
RTVSPropertyOp1
 70
     1
102
RTVSPropertyOp2
 70
     1
102
RTVSPropertyOp3
 70
     1
102
RTVSPropertyOp4
 70
     1
102
RTVSPropertyOp5
 70
     1
102
RTVSPropertyOp6
 70
     1
102
RTVSPropertyOp7
 70
     1
102
RTVSPropertyOp8
 70
     1
102
RTVSPropertyOp9
 70
     1
102
RTVSPropertyOp10
 70
     1
102
RTVSPropertyOp11
 70
     1
102
RTVSPropertyOp12
 70
     1
102
RTVSPropertyOp13
 70
     1
102
RTVSPropertyOp14
 70
     1
102
RTVSPropertyOp15
 70
     1
102
RTVSPropertyOp16
 70
     1
102
RTVSPropertyOp17
 70
     1
102
RTVSPropertyOp18
 70
     1
102
RTVSPropertyOp19
 70
     1
102
RTVSPropertyOp20
 70
     1
102
RTVSPropertyOp21
 70
     1
102
RTVSPropertyOp22
 70
     1
102
RTVSPropertyOp23
 70
     1
102
RTVSPropertyOp24
 70
     1
102
RTVSPropertyOp25
 70
     1
102
RTVSPropertyOp26
 70
     1
102
RTVSPropertyOp27
 70
     1
102
RTVSPropertyOp28
 70
     1
102
RTVSPropertyOp29
 70
     1
102
RTVSPropertyOp30
 70
     1
102
RTVSPropertyOp31
 70
     1
102
RTVSPropertyOp32
 70
     1
102
RTVSPropertyOp33
 70
     1
102
RTVSPropertyOp34
 70
     1
102
RTVSPropertyOp35
 70
     1
102
RTVSPropertyOp36
 70
     1
102
RTVSPropertyOp37
 70
     1
102
RTVSPropertyOp38
 70
     1
102
RTVSPropertyOp39
 70
     1
102
RTVSPropertyOp40
 70
     1
102
RTVSPropertyOp41
 70
     1
102
RTVSPropertyOp42
 70
     1
102
RTVSPropertyOp43
 70
     1
102
RTVSPropertyOp44
 70
     1
102
RTVSPropertyOp45
 70
     1
102
RTVSPropertyOp46
 70
     1
102
RTVSPropertyOp47
 70
     1
102
RTVSPropertyOp48
 70
     1
102
RTVSPropertyOp49
 70
     1
102
RTVSPropertyOp50
 70
     1
102
RTVSPropertyOp51
 70
     0
102
RTVSPropertyOp52
 70
     0
102
RTVSPropertyOp53
 70
     1
102
RTVSPropertyOp54
 70
     1
102
RTVSPropertyOp55
 70
     1
102
RTVSPropertyOp56
 70
     1
102
RTVSPropertyOp57
 70
     1
102
RTVSPropertyOp58
 70
     1
102
RTVSPropertyOp59
 70
     1
102
RTVSPropertyOp60
 70
     1
102
RTVSPropertyOp61
 70
     1
102
RTVSPropertyOp62
 70
     1
  0
XRECORD
  5
16E5
102
{ACAD_REACTORS
330
16E4
102
}
330
16E4
100
AcDbXrecord
280
     1
102
RTVSPost2010Prop28
280
     0
102
RTVSPost2010PropOp28
 70
     1
102
RTVSPost2010Prop29
280
     1
102
RTVSPost2010PropOp29
 70
     1
102
RTVSPost2010Prop30
280
     1
102
RTVSPost2010PropOp30
 70
     1
102
RTVSPost2010Prop31
280
     0
102
RTVSPost2010PropOp31
 70
     1
102
RTVSPost2010Prop32
280
     0
102
RTVSPost2010PropOp32
 70
     1
102
RTVSPost2010Prop33
280
     0
102
RTVSPost2010PropOp33
 70
     1
102
RTVSPost2010Prop34
280
     0
102
RTVSPost2010PropOp34
 70
     1
102
RTVSPost2010Prop35
280
     0
102
RTVSPost2010PropOp35
 70
     1
102
RTVSPost2010Prop36
280
     0
102
RTVSPost2010PropOp36
 70
     1
102
RTVSPost2010Prop37
 90
       50
102
RTVSPost2010PropOp37
 70
     1
102
RTVSPost2010Prop38
140
0.0
102
RTVSPost2010PropOp38
 70
     1
102
RTVSPost2010Prop39
140
1.0
102
RTVSPost2010PropOp39
 70
     1
102
RTVSPost2010Prop40
 90
        0
102
RTVSPost2010PropOp40
 70
     1
102
RTVSPost2010Prop41ColorIndex
 90
       18
102
RTVSPost2010Prop41ColorRGB
 90
        0
102
RTVSPost2010PropOp41
 70
     1
102
RTVSPost2010Prop42
 90
       50
102
RTVSPost2010PropOp42
 70
     1
102
RTVSPost2010Prop43
 90
        3
102
RTVSPost2010PropOp43
 70
     1
102
RTVSPost2010Prop44ColorIndex
 90
        5
102
RTVSPost2010Prop44ColorRGB
 90
      255
102
RTVSPost2010PropOp44
 70
     1
102
RTVSPost2010Prop45
280
     0
102
RTVSPost2010PropOp45
 70
     1
102
RTVSPost2010Prop46
 90
       50
102
RTVSPost2010PropOp46
 70
     1
102
RTVSPost2010Prop47
 90
       50
102
RTVSPost2010PropOp47
 70
     1
102
RTVSPost2010Prop48
 90
       50
102
RTVSPost2010PropOp48
 70
     1
102
RTVSPost2010Prop49
280
     0
102
RTVSPost2010PropOp49
 70
     1
102
RTVSPost2010Prop50
 90
       50
102
RTVSPost2010PropOp50
 70
     1
102
RTVSPost2010Prop51ColorIndex
 90
      256
102
RTVSPost2010Prop51ColorRGB
 90
-16777216
102
RTVSPost2010PropOp51
 70
     0
102
RTVSPost2010Prop52
140
1.0
102
RTVSPost2010PropOp52
 70
     0
102
RTVSPost2010Prop53
 90
        2
102
RTVSPost2010PropOp53
 70
     1
102
RTVSPost2010Prop54
  1
strokes_ogs.tif
102
RTVSPost2010PropOp54
 70
     1
102
RTVSPost2010Prop55
280
     0
102
RTVSPost2010PropOp55
 70
     1
102
RTVSPost2010Prop56
140
1.0
102
RTVSPost2010PropOp56
 70
     1
102
RTVSPost2010Prop57
140
1.0
102
RTVSPost2010PropOp57
 70
     1
102
RTVSPropertyOp0
 70
     1
102
RTVSPropertyOp1
 70
     1
102
RTVSPropertyOp2
 70
     1
102
RTVSPropertyOp3
 70
     1
102
RTVSPropertyOp4
 70
     1
102
RTVSPropertyOp5
 70
     1
102
RTVSPropertyOp6
 70
     1
102
RTVSPropertyOp7
 70
     1
102
RTVSPropertyOp8
 70
     1
102
RTVSPropertyOp9
 70
     1
102
RTVSPropertyOp10
 70
     1
102
RTVSPropertyOp11
 70
     1
102
RTVSPropertyOp12
 70
     1
102
RTVSPropertyOp13
 70
     1
102
RTVSPropertyOp14
 70
     1
102
RTVSPropertyOp15
 70
     1
102
RTVSPropertyOp16
 70
     1
102
RTVSPropertyOp17
 70
     1
102
RTVSPropertyOp18
 70
     1
102
RTVSPropertyOp19
 70
     1
102
RTVSPropertyOp20
 70
     1
102
RTVSPropertyOp21
 70
     1
102
RTVSPropertyOp22
 70
     1
102
RTVSPropertyOp23
 70
     1
102
RTVSPropertyOp24
 70
     1
102
RTVSPropertyOp25
 70
     1
102
RTVSPropertyOp26
 70
     1
102
RTVSPropertyOp27
 70
     1
102
RTVSPropertyOp28
 70
     1
102
RTVSPropertyOp29
 70
     1
102
RTVSPropertyOp30
 70
     1
102
RTVSPropertyOp31
 70
     1
102
RTVSPropertyOp32
 70
     1
102
RTVSPropertyOp33
 70
     1
102
RTVSPropertyOp34
 70
     1
102
RTVSPropertyOp35
 70
     1
102
RTVSPropertyOp36
 70
     1
102
RTVSPropertyOp37
 70
     1
102
RTVSPropertyOp38
 70
     1
102
RTVSPropertyOp39
 70
     1
102
RTVSPropertyOp40
 70
     1
102
RTVSPropertyOp41
 70
     1
102
RTVSPropertyOp42
 70
     1
102
RTVSPropertyOp43
 70
     1
102
RTVSPropertyOp44
 70
     1
102
RTVSPropertyOp45
 70
     1
102
RTVSPropertyOp46
 70
     1
102
RTVSPropertyOp47
 70
     1
102
RTVSPropertyOp48
 70
     1
102
RTVSPropertyOp49
 70
     1
102
RTVSPropertyOp50
 70
     1
102
RTVSPropertyOp51
 70
     0
102
RTVSPropertyOp52
 70
     0
102
RTVSPropertyOp53
 70
     1
102
RTVSPropertyOp54
 70
     1
102
RTVSPropertyOp55
 70
     1
102
RTVSPropertyOp56
 70
     1
102
RTVSPropertyOp57
 70
     1
102
RTVSPropertyOp58
 70
     1
102
RTVSPropertyOp59
 70
     1
102
RTVSPropertyOp60
 70
     1
102
RTVSPropertyOp61
 70
     1
102
RTVSPropertyOp62
 70
     1
  0
XRECORD
  5
16DF
102
{ACAD_REACTORS
330
16DE
102
}
330
16DE
100
AcDbXrecord
280
     1
102
RTVSPost2010Prop28
280
     0
102
RTVSPost2010PropOp28
 70
     1
102
RTVSPost2010Prop29
280
     1
102
RTVSPost2010PropOp29
 70
     1
102
RTVSPost2010Prop30
280
     1
102
RTVSPost2010PropOp30
 70
     1
102
RTVSPost2010Prop31
280
     0
102
RTVSPost2010PropOp31
 70
     1
102
RTVSPost2010Prop32
280
     0
102
RTVSPost2010PropOp32
 70
     1
102
RTVSPost2010Prop33
280
     0
102
RTVSPost2010PropOp33
 70
     1
102
RTVSPost2010Prop34
280
     0
102
RTVSPost2010PropOp34
 70
     1
102
RTVSPost2010Prop35
280
     0
102
RTVSPost2010PropOp35
 70
     1
102
RTVSPost2010Prop36
280
     0
102
RTVSPost2010PropOp36
 70
     1
102
RTVSPost2010Prop37
 90
       50
102
RTVSPost2010PropOp37
 70
     1
102
RTVSPost2010Prop38
140
0.0
102
RTVSPost2010PropOp38
 70
     1
102
RTVSPost2010Prop39
140
1.0
102
RTVSPost2010PropOp39
 70
     1
102
RTVSPost2010Prop40
 90
        0
102
RTVSPost2010PropOp40
 70
     1
102
RTVSPost2010Prop41ColorIndex
 90
       18
102
RTVSPost2010Prop41ColorRGB
 90
        0
102
RTVSPost2010PropOp41
 70
     1
102
RTVSPost2010Prop42
 90
       50
102
RTVSPost2010PropOp42
 70
     1
102
RTVSPost2010Prop43
 90
        3
102
RTVSPost2010PropOp43
 70
     1
102
RTVSPost2010Prop44ColorIndex
 90
        5
102
RTVSPost2010Prop44ColorRGB
 90
      255
102
RTVSPost2010PropOp44
 70
     1
102
RTVSPost2010Prop45
280
     0
102
RTVSPost2010PropOp45
 70
     1
102
RTVSPost2010Prop46
 90
       50
102
RTVSPost2010PropOp46
 70
     1
102
RTVSPost2010Prop47
 90
       50
102
RTVSPost2010PropOp47
 70
     1
102
RTVSPost2010Prop48
 90
       50
102
RTVSPost2010PropOp48
 70
     1
102
RTVSPost2010Prop49
280
     0
102
RTVSPost2010PropOp49
 70
     1
102
RTVSPost2010Prop50
 90
       50
102
RTVSPost2010PropOp50
 70
     1
102
RTVSPost2010Prop51ColorIndex
 90
      256
102
RTVSPost2010Prop51ColorRGB
 90
-16777216
102
RTVSPost2010PropOp51
 70
     0
102
RTVSPost2010Prop52
140
1.0
102
RTVSPost2010PropOp52
 70
     0
102
RTVSPost2010Prop53
 90
        2
102
RTVSPost2010PropOp53
 70
     1
102
RTVSPost2010Prop54
  1
strokes_ogs.tif
102
RTVSPost2010PropOp54
 70
     1
102
RTVSPost2010Prop55
280
     0
102
RTVSPost2010PropOp55
 70
     1
102
RTVSPost2010Prop56
140
1.0
102
RTVSPost2010PropOp56
 70
     1
102
RTVSPost2010Prop57
140
1.0
102
RTVSPost2010PropOp57
 70
     1
102
RTVSPropertyOp0
 70
     1
102
RTVSPropertyOp1
 70
     1
102
RTVSPropertyOp2
 70
     1
102
RTVSPropertyOp3
 70
     1
102
RTVSPropertyOp4
 70
     1
102
RTVSPropertyOp5
 70
     1
102
RTVSPropertyOp6
 70
     1
102
RTVSPropertyOp7
 70
     1
102
RTVSPropertyOp8
 70
     1
102
RTVSPropertyOp9
 70
     1
102
RTVSPropertyOp10
 70
     1
102
RTVSPropertyOp11
 70
     1
102
RTVSPropertyOp12
 70
     1
102
RTVSPropertyOp13
 70
     1
102
RTVSPropertyOp14
 70
     1
102
RTVSPropertyOp15
 70
     1
102
RTVSPropertyOp16
 70
     1
102
RTVSPropertyOp17
 70
     1
102
RTVSPropertyOp18
 70
     1
102
RTVSPropertyOp19
 70
     1
102
RTVSPropertyOp20
 70
     1
102
RTVSPropertyOp21
 70
     1
102
RTVSPropertyOp22
 70
     1
102
RTVSPropertyOp23
 70
     1
102
RTVSPropertyOp24
 70
     1
102
RTVSPropertyOp25
 70
     1
102
RTVSPropertyOp26
 70
     1
102
RTVSPropertyOp27
 70
     1
102
RTVSPropertyOp28
 70
     1
102
RTVSPropertyOp29
 70
     1
102
RTVSPropertyOp30
 70
     1
102
RTVSPropertyOp31
 70
     1
102
RTVSPropertyOp32
 70
     1
102
RTVSPropertyOp33
 70
     1
102
RTVSPropertyOp34
 70
     1
102
RTVSPropertyOp35
 70
     1
102
RTVSPropertyOp36
 70
     1
102
RTVSPropertyOp37
 70
     1
102
RTVSPropertyOp38
 70
     1
102
RTVSPropertyOp39
 70
     1
102
RTVSPropertyOp40
 70
     1
102
RTVSPropertyOp41
 70
     1
102
RTVSPropertyOp42
 70
     1
102
RTVSPropertyOp43
 70
     1
102
RTVSPropertyOp44
 70
     1
102
RTVSPropertyOp45
 70
     1
102
RTVSPropertyOp46
 70
     1
102
RTVSPropertyOp47
 70
     1
102
RTVSPropertyOp48
 70
     1
102
RTVSPropertyOp49
 70
     1
102
RTVSPropertyOp50
 70
     1
102
RTVSPropertyOp51
 70
     0
102
RTVSPropertyOp52
 70
     0
102
RTVSPropertyOp53
 70
     1
102
RTVSPropertyOp54
 70
     1
102
RTVSPropertyOp55
 70
     1
102
RTVSPropertyOp56
 70
     1
102
RTVSPropertyOp57
 70
     1
102
RTVSPropertyOp58
 70
     1
102
RTVSPropertyOp59
 70
     1
102
RTVSPropertyOp60
 70
     1
102
RTVSPropertyOp61
 70
     1
102
RTVSPropertyOp62
 70
     1
  0
XRECORD
  5
16E1
102
{ACAD_REACTORS
330
16E0
102
}
330
16E0
100
AcDbXrecord
280
     1
102
RTVSPost2010Prop28
280
     0
102
RTVSPost2010PropOp28
 70
     1
102
RTVSPost2010Prop29
280
     1
102
RTVSPost2010PropOp29
 70
     1
102
RTVSPost2010Prop30
280
     1
102
RTVSPost2010PropOp30
 70
     1
102
RTVSPost2010Prop31
280
     0
102
RTVSPost2010PropOp31
 70
     1
102
RTVSPost2010Prop32
280
     0
102
RTVSPost2010PropOp32
 70
     1
102
RTVSPost2010Prop33
280
     0
102
RTVSPost2010PropOp33
 70
     1
102
RTVSPost2010Prop34
280
     0
102
RTVSPost2010PropOp34
 70
     1
102
RTVSPost2010Prop35
280
     0
102
RTVSPost2010PropOp35
 70
     1
102
RTVSPost2010Prop36
280
     0
102
RTVSPost2010PropOp36
 70
     1
102
RTVSPost2010Prop37
 90
       50
102
RTVSPost2010PropOp37
 70
     1
102
RTVSPost2010Prop38
140
0.0
102
RTVSPost2010PropOp38
 70
     1
102
RTVSPost2010Prop39
140
1.0
102
RTVSPost2010PropOp39
 70
     1
102
RTVSPost2010Prop40
 90
        0
102
RTVSPost2010PropOp40
 70
     1
102
RTVSPost2010Prop41ColorIndex
 90
       18
102
RTVSPost2010Prop41ColorRGB
 90
        0
102
RTVSPost2010PropOp41
 70
     1
102
RTVSPost2010Prop42
 90
       50
102
RTVSPost2010PropOp42
 70
     1
102
RTVSPost2010Prop43
 90
        3
102
RTVSPost2010PropOp43
 70
     1
102
RTVSPost2010Prop44ColorIndex
 90
        5
102
RTVSPost2010Prop44ColorRGB
 90
      255
102
RTVSPost2010PropOp44
 70
     1
102
RTVSPost2010Prop45
280
     0
102
RTVSPost2010PropOp45
 70
     1
102
RTVSPost2010Prop46
 90
       50
102
RTVSPost2010PropOp46
 70
     1
102
RTVSPost2010Prop47
 90
       50
102
RTVSPost2010PropOp47
 70
     1
102
RTVSPost2010Prop48
 90
       50
102
RTVSPost2010PropOp48
 70
     1
102
RTVSPost2010Prop49
280
     0
102
RTVSPost2010PropOp49
 70
     1
102
RTVSPost2010Prop50
 90
       50
102
RTVSPost2010PropOp50
 70
     1
102
RTVSPost2010Prop51ColorIndex
 90
      256
102
RTVSPost2010Prop51ColorRGB
 90
-16777216
102
RTVSPost2010PropOp51
 70
     0
102
RTVSPost2010Prop52
140
1.0
102
RTVSPost2010PropOp52
 70
     0
102
RTVSPost2010Prop53
 90
        2
102
RTVSPost2010PropOp53
 70
     1
102
RTVSPost2010Prop54
  1
strokes_ogs.tif
102
RTVSPost2010PropOp54
 70
     1
102
RTVSPost2010Prop55
280
     0
102
RTVSPost2010PropOp55
 70
     1
102
RTVSPost2010Prop56
140
1.0
102
RTVSPost2010PropOp56
 70
     1
102
RTVSPost2010Prop57
140
1.0
102
RTVSPost2010PropOp57
 70
     1
102
RTVSPropertyOp0
 70
     1
102
RTVSPropertyOp1
 70
     1
102
RTVSPropertyOp2
 70
     1
102
RTVSPropertyOp3
 70
     1
102
RTVSPropertyOp4
 70
     1
102
RTVSPropertyOp5
 70
     1
102
RTVSPropertyOp6
 70
     1
102
RTVSPropertyOp7
 70
     1
102
RTVSPropertyOp8
 70
     1
102
RTVSPropertyOp9
 70
     1
102
RTVSPropertyOp10
 70
     1
102
RTVSPropertyOp11
 70
     1
102
RTVSPropertyOp12
 70
     1
102
RTVSPropertyOp13
 70
     1
102
RTVSPropertyOp14
 70
     1
102
RTVSPropertyOp15
 70
     1
102
RTVSPropertyOp16
 70
     1
102
RTVSPropertyOp17
 70
     1
102
RTVSPropertyOp18
 70
     1
102
RTVSPropertyOp19
 70
     1
102
RTVSPropertyOp20
 70
     1
102
RTVSPropertyOp21
 70
     1
102
RTVSPropertyOp22
 70
     1
102
RTVSPropertyOp23
 70
     1
102
RTVSPropertyOp24
 70
     1
102
RTVSPropertyOp25
 70
     1
102
RTVSPropertyOp26
 70
     1
102
RTVSPropertyOp27
 70
     1
102
RTVSPropertyOp28
 70
     1
102
RTVSPropertyOp29
 70
     1
102
RTVSPropertyOp30
 70
     1
102
RTVSPropertyOp31
 70
     1
102
RTVSPropertyOp32
 70
     1
102
RTVSPropertyOp33
 70
     1
102
RTVSPropertyOp34
 70
     1
102
RTVSPropertyOp35
 70
     1
102
RTVSPropertyOp36
 70
     1
102
RTVSPropertyOp37
 70
     1
102
RTVSPropertyOp38
 70
     1
102
RTVSPropertyOp39
 70
     1
102
RTVSPropertyOp40
 70
     1
102
RTVSPropertyOp41
 70
     1
102
RTVSPropertyOp42
 70
     1
102
RTVSPropertyOp43
 70
     1
102
RTVSPropertyOp44
 70
     1
102
RTVSPropertyOp45
 70
     1
102
RTVSPropertyOp46
 70
     1
102
RTVSPropertyOp47
 70
     1
102
RTVSPropertyOp48
 70
     1
102
RTVSPropertyOp49
 70
     1
102
RTVSPropertyOp50
 70
     1
102
RTVSPropertyOp51
 70
     0
102
RTVSPropertyOp52
 70
     0
102
RTVSPropertyOp53
 70
     1
102
RTVSPropertyOp54
 70
     1
102
RTVSPropertyOp55
 70
     1
102
RTVSPropertyOp56
 70
     1
102
RTVSPropertyOp57
 70
     1
102
RTVSPropertyOp58
 70
     1
102
RTVSPropertyOp59
 70
     1
102
RTVSPropertyOp60
 70
     1
102
RTVSPropertyOp61
 70
     1
102
RTVSPropertyOp62
 70
     1
  0
XRECORD
  5
16D7
102
{ACAD_REACTORS
330
16D6
102
}
330
16D6
100
AcDbXrecord
280
     1
102
RTVSPost2010Prop28
280
     0
102
RTVSPost2010PropOp28
 70
     1
102
RTVSPost2010Prop29
280
     1
102
RTVSPost2010PropOp29
 70
     1
102
RTVSPost2010Prop30
280
     1
102
RTVSPost2010PropOp30
 70
     1
102
RTVSPost2010Prop31
280
     0
102
RTVSPost2010PropOp31
 70
     1
102
RTVSPost2010Prop32
280
     0
102
RTVSPost2010PropOp32
 70
     1
102
RTVSPost2010Prop33
280
     0
102
RTVSPost2010PropOp33
 70
     1
102
RTVSPost2010Prop34
280
     0
102
RTVSPost2010PropOp34
 70
     1
102
RTVSPost2010Prop35
280
     0
102
RTVSPost2010PropOp35
 70
     1
102
RTVSPost2010Prop36
280
     0
102
RTVSPost2010PropOp36
 70
     1
102
RTVSPost2010Prop37
 90
       50
102
RTVSPost2010PropOp37
 70
     1
102
RTVSPost2010Prop38
140
0.0
102
RTVSPost2010PropOp38
 70
     1
102
RTVSPost2010Prop39
140
1.0
102
RTVSPost2010PropOp39
 70
     1
102
RTVSPost2010Prop40
 90
        0
102
RTVSPost2010PropOp40
 70
     1
102
RTVSPost2010Prop41ColorIndex
 90
       18
102
RTVSPost2010Prop41ColorRGB
 90
        0
102
RTVSPost2010PropOp41
 70
     1
102
RTVSPost2010Prop42
 90
       50
102
RTVSPost2010PropOp42
 70
     1
102
RTVSPost2010Prop43
 90
        3
102
RTVSPost2010PropOp43
 70
     1
102
RTVSPost2010Prop44ColorIndex
 90
        5
102
RTVSPost2010Prop44ColorRGB
 90
      255
102
RTVSPost2010PropOp44
 70
     1
102
RTVSPost2010Prop45
280
     0
102
RTVSPost2010PropOp45
 70
     1
102
RTVSPost2010Prop46
 90
       50
102
RTVSPost2010PropOp46
 70
     1
102
RTVSPost2010Prop47
 90
       50
102
RTVSPost2010PropOp47
 70
     1
102
RTVSPost2010Prop48
 90
       50
102
RTVSPost2010PropOp48
 70
     1
102
RTVSPost2010Prop49
280
     0
102
RTVSPost2010PropOp49
 70
     1
102
RTVSPost2010Prop50
 90
       50
102
RTVSPost2010PropOp50
 70
     1
102
RTVSPost2010Prop51ColorIndex
 90
      256
102
RTVSPost2010Prop51ColorRGB
 90
-16777216
102
RTVSPost2010PropOp51
 70
     0
102
RTVSPost2010Prop52
140
1.0
102
RTVSPost2010PropOp52
 70
     0
102
RTVSPost2010Prop53
 90
        2
102
RTVSPost2010PropOp53
 70
     1
102
RTVSPost2010Prop54
  1
strokes_ogs.tif
102
RTVSPost2010PropOp54
 70
     1
102
RTVSPost2010Prop55
280
     0
102
RTVSPost2010PropOp55
 70
     1
102
RTVSPost2010Prop56
140
1.0
102
RTVSPost2010PropOp56
 70
     1
102
RTVSPost2010Prop57
140
1.0
102
RTVSPost2010PropOp57
 70
     1
102
RTVSPropertyOp0
 70
     1
102
RTVSPropertyOp1
 70
     1
102
RTVSPropertyOp2
 70
     1
102
RTVSPropertyOp3
 70
     1
102
RTVSPropertyOp4
 70
     1
102
RTVSPropertyOp5
 70
     1
102
RTVSPropertyOp6
 70
     1
102
RTVSPropertyOp7
 70
     1
102
RTVSPropertyOp8
 70
     1
102
RTVSPropertyOp9
 70
     1
102
RTVSPropertyOp10
 70
     1
102
RTVSPropertyOp11
 70
     1
102
RTVSPropertyOp12
 70
     1
102
RTVSPropertyOp13
 70
     1
102
RTVSPropertyOp14
 70
     1
102
RTVSPropertyOp15
 70
     1
102
RTVSPropertyOp16
 70
     1
102
RTVSPropertyOp17
 70
     1
102
RTVSPropertyOp18
 70
     1
102
RTVSPropertyOp19
 70
     1
102
RTVSPropertyOp20
 70
     1
102
RTVSPropertyOp21
 70
     1
102
RTVSPropertyOp22
 70
     1
102
RTVSPropertyOp23
 70
     1
102
RTVSPropertyOp24
 70
     1
102
RTVSPropertyOp25
 70
     1
102
RTVSPropertyOp26
 70
     1
102
RTVSPropertyOp27
 70
     1
102
RTVSPropertyOp28
 70
     1
102
RTVSPropertyOp29
 70
     1
102
RTVSPropertyOp30
 70
     1
102
RTVSPropertyOp31
 70
     1
102
RTVSPropertyOp32
 70
     1
102
RTVSPropertyOp33
 70
     1
102
RTVSPropertyOp34
 70
     1
102
RTVSPropertyOp35
 70
     1
102
RTVSPropertyOp36
 70
     1
102
RTVSPropertyOp37
 70
     1
102
RTVSPropertyOp38
 70
     1
102
RTVSPropertyOp39
 70
     1
102
RTVSPropertyOp40
 70
     1
102
RTVSPropertyOp41
 70
     1
102
RTVSPropertyOp42
 70
     1
102
RTVSPropertyOp43
 70
     1
102
RTVSPropertyOp44
 70
     1
102
RTVSPropertyOp45
 70
     1
102
RTVSPropertyOp46
 70
     1
102
RTVSPropertyOp47
 70
     1
102
RTVSPropertyOp48
 70
     1
102
RTVSPropertyOp49
 70
     1
102
RTVSPropertyOp50
 70
     1
102
RTVSPropertyOp51
 70
     0
102
RTVSPropertyOp52
 70
     0
102
RTVSPropertyOp53
 70
     1
102
RTVSPropertyOp54
 70
     1
102
RTVSPropertyOp55
 70
     1
102
RTVSPropertyOp56
 70
     1
102
RTVSPropertyOp57
 70
     1
102
RTVSPropertyOp58
 70
     1
102
RTVSPropertyOp59
 70
     1
102
RTVSPropertyOp60
 70
     1
102
RTVSPropertyOp61
 70
     1
102
RTVSPropertyOp62
 70
     1
  0
XRECORD
  5
16CB
102
{ACAD_REACTORS
330
16CA
102
}
330
16CA
100
AcDbXrecord
280
     1
102
RTVSPost2010Prop28
280
     0
102
RTVSPost2010PropOp28
 70
     1
102
RTVSPost2010Prop29
280
     1
102
RTVSPost2010PropOp29
 70
     1
102
RTVSPost2010Prop30
280
     1
102
RTVSPost2010PropOp30
 70
     1
102
RTVSPost2010Prop31
280
     0
102
RTVSPost2010PropOp31
 70
     1
102
RTVSPost2010Prop32
280
     0
102
RTVSPost2010PropOp32
 70
     1
102
RTVSPost2010Prop33
280
     0
102
RTVSPost2010PropOp33
 70
     1
102
RTVSPost2010Prop34
280
     0
102
RTVSPost2010PropOp34
 70
     1
102
RTVSPost2010Prop35
280
     0
102
RTVSPost2010PropOp35
 70
     1
102
RTVSPost2010Prop36
280
     0
102
RTVSPost2010PropOp36
 70
     1
102
RTVSPost2010Prop37
 90
       50
102
RTVSPost2010PropOp37
 70
     1
102
RTVSPost2010Prop38
140
0.0
102
RTVSPost2010PropOp38
 70
     1
102
RTVSPost2010Prop39
140
1.0
102
RTVSPost2010PropOp39
 70
     1
102
RTVSPost2010Prop40
 90
        0
102
RTVSPost2010PropOp40
 70
     1
102
RTVSPost2010Prop41ColorIndex
 90
       18
102
RTVSPost2010Prop41ColorRGB
 90
        0
102
RTVSPost2010PropOp41
 70
     1
102
RTVSPost2010Prop42
 90
       50
102
RTVSPost2010PropOp42
 70
     1
102
RTVSPost2010Prop43
 90
        3
102
RTVSPost2010PropOp43
 70
     1
102
RTVSPost2010Prop44ColorIndex
 90
        5
102
RTVSPost2010Prop44ColorRGB
 90
      255
102
RTVSPost2010PropOp44
 70
     1
102
RTVSPost2010Prop45
280
     0
102
RTVSPost2010PropOp45
 70
     1
102
RTVSPost2010Prop46
 90
       50
102
RTVSPost2010PropOp46
 70
     1
102
RTVSPost2010Prop47
 90
       50
102
RTVSPost2010PropOp47
 70
     1
102
RTVSPost2010Prop48
 90
       50
102
RTVSPost2010PropOp48
 70
     1
102
RTVSPost2010Prop49
280
     0
102
RTVSPost2010PropOp49
 70
     1
102
RTVSPost2010Prop50
 90
       50
102
RTVSPost2010PropOp50
 70
     1
102
RTVSPost2010Prop51ColorIndex
 90
      256
102
RTVSPost2010Prop51ColorRGB
 90
-16777216
102
RTVSPost2010PropOp51
 70
     0
102
RTVSPost2010Prop52
140
1.0
102
RTVSPost2010PropOp52
 70
     0
102
RTVSPost2010Prop53
 90
        2
102
RTVSPost2010PropOp53
 70
     1
102
RTVSPost2010Prop54
  1
strokes_ogs.tif
102
RTVSPost2010PropOp54
 70
     1
102
RTVSPost2010Prop55
280
     0
102
RTVSPost2010PropOp55
 70
     1
102
RTVSPost2010Prop56
140
1.0
102
RTVSPost2010PropOp56
 70
     1
102
RTVSPost2010Prop57
140
1.0
102
RTVSPost2010PropOp57
 70
     1
102
RTVSPropertyOp0
 70
     1
102
RTVSPropertyOp1
 70
     1
102
RTVSPropertyOp2
 70
     1
102
RTVSPropertyOp3
 70
     1
102
RTVSPropertyOp4
 70
     1
102
RTVSPropertyOp5
 70
     1
102
RTVSPropertyOp6
 70
     1
102
RTVSPropertyOp7
 70
     1
102
RTVSPropertyOp8
 70
     1
102
RTVSPropertyOp9
 70
     1
102
RTVSPropertyOp10
 70
     1
102
RTVSPropertyOp11
 70
     1
102
RTVSPropertyOp12
 70
     1
102
RTVSPropertyOp13
 70
     1
102
RTVSPropertyOp14
 70
     1
102
RTVSPropertyOp15
 70
     1
102
RTVSPropertyOp16
 70
     1
102
RTVSPropertyOp17
 70
     1
102
RTVSPropertyOp18
 70
     1
102
RTVSPropertyOp19
 70
     1
102
RTVSPropertyOp20
 70
     1
102
RTVSPropertyOp21
 70
     1
102
RTVSPropertyOp22
 70
     1
102
RTVSPropertyOp23
 70
     1
102
RTVSPropertyOp24
 70
     1
102
RTVSPropertyOp25
 70
     1
102
RTVSPropertyOp26
 70
     1
102
RTVSPropertyOp27
 70
     1
102
RTVSPropertyOp28
 70
     1
102
RTVSPropertyOp29
 70
     1
102
RTVSPropertyOp30
 70
     1
102
RTVSPropertyOp31
 70
     1
102
RTVSPropertyOp32
 70
     1
102
RTVSPropertyOp33
 70
     1
102
RTVSPropertyOp34
 70
     1
102
RTVSPropertyOp35
 70
     1
102
RTVSPropertyOp36
 70
     1
102
RTVSPropertyOp37
 70
     1
102
RTVSPropertyOp38
 70
     1
102
RTVSPropertyOp39
 70
     1
102
RTVSPropertyOp40
 70
     1
102
RTVSPropertyOp41
 70
     1
102
RTVSPropertyOp42
 70
     1
102
RTVSPropertyOp43
 70
     1
102
RTVSPropertyOp44
 70
     1
102
RTVSPropertyOp45
 70
     1
102
RTVSPropertyOp46
 70
     1
102
RTVSPropertyOp47
 70
     1
102
RTVSPropertyOp48
 70
     1
102
RTVSPropertyOp49
 70
     1
102
RTVSPropertyOp50
 70
     1
102
RTVSPropertyOp51
 70
     0
102
RTVSPropertyOp52
 70
     0
102
RTVSPropertyOp53
 70
     1
102
RTVSPropertyOp54
 70
     1
102
RTVSPropertyOp55
 70
     1
102
RTVSPropertyOp56
 70
     1
102
RTVSPropertyOp57
 70
     1
102
RTVSPropertyOp58
 70
     1
102
RTVSPropertyOp59
 70
     1
102
RTVSPropertyOp60
 70
     1
102
RTVSPropertyOp61
 70
     1
102
RTVSPropertyOp62
 70
     1
  0
XRECORD
  5
16E3
102
{ACAD_REACTORS
330
16E2
102
}
330
16E2
100
AcDbXrecord
280
     1
102
RTVSPost2010Prop28
280
     0
102
RTVSPost2010PropOp28
 70
     1
102
RTVSPost2010Prop29
280
     1
102
RTVSPost2010PropOp29
 70
     1
102
RTVSPost2010Prop30
280
     1
102
RTVSPost2010PropOp30
 70
     1
102
RTVSPost2010Prop31
280
     0
102
RTVSPost2010PropOp31
 70
     1
102
RTVSPost2010Prop32
280
     0
102
RTVSPost2010PropOp32
 70
     1
102
RTVSPost2010Prop33
280
     0
102
RTVSPost2010PropOp33
 70
     1
102
RTVSPost2010Prop34
280
     0
102
RTVSPost2010PropOp34
 70
     1
102
RTVSPost2010Prop35
280
     0
102
RTVSPost2010PropOp35
 70
     1
102
RTVSPost2010Prop36
280
     0
102
RTVSPost2010PropOp36
 70
     1
102
RTVSPost2010Prop37
 90
       50
102
RTVSPost2010PropOp37
 70
     1
102
RTVSPost2010Prop38
140
0.0
102
RTVSPost2010PropOp38
 70
     1
102
RTVSPost2010Prop39
140
1.0
102
RTVSPost2010PropOp39
 70
     1
102
RTVSPost2010Prop40
 90
        0
102
RTVSPost2010PropOp40
 70
     1
102
RTVSPost2010Prop41ColorIndex
 90
       18
102
RTVSPost2010Prop41ColorRGB
 90
        0
102
RTVSPost2010PropOp41
 70
     1
102
RTVSPost2010Prop42
 90
       50
102
RTVSPost2010PropOp42
 70
     1
102
RTVSPost2010Prop43
 90
        3
102
RTVSPost2010PropOp43
 70
     1
102
RTVSPost2010Prop44ColorIndex
 90
        5
102
RTVSPost2010Prop44ColorRGB
 90
      255
102
RTVSPost2010PropOp44
 70
     1
102
RTVSPost2010Prop45
280
     0
102
RTVSPost2010PropOp45
 70
     1
102
RTVSPost2010Prop46
 90
       50
102
RTVSPost2010PropOp46
 70
     1
102
RTVSPost2010Prop47
 90
       50
102
RTVSPost2010PropOp47
 70
     1
102
RTVSPost2010Prop48
 90
       50
102
RTVSPost2010PropOp48
 70
     1
102
RTVSPost2010Prop49
280
     0
102
RTVSPost2010PropOp49
 70
     1
102
RTVSPost2010Prop50
 90
       50
102
RTVSPost2010PropOp50
 70
     1
102
RTVSPost2010Prop51ColorIndex
 90
      256
102
RTVSPost2010Prop51ColorRGB
 90
-16777216
102
RTVSPost2010PropOp51
 70
     0
102
RTVSPost2010Prop52
140
1.0
102
RTVSPost2010PropOp52
 70
     0
102
RTVSPost2010Prop53
 90
        2
102
RTVSPost2010PropOp53
 70
     1
102
RTVSPost2010Prop54
  1
strokes_ogs.tif
102
RTVSPost2010PropOp54
 70
     1
102
RTVSPost2010Prop55
280
     0
102
RTVSPost2010PropOp55
 70
     1
102
RTVSPost2010Prop56
140
1.0
102
RTVSPost2010PropOp56
 70
     1
102
RTVSPost2010Prop57
140
1.0
102
RTVSPost2010PropOp57
 70
     1
102
RTVSPropertyOp0
 70
     1
102
RTVSPropertyOp1
 70
     1
102
RTVSPropertyOp2
 70
     1
102
RTVSPropertyOp3
 70
     1
102
RTVSPropertyOp4
 70
     1
102
RTVSPropertyOp5
 70
     1
102
RTVSPropertyOp6
 70
     1
102
RTVSPropertyOp7
 70
     1
102
RTVSPropertyOp8
 70
     1
102
RTVSPropertyOp9
 70
     1
102
RTVSPropertyOp10
 70
     1
102
RTVSPropertyOp11
 70
     1
102
RTVSPropertyOp12
 70
     1
102
RTVSPropertyOp13
 70
     1
102
RTVSPropertyOp14
 70
     1
102
RTVSPropertyOp15
 70
     1
102
RTVSPropertyOp16
 70
     1
102
RTVSPropertyOp17
 70
     1
102
RTVSPropertyOp18
 70
     1
102
RTVSPropertyOp19
 70
     1
102
RTVSPropertyOp20
 70
     1
102
RTVSPropertyOp21
 70
     1
102
RTVSPropertyOp22
 70
     1
102
RTVSPropertyOp23
 70
     1
102
RTVSPropertyOp24
 70
     1
102
RTVSPropertyOp25
 70
     1
102
RTVSPropertyOp26
 70
     1
102
RTVSPropertyOp27
 70
     1
102
RTVSPropertyOp28
 70
     1
102
RTVSPropertyOp29
 70
     1
102
RTVSPropertyOp30
 70
     1
102
RTVSPropertyOp31
 70
     1
102
RTVSPropertyOp32
 70
     1
102
RTVSPropertyOp33
 70
     1
102
RTVSPropertyOp34
 70
     1
102
RTVSPropertyOp35
 70
     1
102
RTVSPropertyOp36
 70
     1
102
RTVSPropertyOp37
 70
     1
102
RTVSPropertyOp38
 70
     1
102
RTVSPropertyOp39
 70
     1
102
RTVSPropertyOp40
 70
     1
102
RTVSPropertyOp41
 70
     1
102
RTVSPropertyOp42
 70
     1
102
RTVSPropertyOp43
 70
     1
102
RTVSPropertyOp44
 70
     1
102
RTVSPropertyOp45
 70
     1
102
RTVSPropertyOp46
 70
     1
102
RTVSPropertyOp47
 70
     1
102
RTVSPropertyOp48
 70
     1
102
RTVSPropertyOp49
 70
     1
102
RTVSPropertyOp50
 70
     1
102
RTVSPropertyOp51
 70
     0
102
RTVSPropertyOp52
 70
     0
102
RTVSPropertyOp53
 70
     1
102
RTVSPropertyOp54
 70
     1
102
RTVSPropertyOp55
 70
     1
102
RTVSPropertyOp56
 70
     1
102
RTVSPropertyOp57
 70
     1
102
RTVSPropertyOp58
 70
     1
102
RTVSPropertyOp59
 70
     1
102
RTVSPropertyOp60
 70
     1
102
RTVSPropertyOp61
 70
     1
102
RTVSPropertyOp62
 70
     1
  0
ENDSEC
  0
EOF
