  0
SECTION
  2
HEADER
  9
$ACADVER
  1
AC1021
  9
$ACADMAINTVER
 70
    50
  9
$DWGCODEPAGE
  3
ANSI_1252
  9
$LASTSAVEDBY
  1
francoisbu
  9
$INSBASE
 10
0.0
 20
0.0
 30
0.0
  9
$EXTMIN
 10
97.2562467628
 20
21.9104126263
 30
0.0
  9
$EXTMAX
 10
133.2562467628
 20
52.0598338268
 30
0.0
  9
$LIMMIN
 10
0.0
 20
0.0
  9
$LIMMAX
 10
181.3333333333
 20
117.3333333333
  9
$ORTHOMODE
 70
     0
  9
$REGENMODE
 70
     1
  9
$FILLMODE
 70
     1
  9
$QTEXTMODE
 70
     0
  9
$MIRRTEXT
 70
     0
  9
$LTSCALE
 40
9.973333333300001
  9
$ATTMODE
 70
     1
  9
$TEXTSIZE
 40
0.2
  9
$TRACEWID
 40
0.05
  9
$TEXTSTYLE
  7
STANDARD
  9
$CLAYER
  8
0
  9
$CELTYPE
  6
BYLAYER
  9
$CECOLOR
 62
   256
  9
$CELTSCALE
 40
1.0
  9
$DISPSILH
 70
     0
  9
$DIMSCALE
 40
1.0
  9
$DIMASZ
 40
2.0
  9
$DIMEXO
 40
0.0625
  9
$DIMDLI
 40
6.890666666699999
  9
$DIMRND
 40
0.0
  9
$DIMDLE
 40
0.0
  9
$DIMEXE
 40
0.125
  9
$DIMTP
 40
0.00001
  9
$DIMTM
 40
0.00001
  9
$DIMTXT
 40
1.333333333299999
  9
$DIMCEN
 40
1.631999999999999
  9
$DIMTSZ
 40
0.0
  9
$DIMTOL
 70
     1
  9
$DIMLIM
 70
     0
  9
$DIMTIH
 70
     1
  9
$DIMTOH
 70
     1
  9
$DIMSE1
 70
     0
  9
$DIMSE2
 70
     0
  9
$DIMTAD
 70
     0
  9
$DIMZIN
 70
     0
  9
$DIMBLK
  1
_FILLED
  9
$DIMASO
 70
     1
  9
$DIMSHO
 70
     1
  9
$DIMPOST
  1

  9
$DIMAPOST
  1

  9
$DIMALT
 70
     0
  9
$DIMALTD
 70
     2
  9
$DIMALTF
 40
25.4
  9
$DIMLFAC
 40
1.0
  9
$DIMTOFL
 70
     0
  9
$DIMTVP
 40
0.0
  9
$DIMTIX
 70
     0
  9
$DIMSOXD
 70
     0
  9
$DIMSAH
 70
     0
  9
$DIMBLK1
  1

  9
$DIMBLK2
  1

  9
$DIMSTYLE
  2
STANDARD
  9
$DIMCLRD
 70
     0
  9
$DIMCLRE
 70
     0
  9
$DIMCLRT
 70
     0
  9
$DIMTFAC
 40
1.0
  9
$DIMGAP
 40
0.09
  9
$DIMJUST
 70
     0
  9
$DIMSD1
 70
     0
  9
$DIMSD2
 70
     0
  9
$DIMTOLJ
 70
     1
  9
$DIMTZIN
 70
     0
  9
$DIMALTZ
 70
     0
  9
$DIMALTTZ
 70
     0
  9
$DIMUPT
 70
     0
  9
$DIMDEC
 70
     4
  9
$DIMTDEC
 70
     4
  9
$DIMALTU
 70
     2
  9
$DIMALTTD
 70
     2
  9
$DIMTXSTY
  7
STANDARD
  9
$DIMAUNIT
 70
     0
  9
$DIMADEC
 70
     0
  9
$DIMALTRND
 40
0.0
  9
$DIMAZIN
 70
     0
  9
$DIMDSEP
 70
    46
  9
$DIMATFIT
 70
     3
  9
$DIMFRAC
 70
     0
  9
$DIMLDRBLK
  1

  9
$DIMLUNIT
 70
     2
  9
$DIMLWD
 70
    -2
  9
$DIMLWE
 70
    -2
  9
$DIMTMOVE
 70
     0
  9
$DIMFXL
 40
1.0
  9
$DIMFXLON
 70
     0
  9
$DIMJOGANG
 40
0.7853981633974483
  9
$DIMTFILL
 70
     0
  9
$DIMTFILLCLR
 70
     0
  9
$DIMARCSYM
 70
     0
  9
$DIMLTYPE
  6

  9
$DIMLTEX1
  6

  9
$DIMLTEX2
  6

  9
$LUNITS
 70
     2
  9
$LUPREC
 70
     4
  9
$SKETCHINC
 40
0.1
  9
$FILLETRAD
 40
0.0
  9
$AUNITS
 70
     0
  9
$AUPREC
 70
     0
  9
$MENU
  1
.
  9
$ELEVATION
 40
0.0
  9
$PELEVATION
 40
0.0
  9
$THICKNESS
 40
0.0
  9
$LIMCHECK
 70
     0
  9
$CHAMFERA
 40
0.0
  9
$CHAMFERB
 40
0.0
  9
$CHAMFERC
 40
0.0
  9
$CHAMFERD
 40
0.0
  9
$SKPOLY
 70
     0
  9
$TDCREATE
 40
2456630.443109398
  9
$TDUCREATE
 40
2456630.651442731
  9
$TDUPDATE
 40
2456630.471802489
  9
$TDUUPDATE
 40
2456630.680135822
  9
$TDINDWG
 40
0.0035433681
  9
$TDUSRTIMER
 40
0.0035433681
  9
$USRTIMER
 70
     1
  9
$ANGBASE
 50
0.0
  9
$ANGDIR
 70
     0
  9
$PDMODE
 70
     3
  9
$PDSIZE
 40
0.03125
  9
$PLINEWID
 40
0.0
  9
$SPLFRAME
 70
     0
  9
$SPLINETYPE
 70
     6
  9
$SPLINESEGS
 70
     8
  9
$HANDSEED
  5
167C
  9
$SURFTAB1
 70
     6
  9
$SURFTAB2
 70
     6
  9
$SURFTYPE
 70
     6
  9
$SURFU
 70
     6
  9
$SURFV
 70
     6
  9
$UCSBASE
  2

  9
$UCSNAME
  2

  9
$UCSORG
 10
0.0
 20
0.0
 30
0.0
  9
$UCSXDIR
 10
1.0
 20
0.0
 30
0.0
  9
$UCSYDIR
 10
0.0
 20
1.0
 30
0.0
  9
$UCSORTHOREF
  2

  9
$UCSORTHOVIEW
 70
     0
  9
$UCSORGTOP
 10
0.0
 20
0.0
 30
0.0
  9
$UCSORGBOTTOM
 10
0.0
 20
0.0
 30
0.0
  9
$UCSORGLEFT
 10
0.0
 20
0.0
 30
0.0
  9
$UCSORGRIGHT
 10
0.0
 20
0.0
 30
0.0
  9
$UCSORGFRONT
 10
0.0
 20
0.0
 30
0.0
  9
$UCSORGBACK
 10
0.0
 20
0.0
 30
0.0
  9
$PUCSBASE
  2

  9
$PUCSNAME
  2

  9
$PUCSORG
 10
0.0
 20
0.0
 30
0.0
  9
$PUCSXDIR
 10
1.0
 20
0.0
 30
0.0
  9
$PUCSYDIR
 10
0.0
 20
1.0
 30
0.0
  9
$PUCSORTHOREF
  2

  9
$PUCSORTHOVIEW
 70
     0
  9
$PUCSORGTOP
 10
0.0
 20
0.0
 30
0.0
  9
$PUCSORGBOTTOM
 10
0.0
 20
0.0
 30
0.0
  9
$PUCSORGLEFT
 10
0.0
 20
0.0
 30
0.0
  9
$PUCSORGRIGHT
 10
0.0
 20
0.0
 30
0.0
  9
$PUCSORGFRONT
 10
0.0
 20
0.0
 30
0.0
  9
$PUCSORGBACK
 10
0.0
 20
0.0
 30
0.0
  9
$USERI1
 70
     0
  9
$USERI2
 70
     0
  9
$USERI3
 70
     0
  9
$USERI4
 70
     0
  9
$USERI5
 70
     0
  9
$USERR1
 40
0.0
  9
$USERR2
 40
0.0
  9
$USERR3
 40
0.0
  9
$USERR4
 40
0.0
  9
$USERR5
 40
0.0
  9
$WORLDVIEW
 70
     1
  9
$SHADEDGE
 70
     3
  9
$SHADEDIF
 70
    70
  9
$TILEMODE
 70
     1
  9
$MAXACTVP
 70
    64
  9
$PINSBASE
 10
0.0
 20
0.0
 30
0.0
  9
$PLIMCHECK
 70
     0
  9
$PEXTMIN
 10
1.000000000000000E+20
 20
1.000000000000000E+20
 30
1.000000000000000E+20
  9
$PEXTMAX
 10
-1.000000000000000E+20
 20
-1.000000000000000E+20
 30
-1.000000000000000E+20
  9
$PLIMMIN
 10
0.0
 20
0.0
  9
$PLIMMAX
 10
12.0
 20
9.0
  9
$UNITMODE
 70
     0
  9
$VISRETAIN
 70
     1
  9
$PLINEGEN
 70
     0
  9
$PSLTSCALE
 70
     1
  9
$TREEDEPTH
 70
  3020
  9
$CMLSTYLE
  2
Standard
  9
$CMLJUST
 70
     0
  9
$CMLSCALE
 40
1.0
  9
$PROXYGRAPHICS
 70
     1
  9
$MEASUREMENT
 70
     0
  9
$CELWEIGHT
370
    -1
  9
$ENDCAPS
280
     0
  9
$JOINSTYLE
280
     0
  9
$LWDISPLAY
290
     0
  9
$INSUNITS
 70
     1
  9
$HYPERLINKBASE
  1

  9
$STYLESHEET
  1

  9
$XEDIT
290
     1
  9
$CEPSNTYPE
380
     0
  9
$PSTYLEMODE
290
     1
  9
$FINGERPRINTGUID
  2
{7A456867-0E38-4B44-8C61-794F327E8B7A}
  9
$VERSIONGUID
  2
{5E8D9BE5-D027-406D-8976-4D1CC16754A8}
  9
$EXTNAMES
290
     1
  9
$PSVPSCALE
 40
0.0
  9
$OLESTARTUP
290
     0
  9
$SORTENTS
280
   127
  9
$INDEXCTL
280
     0
  9
$HIDETEXT
280
     0
  9
$XCLIPFRAME
290
     0
  9
$HALOGAP
280
     0
  9
$OBSCOLOR
 70
   257
  9
$OBSLTYPE
280
     0
  9
$INTERSECTIONDISPLAY
280
     0
  9
$INTERSECTIONCOLOR
 70
   257
  9
$DIMASSOC
280
     1
  9
$PROJECTNAME
  1

  9
$CAMERADISPLAY
290
     0
  9
$LENSLENGTH
 40
50.0
  9
$CAMERAHEIGHT
 40
0.0
  9
$STEPSPERSEC
 40
2.0
  9
$STEPSIZE
 40
6.0
  9
$3DDWFPREC
 40
2.0
  9
$PSOLWIDTH
 40
0.25
  9
$PSOLHEIGHT
 40
4.0
  9
$LOFTANG1
 40
1.570796326794896
  9
$LOFTANG2
 40
1.570796326794896
  9
$LOFTMAG1
 40
0.0
  9
$LOFTMAG2
 40
0.0
  9
$LOFTPARAM
 70
     7
  9
$LOFTNORMALS
280
     1
  9
$LATITUDE
 40
37.795
  9
$LONGITUDE
 40
-122.394
  9
$NORTHDIRECTION
 40
0.0
  9
$TIMEZONE
 70
 -8000
  9
$LIGHTGLYPHDISPLAY
280
     1
  9
$TILEMODELIGHTSYNCH
280
     1
  9
$CMATERIAL
347
1597
  9
$SOLIDHIST
280
     1
  9
$SHOWHIST
280
     1
  9
$DWFFRAME
280
     2
  9
$DGNFRAME
280
     0
  9
$REALWORLDSCALE
290
     1
  9
$INTERFERECOLOR
 62
     1
  9
$INTERFEREOBJVS
345
15B9
  9
$INTERFEREVPVS
346
15B6
  9
$CSHADOW
280
     0
  9
$SHADOWPLANELOCATION
 40
0.0
  0
ENDSEC
  0
SECTION
  2
CLASSES
  0
CLASS
  1
ACDBDICTIONARYWDFLT
  2
AcDbDictionaryWithDefault
  3
ObjectDBX Classes
 90
        0
 91
        1
280
     0
281
     0
  0
CLASS
  1
MATERIAL
  2
AcDbMaterial
  3
ObjectDBX Classes
 90
     1153
 91
        3
280
     0
281
     0
  0
CLASS
  1
VISUALSTYLE
  2
AcDbVisualStyle
  3
ObjectDBX Classes
 90
     4095
 91
       19
280
     0
281
     0
  0
CLASS
  1
TABLESTYLE
  2
AcDbTableStyle
  3
ObjectDBX Classes
 90
     4095
 91
        1
280
     0
281
     0
  0
CLASS
  1
SCALE
  2
AcDbScale
  3
ObjectDBX Classes
 90
     1153
 91
       33
280
     0
281
     0
  0
CLASS
  1
MLEADERSTYLE
  2
AcDbMLeaderStyle
  3
ACDB_MLEADERSTYLE_CLASS
 90
     4095
 91
        1
280
     0
281
     0
  0
CLASS
  1
CELLSTYLEMAP
  2
AcDbCellStyleMap
  3
ObjectDBX Classes
 90
     1152
 91
        2
280
     0
281
     0
  0
CLASS
  1
DICTIONARYVAR
  2
AcDbDictionaryVar
  3
ObjectDBX Classes
 90
        0
 91
       11
280
     0
281
     0
  0
ENDSEC
  0
SECTION
  2
TABLES
  0
TABLE
  2
VPORT
  5
8
102
{ACAD_XDICTIONARY
360
15EF
102
}
330
0
100
AcDbSymbolTable
 70
     1
  0
VPORT
  5
1F4
330
8
100
AcDbSymbolTableRecord
100
AcDbViewportTableRecord
  2
*ACTIVE
 70
     0
 10
0.0
 20
0.0
 11
1.0
 21
1.0
 12
115.2523434069579
 22
39.68395724630697
 13
0.0
 23
0.0
 14
1.0
 24
1.0
 15
0.0
 25
0.0
 16
0.0
 26
0.0
 36
1.0
 17
0.0
 27
0.0
 37
0.0
 40
30.41603284029799
 41
2.41111111111111
 42
50.0
 43
0.0
 44
0.0
 50
0.0
 51
0.0
 71
     0
 72
   100
 73
     1
 74
     1
 75
     0
 76
     0
 77
     0
 78
     0
281
     0
 65
     1
110
0.0
120
0.0
130
0.0
111
1.0
121
0.0
131
0.0
112
0.0
122
1.0
132
0.0
 79
     0
146
0.0
348
15B5
 60
     3
 61
     5
292
     1
282
     1
141
0.0
142
0.0
 63
   250
421
  3355443
  0
ENDTAB
  0
TABLE
  2
LTYPE
  5
5
330
0
100
AcDbSymbolTable
 70
     6
  0
LTYPE
  5
14
330
5
100
AcDbSymbolTableRecord
100
AcDbLinetypeTableRecord
  2
BYBLOCK
 70
     0
  3

 72
    65
 73
     0
 40
0.0
  0
LTYPE
  5
15
330
5
100
AcDbSymbolTableRecord
100
AcDbLinetypeTableRecord
  2
BYLAYER
 70
     0
  3

 72
    65
 73
     0
 40
0.0
  0
LTYPE
  5
16
330
5
100
AcDbSymbolTableRecord
100
AcDbLinetypeTableRecord
  2
CONTINUOUS
 70
     0
  3
Solid line
 72
    65
 73
     0
 40
0.0
  0
LTYPE
  5
1F5
330
5
100
AcDbSymbolTableRecord
100
AcDbLinetypeTableRecord
  2
CENTER
 70
     0
  3
____ _ ____ _ ____ _ ____ _ ____ _ ____ _ ____
 72
    65
 73
     4
 40
0.6
 49
0.375
 74
     0
 49
-0.075
 74
     0
 49
0.075
 74
     0
 49
-0.075
 74
     0
  0
LTYPE
  5
1F6
330
5
100
AcDbSymbolTableRecord
100
AcDbLinetypeTableRecord
  2
HIDDEN
 70
     0
  3
- - - - - - - - - - - - - - - - - - - -
 72
    65
 73
     2
 40
0.2
 49
0.1
 74
     0
 49
-0.1
 74
     0
  0
LTYPE
  5
1F7
330
5
100
AcDbSymbolTableRecord
100
AcDbLinetypeTableRecord
  2
PHANTOM
 70
     0
  3
_____ _ _ _____ _ _ _____ _ _ _____
 72
    65
 73
     6
 40
0.8
 49
0.45
 74
     0
 49
-0.05
 74
     0
 49
0.1
 74
     0
 49
-0.05
 74
     0
 49
0.1
 74
     0
 49
-0.05
 74
     0
  0
LTYPE
  5
1F8
330
5
100
AcDbSymbolTableRecord
100
AcDbLinetypeTableRecord
  2
DOT
 70
     0
  3
. . . . . . . . . . . . . . . . . . . .
 72
    65
 73
     2
 40
0.2
 49
0.1
 74
     0
 49
-0.1
 74
     0
  0
LTYPE
  5
1F9
330
5
100
AcDbSymbolTableRecord
100
AcDbLinetypeTableRecord
  2
DASHED
 70
     0
  3
- - - - - - - - - - - - - - - - - - - -
 72
    65
 73
     2
 40
0.2
 49
0.1
 74
     0
 49
-0.1
 74
     0
  0
ENDTAB
  0
TABLE
  2
LAYER
  5
2
330
0
100
AcDbSymbolTable
 70
    28
  0
LAYER
  5
10
102
{ACAD_XDICTIONARY
360
162F
102
}
330
2
100
AcDbSymbolTableRecord
100
AcDbLayerTableRecord
  2
0
 70
     0
 62
     7
  6
CONTINUOUS
370
    -3
390
F
347
15A7
  0
LAYER
  5
1FA
102
{ACAD_XDICTIONARY
360
1631
102
}
330
2
100
AcDbSymbolTableRecord
100
AcDbLayerTableRecord
  2
DEFAULT_1
 70
     0
 62
     7
  6
CENTER
370
    -3
390
F
347
15A7
  0
LAYER
  5
1FB
102
{ACAD_XDICTIONARY
360
1633
102
}
330
2
100
AcDbSymbolTableRecord
100
AcDbLayerTableRecord
  2
DEFAULT_2
 70
     0
 62
     7
  6
HIDDEN
370
    -3
390
F
347
15A7
  0
LAYER
  5
1FC
102
{ACAD_XDICTIONARY
360
1635
102
}
330
2
100
AcDbSymbolTableRecord
100
AcDbLayerTableRecord
  2
DEFAULT_3
 70
     0
 62
     7
  6
PHANTOM
370
    -3
390
F
347
15A7
  0
LAYER
  5
1FD
102
{ACAD_XDICTIONARY
360
1637
102
}
330
2
100
AcDbSymbolTableRecord
100
AcDbLayerTableRecord
  2
1_CURVES
 70
     0
 62
     7
  6
CONTINUOUS
370
    -3
390
F
347
15A7
  0
LAYER
  5
1FE
102
{ACAD_XDICTIONARY
360
1639
102
}
330
2
100
AcDbSymbolTableRecord
100
AcDbLayerTableRecord
  2
1_CURVES_CONDUIT
 70
     0
 62
     7
  6
CONTINUOUS
370
    -3
390
F
347
15A7
  0
LAYER
  5
1FF
102
{ACAD_XDICTIONARY
360
163B
102
}
330
2
100
AcDbSymbolTableRecord
100
AcDbLayerTableRecord
  2
1_CURVES_JETS
 70
     0
 62
     7
  6
CONTINUOUS
370
    -3
390
F
347
15A7
  0
LAYER
  5
200
102
{ACAD_XDICTIONARY
360
163D
102
}
330
2
100
AcDbSymbolTableRecord
100
AcDbLayerTableRecord
  2
1_CURVES_PATINS
 70
     0
 62
     7
  6
CONTINUOUS
370
    -3
390
F
347
15A7
  0
LAYER
  5
201
102
{ACAD_XDICTIONARY
360
163F
102
}
330
2
100
AcDbSymbolTableRecord
100
AcDbLayerTableRecord
  2
1_CURVES_SPEC_FRONT
 70
     0
 62
     7
  6
CONTINUOUS
370
    -3
390
F
347
15A7
  0
LAYER
  5
202
102
{ACAD_XDICTIONARY
360
1641
102
}
330
2
100
AcDbSymbolTableRecord
100
AcDbLayerTableRecord
  2
1_CURVES_SPEC_RIGHT
 70
     0
 62
     7
  6
CONTINUOUS
370
    -3
390
F
347
15A7
  0
LAYER
  5
203
102
{ACAD_XDICTIONARY
360
1643
102
}
330
2
100
AcDbSymbolTableRecord
100
AcDbLayerTableRecord
  2
2_PLANES
 70
     0
 62
     7
  6
CONTINUOUS
370
    -3
390
F
347
15A7
  0
LAYER
  5
204
102
{ACAD_XDICTIONARY
360
1645
102
}
330
2
100
AcDbSymbolTableRecord
100
AcDbLayerTableRecord
  2
2_PLANES_JETS
 70
     0
 62
     7
  6
CONTINUOUS
370
    -3
390
F
347
15A7
  0
LAYER
  5
205
102
{ACAD_XDICTIONARY
360
1647
102
}
330
2
100
AcDbSymbolTableRecord
100
AcDbLayerTableRecord
  2
3_POINTS
 70
     0
 62
     7
  6
CONTINUOUS
370
    -3
390
F
347
15A7
  0
LAYER
  5
206
102
{ACAD_XDICTIONARY
360
1649
102
}
330
2
100
AcDbSymbolTableRecord
100
AcDbLayerTableRecord
  2
3_POINTS_JETS
 70
     0
 62
     7
  6
CONTINUOUS
370
    -3
390
F
347
15A7
  0
LAYER
  5
207
102
{ACAD_XDICTIONARY
360
164B
102
}
330
2
100
AcDbSymbolTableRecord
100
AcDbLayerTableRecord
  2
4_CSYS
 70
     0
 62
     7
  6
CONTINUOUS
370
    -3
390
F
347
15A7
  0
LAYER
  5
208
102
{ACAD_XDICTIONARY
360
164D
102
}
330
2
100
AcDbSymbolTableRecord
100
AcDbLayerTableRecord
  2
5_AXIS
 70
     0
 62
     7
  6
CONTINUOUS
370
    -3
390
F
347
15A7
  0
LAYER
  5
209
102
{ACAD_XDICTIONARY
360
164F
102
}
330
2
100
AcDbSymbolTableRecord
100
AcDbLayerTableRecord
  2
5_AXIS_JETS
 70
     0
 62
     7
  6
CONTINUOUS
370
    -3
390
F
347
15A7
  0
LAYER
  5
20A
102
{ACAD_XDICTIONARY
360
1651
102
}
330
2
100
AcDbSymbolTableRecord
100
AcDbLayerTableRecord
  2
6_AIRE_CONDUIT
 70
     0
 62
     7
  6
CONTINUOUS
370
    -3
390
F
347
15A7
  0
LAYER
  5
20B
102
{ACAD_XDICTIONARY
360
1653
102
}
330
2
100
AcDbSymbolTableRecord
100
AcDbLayerTableRecord
  2
6_SURFACES
 70
     0
 62
     7
  6
CONTINUOUS
370
    -3
390
F
347
15A7
  0
LAYER
  5
20C
102
{ACAD_XDICTIONARY
360
1655
102
}
330
2
100
AcDbSymbolTableRecord
100
AcDbLayerTableRecord
  2
6_SURFACES_AIRE
 70
     0
 62
     7
  6
CONTINUOUS
370
    -3
390
F
347
15A7
  0
LAYER
  5
20D
102
{ACAD_XDICTIONARY
360
1657
102
}
330
2
100
AcDbSymbolTableRecord
100
AcDbLayerTableRecord
  2
6_SURFACES_OFFSET_FIBRE_ACRYLIQ
 70
     0
 62
     7
  6
CONTINUOUS
370
    -3
390
F
347
15A7
  0
LAYER
  5
20E
102
{ACAD_XDICTIONARY
360
1659
102
}
330
2
100
AcDbSymbolTableRecord
100
AcDbLayerTableRecord
  2
6_SURFACES_POUR_CONDUIT
 70
     0
 62
     7
  6
CONTINUOUS
370
    -3
390
F
347
15A7
  0
LAYER
  5
20F
102
{ACAD_XDICTIONARY
360
165B
102
}
330
2
100
AcDbSymbolTableRecord
100
AcDbLayerTableRecord
  2
6_SURFACES_POUR_HFL
 70
     0
 62
     7
  6
CONTINUOUS
370
    -3
390
F
347
15A7
  0
LAYER
  5
210
102
{ACAD_XDICTIONARY
360
165D
102
}
330
2
100
AcDbSymbolTableRecord
100
AcDbLayerTableRecord
  2
6_SURFACES_TOOLING
 70
     0
 62
     7
  6
CONTINUOUS
370
    -3
390
F
347
15A7
  0
LAYER
  5
211
102
{ACAD_XDICTIONARY
360
165F
102
}
330
2
100
AcDbSymbolTableRecord
100
AcDbLayerTableRecord
  2
7_NOTES
 70
     0
 62
     7
  6
CONTINUOUS
370
    -3
390
F
347
15A7
  0
LAYER
  5
212
102
{ACAD_XDICTIONARY
360
1661
102
}
330
2
100
AcDbSymbolTableRecord
100
AcDbLayerTableRecord
  2
8_TOL_GEOM
 70
     0
 62
     7
  6
CONTINUOUS
370
    -3
390
F
347
15A7
  0
LAYER
  5
213
102
{ACAD_XDICTIONARY
360
1663
102
}
330
2
100
AcDbSymbolTableRecord
100
AcDbLayerTableRecord
  2
NONE
 70
     0
 62
     7
  6
CONTINUOUS
370
    -3
390
F
347
15A7
  0
LAYER
  5
214
102
{ACAD_XDICTIONARY
360
1665
102
}
330
2
100
AcDbSymbolTableRecord
100
AcDbLayerTableRecord
  2
XSEC_DATUMS
 70
     0
 62
     7
  6
CONTINUOUS
370
    -3
390
F
347
15A7
  0
ENDTAB
  0
TABLE
  2
STYLE
  5
3
330
0
100
AcDbSymbolTable
 70
     8
  0
STYLE
  5
11
330
3
100
AcDbSymbolTableRecord
100
AcDbTextStyleTableRecord
  2
STANDARD
 70
     0
 40
0.0
 41
0.8
 50
0.0
 71
     0
 42
0.2
  3
txt
  4

  0
STYLE
  5
215
330
3
100
AcDbSymbolTableRecord
100
AcDbTextStyleTableRecord
  2
TEXTSTYLE_1
 70
     0
 40
0.0
 41
0.8
 50
0.0
 71
     0
 42
0.2
  3
gdt
  4

  0
STYLE
  5
216
330
3
100
AcDbSymbolTableRecord
100
AcDbTextStyleTableRecord
  2
TEXTSTYLE_2
 70
     0
 40
0.0
 41
1.0
 50
0.0
 71
     0
 42
0.2
  3
trium.ttf
  4

  0
STYLE
  5
217
330
3
100
AcDbSymbolTableRecord
100
AcDbTextStyleTableRecord
  2
TEXTSTYLE_3
 70
     0
 40
0.0
 41
1.0
 50
0.0
 71
     0
 42
0.2
  3
trium.ttf
  4

  0
STYLE
  5
218
330
3
100
AcDbSymbolTableRecord
100
AcDbTextStyleTableRecord
  2
TEXTSTYLE_4
 70
     0
 40
0.0
 41
1.0
 50
0.0
 71
     0
 42
0.2
  3
txt_____.ttf
  4

1001
ACAD
1000
txt
1071
        2
  0
STYLE
  5
219
330
3
100
AcDbSymbolTableRecord
100
AcDbTextStyleTableRecord
  2
TEXTSTYLE_5
 70
     0
 40
0.0
 41
1.0
 50
0.0
 71
     0
 42
0.2
  3
txt_____.ttf
  4

1001
ACAD
1000
txt
1071
        2
  0
STYLE
  5
21A
330
3
100
AcDbSymbolTableRecord
100
AcDbTextStyleTableRecord
  2
TEXTSTYLE_6
 70
     0
 40
0.0
 41
1.0
 50
0.0
 71
     0
 42
0.2
  3
trium.ttf
  4

  0
STYLE
  5
21B
330
3
100
AcDbSymbolTableRecord
100
AcDbTextStyleTableRecord
  2
TEXTSTYLE_7
 70
     0
 40
0.0
 41
0.8
 50
0.0
 71
     0
 42
0.2
  3
txt_____.ttf
  4

1001
ACAD
1000
txt
1071
        2
  0
ENDTAB
  0
TABLE
  2
VIEW
  5
6
330
0
100
AcDbSymbolTable
 70
     0
  0
ENDTAB
  0
TABLE
  2
UCS
  5
7
330
0
100
AcDbSymbolTable
 70
     0
  0
ENDTAB
  0
TABLE
  2
APPID
  5
9
330
0
100
AcDbSymbolTable
 70
     2
  0
APPID
  5
21C
330
9
100
AcDbSymbolTableRecord
100
AcDbRegAppTableRecord
  2
ACAD
 70
     0
  0
APPID
  5
161F
330
9
100
AcDbSymbolTableRecord
100
AcDbRegAppTableRecord
  2
ACAD_MLEADERVER
 70
     0
  0
ENDTAB
  0
TABLE
  2
DIMSTYLE
  5
A
330
0
100
AcDbSymbolTable
 70
     6
100
AcDbDimStyleTable
 71
     0
  0
DIMSTYLE
105
235
330
A
100
AcDbSymbolTableRecord
100
AcDbDimStyleTableRecord
  2
STANDARD
 70
     0
 41
2.0
 44
0.125
 47
0.00001
 48
0.00001
 71
     1
 78
     4
140
1.333333333299999
271
     5
272
     5
284
     4
340
11
341
21F
342
21F
343
21F
344
21F
  0
DIMSTYLE
105
236
330
A
100
AcDbSymbolTableRecord
100
AcDbDimStyleTableRecord
  2
DIMSTYLE_1
 70
     0
 41
2.0
 44
0.125
 47
0.00001
 48
0.00001
 78
     4
140
1.333333333299999
147
0.0625
271
     3
272
     3
284
     4
340
11
341
21F
342
21F
343
21F
344
21F
  0
DIMSTYLE
105
237
330
A
100
AcDbSymbolTableRecord
100
AcDbDimStyleTableRecord
  2
DIMSTYLE_2
 70
     0
 41
2.0
 44
0.125
 47
0.001
 48
0.001
 78
     4
140
1.333333333299999
147
0.0625
271
     3
272
     3
284
     4
340
11
341
21F
342
21F
343
21F
344
21F
  0
DIMSTYLE
105
238
330
A
100
AcDbSymbolTableRecord
100
AcDbDimStyleTableRecord
  2
DIMSTYLE_3
 70
     0
 41
2.0
 44
0.125
 47
1.0
 48
1.0
 78
     4
140
1.333333333299999
271
     0
272
     0
284
     4
340
11
341
21F
342
21F
343
21F
344
21F
  0
DIMSTYLE
105
239
330
A
100
AcDbSymbolTableRecord
100
AcDbDimStyleTableRecord
  2
DIMSTYLE_4
 70
     0
 41
2.0
 44
0.125
 47
0.00001
 48
0.00001
 78
     4
140
1.333333333299999
147
0.0625
271
     6
272
     6
284
     4
340
11
341
21F
342
21F
343
21F
344
21F
  0
DIMSTYLE
105
23A
330
A
100
AcDbSymbolTableRecord
100
AcDbDimStyleTableRecord
  2
DIMSTYLE_5
 70
     0
 41
2.0
 44
0.125
 47
0.5
 48
0.5
 78
     4
140
1.333333333299999
271
     6
272
     6
284
     4
340
11
341
21F
342
21F
343
21F
344
21F
  0
ENDTAB
  0
TABLE
  2
BLOCK_RECORD
  5
1
330
0
100
AcDbSymbolTable
 70
    22
  0
BLOCK_RECORD
  5
21D
330
1
100
AcDbSymbolTableRecord
100
AcDbBlockTableRecord
  2
*Model_Space
340
1591
 70
     0
280
     1
281
     0
  0
BLOCK_RECORD
  5
21E
330
1
100
AcDbSymbolTableRecord
100
AcDbBlockTableRecord
  2
*Paper_Space
340
1592
 70
     0
280
     1
281
     0
  0
BLOCK_RECORD
  5
21F
330
1
100
AcDbSymbolTableRecord
100
AcDbBlockTableRecord
  2
_FILLED
340
0
102
{BLKREFS
331
31F
331
320
331
328
331
329
331
331
331
332
331
33A
331
33B
331
343
331
344
331
34C
331
34D
331
355
331
356
331
35E
331
35F
331
368
331
369
331
371
331
372
331
37A
331
37B
331
384
331
385
331
395
331
396
331
39F
331
3A0
102
}
 70
     0
280
     1
281
     0
  0
BLOCK_RECORD
  5
230
330
1
100
AcDbSymbolTableRecord
100
AcDbBlockTableRecord
  2
SYMBOL_7_BL4
340
0
 70
     0
280
     1
281
     0
  0
BLOCK_RECORD
  5
231
330
1
100
AcDbSymbolTableRecord
100
AcDbBlockTableRecord
  2
SYMBOL_6_BL3
340
0
 70
     0
280
     1
281
     0
  0
BLOCK_RECORD
  5
232
330
1
100
AcDbSymbolTableRecord
100
AcDbBlockTableRecord
  2
SYMBOL_5_BL2
340
0
 70
     0
280
     1
281
     0
  0
BLOCK_RECORD
  5
233
330
1
100
AcDbSymbolTableRecord
100
AcDbBlockTableRecord
  2
SYMBOL_2_BL1
340
0
 70
     0
280
     1
281
     0
  0
BLOCK_RECORD
  5
234
330
1
100
AcDbSymbolTableRecord
100
AcDbBlockTableRecord
  2
SYMBOL_0_BL0
340
0
 70
     0
280
     1
281
     0
  0
ENDTAB
  0
ENDSEC
  0
SECTION
  2
BLOCKS
  0
BLOCK
  5
20
330
21D
100
AcDbEntity
  8
0
100
AcDbBlockBegin
  2
*Model_Space
 70
     0
 10
0.0
 20
0.0
 30
0.0
  3
*Model_Space
  1

  0
ENDBLK
  5
21
330
21D
100
AcDbEntity
  8
0
100
AcDbBlockEnd
  0
BLOCK
  5
1C
330
21E
100
AcDbEntity
 67
     1
  8
0
100
AcDbBlockBegin
  2
*Paper_Space
 70
     0
 10
0.0
 20
0.0
 30
0.0
  3
*Paper_Space
  1

  0
ENDBLK
  5
1D
330
21E
100
AcDbEntity
 67
     1
  8
0
100
AcDbBlockEnd
  0
BLOCK
  5
316
330
21F
100
AcDbEntity
  8
0
100
AcDbBlockBegin
  2
_FILLED
 70
     0
 10
0.0
 20
0.0
 30
0.0
  3
_FILLED
  1

  0
SOLID
  5
317
330
21F
100
AcDbEntity
  8
0
  6
ByBlock
 62
     0
100
AcDbTrace
 10
0.0
 20
0.0
 30
0.0
 11
-1.0
 21
0.1666666667
 31
0.0
 12
-1.0
 22
-0.1666666667
 32
0.0
 13
-1.0
 23
-0.1666666667
 33
0.0
  0
ENDBLK
  5
318
330
21F
100
AcDbEntity
  8
0
  6
ByBlock
 62
     0
100
AcDbBlockEnd
  0
BLOCK
  5
23B
330
230
100
AcDbEntity
  8
0
  6
Continuous
 62
     7
100
AcDbBlockBegin
  2
SYMBOL_7_BL4
 70
     0
 10
54.7106074615
 20
72.0693470575
 30
0.0
  3
SYMBOL_7_BL4
  1

  0
TEXT
  5
23C
330
230
100
AcDbEntity
  8
0
  6
Continuous
 62
     7
100
AcDbText
 10
54.1822121942
 20
71.40268013149999
 30
0.0
 40
1.333333852099999
  1
L
  7
TEXTSTYLE_2
100
AcDbText
  0
ELLIPSE
  5
23D
330
230
100
AcDbEntity
  8
0
  6
Continuous
 62
     7
100
AcDbEllipse
 10
54.7106074615
 20
72.0693470575
 30
0.0
 11
-1.942887567899999
 21
0.0
 31
0.0
210
0.0
220
0.0
230
1.0
 40
0.6606458385
 41
0.0
 42
6.283185307179586
  0
ENDBLK
  5
23E
330
230
100
AcDbEntity
  8
0
  6
ByBlock
 62
     0
100
AcDbBlockEnd
  0
BLOCK
  5
23F
330
231
100
AcDbEntity
  8
0
  6
Continuous
 62
     7
100
AcDbBlockBegin
  2
SYMBOL_6_BL3
 70
     0
 10
67.47228777540001
 20
97.55083821360001
 30
0.0
  3
SYMBOL_6_BL3
  1

  0
TEXT
  5
240
330
231
100
AcDbEntity
  8
0
  6
Continuous
 62
     7
100
AcDbText
 10
66.7482789077
 20
97.06208392870001
 30
0.0
 40
1.333333852099999
  1
L
 50
343.0
  7
TEXTSTYLE_2
100
AcDbText
  0
TEXT
  5
241
330
231
100
AcDbEntity
  8
0
  6
Continuous
 62
     7
100
AcDbText
 10
63.228320101
 20
98.15122123389999
 30
0.0
 40
1.333333852099999
  1
4
 50
343.0
  7
TEXTSTYLE_2
100
AcDbText
  0
TEXT
  5
242
330
231
100
AcDbEntity
  8
0
  6
Continuous
 62
     7
100
AcDbText
 10
70.3488700054
 20
95.9742506593
 30
0.0
 40
1.333333852099999
  1
5
 50
343.0
  7
TEXTSTYLE_2
100
AcDbText
  0
ELLIPSE
  5
243
330
231
100
AcDbEntity
  8
0
  6
Continuous
 62
     7
100
AcDbEllipse
 10
67.4485003605
 20
97.54513285559999
 30
0.0
 11
-1.8579926215
 21
0.5680453503000002
 31
0.0
210
0.0
220
0.0
230
1.0
 40
0.6606458385
 41
0.0
 42
6.283185307179586
  0
ENDBLK
  5
244
330
231
100
AcDbEntity
  8
0
  6
ByBlock
 62
     0
100
AcDbBlockEnd
  0
BLOCK
  5
245
330
232
100
AcDbEntity
  8
0
  6
Continuous
 62
     7
100
AcDbBlockBegin
  2
SYMBOL_5_BL2
 70
     0
 10
42.1688817786
 20
97.62304354900001
 30
0.0
  3
SYMBOL_5_BL2
  1

  0
TEXT
  5
246
330
232
100
AcDbEntity
  8
0
  6
Continuous
 62
     7
100
AcDbText
 10
41.8419591521
 20
96.81298726219999
 30
0.0
 40
1.333333852099999
  1
L
 50
17.0
  7
TEXTSTYLE_2
100
AcDbText
  0
TEXT
  5
247
330
232
100
AcDbEntity
  8
0
  6
Continuous
 62
     7
100
AcDbText
 10
38.3147431955
 20
95.74758702469999
 30
0.0
 40
1.333333852099999
  1
5
 50
17.0
  7
TEXTSTYLE_2
100
AcDbText
  0
TEXT
  5
248
330
232
100
AcDbEntity
  8
0
  6
Continuous
 62
     7
100
AcDbText
 10
45.4352930999
 20
97.92455759940001
 30
0.0
 40
1.333333852099999
  1
4
 50
17.0
  7
TEXTSTYLE_2
100
AcDbText
  0
ELLIPSE
  5
249
330
232
100
AcDbEntity
  8
0
  6
Continuous
 62
     7
100
AcDbEllipse
 10
42.1523515136
 20
97.60501183930001
 30
0.0
 11
-1.8579926215
 21
-0.5680453503000002
 31
0.0
210
0.0
220
0.0
230
1.0
 40
0.6606458385
 41
0.0
 42
6.283185307179586
  0
ENDBLK
  5
24A
330
232
100
AcDbEntity
  8
0
  6
ByBlock
 62
     0
100
AcDbBlockEnd
  0
BLOCK
  5
24B
330
233
100
AcDbEntity
  8
0
  6
Continuous
 62
     7
100
AcDbBlockBegin
  2
SYMBOL_2_BL1
 70
     0
 10
126.1941507041
 20
57.02881593949999
 30
0.0
  3
SYMBOL_2_BL1
  1

  0
TEXT
  5
24C
330
233
100
AcDbEntity
  8
0
  6
Continuous
 62
     7
100
AcDbText
 10
119.8800904024
 20
59.2738499253
 30
0.0
 40
1.1626666667
  1
INTERNAL USE 
 50
10.0
  7
TEXTSTYLE_3
100
AcDbText
  0
TEXT
  5
24D
330
233
100
AcDbEntity
  8
0
  6
Continuous
 62
     7
100
AcDbText
 10
119.1364061984
 20
57.2723287477
 30
0.0
 40
1.1626666667
  1
DOCUMENT ONLY
 50
10.0
  7
TEXTSTYLE_3
100
AcDbText
  0
TEXT
  5
24E
330
233
100
AcDbEntity
  8
0
  6
Continuous
 62
     7
100
AcDbText
 10
124.9211337616
 20
57.0239006971
 30
0.0
 40
1.1626666667
  1
 
 50
10.0
  7
TEXTSTYLE_5
100
AcDbText
  0
TEXT
  5
24F
330
233
100
AcDbEntity
  8
0
  6
Continuous
 62
     7
100
AcDbText
 10
116.4764858786
 20
52.8468062908
 30
0.0
 40
1.1626666667
  1
DOCUMENT POUR USAGE
 50
10.0
  7
TEXTSTYLE_3
100
AcDbText
  0
TEXT
  5
250
330
233
100
AcDbEntity
  8
0
  6
Continuous
 62
     7
100
AcDbText
 10
116.9055853246
 20
50.8300578304
 30
0.0
 40
1.1626666667
  1
A L'INTERNE SEULEMENT
 50
10.0
  7
TEXTSTYLE_3
100
AcDbText
  0
LINE
  5
251
330
233
100
AcDbEntity
  8
0
  6
Continuous
 62
     7
100
AcDbLine
 10
140.0507024275
 20
52.6852823216
 30
0.0
 11
140.0574613601
 21
52.69204125419999
 31
0.0
  0
LINE
  5
252
330
233
100
AcDbEntity
  8
0
  6
Continuous
 62
     7
100
AcDbLine
 10
139.3181328611
 20
52.5561105418
 30
0.0
 11
139.9670143062
 21
53.2049919869
 31
0.0
  0
LINE
  5
253
330
233
100
AcDbEntity
  8
0
  6
Continuous
 62
     7
100
AcDbLine
 10
138.5855632946
 20
52.426938762
 30
0.0
 11
139.8765672522
 21
53.7179427196
 31
0.0
  0
LINE
  5
254
330
233
100
AcDbEntity
  8
0
  6
Continuous
 62
     7
100
AcDbLine
 10
137.8529937282
 20
52.2977669821
 30
0.0
 11
139.7861201983
 21
54.2308934522
 31
0.0
  0
LINE
  5
255
330
233
100
AcDbEntity
  8
0
  6
Continuous
 62
     7
100
AcDbLine
 10
137.1204241618
 20
52.16859520229999
 30
0.0
 11
139.6956731443
 21
54.7438441849
 31
0.0
  0
LINE
  5
256
330
233
100
AcDbEntity
  8
0
  6
Continuous
 62
     7
100
AcDbLine
 10
136.3878545954
 20
52.0394234225
 30
0.0
 11
137.9288584102
 21
53.58042723729999
 31
0.0
  0
LINE
  5
257
330
233
100
AcDbEntity
  8
0
  6
Continuous
 62
     7
100
AcDbLine
 10
138.5262036029
 20
54.17777242999999
 30
0.0
 11
139.6052260904
 21
55.2567949176
 31
0.0
  0
LINE
  5
258
330
233
100
AcDbEntity
  8
0
  6
Continuous
 62
     7
100
AcDbLine
 10
135.655285029
 20
51.9102516427
 30
0.0
 11
137.1962888437
 21
53.4512554575
 31
0.0
  0
LINE
  5
259
330
233
100
AcDbEntity
  8
0
  6
Continuous
 62
     7
100
AcDbLine
 10
138.4357565489
 20
54.69072316270001
 30
0.0
 11
139.5147790365
 21
55.76974565020001
 31
0.0
  0
LINE
  5
25A
330
233
100
AcDbEntity
  8
0
  6
Continuous
 62
     7
100
AcDbLine
 10
134.9227154625
 20
51.7810798629
 30
0.0
 11
136.4637192773
 21
53.3220836777
 31
0.0
  0
LINE
  5
25B
330
233
100
AcDbEntity
  8
0
  6
Continuous
 62
     7
100
AcDbLine
 10
138.345309495
 20
55.2036738954
 30
0.0
 11
139.4243319825
 21
56.28269638289999
 31
0.0
  0
LINE
  5
25C
330
233
100
AcDbEntity
  8
0
  6
Continuous
 62
     7
100
AcDbLine
 10
134.1901458961
 20
51.65190808310001
 30
0.0
 11
135.7311497109
 21
53.1929118979
 31
0.0
  0
LINE
  5
25D
330
233
100
AcDbEntity
  8
0
  6
Continuous
 62
     7
100
AcDbLine
 10
138.2548624411
 20
55.716624628
 30
0.0
 11
139.3338849286
 21
56.79564711560001
 31
0.0
  0
LINE
  5
25E
330
233
100
AcDbEntity
  8
0
  6
Continuous
 62
     7
100
AcDbLine
 10
133.4575763297
 20
51.5227363033
 30
0.0
 11
134.9985801445
 21
53.0637401181
 31
0.0
  0
LINE
  5
25F
330
233
100
AcDbEntity
  8
0
  6
Continuous
 62
     7
100
AcDbLine
 10
138.1644153871
 20
56.2295753607
 30
0.0
 11
139.2434378746
 21
57.30859784819999
 31
0.0
  0
LINE
  5
260
330
233
100
AcDbEntity
  8
0
  6
Continuous
 62
     7
100
AcDbLine
 10
132.7250067633
 20
51.3935645235
 30
0.0
 11
134.2660105781
 21
52.93456833829999
 31
0.0
  0
LINE
  5
261
330
233
100
AcDbEntity
  8
0
  6
Continuous
 62
     7
100
AcDbLine
 10
138.0739683332
 20
56.7425260934
 30
0.0
 11
139.1529908207
 21
57.8215485809
 31
0.0
  0
LINE
  5
262
330
233
100
AcDbEntity
  8
0
  6
Continuous
 62
     7
100
AcDbLine
 10
131.9924371969
 20
51.2643927437
 30
0.0
 11
133.5334410117
 21
52.80539655850001
 31
0.0
  0
LINE
  5
263
330
233
100
AcDbEntity
  8
0
  6
Continuous
 62
     7
100
AcDbLine
 10
137.9835212792
 20
57.25547682609999
 30
0.0
 11
139.0625437667
 21
58.3344993136
 31
0.0
  0
LINE
  5
264
330
233
100
AcDbEntity
  8
0
  6
Continuous
 62
     7
100
AcDbLine
 10
131.2598676305
 20
51.1352209639
 30
0.0
 11
132.8008714452
 21
52.67622477869999
 31
0.0
  0
LINE
  5
265
330
233
100
AcDbEntity
  8
0
  6
Continuous
 62
     7
100
AcDbLine
 10
137.8930742253
 20
57.76842755869999
 30
0.0
 11
138.9720967128
 21
58.8474500462
 31
0.0
  0
LINE
  5
266
330
233
100
AcDbEntity
  8
0
  6
Continuous
 62
     7
100
AcDbLine
 10
130.527298064
 20
51.0060491841
 30
0.0
 11
132.0683018788
 21
52.5470529989
 31
0.0
  0
LINE
  5
267
330
233
100
AcDbEntity
  8
0
  6
Continuous
 62
     7
100
AcDbLine
 10
137.8026271713
 20
58.28137829140001
 30
0.0
 11
138.8816496589
 21
59.3604007789
 31
0.0
  0
LINE
  5
268
330
233
100
AcDbEntity
  8
0
  6
Continuous
 62
     7
100
AcDbLine
 10
129.7947284976
 20
50.8768774043
 30
0.0
 11
131.3357323124
 21
52.41788121909999
 31
0.0
  0
LINE
  5
269
330
233
100
AcDbEntity
  8
0
  6
Continuous
 62
     7
100
AcDbLine
 10
137.4997475715
 20
58.58189647819999
 30
0.0
 11
138.7912026049
 21
59.87335151159999
 31
0.0
  0
LINE
  5
26A
330
233
100
AcDbEntity
  8
0
  6
Continuous
 62
     7
100
AcDbLine
 10
129.0621589312
 20
50.7477056245
 30
0.0
 11
130.603162746
 21
52.2887094393
 31
0.0
  0
LINE
  5
26B
330
233
100
AcDbEntity
  8
0
  6
Continuous
 62
     7
100
AcDbLine
 10
136.7671780051
 20
58.45272469840001
 30
0.0
 11
138.700755551
 21
60.3863022442
 31
0.0
  0
LINE
  5
26C
330
233
100
AcDbEntity
  8
0
  6
Continuous
 62
     7
100
AcDbLine
 10
128.3295893648
 20
50.6185338447
 30
0.0
 11
129.8705931796
 21
52.1595376595
 31
0.0
  0
LINE
  5
26D
330
233
100
AcDbEntity
  8
0
  6
Continuous
 62
     7
100
AcDbLine
 10
136.0346084387
 20
58.32355291859999
 30
0.0
 11
137.0619507369
 21
59.35089521680001
 31
0.0
  0
LINE
  5
26E
330
233
100
AcDbEntity
  8
0
  6
Continuous
 62
     7
100
AcDbLine
 10
137.5312860095
 20
59.8202304894
 30
0.0
 11
138.610308497
 21
60.89925297689999
 31
0.0
  0
LINE
  5
26F
330
233
100
AcDbEntity
  8
0
  6
Continuous
 62
     7
100
AcDbLine
 10
127.5970197984
 20
50.4893620649
 30
0.0
 11
129.1380236131
 21
52.0303658797
 31
0.0
  0
LINE
  5
270
330
233
100
AcDbEntity
  8
0
  6
Continuous
 62
     7
100
AcDbLine
 10
135.3020388723
 20
58.1943811388
 30
0.0
 11
136.3293809609
 21
59.22172322739999
 31
0.0
  0
LINE
  5
271
330
233
100
AcDbEntity
  8
0
  6
Continuous
 62
     7
100
AcDbLine
 10
137.4408389556
 20
60.3331812221
 30
0.0
 11
138.5198614431
 21
61.4122037096
 31
0.0
  0
LINE
  5
272
330
233
100
AcDbEntity
  8
0
  6
Continuous
 62
     7
100
AcDbLine
 10
126.864450232
 20
50.36019028510001
 30
0.0
 11
128.4054540467
 21
51.90119409979999
 31
0.0
  0
LINE
  5
273
330
233
100
AcDbEntity
  8
0
  6
Continuous
 62
     7
100
AcDbLine
 10
134.5694693058
 20
58.065209359
 30
0.0
 11
135.5968111849
 21
59.092551238
 31
0.0
  0
LINE
  5
274
330
233
100
AcDbEntity
  8
0
  6
Continuous
 62
     7
100
AcDbLine
 10
137.3503919016
 20
60.84613195470001
 30
0.0
 11
138.4294143891
 21
61.9251544423
 31
0.0
  0
LINE
  5
275
330
233
100
AcDbEntity
  8
0
  6
Continuous
 62
     7
100
AcDbLine
 10
126.1318806655
 20
50.2310185053
 30
0.0
 11
127.6728844803
 21
51.77202231999999
 31
0.0
  0
LINE
  5
276
330
233
100
AcDbEntity
  8
0
  6
Continuous
 62
     7
100
AcDbLine
 10
133.8368997394
 20
57.93603757909999
 30
0.0
 11
134.8642414088
 21
58.9633792486
 31
0.0
  0
LINE
  5
277
330
233
100
AcDbEntity
  8
0
  6
Continuous
 62
     7
100
AcDbLine
 10
137.2599448477
 20
61.35908268739999
 30
0.0
 11
138.3389673352
 21
62.4381051749
 31
0.0
  0
LINE
  5
278
330
233
100
AcDbEntity
  8
0
  6
Continuous
 62
     7
100
AcDbLine
 10
125.3993110991
 20
50.1018467255
 30
0.0
 11
126.9403149139
 21
51.6428505402
 31
0.0
  0
LINE
  5
279
330
233
100
AcDbEntity
  8
0
  6
Continuous
 62
     7
100
AcDbLine
 10
133.104330173
 20
57.80686579930001
 30
0.0
 11
134.1316716328
 21
58.8342072592
 31
0.0
  0
LINE
  5
27A
330
233
100
AcDbEntity
  8
0
  6
Continuous
 62
     7
100
AcDbLine
 10
137.1694977937
 20
61.8720334201
 30
0.0
 11
138.2485202812
 21
62.9510559076
 31
0.0
  0
LINE
  5
27B
330
233
100
AcDbEntity
  8
0
  6
Continuous
 62
     7
100
AcDbLine
 10
124.6667415327
 20
49.97267494569999
 30
0.0
 11
126.2077453475
 21
51.5136787604
 31
0.0
  0
LINE
  5
27C
330
233
100
AcDbEntity
  8
0
  6
Continuous
 62
     7
100
AcDbLine
 10
132.3717606066
 20
57.67769401949999
 30
0.0
 11
133.3991018568
 21
58.70503526970001
 31
0.0
  0
LINE
  5
27D
330
233
100
AcDbEntity
  8
0
  6
Continuous
 62
     7
100
AcDbLine
 10
137.0790507398
 20
62.38498415270001
 30
0.0
 11
138.1580732273
 21
63.46400664029999
 31
0.0
  0
LINE
  5
27E
330
233
100
AcDbEntity
  8
0
  6
Continuous
 62
     7
100
AcDbLine
 10
123.9341719663
 20
49.8435031658
 30
0.0
 11
125.4751757811
 21
51.3845069806
 31
0.0
  0
LINE
  5
27F
330
233
100
AcDbEntity
  8
0
  6
Continuous
 62
     7
100
AcDbLine
 10
131.6391910402
 20
57.54852223970001
 30
0.0
 11
132.6665320808
 21
58.5758632803
 31
0.0
  0
LINE
  5
280
330
233
100
AcDbEntity
  8
0
  6
Continuous
 62
     7
100
AcDbLine
 10
136.9886036858
 20
62.89793488539999
 30
0.0
 11
138.0676261734
 21
63.9769573729
 31
0.0
  0
LINE
  5
281
330
233
100
AcDbEntity
  8
0
  6
Continuous
 62
     7
100
AcDbLine
 10
123.2016023999
 20
49.71433138600001
 30
0.0
 11
124.7426062146
 21
51.2553352008
 31
0.0
  0
LINE
  5
282
330
233
100
AcDbEntity
  8
0
  6
Continuous
 62
     7
100
AcDbLine
 10
130.9066214737
 20
57.4193504599
 30
0.0
 11
131.9339623047
 21
58.4466912909
 31
0.0
  0
LINE
  5
283
330
233
100
AcDbEntity
  8
0
  6
Continuous
 62
     7
100
AcDbLine
 10
136.8981566319
 20
63.4108856181
 30
0.0
 11
137.9771791194
 21
64.48990810560001
 31
0.0
  0
LINE
  5
284
330
233
100
AcDbEntity
  8
0
  6
Continuous
 62
     7
100
AcDbLine
 10
122.4690328334
 20
49.5851596062
 30
0.0
 11
124.0100366482
 21
51.126163421
 31
0.0
  0
LINE
  5
285
330
233
100
AcDbEntity
  8
0
  6
Continuous
 62
     7
100
AcDbLine
 10
130.1740519073
 20
57.2901786801
 30
0.0
 11
131.2013925287
 21
58.3175193015
 31
0.0
  0
LINE
  5
286
330
233
100
AcDbEntity
  8
0
  6
Continuous
 62
     7
100
AcDbLine
 10
136.807709578
 20
63.9238363507
 30
0.0
 11
137.8867320655
 21
65.0028588383
 31
0.0
  0
LINE
  5
287
330
233
100
AcDbEntity
  8
0
  6
Continuous
 62
     7
100
AcDbLine
 10
121.736463267
 20
49.45598782640001
 30
0.0
 11
123.2774670818
 21
50.9969916412
 31
0.0
  0
LINE
  5
288
330
233
100
AcDbEntity
  8
0
  6
Continuous
 62
     7
100
AcDbLine
 10
129.4414823409
 20
57.1610069003
 30
0.0
 11
130.4688227527
 21
58.18834731209999
 31
0.0
  0
LINE
  5
289
330
233
100
AcDbEntity
  8
0
  6
Continuous
 62
     7
100
AcDbLine
 10
136.6328334765
 20
64.3523580359
 30
0.0
 11
137.7962850115
 21
65.5158095709
 31
0.0
  0
LINE
  5
28A
330
233
100
AcDbEntity
  8
0
  6
Continuous
 62
     7
100
AcDbLine
 10
121.0038937006
 20
49.3268160466
 30
0.0
 11
122.5448975154
 21
50.8678198614
 31
0.0
  0
LINE
  5
28B
330
233
100
AcDbEntity
  8
0
  6
Continuous
 62
     7
100
AcDbLine
 10
128.7089127745
 20
57.03183512049999
 30
0.0
 11
129.7362529766
 21
58.05917532270001
 31
0.0
  0
LINE
  5
28C
330
233
100
AcDbEntity
  8
0
  6
Continuous
 62
     7
100
AcDbLine
 10
135.9002639101
 20
64.22318625609999
 30
0.0
 11
137.4412677249
 21
65.7641900709
 31
0.0
  0
LINE
  5
28D
330
233
100
AcDbEntity
  8
0
  6
Continuous
 62
     7
100
AcDbLine
 10
120.2713241342
 20
49.1976442668
 30
0.0
 11
121.812327949
 21
50.73864808159999
 31
0.0
  0
LINE
  5
28E
330
233
100
AcDbEntity
  8
0
  6
Continuous
 62
     7
100
AcDbLine
 10
127.9763432081
 20
56.90266334069999
 30
0.0
 11
129.0036832006
 21
57.9300033332
 31
0.0
  0
LINE
  5
28F
330
233
100
AcDbEntity
  8
0
  6
Continuous
 62
     7
100
AcDbLine
 10
135.1676943437
 20
64.0940144763
 30
0.0
 11
136.7086981585
 21
65.63501829109999
 31
0.0
  0
LINE
  5
290
330
233
100
AcDbEntity
  8
0
  6
Continuous
 62
     7
100
AcDbLine
 10
119.5387545678
 20
49.068472487
 30
0.0
 11
121.0797583825
 21
50.6094763018
 31
0.0
  0
LINE
  5
291
330
233
100
AcDbEntity
  8
0
  6
Continuous
 62
     7
100
AcDbLine
 10
127.2437736417
 20
56.7734915609
 30
0.0
 11
128.2711134246
 21
57.80083134379999
 31
0.0
  0
LINE
  5
292
330
233
100
AcDbEntity
  8
0
  6
Continuous
 62
     7
100
AcDbLine
 10
134.4351247773
 20
63.96484269649999
 30
0.0
 11
135.9761285921
 21
65.50584651130001
 31
0.0
  0
LINE
  5
293
330
233
100
AcDbEntity
  8
0
  6
Continuous
 62
     7
100
AcDbLine
 10
118.8061850014
 20
48.9393007072
 30
0.0
 11
120.3471888161
 21
50.48030452199999
 31
0.0
  0
LINE
  5
294
330
233
100
AcDbEntity
  8
0
  6
Continuous
 62
     7
100
AcDbLine
 10
126.5112040752
 20
56.64431978109999
 30
0.0
 11
127.5385436486
 21
57.6716593544
 31
0.0
  0
LINE
  5
295
330
233
100
AcDbEntity
  8
0
  6
Continuous
 62
     7
100
AcDbLine
 10
133.7025552109
 20
63.8356709167
 30
0.0
 11
135.2435590256
 21
65.3766747315
 31
0.0
  0
LINE
  5
296
330
233
100
AcDbEntity
  8
0
  6
Continuous
 62
     7
100
AcDbLine
 10
118.0736154349
 20
48.8101289274
 30
0.0
 11
119.6146192497
 21
50.3511327422
 31
0.0
  0
LINE
  5
297
330
233
100
AcDbEntity
  8
0
  6
Continuous
 62
     7
100
AcDbLine
 10
125.7786345088
 20
56.5151480013
 30
0.0
 11
126.8059738725
 21
57.542487365
 31
0.0
  0
LINE
  5
298
330
233
100
AcDbEntity
  8
0
  6
Continuous
 62
     7
100
AcDbLine
 10
132.9699856444
 20
63.70649913689999
 30
0.0
 11
134.5109894592
 21
65.2475029517
 31
0.0
  0
LINE
  5
299
330
233
100
AcDbEntity
  8
0
  6
Continuous
 62
     7
100
AcDbLine
 10
117.3410458685
 20
48.6809571476
 30
0.0
 11
118.8820496833
 21
50.2219609624
 31
0.0
  0
LINE
  5
29A
330
233
100
AcDbEntity
  8
0
  6
Continuous
 62
     7
100
AcDbLine
 10
125.0460649424
 20
56.38597622149999
 30
0.0
 11
126.0734040965
 21
57.4133153756
 31
0.0
  0
LINE
  5
29B
330
233
100
AcDbEntity
  8
0
  6
Continuous
 62
     7
100
AcDbLine
 10
132.237416078
 20
63.5773273571
 30
0.0
 11
133.7784198928
 21
65.1183311719
 31
0.0
  0
LINE
  5
29C
330
233
100
AcDbEntity
  8
0
  6
Continuous
 62
     7
100
AcDbLine
 10
116.6084763021
 20
48.5517853678
 30
0.0
 11
118.1494801169
 21
50.0927891826
 31
0.0
  0
LINE
  5
29D
330
233
100
AcDbEntity
  8
0
  6
Continuous
 62
     7
100
AcDbLine
 10
124.313495376
 20
56.2568044417
 30
0.0
 11
125.3408343205
 21
57.2841433862
 31
0.0
  0
LINE
  5
29E
330
233
100
AcDbEntity
  8
0
  6
Continuous
 62
     7
100
AcDbLine
 10
131.5048465116
 20
63.44815557729999
 30
0.0
 11
133.0458503264
 21
64.9891593921
 31
0.0
  0
LINE
  5
29F
330
233
100
AcDbEntity
  8
0
  6
Continuous
 62
     7
100
AcDbLine
 10
115.8759067357
 20
48.422613588
 30
0.0
 11
117.4169105505
 21
49.9636174028
 31
0.0
  0
LINE
  5
2A0
330
233
100
AcDbEntity
  8
0
  6
Continuous
 62
     7
100
AcDbLine
 10
123.5809258096
 20
56.12763266189999
 30
0.0
 11
124.6082645444
 21
57.1549713968
 31
0.0
  0
LINE
  5
2A1
330
233
100
AcDbEntity
  8
0
  6
Continuous
 62
     7
100
AcDbLine
 10
130.7722769452
 20
63.31898379750001
 30
0.0
 11
132.31328076
 21
64.85998761229999
 31
0.0
  0
LINE
  5
2A2
330
233
100
AcDbEntity
  8
0
  6
Continuous
 62
     7
100
AcDbLine
 10
115.1433371693
 20
48.29344180819999
 30
0.0
 11
116.684340984
 21
49.834445623
 31
0.0
  0
LINE
  5
2A3
330
233
100
AcDbEntity
  8
0
  6
Continuous
 62
     7
100
AcDbLine
 10
122.8483562431
 20
55.9984608821
 30
0.0
 11
123.8756947684
 21
57.02579940729999
 31
0.0
  0
LINE
  5
2A4
330
233
100
AcDbEntity
  8
0
  6
Continuous
 62
     7
100
AcDbLine
 10
130.0397073788
 20
63.1898120177
 30
0.0
 11
131.5807111936
 21
64.73081583249999
 31
0.0
  0
LINE
  5
2A5
330
233
100
AcDbEntity
  8
0
  6
Continuous
 62
     7
100
AcDbLine
 10
114.5920163967
 20
48.34551882229999
 30
0.0
 11
115.9517714176
 21
49.7052738432
 31
0.0
  0
LINE
  5
2A6
330
233
100
AcDbEntity
  8
0
  6
Continuous
 62
     7
100
AcDbLine
 10
122.1157866767
 20
55.8692891023
 30
0.0
 11
123.1431249924
 21
56.8966274179
 31
0.0
  0
LINE
  5
2A7
330
233
100
AcDbEntity
  8
0
  6
Continuous
 62
     7
100
AcDbLine
 10
129.3071378124
 20
63.0606402379
 30
0.0
 11
130.8481416271
 21
64.60164405270001
 31
0.0
  0
LINE
  5
2A8
330
233
100
AcDbEntity
  8
0
  6
Continuous
 62
     7
100
AcDbLine
 10
114.5015693428
 20
48.85846955489999
 30
0.0
 11
115.5805918303
 21
49.9374920425
 31
0.0
  0
LINE
  5
2A9
330
233
100
AcDbEntity
  8
0
  6
Continuous
 62
     7
100
AcDbLine
 10
121.3832171103
 20
55.74011732249999
 30
0.0
 11
122.4105552164
 21
56.7674554285
 31
0.0
  0
LINE
  5
2AA
330
233
100
AcDbEntity
  8
0
  6
Continuous
 62
     7
100
AcDbLine
 10
128.5745682459
 20
62.9314684581
 30
0.0
 11
130.1155720607
 21
64.4724722729
 31
0.0
  0
LINE
  5
2AB
330
233
100
AcDbEntity
  8
0
  6
Continuous
 62
     7
100
AcDbLine
 10
114.4111222889
 20
49.3714202876
 30
0.0
 11
115.4901447764
 21
50.4504427751
 31
0.0
  0
LINE
  5
2AC
330
233
100
AcDbEntity
  8
0
  6
Continuous
 62
     7
100
AcDbLine
 10
120.6506475439
 20
55.6109455427
 30
0.0
 11
121.6779854403
 21
56.6382834391
 31
0.0
  0
LINE
  5
2AD
330
233
100
AcDbEntity
  8
0
  6
Continuous
 62
     7
100
AcDbLine
 10
127.8419986795
 20
62.80229667829999
 30
0.0
 11
129.3830024943
 21
64.3433004931
 31
0.0
  0
LINE
  5
2AE
330
233
100
AcDbEntity
  8
0
  6
Continuous
 62
     7
100
AcDbLine
 10
114.3206752349
 20
49.88437102029999
 30
0.0
 11
115.3996977224
 21
50.9633935078
 31
0.0
  0
LINE
  5
2AF
330
233
100
AcDbEntity
  8
0
  6
Continuous
 62
     7
100
AcDbLine
 10
119.9180779775
 20
55.48177376279999
 30
0.0
 11
120.9454156643
 21
56.5091114497
 31
0.0
  0
LINE
  5
2B0
330
233
100
AcDbEntity
  8
0
  6
Continuous
 62
     7
100
AcDbLine
 10
127.1094291131
 20
62.67312489850001
 30
0.0
 11
128.6504329279
 21
64.2141287132
 31
0.0
  0
LINE
  5
2B1
330
233
100
AcDbEntity
  8
0
  6
Continuous
 62
     7
100
AcDbLine
 10
114.230228181
 20
50.3973217529
 30
0.0
 11
115.3092506685
 21
51.4763442405
 31
0.0
  0
LINE
  5
2B2
330
233
100
AcDbEntity
  8
0
  6
Continuous
 62
     7
100
AcDbLine
 10
119.1855084111
 20
55.352601983
 30
0.0
 11
120.2128458883
 21
56.37993946029999
 31
0.0
  0
LINE
  5
2B3
330
233
100
AcDbEntity
  8
0
  6
Continuous
 62
     7
100
AcDbLine
 10
126.3768595467
 20
62.54395311869999
 30
0.0
 11
127.9178633615
 21
64.0849569334
 31
0.0
  0
LINE
  5
2B4
330
233
100
AcDbEntity
  8
0
  6
Continuous
 62
     7
100
AcDbLine
 10
114.139781127
 20
50.9102724856
 30
0.0
 11
115.2188036145
 21
51.9892949731
 31
0.0
  0
LINE
  5
2B5
330
233
100
AcDbEntity
  8
0
  6
Continuous
 62
     7
100
AcDbLine
 10
118.4529388446
 20
55.2234302032
 30
0.0
 11
119.4802761122
 21
56.2507674708
 31
0.0
  0
LINE
  5
2B6
330
233
100
AcDbEntity
  8
0
  6
Continuous
 62
     7
100
AcDbLine
 10
125.6442899803
 20
62.41478133890001
 30
0.0
 11
127.185293795
 21
63.9557851536
 31
0.0
  0
LINE
  5
2B7
330
233
100
AcDbEntity
  8
0
  6
Continuous
 62
     7
100
AcDbLine
 10
114.0493340731
 20
51.4232232183
 30
0.0
 11
115.1283565606
 21
52.5022457058
 31
0.0
  0
LINE
  5
2B8
330
233
100
AcDbEntity
  8
0
  6
Continuous
 62
     7
100
AcDbLine
 10
117.7203692782
 20
55.0942584234
 30
0.0
 11
118.7477063362
 21
56.1215954814
 31
0.0
  0
LINE
  5
2B9
330
233
100
AcDbEntity
  8
0
  6
Continuous
 62
     7
100
AcDbLine
 10
124.9117204139
 20
62.28560955909999
 30
0.0
 11
126.4527242286
 21
63.8266133738
 31
0.0
  0
LINE
  5
2BA
330
233
100
AcDbEntity
  8
0
  6
Continuous
 62
     7
100
AcDbLine
 10
113.9588870191
 20
51.936173951
 30
0.0
 11
115.0379095067
 21
53.0151964385
 31
0.0
  0
LINE
  5
2BB
330
233
100
AcDbEntity
  8
0
  6
Continuous
 62
     7
100
AcDbLine
 10
116.9877997118
 20
54.9650866436
 30
0.0
 11
118.0151365602
 21
55.992423492
 31
0.0
  0
LINE
  5
2BC
330
233
100
AcDbEntity
  8
0
  6
Continuous
 62
     7
100
AcDbLine
 10
124.1791508474
 20
62.15643777930001
 30
0.0
 11
125.7201546622
 21
63.69744159399999
 31
0.0
  0
LINE
  5
2BD
330
233
100
AcDbEntity
  8
0
  6
Continuous
 62
     7
100
AcDbLine
 10
113.8684399652
 20
52.44912468359999
 30
0.0
 11
114.9474624527
 21
53.5281471711
 31
0.0
  0
LINE
  5
2BE
330
233
100
AcDbEntity
  8
0
  6
Continuous
 62
     7
100
AcDbLine
 10
116.2552301454
 20
54.83591486379999
 30
0.0
 11
117.2825667842
 21
55.8632515026
 31
0.0
  0
LINE
  5
2BF
330
233
100
AcDbEntity
  8
0
  6
Continuous
 62
     7
100
AcDbLine
 10
123.446581281
 20
62.0272659994
 30
0.0
 11
124.9875850958
 21
63.5682698142
 31
0.0
  0
LINE
  5
2C0
330
233
100
AcDbEntity
  8
0
  6
Continuous
 62
     7
100
AcDbLine
 10
113.7779929113
 20
52.9620754163
 30
0.0
 11
114.8570153988
 21
54.0410979038
 31
0.0
  0
LINE
  5
2C1
330
233
100
AcDbEntity
  8
0
  6
Continuous
 62
     7
100
AcDbLine
 10
115.522660579
 20
54.70674308399999
 30
0.0
 11
116.5499970081
 21
55.7340795132
 31
0.0
  0
LINE
  5
2C2
330
233
100
AcDbEntity
  8
0
  6
Continuous
 62
     7
100
AcDbLine
 10
122.7140117146
 20
61.89809421959999
 30
0.0
 11
124.2550155294
 21
63.43909803439999
 31
0.0
  0
LINE
  5
2C3
330
233
100
AcDbEntity
  8
0
  6
Continuous
 62
     7
100
AcDbLine
 10
113.6875458573
 20
53.47502614899999
 30
0.0
 11
114.7665683448
 21
54.5540486365
 31
0.0
  0
LINE
  5
2C4
330
233
100
AcDbEntity
  8
0
  6
Continuous
 62
     7
100
AcDbLine
 10
114.7900910126
 20
54.5775713042
 30
0.0
 11
115.8174272321
 21
55.6049075238
 31
0.0
  0
LINE
  5
2C5
330
233
100
AcDbEntity
  8
0
  6
Continuous
 62
     7
100
AcDbLine
 10
121.9814421482
 20
61.76892243979999
 30
0.0
 11
123.522445963
 21
63.3099262546
 31
0.0
  0
LINE
  5
2C6
330
233
100
AcDbEntity
  8
0
  6
Continuous
 62
     7
100
AcDbLine
 10
113.5970988034
 20
53.9879768816
 30
0.0
 11
115.0848574561
 21
55.4757355343
 31
0.0
  0
LINE
  5
2C7
330
233
100
AcDbEntity
  8
0
  6
Continuous
 62
     7
100
AcDbLine
 10
121.2488725818
 20
61.63975065999999
 30
0.0
 11
122.7898763965
 21
63.1807544748
 31
0.0
  0
LINE
  5
2C8
330
233
100
AcDbEntity
  8
0
  6
Continuous
 62
     7
100
AcDbLine
 10
113.5066517494
 20
54.5009276143
 30
0.0
 11
114.5856742369
 21
55.5799501018
 31
0.0
  0
LINE
  5
2C9
330
233
100
AcDbEntity
  8
0
  6
Continuous
 62
     7
100
AcDbLine
 10
120.5163030153
 20
61.51057888020001
 30
0.0
 11
122.0573068301
 21
63.051582695
 31
0.0
  0
LINE
  5
2CA
330
233
100
AcDbEntity
  8
0
  6
Continuous
 62
     7
100
AcDbLine
 10
113.4162046955
 20
55.013878347
 30
0.0
 11
114.495227183
 21
56.0929008345
 31
0.0
  0
LINE
  5
2CB
330
233
100
AcDbEntity
  8
0
  6
Continuous
 62
     7
100
AcDbLine
 10
119.7837334489
 20
61.3814071004
 30
0.0
 11
121.3247372637
 21
62.92241091520001
 31
0.0
  0
LINE
  5
2CC
330
233
100
AcDbEntity
  8
0
  6
Continuous
 62
     7
100
AcDbLine
 10
113.3257576415
 20
55.5268290796
 30
0.0
 11
114.404780129
 21
56.6058515672
 31
0.0
  0
LINE
  5
2CD
330
233
100
AcDbEntity
  8
0
  6
Continuous
 62
     7
100
AcDbLine
 10
119.0511638825
 20
61.25223532060001
 30
0.0
 11
120.5921676973
 21
62.7932391354
 31
0.0
  0
LINE
  5
2CE
330
233
100
AcDbEntity
  8
0
  6
Continuous
 62
     7
100
AcDbLine
 10
113.2353105876
 20
56.03977981229999
 30
0.0
 11
114.3143330751
 21
57.1188022998
 31
0.0
  0
LINE
  5
2CF
330
233
100
AcDbEntity
  8
0
  6
Continuous
 62
     7
100
AcDbLine
 10
118.3185943161
 20
61.1230635408
 30
0.0
 11
119.8595981309
 21
62.6640673556
 31
0.0
  0
LINE
  5
2D0
330
233
100
AcDbEntity
  8
0
  6
Continuous
 62
     7
100
AcDbLine
 10
113.1448635336
 20
56.552730545
 30
0.0
 11
114.2238860212
 21
57.6317530325
 31
0.0
  0
LINE
  5
2D1
330
233
100
AcDbEntity
  8
0
  6
Continuous
 62
     7
100
AcDbLine
 10
117.5860247497
 20
60.993891761
 30
0.0
 11
119.1270285644
 21
62.5348955758
 31
0.0
  0
LINE
  5
2D2
330
233
100
AcDbEntity
  8
0
  6
Continuous
 62
     7
100
AcDbLine
 10
113.0544164797
 20
57.0656812776
 30
0.0
 11
114.1334389672
 21
58.1447037652
 31
0.0
  0
LINE
  5
2D3
330
233
100
AcDbEntity
  8
0
  6
Continuous
 62
     7
100
AcDbLine
 10
116.8534551833
 20
60.8647199812
 30
0.0
 11
118.394458998
 21
62.405723796
 31
0.0
  0
LINE
  5
2D4
330
233
100
AcDbEntity
  8
0
  6
Continuous
 62
     7
100
AcDbLine
 10
112.9639694258
 20
57.5786320103
 30
0.0
 11
114.0429919133
 21
58.65765449779999
 31
0.0
  0
LINE
  5
2D5
330
233
100
AcDbEntity
  8
0
  6
Continuous
 62
     7
100
AcDbLine
 10
116.1208856168
 20
60.7355482014
 30
0.0
 11
117.6618894316
 21
62.2765520162
 31
0.0
  0
LINE
  5
2D6
330
233
100
AcDbEntity
  8
0
  6
Continuous
 62
     7
100
AcDbLine
 10
112.8735223718
 20
58.091582743
 30
0.0
 11
113.9525448593
 21
59.1706052305
 31
0.0
  0
LINE
  5
2D7
330
233
100
AcDbEntity
  8
0
  6
Continuous
 62
     7
100
AcDbLine
 10
115.3883160504
 20
60.60637642159999
 30
0.0
 11
116.9293198652
 21
62.1473802364
 31
0.0
  0
LINE
  5
2D8
330
233
100
AcDbEntity
  8
0
  6
Continuous
 62
     7
100
AcDbLine
 10
112.7830753179
 20
58.6045334757
 30
0.0
 11
113.8620978054
 21
59.6835559632
 31
0.0
  0
LINE
  5
2D9
330
233
100
AcDbEntity
  8
0
  6
Continuous
 62
     7
100
AcDbLine
 10
114.655746484
 20
60.4772046418
 30
0.0
 11
116.1967502988
 21
62.0182084566
 31
0.0
  0
LINE
  5
2DA
330
233
100
AcDbEntity
  8
0
  6
Continuous
 62
     7
100
AcDbLine
 10
112.6926282639
 20
59.1174842083
 30
0.0
 11
113.7716507514
 21
60.19650669579999
 31
0.0
  0
LINE
  5
2DB
330
233
100
AcDbEntity
  8
0
  6
Continuous
 62
     7
100
AcDbLine
 10
113.9231769176
 20
60.34803286199999
 30
0.0
 11
115.4641807324
 21
61.8890366768
 31
0.0
  0
LINE
  5
2DC
330
233
100
AcDbEntity
  8
0
  6
Continuous
 62
     7
100
AcDbLine
 10
112.60218121
 20
59.630434941
 30
0.0
 11
114.7316111659
 21
61.7598648969
 31
0.0
  0
LINE
  5
2DD
330
233
100
AcDbEntity
  8
0
  6
Continuous
 62
     7
100
AcDbLine
 10
112.511734156
 20
60.1433856737
 30
0.0
 11
113.9990415995
 21
61.6306931171
 31
0.0
  0
LINE
  5
2DE
330
233
100
AcDbEntity
  8
0
  6
Continuous
 62
     7
100
AcDbLine
 10
112.4212871021
 20
60.6563364063
 30
0.0
 11
113.2664720331
 21
61.50152133729999
 31
0.0
  0
LINE
  5
2DF
330
233
100
AcDbEntity
  8
0
  6
Continuous
 62
     7
100
AcDbLine
 10
112.3308400482
 20
61.169287139
 30
0.0
 11
112.5339024667
 21
61.3723495575
 31
0.0
  0
ENDBLK
  5
2E0
330
233
100
AcDbEntity
  8
0
  6
ByBlock
 62
     0
100
AcDbBlockEnd
  0
BLOCK
  5
2E1
330
234
100
AcDbEntity
  8
0
  6
Continuous
 62
     7
100
AcDbBlockBegin
  2
SYMBOL_0_BL0
 70
     0
 10
160.6665744185
 20
55.3333957601
 30
0.0
  3
SYMBOL_0_BL0
  1

  0
TEXT
  5
2E2
330
234
100
AcDbEntity
  8
0
  6
Continuous
 62
     7
100
AcDbText
 10
144.4187893423
 20
63.1068291512
 30
0.0
 40
0.5
  1
Infomations Techniques/Technical Infomations
  7
TEXTSTYLE_2
100
AcDbText
  0
TEXT
  5
2E3
330
234
100
AcDbEntity
  8
0
  6
Continuous
 62
     7
100
AcDbText
 10
144.6665744185
 20
61.6667290935
 30
0.0
 40
0.6666666667
  1
NOMBRE DE JETS:     
  7
TEXTSTYLE_2
100
AcDbText
  0
TEXT
  5
2E4
330
234
100
AcDbEntity
  8
0
  6
Continuous
 62
     7
100
AcDbText
 10
154.5110188629
 20
61.6667290935
 30
0.0
 40
0.6666666667
  1
35
  7
TEXTSTYLE_2
100
AcDbText
  0
TEXT
  5
2E5
330
234
100
AcDbEntity
  8
0
  6
Continuous
 62
     7
100
AcDbText
 10
144.6665744185
 20
60.6667290935
 30
0.0
 40
0.6666666667
  1
 
  7
TEXTSTYLE_2
100
AcDbText
  0
TEXT
  5
2E6
330
234
100
AcDbEntity
  8
0
  6
Continuous
 62
     7
100
AcDbText
 10
144.6665744185
 20
59.6667290935
 30
0.0
 40
0.6666666667
  1
NIVEAU D'EAU              GALLONS(US)        LITRES        GALLONS(UK)
  7
TEXTSTYLE_2
100
AcDbText
  0
TEXT
  5
2E7
330
234
100
AcDbEntity
  8
0
  6
Continuous
 62
     7
100
AcDbText
 10
144.6665744185
 20
58.6667290935
 30
0.0
 40
0.6666666667
  1
PLEIN
  7
TEXTSTYLE_2
100
AcDbText
  0
TEXT
  5
2E8
330
234
100
AcDbEntity
  8
0
  6
Continuous
 62
     7
100
AcDbText
 10
144.6665744185
 20
57.6667290935
 30
0.0
 40
0.6666666667
  1
HAUT T.PLEIN
  7
TEXTSTYLE_2
100
AcDbText
  0
TEXT
  5
2E9
330
234
100
AcDbEntity
  8
0
  6
Continuous
 62
     7
100
AcDbText
 10
144.6665744185
 20
56.6667290935
 30
0.0
 40
0.6666666667
  1
MILIEU T.PLEIN
  7
TEXTSTYLE_2
100
AcDbText
  0
TEXT
  5
2EA
330
234
100
AcDbEntity
  8
0
  6
Continuous
 62
     7
100
AcDbText
 10
144.6665744185
 20
55.6667290935
 30
0.0
 40
0.6666666667
  1
BAS T.PLEIN
  7
TEXTSTYLE_2
100
AcDbText
  0
TEXT
  5
2EB
330
234
100
AcDbEntity
  8
0
  6
Continuous
 62
     7
100
AcDbText
 10
144.6665744185
 20
54.6667290935
 30
0.0
 40
0.6666666667
  1
3" EN BAS T.PLEIN
  7
TEXTSTYLE_2
100
AcDbText
  0
TEXT
  5
2EC
330
234
100
AcDbEntity
  8
0
  6
Continuous
 62
     7
100
AcDbText
 10
144.6665744185
 20
53.6667290935
 30
0.0
 40
0.6666666667
  1
 
  7
TEXTSTYLE_2
100
AcDbText
  0
TEXT
  5
2ED
330
234
100
AcDbEntity
  8
0
  6
Continuous
 62
     7
100
AcDbText
 10
144.4664129129
 20
53.1199421686
 30
0.0
 40
0.5
  1
Legende/Legend
  7
TEXTSTYLE_2
100
AcDbText
  0
TEXT
  5
2EE
330
234
100
AcDbEntity
  8
0
  6
Continuous
 62
     7
100
AcDbText
 10
150.995247857
 20
51.6086771909
 30
0.0
 40
0.6666666667
  1
ZONE DE ROBINETTERIE
  7
TEXTSTYLE_2
100
AcDbText
  0
TEXT
  5
2EF
330
234
100
AcDbEntity
  8
0
  6
Continuous
 62
     7
100
AcDbText
 10
145.91552329
 20
50.1134326765
 30
0.0
 40
0.6666666667
  1
L   :  SYSTEME LED       DC   :  DOUBLE DOSSIER CHAUFFANT
  7
TEXTSTYLE_2
100
AcDbText
  0
TEXT
  5
2F0
330
234
100
AcDbEntity
  8
0
  6
Continuous
 62
     7
100
AcDbText
 10
145.91552329
 20
48.7800993432
 30
0.0
 40
0.6666666667
  1
C   :  CONTROLE
  7
TEXTSTYLE_2
100
AcDbText
  0
TEXT
  5
2F1
330
234
100
AcDbEntity
  8
0
  6
Continuous
 62
     7
100
AcDbText
 10
145.91552329
 20
47.4467660099
 30
0.0
 40
0.6666666667
  1
T   :  MOTEUR
  7
TEXTSTYLE_2
100
AcDbText
  0
TEXT
  5
2F2
330
234
100
AcDbEntity
  8
0
  6
Continuous
 62
     7
100
AcDbText
 10
157.4992711178
 20
58.6667290935
 30
0.0
 40
0.6666666667
  1
90
  7
TEXTSTYLE_2
100
AcDbText
  0
TEXT
  5
2F3
330
234
100
AcDbEntity
  8
0
  6
Continuous
 62
     7
100
AcDbText
 10
157.4992711178
 20
57.6667290935
 30
0.0
 40
0.6666666667
  1
69
  7
TEXTSTYLE_2
100
AcDbText
  0
TEXT
  5
2F4
330
234
100
AcDbEntity
  8
0
  6
Continuous
 62
     7
100
AcDbText
 10
157.4992711178
 20
56.6667290935
 30
0.0
 40
0.6666666667
  1
68
  7
TEXTSTYLE_2
100
AcDbText
  0
TEXT
  5
2F5
330
234
100
AcDbEntity
  8
0
  6
Continuous
 62
     7
100
AcDbText
 10
157.4992711178
 20
55.6667290935
 30
0.0
 40
0.6666666667
  1
66
  7
TEXTSTYLE_2
100
AcDbText
  0
TEXT
  5
2F6
330
234
100
AcDbEntity
  8
0
  6
Continuous
 62
     7
100
AcDbText
 10
157.4992711178
 20
54.6667290935
 30
0.0
 40
0.6666666667
  1
51
  7
TEXTSTYLE_2
100
AcDbText
  0
TEXT
  5
2F7
330
234
100
AcDbEntity
  8
0
  6
Continuous
 62
     7
100
AcDbText
 10
164.4194770615
 20
58.68380849560001
 30
0.0
 40
0.6666666667
  1
341
  7
TEXTSTYLE_2
100
AcDbText
  0
TEXT
  5
2F8
330
234
100
AcDbEntity
  8
0
  6
Continuous
 62
     7
100
AcDbText
 10
164.4194770615
 20
57.6838084956
 30
0.0
 40
0.6666666667
  1
260
  7
TEXTSTYLE_2
100
AcDbText
  0
TEXT
  5
2F9
330
234
100
AcDbEntity
  8
0
  6
Continuous
 62
     7
100
AcDbText
 10
164.4194770615
 20
56.6838084956
 30
0.0
 40
0.6666666667
  1
256
  7
TEXTSTYLE_2
100
AcDbText
  0
TEXT
  5
2FA
330
234
100
AcDbEntity
  8
0
  6
Continuous
 62
     7
100
AcDbText
 10
164.4194770615
 20
55.6838084956
 30
0.0
 40
0.6666666667
  1
251
  7
TEXTSTYLE_2
100
AcDbText
  0
TEXT
  5
2FB
330
234
100
AcDbEntity
  8
0
  6
Continuous
 62
     7
100
AcDbText
 10
164.4194770615
 20
54.6838084956
 30
0.0
 40
0.6666666667
  1
192
  7
TEXTSTYLE_2
100
AcDbText
  0
TEXT
  5
2FC
330
234
100
AcDbEntity
  8
0
  6
Continuous
 62
     7
100
AcDbText
 10
171.364115999
 20
58.6667290935
 30
0.0
 40
0.6666666667
  1
75
  7
TEXTSTYLE_2
100
AcDbText
  0
TEXT
  5
2FD
330
234
100
AcDbEntity
  8
0
  6
Continuous
 62
     7
100
AcDbText
 10
171.364115999
 20
57.6667290935
 30
0.0
 40
0.6666666667
  1
57
  7
TEXTSTYLE_2
100
AcDbText
  0
TEXT
  5
2FE
330
234
100
AcDbEntity
  8
0
  6
Continuous
 62
     7
100
AcDbText
 10
171.364115999
 20
56.6667290935
 30
0.0
 40
0.6666666667
  1
56
  7
TEXTSTYLE_2
100
AcDbText
  0
TEXT
  5
2FF
330
234
100
AcDbEntity
  8
0
  6
Continuous
 62
     7
100
AcDbText
 10
171.364115999
 20
55.6667290935
 30
0.0
 40
0.6666666667
  1
55
  7
TEXTSTYLE_2
100
AcDbText
  0
TEXT
  5
300
330
234
100
AcDbEntity
  8
0
  6
Continuous
 62
     7
100
AcDbText
 10
171.364115999
 20
54.6667290935
 30
0.0
 40
0.6666666667
  1
42
  7
TEXTSTYLE_2
100
AcDbText
  0
LINE
  5
301
330
234
100
AcDbEntity
  8
0
  6
Continuous
 62
     7
100
AcDbLine
 10
143.9999077518
 20
64.00006242679999
 30
0.0
 11
143.9999077518
 21
46.6667290935
 31
0.0
  0
LINE
  5
302
330
234
100
AcDbEntity
  8
0
  6
Continuous
 62
     7
100
AcDbLine
 10
143.9999077518
 20
64.00006242679999
 30
0.0
 11
177.3332410852
 21
64.00006242679999
 31
0.0
  0
LINE
  5
303
330
234
100
AcDbEntity
  8
0
  6
Continuous
 62
     7
100
AcDbLine
 10
177.3332410852
 20
64.00006242679999
 30
0.0
 11
177.3332410852
 21
46.6667290935
 31
0.0
  0
LINE
  5
304
330
234
100
AcDbEntity
  8
0
  6
Continuous
 62
     7
100
AcDbLine
 10
143.9999077518
 20
46.6667290935
 30
0.0
 11
177.3332410852
 21
46.6667290935
 31
0.0
  0
LINE
  5
305
330
234
100
AcDbEntity
  8
0
  6
Continuous
 62
     7
100
AcDbLine
 10
145.3332410852
 20
54.00006242679999
 30
0.0
 11
175.9999077518
 21
54.00006242679999
 31
0.0
  0
LINE
  5
306
330
234
100
AcDbEntity
  8
0
  6
Continuous
 62
     7
100
AcDbLine
 10
145.3332410852
 20
61.0000624268
 30
0.0
 11
175.9999077518
 21
61.0000624268
 31
0.0
  0
LINE
  5
307
330
234
100
AcDbEntity
  8
0
  6
Continuous
 62
     7
100
AcDbLine
 10
144.8088143111
 20
52.3782269312
 30
0.0
 11
144.4397935688
 21
52.0092061888
 31
0.0
  0
LINE
  5
308
330
234
100
AcDbEntity
  8
0
  6
Continuous
 62
     7
100
AcDbLine
 10
145.4754809778
 20
52.3782269312
 30
0.0
 11
144.6774651873
 21
51.58021114069999
 31
0.0
  0
LINE
  5
309
330
234
100
AcDbEntity
  8
0
  6
Continuous
 62
     7
100
AcDbLine
 10
146.1421476444
 20
52.3782269312
 30
0.0
 11
145.344131854
 21
51.58021114069999
 31
0.0
  0
LINE
  5
30A
330
234
100
AcDbEntity
  8
0
  6
Continuous
 62
     7
100
AcDbLine
 10
146.8088143111
 20
52.3782269312
 30
0.0
 11
146.0107985207
 21
51.58021114069999
 31
0.0
  0
LINE
  5
30B
330
234
100
AcDbEntity
  8
0
  6
Continuous
 62
     7
100
AcDbLine
 10
147.4754809778
 20
52.3782269312
 30
0.0
 11
146.6774651873
 21
51.58021114069999
 31
0.0
  0
LINE
  5
30C
330
234
100
AcDbEntity
  8
0
  6
Continuous
 62
     7
100
AcDbLine
 10
148.1421476444
 20
52.3782269312
 30
0.0
 11
147.344131854
 21
51.58021114069999
 31
0.0
  0
LINE
  5
30D
330
234
100
AcDbEntity
  8
0
  6
Continuous
 62
     7
100
AcDbLine
 10
148.8088143111
 20
52.3782269312
 30
0.0
 11
148.0107985207
 21
51.58021114069999
 31
0.0
  0
LINE
  5
30E
330
234
100
AcDbEntity
  8
0
  6
Continuous
 62
     7
100
AcDbLine
 10
149.4754809778
 20
52.3782269312
 30
0.0
 11
148.6774651873
 21
51.58021114069999
 31
0.0
  0
LINE
  5
30F
330
234
100
AcDbEntity
  8
0
  6
Continuous
 62
     7
100
AcDbLine
 10
150.1421476444
 20
52.3782269312
 30
0.0
 11
149.344131854
 21
51.58021114069999
 31
0.0
  0
LINE
  5
310
330
234
100
AcDbEntity
  8
0
  6
Continuous
 62
     7
100
AcDbLine
 10
150.5856350786
 20
52.15504769859999
 30
0.0
 11
150.0107985207
 21
51.58021114069999
 31
0.0
  0
ELLIPSE
  5
311
330
234
100
AcDbEntity
  8
0
  6
Continuous
 62
     7
100
AcDbEllipse
 10
146.145310234
 20
50.4310101337
 30
0.0
 11
1.0473539356
 21
0.0
 31
0.0
210
0.0
220
0.0
230
1.0
 40
0.4938647983
 41
0.0
 42
6.283185307179586
  0
ELLIPSE
  5
312
330
234
100
AcDbEntity
  8
0
  6
Continuous
 62
     7
100
AcDbEllipse
 10
146.145310234
 20
49.0976768004
 30
0.0
 11
1.0473539356
 21
0.0
 31
0.0
210
0.0
220
0.0
230
1.0
 40
0.4938647983
 41
0.0
 42
6.283185307179586
  0
ELLIPSE
  5
313
330
234
100
AcDbEntity
  8
0
  6
Continuous
 62
     7
100
AcDbEllipse
 10
146.145310234
 20
47.7643434671
 30
0.0
 11
1.0473539356
 21
0.0
 31
0.0
210
0.0
220
0.0
230
1.0
 40
0.4938647983
 41
0.0
 42
6.283185307179586
  0
ELLIPSE
  5
314
330
234
100
AcDbEntity
  8
0
  6
Continuous
 62
     7
100
AcDbEllipse
 10
157.1639458151
 20
50.4505314908
 30
0.0
 11
1.0473539356
 21
0.0
 31
0.0
210
0.0
220
0.0
230
1.0
 40
0.4938647983
 41
0.0
 42
6.283185307179586
  0
ENDBLK
  5
315
330
234
100
AcDbEntity
  8
0
  6
ByBlock
 62
     0
100
AcDbBlockEnd
  0
ENDSEC
  0
SECTION
  2
ENTITIES
  0
LINE
  5
4D7
330
21D
100
AcDbEntity
  8
DEFAULT_2
  6
HIDDEN
 62
     7
100
AcDbLine
 10
117.2268532492
 20
28.4902684275
 30
0.0
 11
124.5849736745
 21
28.8872386468
 31
0.0
  0
LINE
  5
53A
330
21D
100
AcDbEntity
  8
DEFAULT_2
  6
HIDDEN
 62
     7
100
AcDbLine
 10
113.9848001534
 20
27.9851104625
 30
0.0
 11
116.5276933722
 21
27.9851104625
 31
0.0
  0
LINE
  5
53E
330
21D
100
AcDbEntity
  8
DEFAULT_2
  6
HIDDEN
 62
     7
100
AcDbLine
 10
105.9275198512
 20
28.8872386468
 30
0.0
 11
113.2856402765
 21
28.4902684275
 31
0.0
  0
LINE
  5
6F0
330
21D
100
AcDbEntity
  8
DEFAULT_2
  6
HIDDEN
 62
     7
100
AcDbLine
 10
113.4489490702
 20
28.4174081552
 30
0.0
 11
113.8080234581
 21
28.0583337672
 31
0.0
  0
LWPOLYLINE
  5
750
330
21D
100
AcDbEntity
  8
DEFAULT_2
  6
HIDDEN
 62
     7
100
AcDbPolyline
 90
       27
 70
     0
 43
0.0
 10
98.3696284105
 20
47.70429466439999
 10
98.79353660520001
 20
46.8351557152
 10
98.9337578643
 20
46.54766511979999
 10
99.0739881428
 20
46.26016988029999
 10
99.21301215820001
 20
45.9727330781
 10
99.3486423204
 20
45.68412635529999
 10
99.4808923907
 20
45.39422006979999
 10
99.60991540610001
 20
45.1030711199
 10
99.73574603360001
 20
44.8106890729
 10
99.85847840099999
 20
44.5171102836
 10
100.0950586451
 20
43.92652343179999
 10
100.3203996674
 20
43.3315987079
 10
100.5352221915
 20
42.7326141294
 10
100.7402584511
 20
42.1298522276
 10
100.9362428089
 20
41.523596395
 10
101.1239066327
 20
40.9141289558
 10
101.3039807025
 20
40.3017320194
 10
101.4771964434
 20
39.6866879059
 10
101.6442854412
 20
39.06927898780001
 10
101.8059792819
 20
38.4497876377
 10
102.0144430295
 20
37.6210478702
 10
102.2163498548
 20
36.7897772435
 10
102.4134336288
 20
35.9566450042
 10
102.7038089499
 20
34.704920111
 10
102.9930856634
 20
33.45277117670001
 10
103.1927021358
 20
32.599893499
 10
103.3963838567
 20
31.7485849336
  0
LWPOLYLINE
  5
751
330
21D
100
AcDbEntity
  8
DEFAULT_2
  6
HIDDEN
 62
     7
100
AcDbPolyline
 90
        5
 70
     0
 43
0.0
 10
103.4333299263
 20
31.5967657963
 10
103.485702225
 20
31.383088115
 10
103.538499536
 20
31.1695744808
 10
103.5917513777
 20
30.9562362872
 10
103.6385991963
 20
30.7702857041
  0
LWPOLYLINE
  5
976
330
21D
100
AcDbEntity
  8
DEFAULT_2
  6
HIDDEN
 62
     7
100
AcDbPolyline
 90
       20
 70
     0
 43
0.0
 10
126.8738943306
 20
30.7702857086
 10
126.920742148
 20
30.9562362872
 10
127.1252998748
 20
31.7864836222
 10
127.3242771459
 20
32.6188850331
 10
127.5194078623
 20
33.45277117670001
 10
127.8086845811
 20
34.704920132
 10
128.0990598969
 20
35.9566450042
 10
128.2961436693
 20
36.7897772376
 10
128.4980504952
 20
37.6210478662
 10
128.7065142437
 20
38.4497876377
 10
128.8682080848
 20
39.0692789892
 10
129.0352970826
 20
39.6866879073
 10
129.2085128233
 20
40.3017320201
 10
129.388586893
 20
40.9141289558
 10
129.5762507167
 20
41.5235963948
 10
129.7722350745
 20
42.1298522276
 10
129.9078748534
 20
42.5320991902
 10
130.0477551777
 20
42.93270936609999
 10
130.1920938582
 20
43.3315987079
 10
130.2201601784
 20
43.4075096072
  0
LWPOLYLINE
  5
977
330
21D
100
AcDbEntity
  8
DEFAULT_2
  6
HIDDEN
 62
     7
100
AcDbPolyline
 90
       24
 70
     0
 43
0.0
 10
130.2201601784
 20
43.4075096072
 10
130.2274203615
 20
43.4270209427
 10
130.2347850659
 20
43.4465625549
 10
130.2423198202
 20
43.4661165425
 10
130.2500606418
 20
43.48563180350001
 10
130.2580324413
 20
43.5050511181
 10
130.2662452114
 20
43.5243259969
 10
130.2747028436
 20
43.5434153414
 10
130.2833997411
 20
43.56229888869999
 10
130.289333801
 20
43.5747810432
 10
130.2954111273
 20
43.58724991479999
 10
130.301672188
 20
43.5997903768
 10
130.3065128328
 20
43.6092928326
 10
130.3114962414
 20
43.61891353499999
 10
130.316639064
 20
43.6286827198
 10
130.3219579506
 20
43.63863062279999
 10
130.3274702168
 20
43.6487887406
 10
130.3331958408
 20
43.65919361279999
 10
130.3391554662
 20
43.6698830399
 10
130.3453697365
 20
43.6808948224
 10
130.3518551099
 20
43.6922614721
 10
130.3586113016
 20
43.70399434729999
 10
130.3656338413
 20
43.7160995177
 10
130.3729182588
 20
43.728583053
  0
LWPOLYLINE
  5
978
330
21D
100
AcDbEntity
  8
DEFAULT_2
  6
HIDDEN
 62
     7
100
AcDbPolyline
 90
       22
 70
     0
 43
0.0
 10
130.9393344779
 20
45.00289440569999
 10
130.9707655975
 20
45.0782110326
 10
131.0013705463999
 20
45.153759931
 10
131.0313359891
 20
45.2294553765
 10
131.0608463503
 20
45.3052674199
 10
131.1191926742
 20
45.45717921489999
 10
131.1776255585
 20
45.6093954114
 10
131.2071927164
 20
45.6855955566
 10
131.2371088877
 20
45.7617846513
 10
131.2674356589
 20
45.83788364239999
 10
131.298215636
 20
45.9138217032
 10
131.3294837219
 20
45.98953675859999
 10
131.3612629867
 20
46.06499351399999
 10
131.3935687517
 20
46.14016538579999
 10
131.4263971766
 20
46.2150338559
 10
131.4597375441
 20
46.2895899429
 10
131.4935707927
 20
46.36385474599999
 10
131.5278712154
 20
46.43785831279999
 10
131.5625948708
 20
46.5116364024
 10
131.5976902228
 20
46.5852309101
 10
131.6330935937
 20
46.65870256199999
 10
131.7044989707
 20
46.8055089374
  0
LINE
  5
979
330
21D
100
AcDbEntity
  8
DEFAULT_2
  6
HIDDEN
 62
     7
100
AcDbLine
 10
130.4997619745
 20
43.9673264837
 30
0.0
 11
130.9393344779
 21
45.00289440569999
 31
0.0
  0
LINE
  5
97A
330
21D
100
AcDbEntity
  8
DEFAULT_2
  6
HIDDEN
 62
     7
100
AcDbLine
 10
131.7044989707
 20
46.8055089374
 30
0.0
 11
132.1428651152
 21
47.70429466439999
 31
0.0
  0
LWPOLYLINE
  5
97B
330
21D
100
AcDbEntity
  8
DEFAULT_2
  6
HIDDEN
 62
     7
100
AcDbPolyline
 90
       13
 70
     0
 43
0.0
 10
130.3961559751
 20
43.76822848489999
 10
130.4042484716
 20
43.78209972359999
 10
130.412454248
 20
43.7962615288
 10
130.4207375788
 20
43.81070371359999
 10
130.4290628031
 20
43.82541888659999
 10
130.4373942597
 20
43.84039965649999
 10
130.4484478595
 20
43.8607645169
 10
130.459346208
 20
43.88151163739999
 10
130.4699863714
 20
43.9025642459
 10
130.4777419134
 20
43.9185164206
 10
130.4852915472
 20
43.93461541039999
 10
130.4926324941
 20
43.9508793777
 10
130.4997619751
 20
43.9673264851
  0
LINE
  5
97C
330
21D
100
AcDbEntity
  8
DEFAULT_2
  6
HIDDEN
 62
     7
100
AcDbLine
 10
130.3729182588
 20
43.728583053
 30
0.0
 11
130.3961559751
 21
43.76822848489999
 31
0.0
  0
LINE
  5
97D
330
21D
100
AcDbEntity
  8
DEFAULT_2
  6
HIDDEN
 62
     7
100
AcDbLine
 10
116.7044700675
 20
28.0583337672
 30
0.0
 11
117.0635444555
 21
28.4174081552
 31
0.0
  0
LWPOLYLINE
  5
14EF
330
21D
100
AcDbEntity
  8
0
  6
Continuous
 62
     7
100
AcDbPolyline
 90
       50
 70
     0
 43
0.0
 10
97.25624676370001
 20
47.9851104625
 10
97.27159798069999
 20
47.99182338579999
 10
97.31714335940001
 20
48.0113916502
 10
97.39134640309998
 20
48.0426469076
 10
97.4917134232
 20
48.0840417235
 10
97.6157411219
 20
48.1340965991
 10
97.7633124879
 20
48.1923210467
 10
97.9327031068
 20
48.25760226479999
 10
98.12230408780001
 20
48.3289207684
 10
98.33095251389998
 20
48.4054532083
 10
98.5576963313
 20
48.48649080739999
 10
98.80167681709998
 20
48.57137562470001
 10
99.06116317490001
 20
48.6591847062
 10
99.33181711260001
 20
48.7482104285
 10
99.6085817478
 20
48.83666029789999
 10
99.88919789809999
 20
48.9238076313
 10
100.1730424848
 20
49.0094456657
 10
100.4601158778
 20
49.0935804391
 10
100.7512219579
 20
49.17643855399999
 10
101.0480103313
 20
49.2584439595
 10
101.3522063973
 20
49.3399760608
 10
101.6654220415
 20
49.4213330099
 10
101.9895103748
 20
49.5028161287
 10
102.3257387718
 20
49.58451182930001
 10
102.675246966
 20
49.6664524589
 10
103.0387884834
 20
49.7485441746
 10
103.416129843
 20
49.83044065649999
 10
103.8079975091
 20
49.9119711979
 10
104.2168632391
 20
49.9933014208
 10
104.6456643096
 20
50.0746175663
 10
105.0953520893
 20
50.1556166354
 10
105.5655483528
 20
50.2357156022
 10
106.0560410915
 20
50.3143854155
 10
106.5664844284
 20
50.3910670785
 10
107.0935164786
 20
50.4648233554
 10
107.6321128428
 20
50.5346370433
 10
108.1777652676
 20
50.59974109369999
 10
108.7296900528
 20
50.6599930199
 10
109.2884578258
 20
50.7153711036
 10
109.8550312535
 20
50.7658796522
 10
110.426729602
 20
50.81121237819999
 10
110.9930838647
 20
50.8506527424
 10
111.5426011744
 20
50.8838481111
 10
112.0713609005
 20
50.91117272199999
 10
112.5886036799
 20
50.9336077445
 10
113.1056932657
 20
50.9518753066
 10
113.6340450443
 20
50.96633833529999
 10
114.1742083563
 20
50.9768185987
 10
114.7177820399
 20
50.98306920159999
 10
115.2562467629
 20
50.9851104625
  0
LWPOLYLINE
  5
14F0
330
21D
100
AcDbEntity
  8
0
  6
Continuous
 62
     7
100
AcDbPolyline
 90
       20
 70
     0
 43
0.0
 10
102.4815405234
 20
23.0260221898
 10
102.5656314015
 20
23.0249589507
 10
102.6795094195
 20
23.0236617239
 10
102.8215545003
 20
23.0222248072
 10
102.9905353952
 20
23.0207362967
 10
103.1856358841
 20
23.0193091346
 10
103.4061851553
 20
23.0180674306
 10
103.6517046276
 20
23.0170985853
 10
103.9212230066
 20
23.0164628439
 10
104.213649931
 20
23.0161712638
 10
104.5277025102
 20
23.0162461528
 10
104.8619894421
 20
23.0166659443
 10
105.2146142302
 20
23.0174179636
 10
105.5830798988
 20
23.0184894404
 10
105.9645683667
 20
23.0198298522
 10
106.35684178
 20
23.021406589
 10
106.7583975122
 20
23.0231995161
 10
107.1678683919
 20
23.025151694
 10
107.5831871791
 20
23.0272182538
 10
108.0013203552
 20
23.0293580954
  0
LINE
  5
14F1
330
21D
100
AcDbEntity
  8
0
  6
Continuous
 62
     7
100
AcDbLine
 10
102.4108564127
 20
23.0270204811
 30
0.0
 11
102.4815405234
 21
23.0260221898
 31
0.0
  0
LINE
  5
14F2
330
21D
100
AcDbEntity
  8
0
  6
Continuous
 62
     7
100
AcDbLine
 10
102.0486329417
 20
23.3304209
 30
0.0
 11
97.2562467628
 21
47.9851104625
 31
0.0
  0
LWPOLYLINE
  5
14F3
330
21D
100
AcDbEntity
  8
0
  6
Continuous
 62
     7
100
AcDbPolyline
 90
       17
 70
     0
 43
0.0
 10
108.0013203552
 20
23.0293580954
 10
108.8372821718
 20
23.0336852833
 10
109.2545265494
 20
23.0357885094
 10
109.6715636416
 20
23.0378279618
 10
110.0883852393
 20
23.0397795385
 10
110.5051847948
 20
23.0416228822
 10
110.9223190903
 20
23.0433367664
 10
111.3402868913
 20
23.0449076225
 10
111.7597424265
 20
23.0463243487
 10
112.1815783493
 20
23.047582175
 10
112.606579482
 20
23.0486719611
 10
113.0354738762
 20
23.0495909348
 10
113.4690066125
 20
23.0503365083
 10
113.9080464789
 20
23.050909457
 10
114.3534735572
 20
23.0513112103
 10
114.806237291
 20
23.0515460968
 10
115.2562467628
 20
23.0516208697
  0
LWPOLYLINE
  5
150E
330
21D
100
AcDbEntity
  8
0
  6
Continuous
 62
     7
100
AcDbPolyline
 90
       38
 70
     0
 43
0.0
 10
115.2562467628
 20
23.0516208697
 10
115.7071228236
 20
23.0515458045
 10
116.1598419527
 20
23.0513106299
 10
116.6052249595
 20
23.0509085994
 10
117.0442216267
 20
23.0503353989
 10
117.4777126223
 20
23.0495895956
 10
117.9065671182
 20
23.0486704245
 10
118.3315307195
 20
23.0475804656
 10
118.7533317708
 20
23.0463225006
 10
119.1727547112
 20
23.0449056643
 10
119.5906916025
 20
23.0433347297
 10
120.0077960923
 20
23.041620799
 10
120.4245664744
 20
23.039777449
 10
120.8413594995
 20
23.0378259012
 10
121.258368759
 20
23.0357865113
 10
121.6755858198
 20
23.0336833721
 10
122.093254945
 20
23.0315302914
 10
122.5114919753
 20
23.0293564457
 10
122.9295972786
 20
23.0272167832
 10
123.3448896692
 20
23.0251504024
 10
123.7543356526
 20
23.0231984046
 10
124.1558675948
 20
23.0214056693
 10
124.5481182615
 20
23.0198291234
 10
124.9295851936
 20
23.018488886
 10
125.2980313282
 20
23.0174175762
 10
125.6506386571
 20
23.0166657158
 10
125.9849099798
 20
23.0162460604
 10
126.2989484283
 20
23.0161713006
 10
126.5913624532
 20
23.0164629972
 10
126.8608689786
 20
23.017098836
 10
127.1063774454
 20
23.0180677619
 10
127.3269162977
 20
23.0193095157
 10
127.5220067973
 20
23.0207366928
 10
127.6909782925
 20
23.0222251797
 10
127.8330146584
 20
23.023662053
 10
127.9468846014
 20
23.024959222
 10
128.0309678894
 20
23.0260223878
 10
128.1016370506
 20
23.0270204801
  0
LWPOLYLINE
  5
1525
330
21D
100
AcDbEntity
  8
0
  6
Continuous
 62
     7
100
AcDbPolyline
 90
        3
 70
     0
 43
0.0
 10
128.463860584
 20
23.3304209
 10
128.4614367957
 20
23.3304238346
 10
128.4541931373
 20
23.3304325406
  0
LINE
  5
152A
330
21D
100
AcDbEntity
  8
0
  6
Continuous
 62
     7
100
AcDbLine
 10
115.2562467628
 20
23.0516208697
 30
0.0
 11
115.2562467628
 21
50.9851104625
 31
0.0
  0
LINE
  5
152B
330
21D
100
AcDbEntity
  8
DEFAULT_1
  6
CENTER
 62
     7
100
AcDbLine
 10
115.2562467628
 20
21.9104126263
 30
0.0
 11
115.2562467628
 21
23.0516208697
 31
0.0
  0
LINE
  5
152C
330
21D
100
AcDbEntity
  8
DEFAULT_1
  6
CENTER
 62
     7
100
AcDbLine
 10
115.2562467628
 20
50.9851104625
 30
0.0
 11
115.2562467628
 21
52.0598338268
 31
0.0
  0
LWPOLYLINE
  5
152D
330
21D
100
AcDbEntity
  8
0
  6
Continuous
 62
     7
100
AcDbPolyline
 90
       50
 70
     0
 43
0.0
 10
115.2562467629
 20
50.9851104625
 10
115.794711486
 20
50.98306920159999
 10
116.3382851695
 20
50.9768185987
 10
116.8784484815
 20
50.96633833520001
 10
117.4068002602
 20
50.95187530649999
 10
117.923889846
 20
50.9336077445
 10
118.4411326253
 20
50.91117272199999
 10
118.9698923515
 20
50.883848111
 10
119.5194096611
 20
50.8506527424
 10
120.0857639238
 20
50.81121237819999
 10
120.6574622724
 20
50.7658796522
 10
121.2240357
 20
50.7153711036
 10
121.7828034731
 20
50.6599930199
 10
122.3347282582
 20
50.59974109369999
 10
122.880380683
 20
50.5346370433
 10
123.4189770472
 20
50.4648233554
 10
123.9460090974
 20
50.3910670784
 10
124.4564524342
 20
50.3143854154
 10
124.946945173
 20
50.2357156022
 10
125.4171414365
 20
50.1556166354
 10
125.8668292161
 20
50.0746175663
 10
126.2956302867
 20
49.9933014208
 10
126.7044960166
 20
49.9119711979
 10
127.0963636828
 20
49.83044065649999
 10
127.4737050424
 20
49.7485441746
 10
127.8372465598
 20
49.6664524589
 10
128.1867547539
 20
49.58451182930001
 10
128.5229831509
 20
49.50281612859999
 10
128.8470714843
 20
49.4213330098
 10
129.1602871284
 20
49.3399760608
 10
129.4644831945
 20
49.2584439595
 10
129.7612715678
 20
49.17643855399999
 10
130.0523776479
 20
49.0935804391
 10
130.3394510409
 20
49.0094456656
 10
130.6232956276
 20
48.9238076313
 10
130.9039117779
 20
48.83666029789999
 10
131.1806764131
 20
48.7482104285
 10
131.4513303508
 20
48.6591847062
 10
131.7108167086
 20
48.57137562470001
 10
131.9547971944
 20
48.48649080739999
 10
132.1815410118
 20
48.4054532083
 10
132.3901894379
 20
48.3289207684
 10
132.5797904189
 20
48.25760226479999
 10
132.7491810378
 20
48.1923210467
 10
132.8967524038
 20
48.1340965991
 10
133.0207801025
 20
48.0840417235
 10
133.1211471226
 20
48.0426469076
 10
133.1953501663
 20
48.0113916502
 10
133.240895545
 20
47.99182338579999
 10
133.256246762
 20
47.9851104625
  0
LINE
  5
152E
330
21D
100
AcDbEntity
  8
DEFAULT_1
  6
CENTER
 62
     7
100
AcDbLine
 10
128.943092615
 20
45.2391711347
 30
0.0
 11
132.5177197959
 21
43.72183191909999
 31
0.0
  0
LINE
  5
152F
330
21D
100
AcDbEntity
  8
0
  6
Continuous
 62
     7
100
AcDbLine
 10
128.463860584
 20
23.3304209
 30
0.0
 11
133.2562467628
 21
47.9851104625
 31
0.0
  0
ARC
  5
1576
330
21D
100
AcDbEntity
  8
DEFAULT_2
  6
HIDDEN
 62
     7
100
AcDbCircle
 10
106.0621988671
 20
31.3836083235
 30
0.0
 40
2.5
100
AcDbArc
 50
194.2012802041
 51
266.9118893967
  0
ARC
  5
1577
330
21D
100
AcDbEntity
  8
DEFAULT_2
  6
HIDDEN
 62
     7
100
AcDbCircle
 10
124.4502946586
 20
31.3836083235
 30
0.0
 40
2.5
100
AcDbArc
 50
273.0881106032
 51
345.7987198516
  0
ARC
  5
1581
330
21D
100
AcDbEntity
  8
DEFAULT_2
  6
HIDDEN
 62
     7
100
AcDbCircle
 10
97.9202307184
 20
47.4851104625
 30
0.0
 40
0.5
100
AcDbArc
 50
25.9998251473
 51
90.0000000398
  0
ARC
  5
1582
330
21D
100
AcDbEntity
  8
DEFAULT_2
  6
HIDDEN
 62
     7
100
AcDbCircle
 10
132.5922628072
 20
47.4851104625
 30
0.0
 40
0.5
100
AcDbArc
 50
89.99999996019999
 51
154.0001748527
  0
ARC
  5
1587
330
21D
100
AcDbEntity
  8
DEFAULT_2
  6
HIDDEN
 62
     7
100
AcDbCircle
 10
113.2721723749
 20
28.2406314599
 30
0.0
 40
0.25
100
AcDbArc
 50
45.0000000057
 51
86.91188939099999
  0
ARC
  5
1588
330
21D
100
AcDbEntity
  8
DEFAULT_2
  6
HIDDEN
 62
     7
100
AcDbCircle
 10
113.9848001534
 20
28.2351104625
 30
0.0
 40
0.25
100
AcDbArc
 50
225.0
 51
270.0
  0
ARC
  5
1589
330
21D
100
AcDbEntity
  8
DEFAULT_2
  6
HIDDEN
 62
     7
100
AcDbCircle
 10
116.5276933722
 20
28.2351104625
 30
0.0
 40
0.25
100
AcDbArc
 50
270.0
 51
315.0
  0
ARC
  5
158A
330
21D
100
AcDbEntity
  8
DEFAULT_2
  6
HIDDEN
 62
     7
100
AcDbCircle
 10
117.2403211508
 20
28.2406314599
 30
0.0
 40
0.25
100
AcDbArc
 50
93.0881106074
 51
134.9999999943
  0
ARC
  5
158E
330
21D
100
AcDbEntity
  8
0
  6
Continuous
 62
     7
100
AcDbCircle
 10
102.4167431352
 20
23.4019742736
 30
0.0
 40
0.375
100
AcDbArc
 50
191.0000000662
 51
269.1004847751
  0
ARC
  5
158F
330
21D
100
AcDbEntity
  8
0
  6
Continuous
 62
     7
100
AcDbCircle
 10
128.0957503905
 20
23.4019742736
 30
0.0
 40
0.375
100
AcDbArc
 50
270.8994944973
 51
348.999999935
  0
ENDSEC
  0
SECTION
  2
OBJECTS
  0
DICTIONARY
  5
C
330
0
100
AcDbDictionary
281
     1
  3
ACAD_COLOR
350
15C3
  3
ACAD_GROUP
350
D
  3
ACAD_LAYOUT
350
1A
  3
ACAD_MATERIAL
350
1596
  3
ACAD_MLEADERSTYLE
350
15E8
  3
ACAD_MLINESTYLE
350
17
  3
ACAD_PLOTSETTINGS
350
19
  3
ACAD_PLOTSTYLENAME
350
E
  3
ACAD_SCALELIST
350
15C6
  3
ACAD_TABLESTYLE
350
15C4
  3
ACAD_VISUALSTYLE
350
15AF
  3
ACDB_RECOMPOSE_DATA
350
15EE
  3
AcDbVariableDictionary
350
1620
  0
DICTIONARY
  5
15EF
330
8
100
AcDbDictionary
280
     1
281
     1
  0
DICTIONARY
  5
162F
330
10
100
AcDbDictionary
280
     1
281
     1
  3
ADSK_XREC_LAYER_RECONCILED
360
1630
  0
DICTIONARY
  5
1631
330
1FA
100
AcDbDictionary
280
     1
281
     1
  3
ADSK_XREC_LAYER_RECONCILED
360
1632
  0
DICTIONARY
  5
1633
330
1FB
100
AcDbDictionary
280
     1
281
     1
  3
ADSK_XREC_LAYER_RECONCILED
360
1634
  0
DICTIONARY
  5
1635
330
1FC
100
AcDbDictionary
280
     1
281
     1
  3
ADSK_XREC_LAYER_RECONCILED
360
1636
  0
DICTIONARY
  5
1637
330
1FD
100
AcDbDictionary
280
     1
281
     1
  3
ADSK_XREC_LAYER_RECONCILED
360
1638
  0
DICTIONARY
  5
1639
330
1FE
100
AcDbDictionary
280
     1
281
     1
  3
ADSK_XREC_LAYER_RECONCILED
360
163A
  0
DICTIONARY
  5
163B
330
1FF
100
AcDbDictionary
280
     1
281
     1
  3
ADSK_XREC_LAYER_RECONCILED
360
163C
  0
DICTIONARY
  5
163D
330
200
100
AcDbDictionary
280
     1
281
     1
  3
ADSK_XREC_LAYER_RECONCILED
360
163E
  0
DICTIONARY
  5
163F
330
201
100
AcDbDictionary
280
     1
281
     1
  3
ADSK_XREC_LAYER_RECONCILED
360
1640
  0
DICTIONARY
  5
1641
330
202
100
AcDbDictionary
280
     1
281
     1
  3
ADSK_XREC_LAYER_RECONCILED
360
1642
  0
DICTIONARY
  5
1643
330
203
100
AcDbDictionary
280
     1
281
     1
  3
ADSK_XREC_LAYER_RECONCILED
360
1644
  0
DICTIONARY
  5
1645
330
204
100
AcDbDictionary
280
     1
281
     1
  3
ADSK_XREC_LAYER_RECONCILED
360
1646
  0
DICTIONARY
  5
1647
330
205
100
AcDbDictionary
280
     1
281
     1
  3
ADSK_XREC_LAYER_RECONCILED
360
1648
  0
DICTIONARY
  5
1649
330
206
100
AcDbDictionary
280
     1
281
     1
  3
ADSK_XREC_LAYER_RECONCILED
360
164A
  0
DICTIONARY
  5
164B
330
207
100
AcDbDictionary
280
     1
281
     1
  3
ADSK_XREC_LAYER_RECONCILED
360
164C
  0
DICTIONARY
  5
164D
330
208
100
AcDbDictionary
280
     1
281
     1
  3
ADSK_XREC_LAYER_RECONCILED
360
164E
  0
DICTIONARY
  5
164F
330
209
100
AcDbDictionary
280
     1
281
     1
  3
ADSK_XREC_LAYER_RECONCILED
360
1650
  0
DICTIONARY
  5
1651
330
20A
100
AcDbDictionary
280
     1
281
     1
  3
ADSK_XREC_LAYER_RECONCILED
360
1652
  0
DICTIONARY
  5
1653
330
20B
100
AcDbDictionary
280
     1
281
     1
  3
ADSK_XREC_LAYER_RECONCILED
360
1654
  0
DICTIONARY
  5
1655
330
20C
100
AcDbDictionary
280
     1
281
     1
  3
ADSK_XREC_LAYER_RECONCILED
360
1656
  0
DICTIONARY
  5
1657
330
20D
100
AcDbDictionary
280
     1
281
     1
  3
ADSK_XREC_LAYER_RECONCILED
360
1658
  0
DICTIONARY
  5
1659
330
20E
100
AcDbDictionary
280
     1
281
     1
  3
ADSK_XREC_LAYER_RECONCILED
360
165A
  0
DICTIONARY
  5
165B
330
20F
100
AcDbDictionary
280
     1
281
     1
  3
ADSK_XREC_LAYER_RECONCILED
360
165C
  0
DICTIONARY
  5
165D
330
210
100
AcDbDictionary
280
     1
281
     1
  3
ADSK_XREC_LAYER_RECONCILED
360
165E
  0
DICTIONARY
  5
165F
330
211
100
AcDbDictionary
280
     1
281
     1
  3
ADSK_XREC_LAYER_RECONCILED
360
1660
  0
DICTIONARY
  5
1661
330
212
100
AcDbDictionary
280
     1
281
     1
  3
ADSK_XREC_LAYER_RECONCILED
360
1662
  0
DICTIONARY
  5
1663
330
213
100
AcDbDictionary
280
     1
281
     1
  3
ADSK_XREC_LAYER_RECONCILED
360
1664
  0
DICTIONARY
  5
1665
330
214
100
AcDbDictionary
280
     1
281
     1
  3
ADSK_XREC_LAYER_RECONCILED
360
1666
  0
DICTIONARY
  5
15C3
102
{ACAD_REACTORS
330
C
102
}
330
C
100
AcDbDictionary
281
     1
  0
DICTIONARY
  5
D
102
{ACAD_REACTORS
330
C
102
}
330
C
100
AcDbDictionary
281
     1
  0
DICTIONARY
  5
1A
102
{ACAD_REACTORS
330
C
102
}
330
C
100
AcDbDictionary
281
     1
  3
Layout1
350
1592
  3
Model
350
1591
  0
DICTIONARY
  5
1596
102
{ACAD_REACTORS
330
C
102
}
330
C
100
AcDbDictionary
281
     1
  3
ByBlock
350
159F
  3
ByLayer
350
1597
  3
Global
350
15A7
  0
DICTIONARY
  5
15E8
102
{ACAD_REACTORS
330
C
102
}
330
C
100
AcDbDictionary
281
     1
  3
Standard
350
15E9
  0
DICTIONARY
  5
17
102
{ACAD_REACTORS
330
C
102
}
330
C
100
AcDbDictionary
281
     1
  3
Standard
350
18
  0
DICTIONARY
  5
19
102
{ACAD_REACTORS
330
C
102
}
330
C
100
AcDbDictionary
281
     1
  0
ACDBDICTIONARYWDFLT
  5
E
102
{ACAD_REACTORS
330
C
102
}
330
C
100
AcDbDictionary
281
     1
  3
Normal
350
F
100
AcDbDictionaryWithDefault
340
F
  0
DICTIONARY
  5
15C6
102
{ACAD_REACTORS
330
C
102
}
330
C
100
AcDbDictionary
281
     1
  3
A0
350
15C7
  3
A1
350
15C8
  3
A2
350
15C9
  3
A3
350
15CA
  3
A4
350
15CB
  3
A5
350
15CC
  3
A6
350
15CD
  3
A7
350
15CE
  3
A8
350
15CF
  3
A9
350
15D0
  3
B0
350
15D1
  3
B1
350
15D2
  3
B2
350
15D3
  3
B3
350
15D4
  3
B4
350
15D5
  3
B5
350
15D6
  3
B6
350
15D7
  3
B7
350
15D8
  3
B8
350
15D9
  3
B9
350
15DA
  3
C0
350
15DB
  3
C1
350
15DC
  3
C2
350
15DD
  3
C3
350
15DE
  3
C4
350
15DF
  3
C5
350
15E0
  3
C6
350
15E1
  3
C7
350
15E2
  3
C8
350
15E3
  3
C9
350
15E4
  3
D0
350
15E5
  3
D1
350
15E6
  3
D2
350
15E7
  0
DICTIONARY
  5
15C4
102
{ACAD_REACTORS
330
C
102
}
330
C
100
AcDbDictionary
281
     1
  3
Standard
350
15C5
  0
DICTIONARY
  5
15AF
102
{ACAD_REACTORS
330
C
102
}
330
C
100
AcDbDictionary
281
     1
  3
2dWireframe
350
15B5
  3
3D Hidden
350
15B7
  3
3dWireframe
350
15B6
  3
Basic
350
15B4
  3
Brighten
350
15BB
  3
ColorChange
350
15BF
  3
Conceptual
350
15B8
  3
Dim
350
15BA
  3
EdgeColorOff
350
15C2
  3
Facepattern
350
15BE
  3
Flat
350
15B0
  3
FlatWithEdges
350
15B1
  3
Gouraud
350
15B2
  3
GouraudWithEdges
350
15B3
  3
JitterOff
350
15C0
  3
Linepattern
350
15BD
  3
OverhangOff
350
15C1
  3
Realistic
350
15B9
  3
Thicken
350
15BC
  0
XRECORD
  5
15EE
102
{ACAD_REACTORS
330
C
102
}
330
C
100
AcDbXrecord
280
     1
 90
        1
330
15C5
  0
DICTIONARY
  5
1620
102
{ACAD_REACTORS
330
C
102
}
330
C
100
AcDbDictionary
281
     1
  3
CANNOSCALE
350
1623
  3
CMLEADERSTYLE
350
1622
  3
CTABLESTYLE
350
1621
  3
DIMASSOC
350
1626
  3
INDEXCTL
350
1625
  3
LAYEREVAL
350
166A
  3
LAYERNOTIFY
350
166B
  3
LIGHTINGUNITS
350
1669
  3
MSLTSCALE
350
1668
  3
SORTENTS
350
1624
  3
XCLIPFRAME
350
1627
  0
XRECORD
  5
1630
102
{ACAD_REACTORS
330
162F
102
}
330
162F
100
AcDbXrecord
280
     1
290
     1
  0
XRECORD
  5
1632
102
{ACAD_REACTORS
330
1631
102
}
330
1631
100
AcDbXrecord
280
     1
290
     1
  0
XRECORD
  5
1634
102
{ACAD_REACTORS
330
1633
102
}
330
1633
100
AcDbXrecord
280
     1
290
     1
  0
XRECORD
  5
1636
102
{ACAD_REACTORS
330
1635
102
}
330
1635
100
AcDbXrecord
280
     1
290
     1
  0
XRECORD
  5
1638
102
{ACAD_REACTORS
330
1637
102
}
330
1637
100
AcDbXrecord
280
     1
290
     1
  0
XRECORD
  5
163A
102
{ACAD_REACTORS
330
1639
102
}
330
1639
100
AcDbXrecord
280
     1
290
     1
  0
XRECORD
  5
163C
102
{ACAD_REACTORS
330
163B
102
}
330
163B
100
AcDbXrecord
280
     1
290
     1
  0
XRECORD
  5
163E
102
{ACAD_REACTORS
330
163D
102
}
330
163D
100
AcDbXrecord
280
     1
290
     1
  0
XRECORD
  5
1640
102
{ACAD_REACTORS
330
163F
102
}
330
163F
100
AcDbXrecord
280
     1
290
     1
  0
XRECORD
  5
1642
102
{ACAD_REACTORS
330
1641
102
}
330
1641
100
AcDbXrecord
280
     1
290
     1
  0
XRECORD
  5
1644
102
{ACAD_REACTORS
330
1643
102
}
330
1643
100
AcDbXrecord
280
     1
290
     1
  0
XRECORD
  5
1646
102
{ACAD_REACTORS
330
1645
102
}
330
1645
100
AcDbXrecord
280
     1
290
     1
  0
XRECORD
  5
1648
102
{ACAD_REACTORS
330
1647
102
}
330
1647
100
AcDbXrecord
280
     1
290
     1
  0
XRECORD
  5
164A
102
{ACAD_REACTORS
330
1649
102
}
330
1649
100
AcDbXrecord
280
     1
290
     1
  0
XRECORD
  5
164C
102
{ACAD_REACTORS
330
164B
102
}
330
164B
100
AcDbXrecord
280
     1
290
     1
  0
XRECORD
  5
164E
102
{ACAD_REACTORS
330
164D
102
}
330
164D
100
AcDbXrecord
280
     1
290
     1
  0
XRECORD
  5
1650
102
{ACAD_REACTORS
330
164F
102
}
330
164F
100
AcDbXrecord
280
     1
290
     1
  0
XRECORD
  5
1652
102
{ACAD_REACTORS
330
1651
102
}
330
1651
100
AcDbXrecord
280
     1
290
     1
  0
XRECORD
  5
1654
102
{ACAD_REACTORS
330
1653
102
}
330
1653
100
AcDbXrecord
280
     1
290
     1
  0
XRECORD
  5
1656
102
{ACAD_REACTORS
330
1655
102
}
330
1655
100
AcDbXrecord
280
     1
290
     1
  0
XRECORD
  5
1658
102
{ACAD_REACTORS
330
1657
102
}
330
1657
100
AcDbXrecord
280
     1
290
     1
  0
XRECORD
  5
165A
102
{ACAD_REACTORS
330
1659
102
}
330
1659
100
AcDbXrecord
280
     1
290
     1
  0
XRECORD
  5
165C
102
{ACAD_REACTORS
330
165B
102
}
330
165B
100
AcDbXrecord
280
     1
290
     1
  0
XRECORD
  5
165E
102
{ACAD_REACTORS
330
165D
102
}
330
165D
100
AcDbXrecord
280
     1
290
     1
  0
XRECORD
  5
1660
102
{ACAD_REACTORS
330
165F
102
}
330
165F
100
AcDbXrecord
280
     1
290
     1
  0
XRECORD
  5
1662
102
{ACAD_REACTORS
330
1661
102
}
330
1661
100
AcDbXrecord
280
     1
290
     1
  0
XRECORD
  5
1664
102
{ACAD_REACTORS
330
1663
102
}
330
1663
100
AcDbXrecord
280
     1
290
     1
  0
XRECORD
  5
1666
102
{ACAD_REACTORS
330
1665
102
}
330
1665
100
AcDbXrecord
280
     1
290
     1
  0
LAYOUT
  5
1592
102
{ACAD_REACTORS
330
1A
102
}
330
1A
100
AcDbPlotSettings
  1

  2
none_device
  4
ANSI_B_(17.00_x_11.00_Inches)
  6

 40
0.0
 41
0.0
 42
0.0
 43
0.0
 44
431.8
 45
279.4
 46
0.0
 47
0.0
 48
0.0
 49
0.0
140
0.0
141
0.0
142
1.0
143
1.0
 70
     0
 72
     0
 73
     0
 74
     0
  7

 75
     0
147
1.0
 76
     0
 77
     2
 78
   300
148
0.0
149
0.0
100
AcDbLayout
  1
Layout1
 70
     1
 71
     1
 10
0.0
 20
0.0
 11
12.0
 21
9.0
 12
0.0
 22
0.0
 32
0.0
 14
1.000000000000000E+20
 24
1.000000000000000E+20
 34
1.000000000000000E+20
 15
-1.000000000000000E+20
 25
-1.000000000000000E+20
 35
-1.000000000000000E+20
146
0.0
 13
0.0
 23
0.0
 33
0.0
 16
1.0
 26
0.0
 36
0.0
 17
0.0
 27
1.0
 37
0.0
 76
     0
330
21E
  0
LAYOUT
  5
1591
102
{ACAD_REACTORS
330
1A
102
}
330
1A
100
AcDbPlotSettings
  1

  2
none_device
  4
ANSI_B_(17.00_x_11.00_Inches)
  6

 40
0.0
 41
0.0
 42
0.0
 43
0.0
 44
431.8
 45
279.4
 46
0.0
 47
0.0
 48
0.0
 49
0.0
140
0.0
141
0.0
142
1.0
143
1.0
 70
  1024
 72
     0
 73
     0
 74
     0
  7

 75
     0
147
1.0
 76
     0
 77
     2
 78
   300
148
0.0
149
0.0
100
AcDbLayout
  1
Model
 70
     0
 71
     0
 10
0.0
 20
0.0
 11
17.0
 21
11.0
 12
0.0
 22
0.0
 32
0.0
 14
0.0
 24
0.0
 34
0.0
 15
0.0
 25
0.0
 35
0.0
146
0.0
 13
0.0
 23
0.0
 33
0.0
 16
1.0
 26
0.0
 36
0.0
 17
0.0
 27
1.0
 37
0.0
 76
     0
330
21D
331
1F4
  0
MATERIAL
  5
159F
102
{ACAD_XDICTIONARY
360
15A0
102
}
102
{ACAD_REACTORS
330
1596
102
}
330
1596
100
AcDbMaterial
  1
ByBlock
 72
     0
 43
0.0208333333333333
 43
0.0
 43
0.0
 43
0.0
 43
0.0
 43
0.0208333333333333
 43
0.0
 43
0.0
 43
0.0
 43
0.0
 43
1.0
 43
0.0
 43
0.0
 43
0.0
 43
0.0
 43
1.0
 77
     0
 47
0.0208333333333333
 47
0.0
 47
0.0
 47
0.0
 47
0.0
 47
0.0208333333333333
 47
0.0
 47
0.0
 47
0.0
 47
0.0
 47
1.0
 47
0.0
 47
0.0
 47
0.0
 47
0.0
 47
1.0
171
     0
 49
0.0208333333333333
 49
0.0
 49
0.0
 49
0.0
 49
0.0
 49
0.0208333333333333
 49
0.0
 49
0.0
 49
0.0
 49
0.0
 49
1.0
 49
0.0
 49
0.0
 49
0.0
 49
0.0
 49
1.0
175
     0
142
0.0208333333333333
142
0.0
142
0.0
142
0.0
142
0.0
142
0.0208333333333333
142
0.0
142
0.0
142
0.0
142
0.0
142
1.0
142
0.0
142
0.0
142
0.0
142
0.0
142
1.0
179
     0
144
0.0208333333333333
144
0.0
144
0.0
144
0.0
144
0.0
144
0.0208333333333333
144
0.0
144
0.0
144
0.0
144
0.0
144
1.0
144
0.0
144
0.0
144
0.0
144
0.0
144
1.0
147
0.0208333333333333
147
0.0
147
0.0
147
0.0
147
0.0
147
0.0208333333333333
147
0.0
147
0.0
147
0.0
147
0.0
147
1.0
147
0.0
147
0.0
147
0.0
147
0.0
147
1.0
  0
MATERIAL
  5
1597
102
{ACAD_XDICTIONARY
360
1598
102
}
102
{ACAD_REACTORS
330
1596
102
}
330
1596
100
AcDbMaterial
  1
ByLayer
 72
     0
 43
0.0208333333333333
 43
0.0
 43
0.0
 43
0.0
 43
0.0
 43
0.0208333333333333
 43
0.0
 43
0.0
 43
0.0
 43
0.0
 43
1.0
 43
0.0
 43
0.0
 43
0.0
 43
0.0
 43
1.0
 77
     0
 47
0.0208333333333333
 47
0.0
 47
0.0
 47
0.0
 47
0.0
 47
0.0208333333333333
 47
0.0
 47
0.0
 47
0.0
 47
0.0
 47
1.0
 47
0.0
 47
0.0
 47
0.0
 47
0.0
 47
1.0
171
     0
 49
0.0208333333333333
 49
0.0
 49
0.0
 49
0.0
 49
0.0
 49
0.0208333333333333
 49
0.0
 49
0.0
 49
0.0
 49
0.0
 49
1.0
 49
0.0
 49
0.0
 49
0.0
 49
0.0
 49
1.0
175
     0
142
0.0208333333333333
142
0.0
142
0.0
142
0.0
142
0.0
142
0.0208333333333333
142
0.0
142
0.0
142
0.0
142
0.0
142
1.0
142
0.0
142
0.0
142
0.0
142
0.0
142
1.0
179
     0
144
0.0208333333333333
144
0.0
144
0.0
144
0.0
144
0.0
144
0.0208333333333333
144
0.0
144
0.0
144
0.0
144
0.0
144
1.0
144
0.0
144
0.0
144
0.0
144
0.0
144
1.0
147
0.0208333333333333
147
0.0
147
0.0
147
0.0
147
0.0
147
0.0208333333333333
147
0.0
147
0.0
147
0.0
147
0.0
147
1.0
147
0.0
147
0.0
147
0.0
147
0.0
147
1.0
  0
MATERIAL
  5
15A7
102
{ACAD_XDICTIONARY
360
15A8
102
}
102
{ACAD_REACTORS
330
1596
102
}
330
1596
100
AcDbMaterial
  1
Global
 72
     0
 43
0.0208333333333333
 43
0.0
 43
0.0
 43
0.0
 43
0.0
 43
0.0208333333333333
 43
0.0
 43
0.0
 43
0.0
 43
0.0
 43
1.0
 43
0.0
 43
0.0
 43
0.0
 43
0.0
 43
1.0
 77
     0
 47
0.0208333333333333
 47
0.0
 47
0.0
 47
0.0
 47
0.0
 47
0.0208333333333333
 47
0.0
 47
0.0
 47
0.0
 47
0.0
 47
1.0
 47
0.0
 47
0.0
 47
0.0
 47
0.0
 47
1.0
171
     0
 49
0.0208333333333333
 49
0.0
 49
0.0
 49
0.0
 49
0.0
 49
0.0208333333333333
 49
0.0
 49
0.0
 49
0.0
 49
0.0
 49
1.0
 49
0.0
 49
0.0
 49
0.0
 49
0.0
 49
1.0
175
     0
142
0.0208333333333333
142
0.0
142
0.0
142
0.0
142
0.0
142
0.0208333333333333
142
0.0
142
0.0
142
0.0
142
0.0
142
1.0
142
0.0
142
0.0
142
0.0
142
0.0
142
1.0
179
     0
144
0.0208333333333333
144
0.0
144
0.0
144
0.0
144
0.0
144
0.0208333333333333
144
0.0
144
0.0
144
0.0
144
0.0
144
1.0
144
0.0
144
0.0
144
0.0
144
0.0
144
1.0
147
0.0208333333333333
147
0.0
147
0.0
147
0.0
147
0.0
147
0.0208333333333333
147
0.0
147
0.0
147
0.0
147
0.0
147
1.0
147
0.0
147
0.0
147
0.0
147
0.0
147
1.0
  0
MLEADERSTYLE
  5
15E9
102
{ACAD_REACTORS
330
15E8
102
}
330
15E8
100
AcDbMLeaderStyle
170
     2
171
     1
172
     0
 90
        2
 40
0.0
 41
0.0
173
     1
 91
-1056964608
340
14
 92
       -2
290
     1
 42
0.09
291
     1
 43
0.36
  3
Standard
 44
0.18
300

342
11
174
     1
178
     6
175
     1
176
     0
 93
-1056964608
 45
0.18
292
     0
297
     0
 46
0.18
 94
-1056964608
 47
1.0
 49
1.0
140
1.0
293
     1
141
0.0
294
     1
177
     0
142
1.0
295
     0
296
     0
143
0.125
1001
ACAD_MLEADERVER
1070
     2
  0
MLINESTYLE
  5
18
102
{ACAD_REACTORS
330
17
102
}
330
17
100
AcDbMlineStyle
  2
STANDARD
 70
     0
  3

 62
   256
 51
90.0
 52
90.0
 71
     2
 49
0.5
 62
   256
  6
BYLAYER
 49
-0.5
 62
   256
  6
BYLAYER
  0
ACDBPLACEHOLDER
  5
F
102
{ACAD_REACTORS
330
E
102
}
330
E
  0
SCALE
  5
15C7
102
{ACAD_REACTORS
330
15C6
102
}
330
15C6
100
AcDbScale
 70
     0
300
1:1
140
1.0
141
1.0
290
     1
  0
SCALE
  5
15C8
102
{ACAD_REACTORS
330
15C6
102
}
330
15C6
100
AcDbScale
 70
     0
300
1:2
140
1.0
141
2.0
290
     0
  0
SCALE
  5
15C9
102
{ACAD_REACTORS
330
15C6
102
}
330
15C6
100
AcDbScale
 70
     0
300
1:4
140
1.0
141
4.0
290
     0
  0
SCALE
  5
15CA
102
{ACAD_REACTORS
330
15C6
102
}
330
15C6
100
AcDbScale
 70
     0
300
1:5
140
1.0
141
5.0
290
     0
  0
SCALE
  5
15CB
102
{ACAD_REACTORS
330
15C6
102
}
330
15C6
100
AcDbScale
 70
     0
300
1:8
140
1.0
141
8.0
290
     0
  0
SCALE
  5
15CC
102
{ACAD_REACTORS
330
15C6
102
}
330
15C6
100
AcDbScale
 70
     0
300
1:10
140
1.0
141
10.0
290
     0
  0
SCALE
  5
15CD
102
{ACAD_REACTORS
330
15C6
102
}
330
15C6
100
AcDbScale
 70
     0
300
1:16
140
1.0
141
16.0
290
     0
  0
SCALE
  5
15CE
102
{ACAD_REACTORS
330
15C6
102
}
330
15C6
100
AcDbScale
 70
     0
300
1:20
140
1.0
141
20.0
290
     0
  0
SCALE
  5
15CF
102
{ACAD_REACTORS
330
15C6
102
}
330
15C6
100
AcDbScale
 70
     0
300
1:30
140
1.0
141
30.0
290
     0
  0
SCALE
  5
15D0
102
{ACAD_REACTORS
330
15C6
102
}
330
15C6
100
AcDbScale
 70
     0
300
1:40
140
1.0
141
40.0
290
     0
  0
SCALE
  5
15D1
102
{ACAD_REACTORS
330
15C6
102
}
330
15C6
100
AcDbScale
 70
     0
300
1:50
140
1.0
141
50.0
290
     0
  0
SCALE
  5
15D2
102
{ACAD_REACTORS
330
15C6
102
}
330
15C6
100
AcDbScale
 70
     0
300
1:100
140
1.0
141
100.0
290
     0
  0
SCALE
  5
15D3
102
{ACAD_REACTORS
330
15C6
102
}
330
15C6
100
AcDbScale
 70
     0
300
2:1
140
2.0
141
1.0
290
     0
  0
SCALE
  5
15D4
102
{ACAD_REACTORS
330
15C6
102
}
330
15C6
100
AcDbScale
 70
     0
300
4:1
140
4.0
141
1.0
290
     0
  0
SCALE
  5
15D5
102
{ACAD_REACTORS
330
15C6
102
}
330
15C6
100
AcDbScale
 70
     0
300
8:1
140
8.0
141
1.0
290
     0
  0
SCALE
  5
15D6
102
{ACAD_REACTORS
330
15C6
102
}
330
15C6
100
AcDbScale
 70
     0
300
10:1
140
10.0
141
1.0
290
     0
  0
SCALE
  5
15D7
102
{ACAD_REACTORS
330
15C6
102
}
330
15C6
100
AcDbScale
 70
     0
300
100:1
140
100.0
141
1.0
290
     0
  0
SCALE
  5
15D8
102
{ACAD_REACTORS
330
15C6
102
}
330
15C6
100
AcDbScale
 70
     0
300
1/128" = 1'-0"
140
0.0078125
141
12.0
290
     0
  0
SCALE
  5
15D9
102
{ACAD_REACTORS
330
15C6
102
}
330
15C6
100
AcDbScale
 70
     0
300
1/64" = 1'-0"
140
0.015625
141
12.0
290
     0
  0
SCALE
  5
15DA
102
{ACAD_REACTORS
330
15C6
102
}
330
15C6
100
AcDbScale
 70
     0
300
1/32" = 1'-0"
140
0.03125
141
12.0
290
     0
  0
SCALE
  5
15DB
102
{ACAD_REACTORS
330
15C6
102
}
330
15C6
100
AcDbScale
 70
     0
300
1/16" = 1'-0"
140
0.0625
141
12.0
290
     0
  0
SCALE
  5
15DC
102
{ACAD_REACTORS
330
15C6
102
}
330
15C6
100
AcDbScale
 70
     0
300
3/32" = 1'-0"
140
0.09375
141
12.0
290
     0
  0
SCALE
  5
15DD
102
{ACAD_REACTORS
330
15C6
102
}
330
15C6
100
AcDbScale
 70
     0
300
1/8" = 1'-0"
140
0.125
141
12.0
290
     0
  0
SCALE
  5
15DE
102
{ACAD_REACTORS
330
15C6
102
}
330
15C6
100
AcDbScale
 70
     0
300
3/16" = 1'-0"
140
0.1875
141
12.0
290
     0
  0
SCALE
  5
15DF
102
{ACAD_REACTORS
330
15C6
102
}
330
15C6
100
AcDbScale
 70
     0
300
1/4" = 1'-0"
140
0.25
141
12.0
290
     0
  0
SCALE
  5
15E0
102
{ACAD_REACTORS
330
15C6
102
}
330
15C6
100
AcDbScale
 70
     0
300
3/8" = 1'-0"
140
0.375
141
12.0
290
     0
  0
SCALE
  5
15E1
102
{ACAD_REACTORS
330
15C6
102
}
330
15C6
100
AcDbScale
 70
     0
300
1/2" = 1'-0"
140
0.5
141
12.0
290
     0
  0
SCALE
  5
15E2
102
{ACAD_REACTORS
330
15C6
102
}
330
15C6
100
AcDbScale
 70
     0
300
3/4" = 1'-0"
140
0.75
141
12.0
290
     0
  0
SCALE
  5
15E3
102
{ACAD_REACTORS
330
15C6
102
}
330
15C6
100
AcDbScale
 70
     0
300
1" = 1'-0"
140
1.0
141
12.0
290
     0
  0
SCALE
  5
15E4
102
{ACAD_REACTORS
330
15C6
102
}
330
15C6
100
AcDbScale
 70
     0
300
1-1/2" = 1'-0"
140
1.5
141
12.0
290
     0
  0
SCALE
  5
15E5
102
{ACAD_REACTORS
330
15C6
102
}
330
15C6
100
AcDbScale
 70
     0
300
3" = 1'-0"
140
3.0
141
12.0
290
     0
  0
SCALE
  5
15E6
102
{ACAD_REACTORS
330
15C6
102
}
330
15C6
100
AcDbScale
 70
     0
300
6" = 1'-0"
140
6.0
141
12.0
290
     0
  0
SCALE
  5
15E7
102
{ACAD_REACTORS
330
15C6
102
}
330
15C6
100
AcDbScale
 70
     0
300
1'-0" = 1'-0"
140
12.0
141
12.0
290
     0
  0
TABLESTYLE
  5
15C5
102
{ACAD_XDICTIONARY
360
15EC
102
}
102
{ACAD_REACTORS
330
15C4
102
}
330
15C4
100
AcDbTableStyle
  3
Standard
 70
     0
 71
     0
 40
0.06
 41
0.06
280
     0
281
     0
  7
STANDARD
140
0.18
170
     2
 62
     0
 63
     7
283
     0
 90
      512
 91
        0
  1

274
    -2
284
     1
 64
     0
275
    -2
285
     1
 65
     0
276
    -2
286
     1
 66
     0
277
    -2
287
     1
 67
     0
278
    -2
288
     1
 68
     0
279
    -2
289
     1
 69
     0
  7
STANDARD
140
0.25
170
     5
 62
     0
 63
     7
283
     0
 90
      512
 91
        0
  1

274
    -2
284
     1
 64
     0
275
    -2
285
     1
 65
     0
276
    -2
286
     1
 66
     0
277
    -2
287
     1
 67
     0
278
    -2
288
     1
 68
     0
279
    -2
289
     1
 69
     0
  7
STANDARD
140
0.18
170
     5
 62
     0
 63
     7
283
     0
 90
      512
 91
        0
  1

274
    -2
284
     1
 64
     0
275
    -2
285
     1
 65
     0
276
    -2
286
     1
 66
     0
277
    -2
287
     1
 67
     0
278
    -2
288
     1
 68
     0
279
    -2
289
     1
 69
     0
  0
VISUALSTYLE
  5
15B5
102
{ACAD_XDICTIONARY
360
1602
102
}
102
{ACAD_REACTORS
330
15AF
102
}
330
15AF
100
AcDbVisualStyle
  2
2dWireframe
 70
     4
 71
     0
 72
     2
 73
     0
 90
        0
 40
-0.6
 41
-30.0
 62
     5
 63
     7
 74
     1
 91
        4
 64
     7
 65
   257
 75
     1
175
     1
 42
1.0
 92
        0
 66
   257
 43
1.0
 76
     1
 77
     6
 78
     2
 67
     7
 79
     5
170
     0
171
     0
290
     0
174
     0
 93
        1
 44
0.0
173
     0
291
     0
 45
0.0
  0
VISUALSTYLE
  5
15B7
102
{ACAD_XDICTIONARY
360
1606
102
}
102
{ACAD_REACTORS
330
15AF
102
}
330
15AF
100
AcDbVisualStyle
  2
3D Hidden
 70
     6
 71
     1
 72
     2
 73
     2
 90
        0
 40
-0.6
 41
-30.0
 62
     5
 63
     7
 74
     2
 91
        2
 64
     7
 65
   257
 75
     2
175
     1
 42
179.0
 92
        0
 66
   257
 43
1.0
 76
     1
 77
     6
 78
     2
 67
     7
 79
     3
170
     0
171
     0
290
     0
174
     0
 93
        1
 44
0.0
173
     0
291
     0
 45
0.0
  0
VISUALSTYLE
  5
15B6
102
{ACAD_XDICTIONARY
360
1604
102
}
102
{ACAD_REACTORS
330
15AF
102
}
330
15AF
100
AcDbVisualStyle
  2
3dWireframe
 70
     5
 71
     0
 72
     2
 73
     0
 90
        0
 40
-0.6
 41
-30.0
 62
     5
 63
     7
 74
     1
 91
        4
 64
     7
 65
   257
 75
     1
175
     1
 42
1.0
 92
        0
 66
   257
 43
1.0
 76
     1
 77
     6
 78
     2
 67
     7
 79
     5
170
     0
171
     0
290
     0
174
     0
 93
        1
 44
0.0
173
     0
291
     0
 45
0.0
  0
VISUALSTYLE
  5
15B4
102
{ACAD_XDICTIONARY
360
1600
102
}
102
{ACAD_REACTORS
330
15AF
102
}
330
15AF
100
AcDbVisualStyle
  2
Basic
 70
     7
 71
     1
 72
     0
 73
     1
 90
        0
 40
-0.6
 41
-30.0
 62
     5
 63
     7
 74
     0
 91
        4
 64
     7
 65
   257
 75
     1
175
     1
 42
1.0
 92
        8
 66
     7
 43
1.0
 76
     1
 77
     6
 78
     2
 67
     7
 79
     5
170
     0
171
     0
290
     0
174
     0
 93
        1
 44
0.0
173
     0
291
     1
 45
0.0
  0
VISUALSTYLE
  5
15BB
102
{ACAD_XDICTIONARY
360
160E
102
}
102
{ACAD_REACTORS
330
15AF
102
}
330
15AF
100
AcDbVisualStyle
  2
Brighten
 70
    12
 71
     2
 72
     2
 73
     0
 90
        0
 40
-0.6
 41
-30.0
 62
     5
 63
     7
 74
     1
 91
        4
 64
     7
 65
   257
 75
     1
175
     1
 42
1.0
 92
        8
 66
     7
 43
1.0
 76
     1
 77
     6
 78
     2
 67
     7
 79
     5
170
     0
171
     0
290
     0
174
     0
 93
        1
 44
50.0
173
     0
291
     1
 45
0.0
  0
VISUALSTYLE
  5
15BF
102
{ACAD_XDICTIONARY
360
1616
102
}
102
{ACAD_REACTORS
330
15AF
102
}
330
15AF
100
AcDbVisualStyle
  2
ColorChange
 70
    16
 71
     2
 72
     2
 73
     3
 90
        0
 40
-0.6
 41
-30.0
 62
     5
 63
     8
 74
     1
 91
        4
 64
     7
 65
   257
 75
     1
175
     1
 42
1.0
 92
        8
 66
     8
 43
1.0
 76
     1
 77
     6
 78
     2
 67
     7
 79
     5
170
     0
171
     0
290
     0
174
     0
 93
        1
 44
0.0
173
     0
291
     1
 45
0.0
  0
VISUALSTYLE
  5
15B8
102
{ACAD_XDICTIONARY
360
1608
102
}
102
{ACAD_REACTORS
330
15AF
102
}
330
15AF
100
AcDbVisualStyle
  2
Conceptual
 70
     9
 71
     3
 72
     2
 73
     0
 90
        0
 40
-0.6
 41
-30.0
 62
     5
 63
     7
 74
     2
 91
        2
 64
     7
 65
   257
 75
     1
175
     1
 42
179.0
 92
        8
 66
     7
 43
1.0
 76
     1
 77
     6
 78
     2
 67
     7
 79
     3
170
     0
171
     0
290
     0
174
     0
 93
        1
 44
0.0
173
     0
291
     0
 45
0.0
  0
VISUALSTYLE
  5
15BA
102
{ACAD_XDICTIONARY
360
160C
102
}
102
{ACAD_REACTORS
330
15AF
102
}
330
15AF
100
AcDbVisualStyle
  2
Dim
 70
    11
 71
     2
 72
     2
 73
     0
 90
        0
 40
-0.6
 41
-30.0
 62
     5
 63
     7
 74
     1
 91
        4
 64
     7
 65
   257
 75
     1
175
     1
 42
1.0
 92
        8
 66
     7
 43
1.0
 76
     1
 77
     6
 78
     2
 67
     7
 79
     5
170
     0
171
     0
290
     0
174
     0
 93
        1
 44
-50.0
173
     0
291
     1
 45
0.0
  0
VISUALSTYLE
  5
15C2
102
{ACAD_XDICTIONARY
360
161C
102
}
102
{ACAD_REACTORS
330
15AF
102
}
330
15AF
100
AcDbVisualStyle
  2
EdgeColorOff
 70
    22
 71
     2
 72
     2
 73
     0
 90
        0
 40
-0.6
 41
-30.0
 62
     5
 63
     7
 74
     1
 91
        4
 64
     7
 65
   257
 75
     1
175
     1
 42
1.0
 92
        8
 66
     7
 43
1.0
 76
     1
 77
     6
 78
     2
 67
     7
 79
     5
170
     0
171
     0
290
     0
174
     0
 93
        1
 44
0.0
173
     0
291
     1
 45
0.0
  0
VISUALSTYLE
  5
15BE
102
{ACAD_XDICTIONARY
360
1614
102
}
102
{ACAD_REACTORS
330
15AF
102
}
330
15AF
100
AcDbVisualStyle
  2
Facepattern
 70
    15
 71
     2
 72
     2
 73
     0
 90
        0
 40
-0.6
 41
-30.0
 62
     5
 63
     7
 74
     1
 91
        4
 64
     7
 65
   257
 75
     1
175
     1
 42
1.0
 92
        8
 66
     7
 43
1.0
 76
     1
 77
     6
 78
     2
 67
     7
 79
     5
170
     0
171
     0
290
     0
174
     0
 93
        1
 44
0.0
173
     0
291
     1
 45
0.0
  0
VISUALSTYLE
  5
15B0
102
{ACAD_XDICTIONARY
360
15F8
102
}
102
{ACAD_REACTORS
330
15AF
102
}
330
15AF
100
AcDbVisualStyle
  2
Flat
 70
     0
 71
     2
 72
     1
 73
     1
 90
        2
 40
-0.6
 41
30.0
 62
     5
 63
     7
 74
     0
 91
        4
 64
     7
 65
   257
 75
     1
175
     1
 42
1.0
 92
        8
 66
     7
 43
1.0
 76
     1
 77
     6
 78
     2
 67
     7
 79
     5
170
     0
171
     0
290
     0
174
     0
 93
       13
 44
0.0
173
     0
291
     1
 45
0.0
  0
VISUALSTYLE
  5
15B1
102
{ACAD_XDICTIONARY
360
15FA
102
}
102
{ACAD_REACTORS
330
15AF
102
}
330
15AF
100
AcDbVisualStyle
  2
FlatWithEdges
 70
     1
 71
     2
 72
     1
 73
     1
 90
        2
 40
-0.6
 41
30.0
 62
     5
 63
     7
 74
     1
 91
        4
 64
     7
 65
   257
 75
     1
175
     1
 42
1.0
 92
        0
 66
   257
 43
1.0
 76
     1
 77
     6
 78
     2
 67
     7
 79
     5
170
     0
171
     0
290
     0
174
     0
 93
       13
 44
0.0
173
     0
291
     1
 45
0.0
  0
VISUALSTYLE
  5
15B2
102
{ACAD_XDICTIONARY
360
15FC
102
}
102
{ACAD_REACTORS
330
15AF
102
}
330
15AF
100
AcDbVisualStyle
  2
Gouraud
 70
     2
 71
     2
 72
     2
 73
     1
 90
        2
 40
-0.6
 41
30.0
 62
     5
 63
     7
 74
     0
 91
        4
 64
     7
 65
   257
 75
     1
175
     1
 42
1.0
 92
        0
 66
     7
 43
1.0
 76
     1
 77
     6
 78
     2
 67
     7
 79
     5
170
     0
171
     0
290
     0
174
     0
 93
       13
 44
0.0
173
     0
291
     1
 45
0.0
  0
VISUALSTYLE
  5
15B3
102
{ACAD_XDICTIONARY
360
15FE
102
}
102
{ACAD_REACTORS
330
15AF
102
}
330
15AF
100
AcDbVisualStyle
  2
GouraudWithEdges
 70
     3
 71
     2
 72
     2
 73
     1
 90
        2
 40
-0.6
 41
30.0
 62
     5
 63
     7
 74
     1
 91
        4
 64
     7
 65
   257
 75
     1
175
     1
 42
1.0
 92
        0
 66
   257
 43
1.0
 76
     1
 77
     6
 78
     2
 67
     7
 79
     5
170
     0
171
     0
290
     0
174
     0
 93
       13
 44
0.0
173
     0
291
     1
 45
0.0
  0
VISUALSTYLE
  5
15C0
102
{ACAD_XDICTIONARY
360
1618
102
}
102
{ACAD_REACTORS
330
15AF
102
}
330
15AF
100
AcDbVisualStyle
  2
JitterOff
 70
    20
 71
     2
 72
     2
 73
     0
 90
        0
 40
-0.6
 41
-30.0
 62
     5
 63
     7
 74
     1
 91
        4
 64
     7
 65
   257
 75
     1
175
     1
 42
1.0
 92
       10
 66
     7
 43
1.0
 76
     1
 77
     6
 78
     2
 67
     7
 79
     5
170
     0
171
     0
290
     0
174
     0
 93
        1
 44
0.0
173
     0
291
     1
 45
0.0
  0
VISUALSTYLE
  5
15BD
102
{ACAD_XDICTIONARY
360
1612
102
}
102
{ACAD_REACTORS
330
15AF
102
}
330
15AF
100
AcDbVisualStyle
  2
Linepattern
 70
    14
 71
     2
 72
     2
 73
     0
 90
        0
 40
-0.6
 41
-30.0
 62
     5
 63
     7
 74
     1
 91
        4
 64
     7
 65
   257
 75
     7
175
     7
 42
1.0
 92
        8
 66
     7
 43
1.0
 76
     1
 77
     6
 78
     2
 67
     7
 79
     5
170
     0
171
     0
290
     0
174
     0
 93
        1
 44
0.0
173
     0
291
     1
 45
0.0
  0
VISUALSTYLE
  5
15C1
102
{ACAD_XDICTIONARY
360
161A
102
}
102
{ACAD_REACTORS
330
15AF
102
}
330
15AF
100
AcDbVisualStyle
  2
OverhangOff
 70
    21
 71
     2
 72
     2
 73
     0
 90
        0
 40
-0.6
 41
-30.0
 62
     5
 63
     7
 74
     1
 91
        4
 64
     7
 65
   257
 75
     1
175
     1
 42
1.0
 92
        9
 66
     7
 43
1.0
 76
     1
 77
     6
 78
     2
 67
     7
 79
     5
170
     0
171
     0
290
     0
174
     0
 93
        1
 44
0.0
173
     0
291
     1
 45
0.0
  0
VISUALSTYLE
  5
15B9
102
{ACAD_XDICTIONARY
360
160A
102
}
102
{ACAD_REACTORS
330
15AF
102
}
330
15AF
100
AcDbVisualStyle
  2
Realistic
 70
     8
 71
     2
 72
     2
 73
     0
 90
        0
 40
-0.6
 41
-30.0
 62
     5
 63
     7
 74
     1
 91
        0
 64
     7
 65
   257
 75
     1
175
     1
 42
1.0
 92
        8
 66
     8
 43
1.0
 76
     1
 77
     6
 78
     2
 67
     7
 79
     5
170
     0
171
     0
290
     0
174
     0
 93
       13
 44
0.0
173
     0
291
     0
 45
0.0
  0
VISUALSTYLE
  5
15BC
102
{ACAD_XDICTIONARY
360
1610
102
}
102
{ACAD_REACTORS
330
15AF
102
}
330
15AF
100
AcDbVisualStyle
  2
Thicken
 70
    13
 71
     2
 72
     2
 73
     0
 90
        0
 40
-0.6
 41
-30.0
 62
     5
 63
     7
 74
     1
 91
        4
 64
     7
 65
   257
 75
     1
175
     1
 42
1.0
 92
       12
 66
     7
 43
1.0
 76
     1
 77
     6
 78
     2
 67
     7
 79
     5
170
     0
171
     0
290
     0
174
     0
 93
        1
 44
0.0
173
     0
291
     1
 45
0.0
  0
DICTIONARYVAR
  5
1623
102
{ACAD_REACTORS
330
1620
102
}
330
1620
100
DictionaryVariables
280
     0
  1
1:1
  0
DICTIONARYVAR
  5
1622
102
{ACAD_REACTORS
330
1620
102
}
330
1620
100
DictionaryVariables
280
     0
  1
STANDARD
  0
DICTIONARYVAR
  5
1621
102
{ACAD_REACTORS
330
1620
102
}
330
1620
100
DictionaryVariables
280
     0
  1
STANDARD
  0
DICTIONARYVAR
  5
1626
102
{ACAD_REACTORS
330
1620
102
}
330
1620
100
DictionaryVariables
280
     0
  1
1
  0
DICTIONARYVAR
  5
1625
102
{ACAD_REACTORS
330
1620
102
}
330
1620
100
DictionaryVariables
280
     0
  1
0
  0
DICTIONARYVAR
  5
166A
102
{ACAD_REACTORS
330
1620
102
}
330
1620
100
DictionaryVariables
280
     0
  1
1
  0
DICTIONARYVAR
  5
166B
102
{ACAD_REACTORS
330
1620
102
}
330
1620
100
DictionaryVariables
280
     0
  1
15
  0
DICTIONARYVAR
  5
1669
102
{ACAD_REACTORS
330
1620
102
}
330
1620
100
DictionaryVariables
280
     0
  1
0
  0
DICTIONARYVAR
  5
1668
102
{ACAD_REACTORS
330
1620
102
}
330
1620
100
DictionaryVariables
280
     0
  1
0
  0
DICTIONARYVAR
  5
1624
102
{ACAD_REACTORS
330
1620
102
}
330
1620
100
DictionaryVariables
280
     0
  1
127
  0
DICTIONARYVAR
  5
1627
102
{ACAD_REACTORS
330
1620
102
}
330
1620
100
DictionaryVariables
280
     0
  1
2
  0
DICTIONARY
  5
15A0
330
159F
100
AcDbDictionary
280
     1
281
     1
  3
BUMPTILE
360
15A2
  3
DIFFUSETILE
360
15A1
  3
OPACITYTILE
360
15A5
  3
REFLECTIONTILE
360
15A4
  3
REFRACTIONTILE
360
15A6
  3
SPECULARTILE
360
15A3
  0
DICTIONARY
  5
1598
330
1597
100
AcDbDictionary
280
     1
281
     1
  3
BUMPTILE
360
159A
  3
DIFFUSETILE
360
1599
  3
OPACITYTILE
360
159D
  3
REFLECTIONTILE
360
159C
  3
REFRACTIONTILE
360
159E
  3
SPECULARTILE
360
159B
  0
DICTIONARY
  5
15A8
330
15A7
100
AcDbDictionary
280
     1
281
     1
  3
BUMPTILE
360
15AA
  3
DIFFUSETILE
360
15A9
  3
OPACITYTILE
360
15AD
  3
REFLECTIONTILE
360
15AC
  3
REFRACTIONTILE
360
15AE
  3
SPECULARTILE
360
15AB
  0
DICTIONARY
  5
15EC
330
15C5
100
AcDbDictionary
280
     1
281
     1
  3
ACAD_ROUNDTRIP_2008_TABLESTYLE_CELLSTYLEMAP
360
167B
  0
DICTIONARY
  5
1602
330
15B5
100
AcDbDictionary
280
     1
281
     1
  3
ACAD_XREC_ROUNDTRIP
360
1603
  0
DICTIONARY
  5
1606
330
15B7
100
AcDbDictionary
280
     1
281
     1
  3
ACAD_XREC_ROUNDTRIP
360
1607
  0
DICTIONARY
  5
1604
330
15B6
100
AcDbDictionary
280
     1
281
     1
  3
ACAD_XREC_ROUNDTRIP
360
1605
  0
DICTIONARY
  5
1600
330
15B4
100
AcDbDictionary
280
     1
281
     1
  3
ACAD_XREC_ROUNDTRIP
360
1601
  0
DICTIONARY
  5
160E
330
15BB
100
AcDbDictionary
280
     1
281
     1
  3
ACAD_XREC_ROUNDTRIP
360
160F
  0
DICTIONARY
  5
1616
330
15BF
100
AcDbDictionary
280
     1
281
     1
  3
ACAD_XREC_ROUNDTRIP
360
1617
  0
DICTIONARY
  5
1608
330
15B8
100
AcDbDictionary
280
     1
281
     1
  3
ACAD_XREC_ROUNDTRIP
360
1609
  0
DICTIONARY
  5
160C
330
15BA
100
AcDbDictionary
280
     1
281
     1
  3
ACAD_XREC_ROUNDTRIP
360
160D
  0
DICTIONARY
  5
161C
330
15C2
100
AcDbDictionary
280
     1
281
     1
  3
ACAD_XREC_ROUNDTRIP
360
161D
  0
DICTIONARY
  5
1614
330
15BE
100
AcDbDictionary
280
     1
281
     1
  3
ACAD_XREC_ROUNDTRIP
360
1615
  0
DICTIONARY
  5
15F8
330
15B0
100
AcDbDictionary
280
     1
281
     1
  3
ACAD_XREC_ROUNDTRIP
360
15F9
  0
DICTIONARY
  5
15FA
330
15B1
100
AcDbDictionary
280
     1
281
     1
  3
ACAD_XREC_ROUNDTRIP
360
15FB
  0
DICTIONARY
  5
15FC
330
15B2
100
AcDbDictionary
280
     1
281
     1
  3
ACAD_XREC_ROUNDTRIP
360
15FD
  0
DICTIONARY
  5
15FE
330
15B3
100
AcDbDictionary
280
     1
281
     1
  3
ACAD_XREC_ROUNDTRIP
360
15FF
  0
DICTIONARY
  5
1618
330
15C0
100
AcDbDictionary
280
     1
281
     1
  3
ACAD_XREC_ROUNDTRIP
360
1619
  0
DICTIONARY
  5
1612
330
15BD
100
AcDbDictionary
280
     1
281
     1
  3
ACAD_XREC_ROUNDTRIP
360
1613
  0
DICTIONARY
  5
161A
330
15C1
100
AcDbDictionary
280
     1
281
     1
  3
ACAD_XREC_ROUNDTRIP
360
161B
  0
DICTIONARY
  5
160A
330
15B9
100
AcDbDictionary
280
     1
281
     1
  3
ACAD_XREC_ROUNDTRIP
360
160B
  0
DICTIONARY
  5
1610
330
15BC
100
AcDbDictionary
280
     1
281
     1
  3
ACAD_XREC_ROUNDTRIP
360
1611
  0
XRECORD
  5
15A2
102
{ACAD_REACTORS
330
15A0
102
}
330
15A0
100
AcDbXrecord
280
     1
270
     1
271
     1
  0
XRECORD
  5
15A1
102
{ACAD_REACTORS
330
15A0
102
}
330
15A0
100
AcDbXrecord
280
     1
270
     1
271
     1
  0
XRECORD
  5
15A5
102
{ACAD_REACTORS
330
15A0
102
}
330
15A0
100
AcDbXrecord
280
     1
270
     1
271
     1
  0
XRECORD
  5
15A4
102
{ACAD_REACTORS
330
15A0
102
}
330
15A0
100
AcDbXrecord
280
     1
270
     1
271
     1
  0
XRECORD
  5
15A6
102
{ACAD_REACTORS
330
15A0
102
}
330
15A0
100
AcDbXrecord
280
     1
270
     1
271
     1
  0
XRECORD
  5
15A3
102
{ACAD_REACTORS
330
15A0
102
}
330
15A0
100
AcDbXrecord
280
     1
270
     1
271
     1
  0
XRECORD
  5
159A
102
{ACAD_REACTORS
330
1598
102
}
330
1598
100
AcDbXrecord
280
     1
270
     1
271
     1
  0
XRECORD
  5
1599
102
{ACAD_REACTORS
330
1598
102
}
330
1598
100
AcDbXrecord
280
     1
270
     1
271
     1
  0
XRECORD
  5
159D
102
{ACAD_REACTORS
330
1598
102
}
330
1598
100
AcDbXrecord
280
     1
270
     1
271
     1
  0
XRECORD
  5
159C
102
{ACAD_REACTORS
330
1598
102
}
330
1598
100
AcDbXrecord
280
     1
270
     1
271
     1
  0
XRECORD
  5
159E
102
{ACAD_REACTORS
330
1598
102
}
330
1598
100
AcDbXrecord
280
     1
270
     1
271
     1
  0
XRECORD
  5
159B
102
{ACAD_REACTORS
330
1598
102
}
330
1598
100
AcDbXrecord
280
     1
270
     1
271
     1
  0
XRECORD
  5
15AA
102
{ACAD_REACTORS
330
15A8
102
}
330
15A8
100
AcDbXrecord
280
     1
270
     1
271
     1
  0
XRECORD
  5
15A9
102
{ACAD_REACTORS
330
15A8
102
}
330
15A8
100
AcDbXrecord
280
     1
270
     1
271
     1
  0
XRECORD
  5
15AD
102
{ACAD_REACTORS
330
15A8
102
}
330
15A8
100
AcDbXrecord
280
     1
270
     1
271
     1
  0
XRECORD
  5
15AC
102
{ACAD_REACTORS
330
15A8
102
}
330
15A8
100
AcDbXrecord
280
     1
270
     1
271
     1
  0
XRECORD
  5
15AE
102
{ACAD_REACTORS
330
15A8
102
}
330
15A8
100
AcDbXrecord
280
     1
270
     1
271
     1
  0
XRECORD
  5
15AB
102
{ACAD_REACTORS
330
15A8
102
}
330
15A8
100
AcDbXrecord
280
     1
270
     1
271
     1
  0
CELLSTYLEMAP
  5
167B
102
{ACAD_REACTORS
330
15EC
102
}
330
15EC
100
AcDbCellStyleMap
 90
        3
300
CELLSTYLE
  1
TABLEFORMAT_BEGIN
 90
        5
170
     1
 91
        0
 92
    32768
 62
   257
 93
        1
300
CONTENTFORMAT
  1
CONTENTFORMAT_BEGIN
 90
        0
 91
        0
 92
      512
 93
        0
300

 40
0.0
140
1.0
 94
        5
 62
     0
340
11
144
0.25
309
CONTENTFORMAT_END
171
     0
 94
        0
309
TABLEFORMAT_END
  1
CELLSTYLE_BEGIN
 90
        1
 91
        1
300
_TITLE
309
CELLSTYLE_END
300
CELLSTYLE
  1
TABLEFORMAT_BEGIN
 90
        5
170
     1
 91
        0
 92
        0
 62
   257
 93
        1
300
CONTENTFORMAT
  1
CONTENTFORMAT_BEGIN
 90
        0
 91
        0
 92
      512
 93
        0
300

 40
0.0
140
1.0
 94
        5
 62
     0
340
11
144
0.18
309
CONTENTFORMAT_END
171
     0
 94
        0
309
TABLEFORMAT_END
  1
CELLSTYLE_BEGIN
 90
        2
 91
        1
300
_HEADER
309
CELLSTYLE_END
300
CELLSTYLE
  1
TABLEFORMAT_BEGIN
 90
        5
170
     1
 91
        0
 92
        0
 62
   257
 93
        1
300
CONTENTFORMAT
  1
CONTENTFORMAT_BEGIN
 90
        0
 91
        0
 92
      512
 93
        0
300

 40
0.0
140
1.0
 94
        2
 62
     0
340
11
144
0.18
309
CONTENTFORMAT_END
171
     0
 94
        0
309
TABLEFORMAT_END
  1
CELLSTYLE_BEGIN
 90
        3
 91
        2
300
_DATA
309
CELLSTYLE_END
  0
XRECORD
  5
1603
102
{ACAD_REACTORS
330
1602
102
}
330
1602
100
AcDbXrecord
280
     1
102
RTVSPropertyOp0
 70
     1
102
RTVSPropertyOp1
 70
     1
102
RTVSPropertyOp2
 70
     1
102
RTVSPropertyOp3
 70
     1
102
RTVSPropertyOp4
 70
     1
102
RTVSPropertyOp5
 70
     1
102
RTVSPropertyOp6
 70
     1
102
RTVSPropertyOp7
 70
     1
102
RTVSPropertyOp8
 70
     1
102
RTVSPropertyOp9
 70
     1
102
RTVSPropertyOp10
 70
     1
102
RTVSPropertyOp11
 70
     1
102
RTVSPropertyOp12
 70
     1
102
RTVSPropertyOp13
 70
     1
102
RTVSPropertyOp14
 70
     1
102
RTVSPropertyOp15
 70
     1
102
RTVSPropertyOp16
 70
     1
102
RTVSPropertyOp17
 70
     1
102
RTVSPropertyOp18
 70
     1
102
RTVSPropertyOp19
 70
     1
102
RTVSPropertyOp20
 70
     1
102
RTVSPropertyOp21
 70
     1
102
RTVSPropertyOp22
 70
     1
102
RTVSPropertyOp23
 70
     1
102
RTVSPropertyOp24
 70
     1
102
RTVSPropertyOp25
 70
     1
102
RTVSPropertyOp26
 70
     1
102
RTVSPropertyOp27
 70
     1
  0
XRECORD
  5
1607
102
{ACAD_REACTORS
330
1606
102
}
330
1606
100
AcDbXrecord
280
     1
102
RTVSPropertyOp0
 70
     1
102
RTVSPropertyOp1
 70
     1
102
RTVSPropertyOp2
 70
     1
102
RTVSPropertyOp3
 70
     1
102
RTVSPropertyOp4
 70
     1
102
RTVSPropertyOp5
 70
     1
102
RTVSPropertyOp6
 70
     1
102
RTVSPropertyOp7
 70
     1
102
RTVSPropertyOp8
 70
     1
102
RTVSPropertyOp9
 70
     1
102
RTVSPropertyOp10
 70
     1
102
RTVSPropertyOp11
 70
     1
102
RTVSPropertyOp12
 70
     1
102
RTVSPropertyOp13
 70
     1
102
RTVSPropertyOp14
 70
     1
102
RTVSPropertyOp15
 70
     1
102
RTVSPropertyOp16
 70
     1
102
RTVSPropertyOp17
 70
     1
102
RTVSPropertyOp18
 70
     1
102
RTVSPropertyOp19
 70
     1
102
RTVSPropertyOp20
 70
     1
102
RTVSPropertyOp21
 70
     1
102
RTVSPropertyOp22
 70
     1
102
RTVSPropertyOp23
 70
     1
102
RTVSPropertyOp24
 70
     1
102
RTVSPropertyOp25
 70
     1
102
RTVSPropertyOp26
 70
     1
102
RTVSPropertyOp27
 70
     1
  0
XRECORD
  5
1605
102
{ACAD_REACTORS
330
1604
102
}
330
1604
100
AcDbXrecord
280
     1
102
RTVSPropertyOp0
 70
     1
102
RTVSPropertyOp1
 70
     1
102
RTVSPropertyOp2
 70
     1
102
RTVSPropertyOp3
 70
     1
102
RTVSPropertyOp4
 70
     1
102
RTVSPropertyOp5
 70
     1
102
RTVSPropertyOp6
 70
     1
102
RTVSPropertyOp7
 70
     1
102
RTVSPropertyOp8
 70
     1
102
RTVSPropertyOp9
 70
     1
102
RTVSPropertyOp10
 70
     1
102
RTVSPropertyOp11
 70
     1
102
RTVSPropertyOp12
 70
     1
102
RTVSPropertyOp13
 70
     1
102
RTVSPropertyOp14
 70
     1
102
RTVSPropertyOp15
 70
     1
102
RTVSPropertyOp16
 70
     1
102
RTVSPropertyOp17
 70
     1
102
RTVSPropertyOp18
 70
     1
102
RTVSPropertyOp19
 70
     1
102
RTVSPropertyOp20
 70
     1
102
RTVSPropertyOp21
 70
     1
102
RTVSPropertyOp22
 70
     1
102
RTVSPropertyOp23
 70
     1
102
RTVSPropertyOp24
 70
     1
102
RTVSPropertyOp25
 70
     1
102
RTVSPropertyOp26
 70
     1
102
RTVSPropertyOp27
 70
     1
  0
XRECORD
  5
1601
102
{ACAD_REACTORS
330
1600
102
}
330
1600
100
AcDbXrecord
280
     1
102
RTVSPropertyOp0
 70
     1
102
RTVSPropertyOp1
 70
     1
102
RTVSPropertyOp2
 70
     1
102
RTVSPropertyOp3
 70
     1
102
RTVSPropertyOp4
 70
     1
102
RTVSPropertyOp5
 70
     1
102
RTVSPropertyOp6
 70
     1
102
RTVSPropertyOp7
 70
     1
102
RTVSPropertyOp8
 70
     1
102
RTVSPropertyOp9
 70
     1
102
RTVSPropertyOp10
 70
     1
102
RTVSPropertyOp11
 70
     1
102
RTVSPropertyOp12
 70
     1
102
RTVSPropertyOp13
 70
     1
102
RTVSPropertyOp14
 70
     1
102
RTVSPropertyOp15
 70
     1
102
RTVSPropertyOp16
 70
     1
102
RTVSPropertyOp17
 70
     1
102
RTVSPropertyOp18
 70
     1
102
RTVSPropertyOp19
 70
     1
102
RTVSPropertyOp20
 70
     1
102
RTVSPropertyOp21
 70
     1
102
RTVSPropertyOp22
 70
     1
102
RTVSPropertyOp23
 70
     1
102
RTVSPropertyOp24
 70
     1
102
RTVSPropertyOp25
 70
     1
102
RTVSPropertyOp26
 70
     1
102
RTVSPropertyOp27
 70
     1
  0
XRECORD
  5
160F
102
{ACAD_REACTORS
330
160E
102
}
330
160E
100
AcDbXrecord
280
     1
102
RTVSPropertyOp0
 70
     1
102
RTVSPropertyOp1
 70
     1
102
RTVSPropertyOp2
 70
     1
102
RTVSPropertyOp3
 70
     1
102
RTVSPropertyOp4
 70
     1
102
RTVSPropertyOp5
 70
     1
102
RTVSPropertyOp6
 70
     1
102
RTVSPropertyOp7
 70
     1
102
RTVSPropertyOp8
 70
     1
102
RTVSPropertyOp9
 70
     1
102
RTVSPropertyOp10
 70
     1
102
RTVSPropertyOp11
 70
     1
102
RTVSPropertyOp12
 70
     1
102
RTVSPropertyOp13
 70
     1
102
RTVSPropertyOp14
 70
     1
102
RTVSPropertyOp15
 70
     1
102
RTVSPropertyOp16
 70
     1
102
RTVSPropertyOp17
 70
     1
102
RTVSPropertyOp18
 70
     1
102
RTVSPropertyOp19
 70
     1
102
RTVSPropertyOp20
 70
     1
102
RTVSPropertyOp21
 70
     1
102
RTVSPropertyOp22
 70
     1
102
RTVSPropertyOp23
 70
     1
102
RTVSPropertyOp24
 70
     1
102
RTVSPropertyOp25
 70
     1
102
RTVSPropertyOp26
 70
     1
102
RTVSPropertyOp27
 70
     1
  0
XRECORD
  5
1617
102
{ACAD_REACTORS
330
1616
102
}
330
1616
100
AcDbXrecord
280
     1
102
RTVSPropertyOp0
 70
     1
102
RTVSPropertyOp1
 70
     1
102
RTVSPropertyOp2
 70
     1
102
RTVSPropertyOp3
 70
     1
102
RTVSPropertyOp4
 70
     1
102
RTVSPropertyOp5
 70
     1
102
RTVSPropertyOp6
 70
     1
102
RTVSPropertyOp7
 70
     1
102
RTVSPropertyOp8
 70
     1
102
RTVSPropertyOp9
 70
     1
102
RTVSPropertyOp10
 70
     1
102
RTVSPropertyOp11
 70
     1
102
RTVSPropertyOp12
 70
     1
102
RTVSPropertyOp13
 70
     1
102
RTVSPropertyOp14
 70
     1
102
RTVSPropertyOp15
 70
     1
102
RTVSPropertyOp16
 70
     1
102
RTVSPropertyOp17
 70
     1
102
RTVSPropertyOp18
 70
     1
102
RTVSPropertyOp19
 70
     1
102
RTVSPropertyOp20
 70
     1
102
RTVSPropertyOp21
 70
     1
102
RTVSPropertyOp22
 70
     1
102
RTVSPropertyOp23
 70
     1
102
RTVSPropertyOp24
 70
     1
102
RTVSPropertyOp25
 70
     1
102
RTVSPropertyOp26
 70
     1
102
RTVSPropertyOp27
 70
     1
  0
XRECORD
  5
1609
102
{ACAD_REACTORS
330
1608
102
}
330
1608
100
AcDbXrecord
280
     1
102
RTVSPropertyOp0
 70
     1
102
RTVSPropertyOp1
 70
     1
102
RTVSPropertyOp2
 70
     1
102
RTVSPropertyOp3
 70
     1
102
RTVSPropertyOp4
 70
     1
102
RTVSPropertyOp5
 70
     1
102
RTVSPropertyOp6
 70
     1
102
RTVSPropertyOp7
 70
     1
102
RTVSPropertyOp8
 70
     1
102
RTVSPropertyOp9
 70
     1
102
RTVSPropertyOp10
 70
     1
102
RTVSPropertyOp11
 70
     1
102
RTVSPropertyOp12
 70
     1
102
RTVSPropertyOp13
 70
     1
102
RTVSPropertyOp14
 70
     1
102
RTVSPropertyOp15
 70
     1
102
RTVSPropertyOp16
 70
     1
102
RTVSPropertyOp17
 70
     1
102
RTVSPropertyOp18
 70
     1
102
RTVSPropertyOp19
 70
     1
102
RTVSPropertyOp20
 70
     1
102
RTVSPropertyOp21
 70
     1
102
RTVSPropertyOp22
 70
     1
102
RTVSPropertyOp23
 70
     1
102
RTVSPropertyOp24
 70
     1
102
RTVSPropertyOp25
 70
     1
102
RTVSPropertyOp26
 70
     1
102
RTVSPropertyOp27
 70
     1
  0
XRECORD
  5
160D
102
{ACAD_REACTORS
330
160C
102
}
330
160C
100
AcDbXrecord
280
     1
102
RTVSPropertyOp0
 70
     1
102
RTVSPropertyOp1
 70
     1
102
RTVSPropertyOp2
 70
     1
102
RTVSPropertyOp3
 70
     1
102
RTVSPropertyOp4
 70
     1
102
RTVSPropertyOp5
 70
     1
102
RTVSPropertyOp6
 70
     1
102
RTVSPropertyOp7
 70
     1
102
RTVSPropertyOp8
 70
     1
102
RTVSPropertyOp9
 70
     1
102
RTVSPropertyOp10
 70
     1
102
RTVSPropertyOp11
 70
     1
102
RTVSPropertyOp12
 70
     1
102
RTVSPropertyOp13
 70
     1
102
RTVSPropertyOp14
 70
     1
102
RTVSPropertyOp15
 70
     1
102
RTVSPropertyOp16
 70
     1
102
RTVSPropertyOp17
 70
     1
102
RTVSPropertyOp18
 70
     1
102
RTVSPropertyOp19
 70
     1
102
RTVSPropertyOp20
 70
     1
102
RTVSPropertyOp21
 70
     1
102
RTVSPropertyOp22
 70
     1
102
RTVSPropertyOp23
 70
     1
102
RTVSPropertyOp24
 70
     1
102
RTVSPropertyOp25
 70
     1
102
RTVSPropertyOp26
 70
     1
102
RTVSPropertyOp27
 70
     1
  0
XRECORD
  5
161D
102
{ACAD_REACTORS
330
161C
102
}
330
161C
100
AcDbXrecord
280
     1
102
RTVSPropertyOp0
 70
     0
102
RTVSPropertyOp1
 70
     0
102
RTVSPropertyOp2
 70
     0
102
RTVSPropertyOp3
 70
     0
102
RTVSPropertyOp4
 70
     0
102
RTVSPropertyOp5
 70
     0
102
RTVSPropertyOp6
 70
     0
102
RTVSPropertyOp7
 70
     0
102
RTVSPropertyOp8
 70
     0
102
RTVSPropertyOp9
 70
     0
102
RTVSPropertyOp10
 70
     0
102
RTVSPropertyOp11
 70
     0
102
RTVSPropertyOp12
 70
     0
102
RTVSPropertyOp13
 70
     0
102
RTVSPropertyOp14
 70
     2
102
RTVSPropertyOp15
 70
     0
102
RTVSPropertyOp16
 70
     0
102
RTVSPropertyOp17
 70
     0
102
RTVSPropertyOp18
 70
     0
102
RTVSPropertyOp19
 70
     0
102
RTVSPropertyOp20
 70
     0
102
RTVSPropertyOp21
 70
     0
102
RTVSPropertyOp22
 70
     0
102
RTVSPropertyOp23
 70
     0
102
RTVSPropertyOp24
 70
     0
102
RTVSPropertyOp25
 70
     0
102
RTVSPropertyOp26
 70
     0
102
RTVSPropertyOp27
 70
     0
  0
XRECORD
  5
1615
102
{ACAD_REACTORS
330
1614
102
}
330
1614
100
AcDbXrecord
280
     1
102
RTVSPropertyOp0
 70
     1
102
RTVSPropertyOp1
 70
     1
102
RTVSPropertyOp2
 70
     1
102
RTVSPropertyOp3
 70
     1
102
RTVSPropertyOp4
 70
     1
102
RTVSPropertyOp5
 70
     1
102
RTVSPropertyOp6
 70
     1
102
RTVSPropertyOp7
 70
     1
102
RTVSPropertyOp8
 70
     1
102
RTVSPropertyOp9
 70
     1
102
RTVSPropertyOp10
 70
     1
102
RTVSPropertyOp11
 70
     1
102
RTVSPropertyOp12
 70
     1
102
RTVSPropertyOp13
 70
     1
102
RTVSPropertyOp14
 70
     1
102
RTVSPropertyOp15
 70
     1
102
RTVSPropertyOp16
 70
     1
102
RTVSPropertyOp17
 70
     1
102
RTVSPropertyOp18
 70
     1
102
RTVSPropertyOp19
 70
     1
102
RTVSPropertyOp20
 70
     1
102
RTVSPropertyOp21
 70
     1
102
RTVSPropertyOp22
 70
     1
102
RTVSPropertyOp23
 70
     1
102
RTVSPropertyOp24
 70
     1
102
RTVSPropertyOp25
 70
     1
102
RTVSPropertyOp26
 70
     1
102
RTVSPropertyOp27
 70
     1
  0
XRECORD
  5
15F9
102
{ACAD_REACTORS
330
15F8
102
}
330
15F8
100
AcDbXrecord
280
     1
102
RTVSPropertyOp0
 70
     1
102
RTVSPropertyOp1
 70
     1
102
RTVSPropertyOp2
 70
     1
102
RTVSPropertyOp3
 70
     1
102
RTVSPropertyOp4
 70
     1
102
RTVSPropertyOp5
 70
     1
102
RTVSPropertyOp6
 70
     1
102
RTVSPropertyOp7
 70
     1
102
RTVSPropertyOp8
 70
     1
102
RTVSPropertyOp9
 70
     1
102
RTVSPropertyOp10
 70
     1
102
RTVSPropertyOp11
 70
     1
102
RTVSPropertyOp12
 70
     1
102
RTVSPropertyOp13
 70
     1
102
RTVSPropertyOp14
 70
     1
102
RTVSPropertyOp15
 70
     1
102
RTVSPropertyOp16
 70
     1
102
RTVSPropertyOp17
 70
     1
102
RTVSPropertyOp18
 70
     1
102
RTVSPropertyOp19
 70
     1
102
RTVSPropertyOp20
 70
     1
102
RTVSPropertyOp21
 70
     1
102
RTVSPropertyOp22
 70
     1
102
RTVSPropertyOp23
 70
     1
102
RTVSPropertyOp24
 70
     1
102
RTVSPropertyOp25
 70
     1
102
RTVSPropertyOp26
 70
     1
102
RTVSPropertyOp27
 70
     1
  0
XRECORD
  5
15FB
102
{ACAD_REACTORS
330
15FA
102
}
330
15FA
100
AcDbXrecord
280
     1
102
RTVSPropertyOp0
 70
     1
102
RTVSPropertyOp1
 70
     1
102
RTVSPropertyOp2
 70
     1
102
RTVSPropertyOp3
 70
     1
102
RTVSPropertyOp4
 70
     1
102
RTVSPropertyOp5
 70
     1
102
RTVSPropertyOp6
 70
     1
102
RTVSPropertyOp7
 70
     1
102
RTVSPropertyOp8
 70
     1
102
RTVSPropertyOp9
 70
     1
102
RTVSPropertyOp10
 70
     1
102
RTVSPropertyOp11
 70
     1
102
RTVSPropertyOp12
 70
     1
102
RTVSPropertyOp13
 70
     1
102
RTVSPropertyOp14
 70
     1
102
RTVSPropertyOp15
 70
     1
102
RTVSPropertyOp16
 70
     1
102
RTVSPropertyOp17
 70
     1
102
RTVSPropertyOp18
 70
     1
102
RTVSPropertyOp19
 70
     1
102
RTVSPropertyOp20
 70
     1
102
RTVSPropertyOp21
 70
     1
102
RTVSPropertyOp22
 70
     1
102
RTVSPropertyOp23
 70
     1
102
RTVSPropertyOp24
 70
     1
102
RTVSPropertyOp25
 70
     1
102
RTVSPropertyOp26
 70
     1
102
RTVSPropertyOp27
 70
     1
  0
XRECORD
  5
15FD
102
{ACAD_REACTORS
330
15FC
102
}
330
15FC
100
AcDbXrecord
280
     1
102
RTVSPropertyOp0
 70
     1
102
RTVSPropertyOp1
 70
     1
102
RTVSPropertyOp2
 70
     1
102
RTVSPropertyOp3
 70
     1
102
RTVSPropertyOp4
 70
     1
102
RTVSPropertyOp5
 70
     1
102
RTVSPropertyOp6
 70
     1
102
RTVSPropertyOp7
 70
     1
102
RTVSPropertyOp8
 70
     1
102
RTVSPropertyOp9
 70
     1
102
RTVSPropertyOp10
 70
     1
102
RTVSPropertyOp11
 70
     1
102
RTVSPropertyOp12
 70
     1
102
RTVSPropertyOp13
 70
     1
102
RTVSPropertyOp14
 70
     1
102
RTVSPropertyOp15
 70
     1
102
RTVSPropertyOp16
 70
     1
102
RTVSPropertyOp17
 70
     1
102
RTVSPropertyOp18
 70
     1
102
RTVSPropertyOp19
 70
     1
102
RTVSPropertyOp20
 70
     1
102
RTVSPropertyOp21
 70
     1
102
RTVSPropertyOp22
 70
     1
102
RTVSPropertyOp23
 70
     1
102
RTVSPropertyOp24
 70
     1
102
RTVSPropertyOp25
 70
     1
102
RTVSPropertyOp26
 70
     1
102
RTVSPropertyOp27
 70
     1
  0
XRECORD
  5
15FF
102
{ACAD_REACTORS
330
15FE
102
}
330
15FE
100
AcDbXrecord
280
     1
102
RTVSPropertyOp0
 70
     1
102
RTVSPropertyOp1
 70
     1
102
RTVSPropertyOp2
 70
     1
102
RTVSPropertyOp3
 70
     1
102
RTVSPropertyOp4
 70
     1
102
RTVSPropertyOp5
 70
     1
102
RTVSPropertyOp6
 70
     1
102
RTVSPropertyOp7
 70
     1
102
RTVSPropertyOp8
 70
     1
102
RTVSPropertyOp9
 70
     1
102
RTVSPropertyOp10
 70
     1
102
RTVSPropertyOp11
 70
     1
102
RTVSPropertyOp12
 70
     1
102
RTVSPropertyOp13
 70
     1
102
RTVSPropertyOp14
 70
     1
102
RTVSPropertyOp15
 70
     1
102
RTVSPropertyOp16
 70
     1
102
RTVSPropertyOp17
 70
     1
102
RTVSPropertyOp18
 70
     1
102
RTVSPropertyOp19
 70
     1
102
RTVSPropertyOp20
 70
     1
102
RTVSPropertyOp21
 70
     1
102
RTVSPropertyOp22
 70
     1
102
RTVSPropertyOp23
 70
     1
102
RTVSPropertyOp24
 70
     1
102
RTVSPropertyOp25
 70
     1
102
RTVSPropertyOp26
 70
     1
102
RTVSPropertyOp27
 70
     1
  0
XRECORD
  5
1619
102
{ACAD_REACTORS
330
1618
102
}
330
1618
100
AcDbXrecord
280
     1
102
RTVSPropertyOp0
 70
     0
102
RTVSPropertyOp1
 70
     0
102
RTVSPropertyOp2
 70
     0
102
RTVSPropertyOp3
 70
     0
102
RTVSPropertyOp4
 70
     0
102
RTVSPropertyOp5
 70
     0
102
RTVSPropertyOp6
 70
     0
102
RTVSPropertyOp7
 70
     0
102
RTVSPropertyOp8
 70
     0
102
RTVSPropertyOp9
 70
     0
102
RTVSPropertyOp10
 70
     0
102
RTVSPropertyOp11
 70
     0
102
RTVSPropertyOp12
 70
     0
102
RTVSPropertyOp13
 70
     0
102
RTVSPropertyOp14
 70
     2
102
RTVSPropertyOp15
 70
     0
102
RTVSPropertyOp16
 70
     0
102
RTVSPropertyOp17
 70
     0
102
RTVSPropertyOp18
 70
     0
102
RTVSPropertyOp19
 70
     0
102
RTVSPropertyOp20
 70
     0
102
RTVSPropertyOp21
 70
     0
102
RTVSPropertyOp22
 70
     0
102
RTVSPropertyOp23
 70
     0
102
RTVSPropertyOp24
 70
     0
102
RTVSPropertyOp25
 70
     0
102
RTVSPropertyOp26
 70
     0
102
RTVSPropertyOp27
 70
     0
  0
XRECORD
  5
1613
102
{ACAD_REACTORS
330
1612
102
}
330
1612
100
AcDbXrecord
280
     1
102
RTVSPropertyOp0
 70
     1
102
RTVSPropertyOp1
 70
     1
102
RTVSPropertyOp2
 70
     1
102
RTVSPropertyOp3
 70
     1
102
RTVSPropertyOp4
 70
     1
102
RTVSPropertyOp5
 70
     1
102
RTVSPropertyOp6
 70
     1
102
RTVSPropertyOp7
 70
     1
102
RTVSPropertyOp8
 70
     1
102
RTVSPropertyOp9
 70
     1
102
RTVSPropertyOp10
 70
     1
102
RTVSPropertyOp11
 70
     1
102
RTVSPropertyOp12
 70
     1
102
RTVSPropertyOp13
 70
     1
102
RTVSPropertyOp14
 70
     1
102
RTVSPropertyOp15
 70
     1
102
RTVSPropertyOp16
 70
     1
102
RTVSPropertyOp17
 70
     1
102
RTVSPropertyOp18
 70
     1
102
RTVSPropertyOp19
 70
     1
102
RTVSPropertyOp20
 70
     1
102
RTVSPropertyOp21
 70
     1
102
RTVSPropertyOp22
 70
     1
102
RTVSPropertyOp23
 70
     1
102
RTVSPropertyOp24
 70
     1
102
RTVSPropertyOp25
 70
     1
102
RTVSPropertyOp26
 70
     1
102
RTVSPropertyOp27
 70
     1
  0
XRECORD
  5
161B
102
{ACAD_REACTORS
330
161A
102
}
330
161A
100
AcDbXrecord
280
     1
102
RTVSPropertyOp0
 70
     0
102
RTVSPropertyOp1
 70
     0
102
RTVSPropertyOp2
 70
     0
102
RTVSPropertyOp3
 70
     0
102
RTVSPropertyOp4
 70
     0
102
RTVSPropertyOp5
 70
     0
102
RTVSPropertyOp6
 70
     0
102
RTVSPropertyOp7
 70
     0
102
RTVSPropertyOp8
 70
     0
102
RTVSPropertyOp9
 70
     0
102
RTVSPropertyOp10
 70
     0
102
RTVSPropertyOp11
 70
     0
102
RTVSPropertyOp12
 70
     0
102
RTVSPropertyOp13
 70
     0
102
RTVSPropertyOp14
 70
     2
102
RTVSPropertyOp15
 70
     0
102
RTVSPropertyOp16
 70
     0
102
RTVSPropertyOp17
 70
     0
102
RTVSPropertyOp18
 70
     0
102
RTVSPropertyOp19
 70
     0
102
RTVSPropertyOp20
 70
     0
102
RTVSPropertyOp21
 70
     0
102
RTVSPropertyOp22
 70
     0
102
RTVSPropertyOp23
 70
     0
102
RTVSPropertyOp24
 70
     0
102
RTVSPropertyOp25
 70
     0
102
RTVSPropertyOp26
 70
     0
102
RTVSPropertyOp27
 70
     0
  0
XRECORD
  5
160B
102
{ACAD_REACTORS
330
160A
102
}
330
160A
100
AcDbXrecord
280
     1
102
RTVSPropertyOp0
 70
     1
102
RTVSPropertyOp1
 70
     1
102
RTVSPropertyOp2
 70
     1
102
RTVSPropertyOp3
 70
     1
102
RTVSPropertyOp4
 70
     1
102
RTVSPropertyOp5
 70
     1
102
RTVSPropertyOp6
 70
     1
102
RTVSPropertyOp7
 70
     1
102
RTVSPropertyOp8
 70
     1
102
RTVSPropertyOp9
 70
     1
102
RTVSPropertyOp10
 70
     1
102
RTVSPropertyOp11
 70
     1
102
RTVSPropertyOp12
 70
     1
102
RTVSPropertyOp13
 70
     1
102
RTVSPropertyOp14
 70
     1
102
RTVSPropertyOp15
 70
     1
102
RTVSPropertyOp16
 70
     1
102
RTVSPropertyOp17
 70
     1
102
RTVSPropertyOp18
 70
     1
102
RTVSPropertyOp19
 70
     1
102
RTVSPropertyOp20
 70
     1
102
RTVSPropertyOp21
 70
     1
102
RTVSPropertyOp22
 70
     1
102
RTVSPropertyOp23
 70
     1
102
RTVSPropertyOp24
 70
     1
102
RTVSPropertyOp25
 70
     1
102
RTVSPropertyOp26
 70
     1
102
RTVSPropertyOp27
 70
     1
  0
XRECORD
  5
1611
102
{ACAD_REACTORS
330
1610
102
}
330
1610
100
AcDbXrecord
280
     1
102
RTVSPropertyOp0
 70
     1
102
RTVSPropertyOp1
 70
     1
102
RTVSPropertyOp2
 70
     1
102
RTVSPropertyOp3
 70
     1
102
RTVSPropertyOp4
 70
     1
102
RTVSPropertyOp5
 70
     1
102
RTVSPropertyOp6
 70
     1
102
RTVSPropertyOp7
 70
     1
102
RTVSPropertyOp8
 70
     1
102
RTVSPropertyOp9
 70
     1
102
RTVSPropertyOp10
 70
     1
102
RTVSPropertyOp11
 70
     1
102
RTVSPropertyOp12
 70
     1
102
RTVSPropertyOp13
 70
     1
102
RTVSPropertyOp14
 70
     1
102
RTVSPropertyOp15
 70
     1
102
RTVSPropertyOp16
 70
     1
102
RTVSPropertyOp17
 70
     1
102
RTVSPropertyOp18
 70
     1
102
RTVSPropertyOp19
 70
     1
102
RTVSPropertyOp20
 70
     1
102
RTVSPropertyOp21
 70
     1
102
RTVSPropertyOp22
 70
     1
102
RTVSPropertyOp23
 70
     1
102
RTVSPropertyOp24
 70
     1
102
RTVSPropertyOp25
 70
     1
102
RTVSPropertyOp26
 70
     1
102
RTVSPropertyOp27
 70
     1
  0
ENDSEC
  0
EOF
