  0
SECTION
  2
HEADER
  9
$ACADVER
  1
AC1014
  9
$DWGCODEPAGE
  3
ANSI_1252
  9
$EXTMAX
 10
22.0
 20
17.0
 30
0.0
  9
$EXTMIN
 10
0.0
 20
0.0
 30
0.0
  9
$LIMMIN
 10
0.0
 20
0.0
  9
$LIMMAX
 10
22.0
 20
17.0
  9
$VIEWCTR
 10
11.0
 20
8.5
  9
$VIEWSIZE
 40
17.0
  9
$CLAYER
  8
0
  9
$LTSCALE
 40
1.21
  9
$CELTYPE
  6
BYLAYER
  9
$DIMSCALE
 40
1.0
  9
$DIMASZ
 40
0.1875
  9
$DIMEXO
 40
0.1375
  9
$DIMDLI
 40
0.836
  9
$DIMEXE
 40
0.396
  9
$DIMCEN
 40
0.198
  9
$DIMLFAC
 40
1.0
  9
$DIMBLK
  1
_ARROW_FILLED
  9
$DIMTXT
 40
0.125
  9
$DIMTOL
 70
1
  9
$DIMLIM
 70
0
  9
$DIMTFAC
 40
1.0
  9
$DIMTP
 40
0.00001
  9
$DIMTM
 40
0.00001
  9
$PDMODE
 70
3
  9
$PDSIZE
 40
0.03125
  9
$HANDSEED
  5
58F
  9
$TILEMODE
 70
1
  9
$MEASUREMENT
 70
0
  0
ENDSEC
  0
SECTION
  2
CLASSES
  0
ENDSEC
  0
SECTION
  2
TABLES
  0
TABLE
  2
VPORT
  5
8
100
AcDbSymbolTable
 70
2
  0
VPORT
  5
1F4
100
AcDbSymbolTableRecord
100
AcDbViewportTableRecord
  2
*ACTIVE
 70
0
 10
0.0
 20
0.0
 11
1.0
 21
1.0
 12
11.0
 22
8.5
 13
0.0
 23
0.0
 14
1.0
 24
1.0
 15
0.0
 25
0.0
 16
0.0
 26
0.0
 36
1.0
 17
0.0
 27
0.0
 37
0.0
 40
17.0
 41
1.2941176471
 42
50.0
 43
0.0
 44
0.0
 50
0.0
 51
0.0
 71
0
 72
100
 73
1
 74
1
 75
0
 76
0
 77
0
 78
0
  0
ENDTAB
  0
TABLE
  2
LTYPE
  5
5
100
AcDbSymbolTable
 70
6
  0
LTYPE
  5
14
100
AcDbSymbolTableRecord
100
AcDbLinetypeTableRecord
  2
BYBLOCK
 70
0
  3

 72
65
 73
0
 40
0.0
  0
LTYPE
  5
15
100
AcDbSymbolTableRecord
100
AcDbLinetypeTableRecord
  2
BYLAYER
 70
0
  3

 72
65
 73
0
 40
0.0
  0
LTYPE
  5
16
100
AcDbSymbolTableRecord
100
AcDbLinetypeTableRecord
  2
CONTINUOUS
 70
64
  3
Solid line
 72
65
 73
0
 40
0.0
  0
LTYPE
  5
1F5
100
AcDbSymbolTableRecord
100
AcDbLinetypeTableRecord
  2
CENTER
 70
64
  3
____ _ ____ _ ____ _ ____ _ ____ _ ____ _ ____
 72
65
 73
4
 40
0.6
 49
0.375
 74
0
 49
-0.075
 74
0
 49
0.075
 74
0
 49
-0.075
 74
0
  0
LTYPE
  5
1F6
100
AcDbSymbolTableRecord
100
AcDbLinetypeTableRecord
  2
HIDDEN
 70
64
  3
- - - - - - - - - - - - - - - - - - - -
 72
65
 73
2
 40
0.2
 49
0.1
 74
0
 49
-0.1
 74
0
  0
LTYPE
  5
1F7
100
AcDbSymbolTableRecord
100
AcDbLinetypeTableRecord
  2
PHANTOM
 70
64
  3
_____ _ _ _____ _ _ _____ _ _ _____
 72
65
 73
6
 40
0.8
 49
0.45
 74
0
 49
-0.05
 74
0
 49
0.1
 74
0
 49
-0.05
 74
0
 49
0.1
 74
0
 49
-0.05
 74
0
  0
LTYPE
  5
1F8
100
AcDbSymbolTableRecord
100
AcDbLinetypeTableRecord
  2
DOT
 70
64
  3
. . . . . . . . . . . . . . . . . . . .
 72
65
 73
2
 40
0.2
 49
0.1
 74
0
 49
-0.1
 74
0
  0
LTYPE
  5
1F9
100
AcDbSymbolTableRecord
100
AcDbLinetypeTableRecord
  2
DASHED
 70
64
  3
- - - - - - - - - - - - - - - - - - - -
 72
65
 73
2
 40
0.2
 49
0.1
 74
0
 49
-0.1
 74
0
  0
ENDTAB
  0
TABLE
  2
LAYER
  5
2
100
AcDbSymbolTable
 70
36
  0
LAYER
  5
10
100
AcDbSymbolTableRecord
100
AcDbLayerTableRecord
  2
0
 70
0
 62
7
  6
CONTINUOUS
  0
LAYER
  5
1FA
100
AcDbSymbolTableRecord
100
AcDbLayerTableRecord
  2
DEFAULT_1
 70
0
 62
7
  6
CENTER
  0
LAYER
  5
1FB
100
AcDbSymbolTableRecord
100
AcDbLayerTableRecord
  2
DEFAULT_2
 70
0
 62
8
  6
HIDDEN
  0
LAYER
  5
1FC
100
AcDbSymbolTableRecord
100
AcDbLayerTableRecord
  2
DEFAULT_3
 70
0
 62
7
  6
PHANTOM
  0
LAYER
  5
1FD
100
AcDbSymbolTableRecord
100
AcDbLayerTableRecord
  2
1_CURVES
 70
0
 62
7
  6
CONTINUOUS
  0
LAYER
  5
1FE
100
AcDbSymbolTableRecord
100
AcDbLayerTableRecord
  2
1_CURVES_CONDUIT
 70
0
 62
7
  6
CONTINUOUS
  0
LAYER
  5
1FF
100
AcDbSymbolTableRecord
100
AcDbLayerTableRecord
  2
1_CURVES_DRW
 70
0
 62
7
  6
CONTINUOUS
  0
LAYER
  5
200
100
AcDbSymbolTableRecord
100
AcDbLayerTableRecord
  2
1_CURVES_JETS
 70
0
 62
7
  6
CONTINUOUS
  0
LAYER
  5
201
100
AcDbSymbolTableRecord
100
AcDbLayerTableRecord
  2
1_CURVES_PATINS
 70
0
 62
7
  6
CONTINUOUS
  0
LAYER
  5
202
100
AcDbSymbolTableRecord
100
AcDbLayerTableRecord
  2
1_CURVES_RESURFACAGE
 70
0
 62
7
  6
CONTINUOUS
  0
LAYER
  5
203
100
AcDbSymbolTableRecord
100
AcDbLayerTableRecord
  2
1_CURVES_SPEC
 70
0
 62
7
  6
CONTINUOUS
  0
LAYER
  5
204
100
AcDbSymbolTableRecord
100
AcDbLayerTableRecord
  2
2_PLANES
 70
0
 62
7
  6
CONTINUOUS
  0
LAYER
  5
205
100
AcDbSymbolTableRecord
100
AcDbLayerTableRecord
  2
2_PLANES_JETS
 70
0
 62
7
  6
CONTINUOUS
  0
LAYER
  5
206
100
AcDbSymbolTableRecord
100
AcDbLayerTableRecord
  2
3_POINTS
 70
0
 62
7
  6
CONTINUOUS
  0
LAYER
  5
207
100
AcDbSymbolTableRecord
100
AcDbLayerTableRecord
  2
3_POINTS_JETS
 70
0
 62
7
  6
CONTINUOUS
  0
LAYER
  5
208
100
AcDbSymbolTableRecord
100
AcDbLayerTableRecord
  2
4_CSYS
 70
0
 62
7
  6
CONTINUOUS
  0
LAYER
  5
209
100
AcDbSymbolTableRecord
100
AcDbLayerTableRecord
  2
5_AXIS
 70
0
 62
7
  6
CONTINUOUS
  0
LAYER
  5
20A
100
AcDbSymbolTableRecord
100
AcDbLayerTableRecord
  2
5_AXIS_JETS
 70
0
 62
7
  6
CONTINUOUS
  0
LAYER
  5
20B
100
AcDbSymbolTableRecord
100
AcDbLayerTableRecord
  2
6_AIRE_CONDUIT
 70
0
 62
7
  6
CONTINUOUS
  0
LAYER
  5
20C
100
AcDbSymbolTableRecord
100
AcDbLayerTableRecord
  2
6_SURFACE-OFFSET-FIBRE-ACRYLIQU
 70
0
 62
7
  6
CONTINUOUS
  0
LAYER
  5
20D
100
AcDbSymbolTableRecord
100
AcDbLayerTableRecord
  2
6_SURFACES
 70
0
 62
7
  6
CONTINUOUS
  0
LAYER
  5
20E
100
AcDbSymbolTableRecord
100
AcDbLayerTableRecord
  2
6_SURFACES-PATINS-SPEC
 70
0
 62
7
  6
CONTINUOUS
  0
LAYER
  5
20F
100
AcDbSymbolTableRecord
100
AcDbLayerTableRecord
  2
6_SURFACES_AIRE
 70
0
 62
7
  6
CONTINUOUS
  0
LAYER
  5
210
100
AcDbSymbolTableRecord
100
AcDbLayerTableRecord
  2
6_SURFACES_OFFSET_FIBRE
 70
0
 62
7
  6
CONTINUOUS
  0
LAYER
  5
211
100
AcDbSymbolTableRecord
100
AcDbLayerTableRecord
  2
6_SURFACES_OFFSET_FIBRE_ACRYLIQ
 70
0
 62
7
  6
CONTINUOUS
  0
LAYER
  5
212
100
AcDbSymbolTableRecord
100
AcDbLayerTableRecord
  2
6_SURFACES_POUR_CONDUIT
 70
0
 62
7
  6
CONTINUOUS
  0
LAYER
  5
213
100
AcDbSymbolTableRecord
100
AcDbLayerTableRecord
  2
6_SURFACES_POUR_HFL
 70
0
 62
7
  6
CONTINUOUS
  0
LAYER
  5
214
100
AcDbSymbolTableRecord
100
AcDbLayerTableRecord
  2
6_SURFACES_TOOLING
 70
0
 62
7
  6
CONTINUOUS
  0
LAYER
  5
215
100
AcDbSymbolTableRecord
100
AcDbLayerTableRecord
  2
7_NOTES
 70
0
 62
7
  6
CONTINUOUS
  0
LAYER
  5
216
100
AcDbSymbolTableRecord
100
AcDbLayerTableRecord
  2
8_COSMETIC
 70
0
 62
7
  6
CONTINUOUS
  0
LAYER
  5
217
100
AcDbSymbolTableRecord
100
AcDbLayerTableRecord
  2
8_TOL_GEOM
 70
0
 62
7
  6
CONTINUOUS
  0
LAYER
  5
218
100
AcDbSymbolTableRecord
100
AcDbLayerTableRecord
  2
9_IMPORT
 70
0
 62
7
  6
CONTINUOUS
  0
LAYER
  5
219
100
AcDbSymbolTableRecord
100
AcDbLayerTableRecord
  2
DEGAGEMENT_SERIGRAPHIE
 70
0
 62
7
  6
CONTINUOUS
  0
LAYER
  5
21A
100
AcDbSymbolTableRecord
100
AcDbLayerTableRecord
  2
NONE
 70
0
 62
7
  6
CONTINUOUS
  0
LAYER
  5
21B
100
AcDbSymbolTableRecord
100
AcDbLayerTableRecord
  2
XSEC_DATUMS
 70
0
 62
7
  6
CONTINUOUS
  0
ENDTAB
  0
TABLE
  2
STYLE
  5
3
100
AcDbSymbolTable
 70
1
  0
STYLE
  5
11
100
AcDbSymbolTableRecord
100
AcDbTextStyleTableRecord
  2
STANDARD
 70
0
 40
0.0
 41
0.8
 50
0.0
 71
0
 42
0.2
  3
txt
  4

  0
STYLE
  5
21C
100
AcDbSymbolTableRecord
100
AcDbTextStyleTableRecord
  2
TEXTSTYLE_1
 70
0
 40
0.0
 41
0.8
 50
0.0
 71
0
 42
0.2
  3
gdt
  4

  0
ENDTAB
  0
TABLE
  2
VIEW
  5
6
100
AcDbSymbolTable
 70
0
  0
ENDTAB
  0
TABLE
  2
UCS
  5
7
100
AcDbSymbolTable
 70
0
  0
ENDTAB
  0
TABLE
  2
APPID
  5
9
100
AcDbSymbolTable
 70
1
  0
APPID
  5
21D
100
AcDbSymbolTableRecord
100
AcDbRegAppTableRecord
  2
ACAD
 70
0
  0
ENDTAB
  0
TABLE
  2
BLOCK_RECORD
  5
1
100
AcDbSymbolTable
 70
0
  0
BLOCK_RECORD
  5
1F
100
AcDbSymbolTableRecord
100
AcDbBlockTableRecord
  2
*MODEL_SPACE
  0
BLOCK_RECORD
  5
1B
100
AcDbSymbolTableRecord
100
AcDbBlockTableRecord
  2
*PAPER_SPACE
  0
ENDTAB
  0
TABLE
  2
DIMSTYLE
  5
A
100
AcDbSymbolTable
 70
1
  0
DIMSTYLE
105
21E
100
AcDbSymbolTableRecord
100
AcDbDimStyleTableRecord
  2
STANDARD
 70
0
  3

  4

  5
_ARROW_FILLED
  6
_ARROW_FILLED
  7
_ARROW_FILLED
 40
1.0
 41
0.1875
 42
0.0625
 43
0.38
 44
0.18
 45
0.0
 46
0.0
 47
0.00001
 48
0.00001
140
0.125
141
0.09
142
0.0
143
25.4
144
1.0
145
0.0
146
1.0
147
0.09
 71
1.0
 72
0.0
 73
1
 74
1
 75
0
 76
0
 77
0
 78
4
170
0
171
2
172
0
173
0
174
0
175
0
176
0
177
0
178
0
270
2
271
5
272
5
273
2
274
2
275
0
280
0
281
0
282
0
283
1
284
4
285
0
286
0
287
3
288
0
340
11
  0
ENDTAB
  0
ENDSEC
  0
SECTION
  2
BLOCKS
  0
BLOCK
  5
20
100
AcDbEntity
  8
0
100
AcDbBlockBegin
  2
*MODEL_SPACE
 70
0
 10
0.0
 20
0.0
 30
0.0
  3
*MODEL_SPACE
  1

  0
ENDBLK
  5
21
100
AcDbEntity
  8
0
100
AcDbBlockEnd
  0
BLOCK
  5
1C
100
AcDbEntity
  8
0
100
AcDbBlockBegin
  2
*PAPER_SPACE
 70
0
 10
0.0
 20
0.0
 30
0.0
  3
*PAPER_SPACE
  1

  0
ENDBLK
  5
1D
100
AcDbEntity
  8
0
100
AcDbBlockEnd
  0
ENDSEC
  0
SECTION
  2
ENTITIES
  0
LINE
  5
21F
100
AcDbEntity
  8
1_CURVES_JETS
100
AcDbLine
 62
7
  6
CONTINUOUS
 10
119.2338174526
 20
13.7185426857
 11
119.3401460764
 21
13.7453269863
  0
LWPOLYLINE
  5
220
100
AcDbEntity
  8
6_SURFACES-PATINS-SPEC
100
AcDbPolyline
 62
7
  6
CONTINUOUS
 90
42
 70
0
 10
114.103018063
 20
13.3579530724
 10
114.1027950876
 20
13.3578969918
 10
114.1025724326
 20
13.3578395035
 10
114.1023500667
 20
13.3577803072
 10
114.1021279587
 20
13.3577191024
 10
114.1019060772
 20
13.3576555889
 10
114.1016843909
 20
13.3575894662
 10
114.1015031671
 20
13.3575332424
 10
114.1013224039
 20
13.3574751227
 10
114.1011424522
 20
13.3574151594
 10
114.1009636629
 20
13.357353405
 10
114.1007863867
 20
13.3572899117
 10
114.1006109745
 20
13.357224732
 10
114.1004377772
 20
13.3571579182
 10
114.1003798618
 20
13.3571349639
 10
114.1003222432
 20
13.3571116115
 10
114.1002649256
 20
13.3570876436
 10
114.1002079133
 20
13.3570628423
 10
114.1001512105
 20
13.3570369901
 10
114.1000948215
 20
13.3570098692
 10
114.1000387505
 20
13.3569812621
 10
114.0999830019
 20
13.3569509509
 10
114.09992758
 20
13.3569187181
 10
114.0998724888
 20
13.3568843461
 10
114.0998177329
 20
13.356847617
 10
114.0997633163
 20
13.3568083133
 10
114.0997092434
 20
13.3567662174
 10
114.0996855985
 20
13.3567467586
 10
114.0996622362
 20
13.3567267167
 10
114.0996393722
 20
13.3567060913
 10
114.0996172217
 20
13.3566848821
 10
114.0995960001
 20
13.3566630885
 10
114.0995759229
 20
13.3566407103
 10
114.0995572055
 20
13.356617747
 10
114.0995400632
 20
13.3565941982
 10
114.0995247114
 20
13.3565700635
 10
114.0995113656
 20
13.3565453425
 10
114.0995002412
 20
13.3565200348
 10
114.0994915535
 20
13.35649414
 10
114.0994855179
 20
13.3564676577
 10
114.0994823499
 20
13.3564405875
 10
114.0994822648
 20
13.3564129289
  0
LINE
  5
221
100
AcDbEntity
  8
6_SURFACES-PATINS-SPEC
100
AcDbLine
 62
7
  6
CONTINUOUS
 10
114.1034650999
 20
13.3580622119
 11
114.103018063
 21
13.3579530724
  0
LINE
  5
222
100
AcDbEntity
  8
1_CURVES_JETS
100
AcDbLine
 62
7
  6
CONTINUOUS
 10
111.4422128315
 20
13.3161713489
 11
111.4481836118
 21
13.3175428546
  0
LINE
  5
223
100
AcDbEntity
  8
6_SURFACES-PATINS-SPEC
100
AcDbLine
 62
7
  6
CONTINUOUS
 10
114.5701880748
 20
12.1047628122
 11
114.6507814878
 21
12.1228171846
  0
LINE
  5
224
100
AcDbEntity
  8
6_SURFACES-PATINS-SPEC
100
AcDbLine
 62
7
  6
CONTINUOUS
 10
105.8840116166
 20
12.1047628071
 11
105.9646050252
 21
12.1228171757
  0
LINE
  5
225
100
AcDbEntity
  8
1_CURVES_JETS
100
AcDbLine
 62
7
  6
CONTINUOUS
 10
119.1316088694
 20
13.6974242081
 11
119.2338174526
 21
13.7185426857
  0
LINE
  5
226
100
AcDbEntity
  8
6_SURFACES-PATINS-SPEC
100
AcDbLine
 62
7
  6
CONTINUOUS
 10
104.7623488711
 20
13.3059677236
 11
104.8020330702
 21
13.3139028336
  0
LINE
  5
227
100
AcDbEntity
  8
6_SURFACES-PATINS-SPEC
100
AcDbLine
 62
7
  6
CONTINUOUS
 10
116.814443236
 20
13.4353524641
 11
116.854822178
 21
13.4427611607
  0
LINE
  5
228
100
AcDbEntity
  8
1_CURVES_JETS
100
AcDbLine
 62
7
  6
CONTINUOUS
 10
111.4481836118
 20
13.3175428546
 11
111.4530385801
 21
13.3184321609
  0
LINE
  5
229
100
AcDbEntity
  8
1_CURVES_JETS
100
AcDbLine
 62
7
  6
CONTINUOUS
 10
119.0342994167
 20
13.6814048694
 11
119.1316088694
 21
13.6974242081
  0
LINE
  5
22A
100
AcDbEntity
  8
6_SURFACES-PATINS-SPEC
100
AcDbLine
 62
7
  6
CONTINUOUS
 10
114.4883383946
 20
12.0938612227
 11
114.5701880748
 21
12.1047628122
  0
LINE
  5
22B
100
AcDbEntity
  8
1_CURVES_JETS
100
AcDbLine
 62
7
  6
CONTINUOUS
 10
111.4530385801
 20
13.3184321609
 11
111.4567746242
 21
13.3189806305
  0
LINE
  5
22C
100
AcDbEntity
  8
6_SURFACES-PATINS-SPEC
100
AcDbLine
 62
7
  6
CONTINUOUS
 10
105.8021619469
 20
12.0938612211
 11
105.8840116166
 21
12.1047628071
  0
LINE
  5
22D
100
AcDbEntity
  8
1_CURVES_JETS
100
AcDbLine
 62
7
  6
CONTINUOUS
 10
118.9421995596
 20
13.669821997
 11
119.0342994167
 21
13.6814048694
  0
LINE
  5
22E
100
AcDbEntity
  8
1_CURVES_JETS
100
AcDbLine
 62
7
  6
CONTINUOUS
 10
111.4567746242
 20
13.3189806305
 11
111.4595545467
 21
13.3193120971
  0
LWPOLYLINE
  5
22F
100
AcDbEntity
  8
6_SURFACES-PATINS-SPEC
100
AcDbPolyline
 62
7
  6
CONTINUOUS
 90
21
 70
0
 10
102.0949737337
 20
13.4805564775
 10
102.1008309079
 20
13.4812722
 10
102.1067111931
 20
13.4817898883
 10
102.1233189438
 20
13.4827822482
 10
102.1447113734
 20
13.48352728
 10
102.1708870491
 20
13.4840189962
 10
102.2013941142
 20
13.4842509838
 10
102.2352262473
 20
13.4842268941
 10
102.3082337445
 20
13.4835354942
 10
102.3842273043
 20
13.4822038787
 10
102.4621798918
 20
13.4803879898
 10
102.5421653894
 20
13.4781593311
 10
102.6245125993
 20
13.4755496894
 10
102.712185049
 20
13.4724749023
 10
102.7998476745
 20
13.4691295256
 10
102.8987389342
 20
13.4650647865
 10
102.9976180395
 20
13.4607148125
 10
103.1148202749
 20
13.4552140451
 10
103.232005536
 20
13.4493610908
 10
103.3716466615
 20
13.4419493019
 10
103.5112622552
 20
13.4340738652
  0
LINE
  5
230
100
AcDbEntity
  8
0
100
AcDbLine
 62
7
  6
CONTINUOUS
 10
123.8085323455
 20
34.9226030359
 11
123.8031783088
 21
34.9211144738
  0
LINE
  5
231
100
AcDbEntity
  8
0
100
AcDbLine
 62
7
  6
CONTINUOUS
 10
123.5790926076
 20
33.5926595312
 11
123.558118311
 21
33.5869992799
  0
LINE
  5
232
100
AcDbEntity
  8
1_CURVES_JETS
100
AcDbLine
 62
7
  6
CONTINUOUS
 10
111.4595545467
 20
13.3193120971
 11
111.4615865496
 21
13.3195124038
  0
LINE
  5
233
100
AcDbEntity
  8
1_CURVES_JETS
100
AcDbLine
 62
7
  6
CONTINUOUS
 10
118.8552244043
 20
13.662010841
 11
118.9421995596
 21
13.669821997
  0
LINE
  5
234
100
AcDbEntity
  8
6_SURFACES-PATINS-SPEC
100
AcDbLine
 62
7
  6
CONTINUOUS
 10
116.854822178
 20
13.4427611607
 11
116.8849699654
 21
13.4453705452
  0
LINE
  5
235
100
AcDbEntity
  8
0
100
AcDbLine
 62
7
  6
CONTINUOUS
 10
123.8138654646
 20
34.9240247945
 11
123.8084142728
 21
34.9225732286
  0
LWPOLYLINE
  5
236
100
AcDbEntity
  8
DEFAULT_2
100
AcDbPolyline
 62
8
  6
CONTINUOUS
 90
15
 70
0
 10
102.6809686236
 20
15.4862556704
 10
102.4867477581
 20
15.4645303908
 10
102.292629594
 20
15.4419027746
 10
102.1141759194
 20
15.4201926725
 10
101.9358443663
 20
15.3975027287
 10
101.7731607488
 20
15.3758166039
 10
101.6106234607
 20
15.3530594142
 10
101.4636901595
 20
15.331405824
 10
101.3169362443
 20
15.3085709937
 10
101.2294497788
 20
15.2942999305
 10
101.1420549873
 20
15.2794773129
 10
101.0547663686
 20
15.2640370207
 10
100.9777607128
 20
15.2498244539
 10
100.9008725088
 20
15.234993939
 10
100.8241250442
 20
15.2194611169
  0
LINE
  5
237
100
AcDbEntity
  8
6_SURFACES-PATINS-SPEC
100
AcDbLine
 62
7
  6
CONTINUOUS
 10
104.8020330702
 20
13.3139028336
 11
104.8423412837
 21
13.317515281
  0
LINE
  5
238
100
AcDbEntity
  8
1_CURVES_JETS
100
AcDbLine
 62
7
  6
CONTINUOUS
 10
111.4615865496
 20
13.3195124038
 11
111.463063987
 21
13.3196350441
  0
LINE
  5
239
100
AcDbEntity
  8
0
100
AcDbLine
 62
7
  6
CONTINUOUS
 10
123.8186900706
 20
34.9252590711
 11
123.8135856005
 21
34.9239540352
  0
LINE
  5
23A
100
AcDbEntity
  8
0
100
AcDbLine
 62
7
  6
CONTINUOUS
 10
123.558118311
 20
33.5869992799
 11
123.5322014417
 21
33.5806167186
  0
LINE
  5
23B
100
AcDbEntity
  8
1_CURVES_JETS
100
AcDbLine
 62
7
  6
CONTINUOUS
 10
111.463063987
 20
13.3196350441
 11
111.4641319198
 21
13.3197109413
  0
LINE
  5
23C
100
AcDbEntity
  8
0
100
AcDbLine
 62
7
  6
CONTINUOUS
 10
123.8209344611
 20
34.9258126489
 11
123.817406218
 21
34.9249340141
  0
LWPOLYLINE
  5
23D
100
AcDbEntity
  8
DEFAULT_2
100
AcDbPolyline
 62
8
  6
CONTINUOUS
 90
18
 70
0
 10
102.6809618698
 20
15.4862550953
 10
102.688867831
 20
15.4870132177
 10
102.6986906506
 20
15.4877644934
 10
102.7239739552
 20
15.4892407992
 10
102.7565859637
 20
15.4906726013
 10
102.7963008565
 20
15.4920484882
 10
102.8428566494
 20
15.4933574098
 10
102.8958466988
 20
15.49458976
 10
102.9576007285
 20
15.4957873574
 10
103.0193583348
 20
15.4967877656
 10
103.0889713153
 20
15.4977353624
 10
103.16310938
 20
15.4985719954
 10
103.2411854976
 20
15.4992912451
 10
103.3225875047
 20
15.4998876437
 10
103.4928303624
 20
15.5006937727
 10
103.5803418582
 20
15.5008972402
 10
103.6243982459
 20
15.5009482619
 10
103.6685406493
 20
15.5009652986
  0
LWPOLYLINE
  5
23E
100
AcDbEntity
  8
DEFAULT_2
100
AcDbPolyline
 62
8
  6
CONTINUOUS
 90
31
 70
0
 10
118.2550774539
 20
13.8237464801
 10
118.3064020323
 20
13.8272166115
 10
118.3576015527
 20
13.8317744305
 10
118.4086929795
 20
13.8374220186
 10
118.4596819655
 20
13.8441601025
 10
118.510528918
 20
13.8519839896
 10
118.5611829331
 20
13.8608876322
 10
118.6115946206
 20
13.8708636519
 10
118.6617206458
 20
13.8818993471
 10
118.7115191879
 20
13.8939806851
 10
118.7609563185
 20
13.9070956974
 10
118.8100296793
 20
13.9212406707
 10
118.8587448043
 20
13.936413956
 10
118.9071035402
 20
13.9526133976
 10
118.9550929844
 20
13.9698348131
 10
119.0026965468
 20
13.9880735139
 10
119.0498948495
 20
14.0073232758
 10
119.0966573626
 20
14.0275717331
 10
119.1429507684
 20
14.048804985
 10
119.188740814
 20
14.0710073973
 10
119.2339895066
 20
14.0941564028
 10
119.2786579184
 20
14.1182277011
 10
119.3227133322
 20
14.1432001827
 10
119.3661478743
 20
14.1690655019
 10
119.408959882
 20
14.1958185036
 10
119.4511434889
 20
14.2234512534
 10
119.4926760158
 20
14.2519446988
 10
119.5335305801
 20
14.2812770077
 10
119.5736864604
 20
14.3114309762
 10
119.6131475796
 20
14.3424079137
 10
119.6519240217
 20
14.3742137574
  0
LINE
  5
23F
100
AcDbEntity
  8
0
100
AcDbLine
 62
7
  6
CONTINUOUS
 10
123.8237264437
 20
34.9264907555
 11
123.8186900706
 21
34.9252590711
  0
LINE
  5
240
100
AcDbEntity
  8
1_CURVES_JETS
100
AcDbLine
 62
7
  6
CONTINUOUS
 10
111.4641319198
 20
13.3197109413
 11
111.4648874438
 21
13.3197575776
  0
LWPOLYLINE
  5
241
100
AcDbEntity
  8
6_SURFACES-PATINS-SPEC
100
AcDbPolyline
 62
7
  6
CONTINUOUS
 90
19
 70
0
 10
115.4665407198
 20
13.4652555591
 10
115.3428498713
 20
13.4578951601
 10
115.2191806841
 20
13.4501774964
 10
115.0942817035
 20
13.4420188543
 10
114.9694077948
 20
13.4334853561
 10
114.8524465665
 20
13.4251382242
 10
114.7355115232
 20
13.4164329683
 10
114.6280657639
 20
13.4080976411
 10
114.5295208861
 20
13.4001400528
 10
114.4403770644
 20
13.3926477347
 10
114.3600515006
 20
13.3856097241
 10
114.2891785069
 20
13.3791096462
 10
114.2292752595
 20
13.3733133178
 10
114.1808072657
 20
13.3682968943
 10
114.1436896333
 20
13.3640662817
 10
114.129404626
 20
13.3622554759
 10
114.1179656745
 20
13.3606513047
 10
114.1093394699
 20
13.3592539049
 10
114.1034650999
 20
13.3580622119
  0
LINE
  5
242
100
AcDbEntity
  8
1_CURVES_JETS
100
AcDbLine
 62
7
  6
CONTINUOUS
 10
118.787245232
 20
13.6579839234
 11
118.8552244043
 21
13.662010841
  0
LWPOLYLINE
  5
243
100
AcDbEntity
  8
6_SURFACES-PATINS-SPEC
100
AcDbPolyline
 62
7
  6
CONTINUOUS
 90
20
 70
0
 10
115.4683295815
 20
13.4340738652
 10
115.6053576283
 20
13.4418075217
 10
115.7424102859
 20
13.4490947408
 10
115.8579033763
 20
13.4548808492
 10
115.9734129673
 20
13.4603258947
 10
116.0709948195
 20
13.4646438583
 10
116.1685885053
 20
13.4686859112
 10
116.2550828597
 20
13.4720199268
 10
116.3415867272
 20
13.4750951557
 10
116.4227529692
 20
13.4777162309
 10
116.5015285399
 20
13.4799718552
 10
116.5783306542
 20
13.4818417869
 10
116.6532526477
 20
13.4832654754
 10
116.7258234798
 20
13.4841221956
 10
116.7589328365
 20
13.4842643169
 10
116.7920432376
 20
13.4841809587
 10
116.8180132835
 20
13.4838943562
 10
116.8439755629
 20
13.48326103
 10
116.8631149995
 20
13.4824354743
 10
116.8776468556
 20
13.4813758468
  0
LINE
  5
244
100
AcDbEntity
  8
6_SURFACES-PATINS-SPEC
100
AcDbLine
 62
7
  6
CONTINUOUS
 10
114.4058787272
 20
12.0901946963
 11
114.4883383946
 21
12.0938612227
  0
LINE
  5
245
100
AcDbEntity
  8
0
100
AcDbLine
 62
7
  6
CONTINUOUS
 10
123.8262019105
 20
34.927073869
 11
123.8226936826
 21
34.9262405839
  0
LINE
  5
246
100
AcDbEntity
  8
0
100
AcDbLine
 62
7
  6
CONTINUOUS
 10
123.8286936745
 20
34.9276515163
 11
123.8237264437
 21
34.9264907555
  0
LINE
  5
247
100
AcDbEntity
  8
0
100
AcDbLine
 62
7
  6
CONTINUOUS
 10
123.5322014417
 20
33.5806167186
 11
123.5013890357
 21
33.5736804041
  0
LINE
  5
248
100
AcDbEntity
  8
1_CURVES_JETS
100
AcDbLine
 62
7
  6
CONTINUOUS
 10
111.4648874438
 20
13.3197575776
 11
111.4653968324
 21
13.3197852372
  0
LWPOLYLINE
  5
249
100
AcDbEntity
  8
DEFAULT_2
100
AcDbPolyline
 62
8
  6
CONTINUOUS
 90
62
 70
0
 10
111.4611264664
 20
13.444801156
 10
111.5851490472
 20
13.4509252909
 10
111.7071646376
 20
13.4571218935
 10
111.8286950168
 20
13.4634264693
 10
111.9512803817
 20
13.4698896589
 10
112.0764502144
 20
13.4765718042
 10
112.1405169333
 20
13.4800178858
 10
112.2058360022
 20
13.4835464919
 10
112.2726130607
 20
13.4871677049
 10
112.3411065285
 20
13.4908947956
 10
112.4115849854
 20
13.4947417283
 10
112.4843048719
 20
13.4987220524
 10
112.5595451775
 20
13.5028506796
 10
112.6376872288
 20
13.5071483874
 10
112.7191446445
 20
13.5116378495
 10
112.8043578744
 20
13.5163434598
 10
112.8937924521
 20
13.5212911113
 10
112.9879874147
 20
13.526510971
 10
113.0537083463
 20
13.530157788
 10
113.1219840986
 20
13.5339502746
 10
113.1930060266
 20
13.5378992366
 10
113.2669593363
 20
13.5420151504
 10
113.3440046362
 20
13.5463071753
 10
113.4242963861
 20
13.5507841413
 10
113.5079845252
 20
13.5554546323
 10
113.5952009121
 20
13.5603262483
 10
113.6860728852
 20
13.5654063431
 10
113.7807329277
 20
13.5707025659
 10
113.8793341049
 20
13.5762237479
 10
113.982034627
 20
13.5819790157
 10
114.088990891
 20
13.5879774031
 10
114.2003520399
 20
13.5942275735
 10
114.3162654033
 20
13.6007380973
 10
114.4368897095
 20
13.6075181919
 10
114.5624292812
 20
13.6145796618
 10
114.6930998397
 20
13.6219349584
 10
114.7945997112
 20
13.6276517459
 10
114.8991979511
 20
13.633546074
 10
115.0069854046
 20
13.639623202
 10
115.1180529166
 20
13.6458883891
 10
115.2325014641
 20
13.6523474697
 10
115.3504725512
 20
13.6590085784
 10
115.4721178141
 20
13.6658804251
 10
115.5975888886
 20
13.6729717198
 10
115.7270416467
 20
13.680291418
 10
115.8606489028
 20
13.6878494583
 10
115.9985877071
 20
13.6956560253
 10
116.1410351098
 20
13.7037213032
 10
116.2881600725
 20
13.7120550201
 10
116.440099201
 20
13.7206650782
 10
116.5969810122
 20
13.7295589233
 10
116.7589340232
 20
13.7387440009
 10
116.8922392934
 20
13.7463070518
 10
117.0289695894
 20
13.7540668555
 10
117.1692221185
 20
13.7620290107
 10
117.313094088
 20
13.770199116
 10
117.4606827048
 20
13.7785827701
 10
117.6120635743
 20
13.7871843417
 10
117.7672258912
 20
13.7960032796
 10
117.9261372483
 20
13.8050378027
 10
118.0887652383
 20
13.8142861299
 10
118.2550774539
 20
13.8237464801
  0
LINE
  5
24A
100
AcDbEntity
  8
6_SURFACES-PATINS-SPEC
100
AcDbLine
 62
7
  6
CONTINUOUS
 10
105.7197022976
 20
12.0901946963
 11
105.8021619469
 21
12.0938612211
  0
LINE
  5
24B
100
AcDbEntity
  8
0
100
AcDbLine
 62
7
  6
CONTINUOUS
 10
123.8523208035
 20
34.9325293773
 11
123.8025033672
 21
34.9210507709
  0
LINE
  5
24C
100
AcDbEntity
  8
1_CURVES_JETS
100
AcDbLine
 62
7
  6
CONTINUOUS
 10
111.4653968324
 20
13.3197852372
 11
112.1481964113
 21
13.3517186159
  0
LINE
  5
24D
100
AcDbEntity
  8
1_CURVES_JETS
100
AcDbLine
 62
7
  6
CONTINUOUS
 10
112.1481964113
 20
13.3517186159
 11
112.9089371161
 21
13.3870736097
  0
LINE
  5
24E
100
AcDbEntity
  8
1_CURVES_JETS
100
AcDbLine
 62
7
  6
CONTINUOUS
 10
112.9089371161
 20
13.3870736097
 11
113.7003337616
 21
13.4237098833
  0
LINE
  5
24F
100
AcDbEntity
  8
1_CURVES_JETS
100
AcDbLine
 62
7
  6
CONTINUOUS
 10
113.7003337616
 20
13.4237098833
 11
114.5382355294
 21
13.4624032959
  0
LINE
  5
250
100
AcDbEntity
  8
1_CURVES_JETS
100
AcDbLine
 62
7
  6
CONTINUOUS
 10
114.5382355294
 20
13.4624032959
 11
116.4251330655
 21
13.5493413512
  0
LINE
  5
251
100
AcDbEntity
  8
1_CURVES_JETS
100
AcDbLine
 62
7
  6
CONTINUOUS
 10
116.4251330655
 20
13.5493413512
 11
118.7547672064
 21
13.6564910283
  0
LINE
  5
252
100
AcDbEntity
  8
1_CURVES_JETS
100
AcDbLine
 62
7
  6
CONTINUOUS
 10
118.7547672064
 20
13.6564910283
 11
118.7872512096
 21
13.6579842885
  0
LINE
  5
253
100
AcDbEntity
  8
0
100
AcDbLine
 62
7
  6
CONTINUOUS
 10
123.8314374761
 20
34.928267896
 11
123.8279507516
 21
34.9274792933
  0
LINE
  5
254
100
AcDbEntity
  8
0
100
AcDbLine
 62
7
  6
CONTINUOUS
 10
123.8335907786
 20
34.9287437539
 11
123.8286936745
 21
34.9276515163
  0
LINE
  5
255
100
AcDbEntity
  8
0
100
AcDbLine
 62
7
  6
CONTINUOUS
 10
123.8384168312
 20
34.9297698392
 11
123.8331751957
 21
34.9286511527
  0
LINE
  5
256
100
AcDbEntity
  8
0
100
AcDbLine
 62
7
  6
CONTINUOUS
 10
123.5013890357
 20
33.5736804041
 11
123.4657449293
 21
33.5663345605
  0
LWPOLYLINE
  5
257
100
AcDbEntity
  8
DEFAULT_2
100
AcDbPolyline
 62
8
  6
CONTINUOUS
 90
33
 70
0
 10
107.0689520659
 20
15.5186191473
 10
107.0839674317
 20
15.5192387045
 10
107.0989700009
 20
15.5201538229
 10
107.1139527234
 20
15.5213655374
 10
107.1289085494
 20
15.5228748825
 10
107.143809754
 20
15.5246799188
 10
107.1586713349
 20
15.5267824279
 10
107.17348752
 20
15.5291820536
 10
107.1882525371
 20
15.5318784399
 10
107.203011485
 20
15.5348818689
 10
107.2177071552
 20
15.5381818817
 10
107.2323336055
 20
15.5417765989
 10
107.2468848939
 20
15.5456641409
 10
107.2614771469
 20
15.5498789574
 10
107.2759816655
 20
15.5543864175
 10
107.2903931958
 20
15.5591832808
 10
107.3047064842
 20
15.564266307
 10
107.3191055303
 20
15.5697055949
 10
107.3333934042
 20
15.5754304519
 10
107.347565214
 20
15.5814359125
 10
107.3616160677
 20
15.5877170115
 10
107.375789837
 20
15.594388696
 10
107.3898307318
 20
15.6013361231
 10
107.4037362757
 20
15.6085545763
 10
107.4175039924
 20
15.6160393391
 10
107.4316014657
 20
15.6240586465
 10
107.4455450395
 20
15.6323502358
 10
107.4593310219
 20
15.6409063307
 10
107.4729557206
 20
15.6497191547
 10
107.4864154436
 20
15.6587809312
 10
107.4997064987
 20
15.6680838839
 10
107.512825194
 20
15.6776202362
 10
107.5257678371
 20
15.6873822117
  0
LINE
  5
258
100
AcDbEntity
  8
0
100
AcDbLine
 62
7
  6
CONTINUOUS
 10
123.843170965
 20
34.9307321133
 11
123.8383648064
 21
34.9297572281
  0
LINE
  5
259
100
AcDbEntity
  8
0
100
AcDbLine
 62
7
  6
CONTINUOUS
 10
123.4657449293
 20
33.5663345605
 11
123.4252843004
 21
33.5586920515
  0
LINE
  5
25A
100
AcDbEntity
  8
DEFAULT_2
100
AcDbLine
 62
8
  6
CONTINUOUS
 10
120.3858427406
 20
29.1903644043
 11
119.3364239347
 21
29.0241527851
  0
LWPOLYLINE
  5
25B
100
AcDbEntity
  8
DEFAULT_2
100
AcDbPolyline
 62
8
  6
CONTINUOUS
 90
22
 70
0
 10
107.5489254676
 20
13.4454479226
 10
107.5677686113
 20
13.4456698714
 10
107.5870520628
 20
13.4458522499
 10
107.6058410382
 20
13.4459912136
 10
107.6300714547
 20
13.4461598048
 10
107.6544904558
 20
13.4463210177
 10
107.7133950019
 20
13.4466543519
 10
107.7822368798
 20
13.4469846436
 10
107.8607041808
 20
13.4473084252
 10
107.9481624527
 20
13.4476186802
 10
108.0442763854
 20
13.4479117282
 10
108.1483964317
 20
13.4481867052
 10
108.2598398358
 20
13.4484409247
 10
108.378165845
 20
13.448677377
 10
108.5026739053
 20
13.4488992111
 10
108.6327070875
 20
13.4491073938
 10
108.7678345894
 20
13.4493058747
 10
108.9069373501
 20
13.4494920002
 10
109.0495628271
 20
13.4496594077
 10
109.1948952174
 20
13.4498000264
 10
109.3419021498
 20
13.4498969584
 10
109.4897959183
 20
13.449932413
  0
LINE
  5
25C
100
AcDbEntity
  8
6_SURFACES-PATINS-SPEC
100
AcDbLine
 62
7
  6
CONTINUOUS
 10
114.4058732773
 20
12.0901946951
 11
113.2602176944
 21
12.0901946387
  0
LINE
  5
25D
100
AcDbEntity
  8
6_SURFACES-PATINS-SPEC
100
AcDbLine
 62
7
  6
CONTINUOUS
 10
105.7196968477
 20
12.0901946951
 11
104.5740412648
 21
12.0901946387
  0
LINE
  5
25E
100
AcDbEntity
  8
6_SURFACES-PATINS-SPEC
100
AcDbLine
 62
7
  6
CONTINUOUS
 10
104.5737185594
 20
12.0901946951
 11
104.5740412545
 21
12.0901946387
  0
LINE
  5
25F
100
AcDbEntity
  8
6_SURFACES-PATINS-SPEC
100
AcDbLine
 62
7
  6
CONTINUOUS
 10
113.2602176923
 20
12.0901946387
 11
113.259894989
 21
12.0901946951
  0
LINE
  5
260
100
AcDbEntity
  8
0
100
AcDbLine
 62
7
  6
CONTINUOUS
 10
123.8452263254
 20
34.9311316085
 11
123.8418041141
 21
34.9304586161
  0
LINE
  5
261
100
AcDbEntity
  8
0
100
AcDbLine
 62
7
  6
CONTINUOUS
 10
123.8478523678
 20
34.931632886
 11
123.843170965
 21
34.9307321133
  0
LWPOLYLINE
  5
262
100
AcDbEntity
  8
DEFAULT_2
100
AcDbPolyline
 62
8
  6
CONTINUOUS
 90
22
 70
0
 10
98.508303223
 20
29.1891105083
 10
98.5030404803
 20
29.1881373976
 10
98.4860094904
 20
29.1849493544
 10
98.4579388337
 20
29.1796932702
 10
98.4187408085
 20
29.1723700041
 10
98.3684224426
 20
29.163004828
 10
98.3070254176
 20
29.1516364255
 10
98.2346175491
 20
29.1383147795
 10
98.1512844943
 20
29.1230996383
 10
98.0571160366
 20
29.1060576645
 10
97.9522097356
 20
29.0872630416
 10
97.8366712463
 20
29.0667969108
 10
97.7106226331
 20
29.0447492001
 10
97.5742065913
 20
29.0212183101
 10
97.4275822353
 20
28.9963102971
 10
97.2709203359
 20
28.9701375366
 10
97.104411801
 20
28.94281966
 10
96.9282622599
 20
28.9144818094
 10
96.7426920064
 20
28.8852545761
 10
96.5479337891
 20
28.8552725153
 10
96.3442348749
 20
28.8246740994
 10
96.1318545131
 20
28.7936007222
  0
LINE
  5
263
100
AcDbEntity
  8
DEFAULT_2
100
AcDbLine
 62
8
  6
CONTINUOUS
 10
106.4924507465
 20
15.5009652985
 11
107.0689360697
 21
15.5186192467
  0
LWPOLYLINE
  5
264
100
AcDbEntity
  8
DEFAULT_2
100
AcDbPolyline
 62
8
  6
CONTINUOUS
 90
33
 70
0
 10
105.3182673351
 20
15.5009652575
 10
105.3475278576
 20
15.5018267669
 10
105.3767727937
 20
15.5031879128
 10
105.405991599
 20
15.5050534739
 10
105.4351737291
 20
15.507428229
 10
105.4641751019
 20
15.5103022954
 10
105.4931202826
 20
15.5136890757
 10
105.5219998657
 20
15.5175920221
 10
105.5508044459
 20
15.522014587
 10
105.5794746642
 20
15.5269508977
 10
105.6080502426
 20
15.5324101725
 10
105.6365206569
 20
15.5383941188
 10
105.6648753825
 20
15.5449044439
 10
105.6931486648
 20
15.5519541185
 10
105.7212846937
 20
15.5595331769
 10
105.7492728303
 20
15.5676412357
 10
105.7771024359
 20
15.5762779118
 10
105.8049059811
 20
15.5854916482
 10
105.8325274534
 20
15.5952378885
 10
105.8599557114
 20
15.6055154029
 10
105.8871796134
 20
15.6163229612
 10
105.9144199811
 20
15.627758997
 10
105.9414298847
 20
15.6397294112
 10
105.9681980903
 20
15.6522306086
 10
105.994713364
 20
15.6652589944
 10
106.021288233
 20
15.678981794
 10
106.0475823422
 20
15.6932355597
 10
106.073585683
 20
15.708014612
 10
106.0992882469
 20
15.7233132713
 10
106.1250980264
 20
15.7393915245
 10
106.1505754831
 20
15.7559908952
 10
106.1757094653
 20
15.7731013992
 10
106.2004888214
 20
15.7907130521
  0
LWPOLYLINE
  5
265
100
AcDbEntity
  8
DEFAULT_2
100
AcDbPolyline
 62
8
  6
CONTINUOUS
 90
22
 70
0
 10
111.4305861842
 20
13.4442341773
 10
111.4391112492
 20
13.4442940658
 10
111.4438167917
 20
13.4443216721
 10
111.4489971173
 20
13.4443845378
 10
111.4520647508
 20
13.4444445766
 10
111.4556103923
 20
13.4445318907
 10
111.4571702647
 20
13.4445758951
 10
111.4586648113
 20
13.4446244956
 10
111.4599319726
 20
13.4446768789
 10
111.4608096887
 20
13.4447322316
 10
111.4611359001
 20
13.4447897403
 10
111.4608071049
 20
13.4448480802
 10
111.4599342998
 20
13.4449063263
 10
111.4586772458
 20
13.4449630606
 10
111.4571957042
 20
13.4450168652
 10
111.4556494362
 20
13.4450663221
 10
111.4521153503
 20
13.4451663852
 10
111.4490555863
 20
13.4452371221
 10
111.4438836592
 20
13.4453172602
 10
111.439182926
 20
13.445360023
 10
111.4306663691
 20
13.4454479226
 10
111.4118232254
 20
13.4456698714
  0
LINE
  5
266
100
AcDbEntity
  8
6_SURFACES-PATINS-SPEC
100
AcDbLine
 62
7
  6
CONTINUOUS
 10
114.1066811919
 20
13.317350966
 11
114.1364318247
 21
13.3175433774
  0
LINE
  5
267
100
AcDbEntity
  8
6_SURFACES-PATINS-SPEC
100
AcDbLine
 62
7
  6
CONTINUOUS
 10
106.5939101309
 20
12.7070507544
 11
106.6002958344
 21
12.7070507544
  0
LINE
  5
268
100
AcDbEntity
  8
6_SURFACES-PATINS-SPEC
100
AcDbLine
 62
7
  6
CONTINUOUS
 10
112.3792960023
 20
12.7070507544
 11
112.3856817057
 21
12.7070507544
  0
LINE
  5
269
100
AcDbEntity
  8
1_CURVES_JETS
100
AcDbLine
 62
7
  6
CONTINUOUS
 10
108.2183508571
 20
12.8151946387
 11
110.7612409796
 21
12.8151946387
  0
LINE
  5
26A
100
AcDbEntity
  8
DEFAULT_2
100
AcDbLine
 62
8
  6
CONTINUOUS
 10
108.2183493089
 20
12.9401946387
 11
110.7612425277
 21
12.9401946387
  0
LINE
  5
26B
100
AcDbEntity
  8
0
100
AcDbLine
 62
7
  6
CONTINUOUS
 10
123.8486308025
 20
34.9317765606
 11
123.8452263254
 21
34.9311316085
  0
LWPOLYLINE
  5
26C
100
AcDbEntity
  8
DEFAULT_2
100
AcDbPolyline
 62
8
  6
CONTINUOUS
 90
22
 70
0
 10
109.4897959183
 20
13.4425762712
 10
109.6369901153
 20
13.442579072
 10
109.7835322486
 20
13.4425873636
 10
109.9285730345
 20
13.4426021235
 10
110.0710510778
 20
13.4426241214
 10
110.2103093298
 20
13.4426536357
 10
110.3455516063
 20
13.4426919554
 10
110.4758624819
 20
13.4427391949
 10
110.6006915018
 20
13.4427961822
 10
110.7192716451
 20
13.4428638531
 10
110.8309714198
 20
13.4429423238
 10
110.935202874
 20
13.443033014
 10
111.0312930651
 20
13.4431362549
 10
111.1188091961
 20
13.4432529764
 10
111.1972043135
 20
13.4433846029
 10
111.2660290364
 20
13.4435313273
 10
111.3249480829
 20
13.443694922
 10
111.3493600551
 20
13.44378235
 10
111.3735826372
 20
13.4438759444
 10
111.3923991437
 20
13.4439555689
 10
111.4117136277
 20
13.4440751686
 10
111.4305861842
 20
13.4442341773
  0
LWPOLYLINE
  5
26D
100
AcDbEntity
  8
DEFAULT_2
100
AcDbPolyline
 62
8
  6
CONTINUOUS
 90
21
 70
0
 10
109.4897959183
 20
13.4425762712
 10
109.3426017214
 20
13.442579072
 10
109.196059588
 20
13.4425873636
 10
109.0510188022
 20
13.4426021235
 10
108.9085407589
 20
13.4426241214
 10
108.7692825069
 20
13.4426536357
 10
108.6340402304
 20
13.4426919554
 10
108.5037293548
 20
13.4427391949
 10
108.3789003349
 20
13.4427961822
 10
108.2603201916
 20
13.4428638531
 10
108.1486204168
 20
13.4429423238
 10
108.0443889626
 20
13.443033014
 10
107.9482987716
 20
13.4431362549
 10
107.8607826406
 20
13.4432529764
 10
107.7823875232
 20
13.4433846029
 10
107.7135628003
 20
13.4435313273
 10
107.6546437537
 20
13.443694922
 10
107.6302317815
 20
13.44378235
 10
107.6060091994
 20
13.4438759444
 10
107.587192693
 20
13.4439555689
 10
107.567878209
 20
13.4440751686
  0
LWPOLYLINE
  5
26E
100
AcDbEntity
  8
6_SURFACES-PATINS-SPEC
100
AcDbPolyline
 62
7
  6
CONTINUOUS
 90
41
 70
0
 10
114.1066811919
 20
13.3173509661
 10
114.1066099802
 20
13.3173512443
 10
114.1065397924
 20
13.3173583512
 10
114.1064706341
 20
13.3173717889
 10
114.106402511
 20
13.3173910597
 10
114.1063354286
 20
13.3174156658
 10
114.1062693927
 20
13.3174451094
 10
114.1062044088
 20
13.3174788927
 10
114.1061404827
 20
13.3175165179
 10
114.1060776199
 20
13.3175574872
 10
114.1060158261
 20
13.3176013028
 10
114.105955107
 20
13.317647467
 10
114.1058954681
 20
13.3176954819
 10
114.1058369152
 20
13.3177448497
 10
114.1057794538
 20
13.3177950728
 10
114.1056469709
 20
13.3179162748
 10
114.1055202094
 20
13.3180394213
 10
114.1053986705
 20
13.3181644309
 10
114.1052818556
 20
13.3182912223
 10
114.105169266
 20
13.3184197139
 10
114.1050604029
 20
13.3185498244
 10
114.1049547676
 20
13.3186814724
 10
114.1048518614
 20
13.3188145764
 10
114.1047511856
 20
13.318949055
 10
114.1046522415
 20
13.3190848268
 10
114.1045545304
 20
13.3192218104
 10
114.104351336
 20
13.3195139086
 10
114.1041513325
 20
13.319810501
 10
114.103954455
 20
13.3201110696
 10
114.1037606386
 20
13.3204150961
 10
114.1035698181
 20
13.3207220624
 10
114.1033819285
 20
13.3210314503
 10
114.103196905
 20
13.3213427416
 10
114.1030146823
 20
13.3216554183
 10
114.1027370396
 20
13.3221428093
 10
114.1024653177
 20
13.3226322254
 10
114.1021988398
 20
13.3231236005
 10
114.1019369293
 20
13.3236168685
 10
114.1016789094
 20
13.3241119634
 10
114.1014241033
 20
13.3246088193
 10
114.1011718344
 20
13.32510737
  0
LINE
  5
26F
100
AcDbEntity
  8
6_SURFACES-PATINS-SPEC
100
AcDbLine
 62
7
  6
CONTINUOUS
 10
104.8423412837
 20
13.317515281
 11
104.8729106455
 21
13.317350966
  0
LWPOLYLINE
  5
270
100
AcDbEntity
  8
6_SURFACES-PATINS-SPEC
100
AcDbPolyline
 62
7
  6
CONTINUOUS
 90
49
 70
0
 10
113.259894989
 20
12.0901946955
 10
113.236232371
 20
12.0905085313
 10
113.2125751883
 20
12.0914317735
 10
113.1889416138
 20
12.0929620098
 10
113.1653498206
 20
12.0950968278
 10
113.1418179816
 20
12.097833815
 10
113.1183642697
 20
12.1011705591
 10
113.094999134
 20
12.1051059169
 10
113.0717450048
 20
12.1096364129
 10
113.0486165296
 20
12.1147594751
 10
113.0256283559
 20
12.1204725314
 10
113.0027951311
 20
12.1267730097
 10
112.9801315026
 20
12.1336583381
 10
112.9576373467
 20
12.1411302684
 10
112.9353417328
 20
12.1491781012
 10
112.9132587174
 20
12.1577946978
 10
112.8914023572
 20
12.1669729195
 10
112.8697867086
 20
12.1767056273
 10
112.8484258284
 20
12.1869856825
 10
112.8273149589
 20
12.1978158635
 10
112.8064871006
 20
12.2091800324
 10
112.7859559585
 20
12.2210710015
 10
112.7657352376
 20
12.2334815831
 10
112.7458386429
 20
12.2464045893
 10
112.7262798794
 20
12.2598328323
 10
112.7070521697
 20
12.2737734056
 10
112.6881876598
 20
12.2882021124
 10
112.6696972735
 20
12.3031079887
 10
112.6515919346
 20
12.3184800706
 10
112.633882567
 20
12.3343073944
 10
112.6165800945
 20
12.3505789961
 10
112.5996770626
 20
12.3673025347
 10
112.5832036841
 20
12.3844492285
 10
112.5671708723
 20
12.4020079634
 10
112.5515895405
 20
12.4199676251
 10
112.5364706018
 20
12.4383170992
 10
112.5218249696
 20
12.4570452716
 10
112.5076480474
 20
12.4761612577
 10
112.4939632264
 20
12.4956326105
 10
112.4807773557
 20
12.515446329
 10
112.4680972843
 20
12.5355894122
 10
112.4559298613
 20
12.5560488591
 10
112.4442819358
 20
12.5768116688
 10
112.4331500753
 20
12.5978847761
 10
112.4225535915
 20
12.6192327087
 10
112.4125004983
 20
12.6408393697
 10
112.4029988098
 20
12.6626886622
 10
112.3940565401
 20
12.6847644894
 10
112.3856817033
 20
12.7070507544
  0
LINE
  5
271
100
AcDbEntity
  8
0
100
AcDbLine
 62
7
  6
CONTINUOUS
 10
123.8031783088
 20
34.9211144738
 11
123.7977953156
 21
34.9195479162
  0
LINE
  5
272
100
AcDbEntity
  8
0
100
AcDbLine
 62
7
  6
CONTINUOUS
 10
123.803174865
 20
34.9211110074
 11
123.8013840203
 21
34.9205979103
  0
LINE
  5
273
100
AcDbEntity
  8
0
100
AcDbLine
 62
7
  6
CONTINUOUS
 10
123.852460281
 20
34.932474435
 11
123.8478523678
 21
34.931632886
  0
LINE
  5
274
100
AcDbEntity
  8
0
100
AcDbLine
 62
7
  6
CONTINUOUS
 10
123.4252843004
 20
33.5586920515
 11
123.3800181525
 21
33.5508504242
  0
LWPOLYLINE
  5
275
100
AcDbEntity
  8
DEFAULT_2
100
AcDbPolyline
 62
8
  6
CONTINUOUS
 90
43
 70
0
 10
118.2505783369
 20
15.1990312217
 10
118.3175343423
 20
15.1996721482
 10
118.3844712984
 20
15.201617424
 10
118.4513575118
 20
15.2048989015
 10
118.5152977018
 20
15.2093197525
 10
118.5791350208
 20
15.2150174584
 10
118.6428421126
 20
15.2220156768
 10
118.7042023556
 20
15.2300271579
 10
118.765387427
 20
15.2392847648
 10
118.826369057
 20
15.2498002094
 10
118.8850991088
 20
15.2611735728
 10
118.9435824145
 20
15.2737522958
 10
119.0017887632
 20
15.2875553389
 10
119.0576143536
 20
15.3020397618
 10
119.1131224113
 20
15.317696501
 10
119.1682809142
 20
15.3345422512
 10
119.2212948223
 20
15.3519898611
 10
119.2739221706
 20
15.3705710148
 10
119.3261337243
 20
15.3902901805
 10
119.3761782718
 20
15.4104374315
 10
119.4257758287
 20
15.431660591
 10
119.4748952078
 20
15.4539681165
 10
119.5216567423
 20
15.4764552185
 10
119.5679117828
 20
15.4999658579
 10
119.6136250271
 20
15.5245126477
 10
119.6571309242
 20
15.5491574013
 10
119.7000701579
 20
15.5747767065
 10
119.7424119655
 20
15.60137122
 10
119.7828797966
 20
15.6280960723
 10
119.8227313001
 20
15.6557315611
 10
119.8619410857
 20
15.6842703261
 10
119.899467233
 20
15.7129120195
 10
119.9363313046
 20
15.7424005081
 10
119.9725033469
 20
15.7727336569
 10
120.0071583262
 20
15.8031916665
 10
120.041098867
 20
15.8344437702
 10
120.0743001436
 20
15.8664793118
 10
120.1063377215
 20
15.8988715966
 10
120.1376133428
 20
15.9320007907
 10
120.1681101515
 20
15.9658502267
 10
120.1978342046
 20
16.0004278657
 10
120.2267491563
 20
16.0356829984
 10
120.2548427762
 20
16.0715884804
  0
LWPOLYLINE
  5
276
100
AcDbEntity
  8
DEFAULT_2
100
AcDbPolyline
 62
8
  6
CONTINUOUS
 90
22
 70
0
 10
107.567878209
 20
13.4440751686
 10
107.5490056525
 20
13.4442341773
 10
107.5404805875
 20
13.4442940658
 10
107.535775045
 20
13.4443216721
 10
107.5305947194
 20
13.4443845378
 10
107.5275270859
 20
13.4444445766
 10
107.5239814444
 20
13.4445318907
 10
107.522421572
 20
13.4445758951
 10
107.5209270254
 20
13.4446244956
 10
107.5196598641
 20
13.4446768789
 10
107.518782148
 20
13.4447322316
 10
107.5184559366
 20
13.4447897403
 10
107.5187847318
 20
13.4448480802
 10
107.5196575369
 20
13.4449063263
 10
107.5209145909
 20
13.4449630606
 10
107.5223961325
 20
13.4450168652
 10
107.5239424005
 20
13.4450663221
 10
107.5274764864
 20
13.4451663852
 10
107.5305362504
 20
13.4452371221
 10
107.5357081775
 20
13.4453172602
 10
107.5404089107
 20
13.445360023
 10
107.5489254676
 20
13.4454479226
  0
LWPOLYLINE
  5
277
100
AcDbEntity
  8
DEFAULT_2
100
AcDbPolyline
 62
8
  6
CONTINUOUS
 90
21
 70
0
 10
111.4118232254
 20
13.4456698714
 10
111.3925397739
 20
13.4458522499
 10
111.3737507985
 20
13.4459912136
 10
111.349520382
 20
13.4461598048
 10
111.3251013809
 20
13.4463210177
 10
111.2661968348
 20
13.4466543519
 10
111.1973549569
 20
13.4469846436
 10
111.1188876559
 20
13.4473084252
 10
111.0314293839
 20
13.4476186802
 10
110.9353154513
 20
13.4479117282
 10
110.831195405
 20
13.4481867052
 10
110.7197520009
 20
13.4484409247
 10
110.6014259917
 20
13.448677377
 10
110.4769179313
 20
13.4488992111
 10
110.3468847491
 20
13.4491073938
 10
110.2117572473
 20
13.4493058747
 10
110.0726544866
 20
13.4494920002
 10
109.9300290096
 20
13.4496594077
 10
109.7846966193
 20
13.4498000264
 10
109.6376896869
 20
13.4498969584
 10
109.4897959183
 20
13.449932413
  0
LINE
  5
278
100
AcDbEntity
  8
0
100
AcDbLine
 62
7
  6
CONTINUOUS
 10
123.8569939975
 20
34.933259005
 11
123.8520169125
 21
34.9323938373
  0
LWPOLYLINE
  5
279
100
AcDbEntity
  8
DEFAULT_2
100
AcDbPolyline
 62
8
  6
CONTINUOUS
 90
25
 70
0
 10
96.2709961463
 20
27.468057671
 10
96.4923713049
 20
27.5003468271
 10
96.7060070192
 20
27.5323643494
 10
96.9116669229
 20
27.5639806807
 10
97.1091414669
 20
27.5950707006
 10
97.2982119851
 20
27.6255085795
 10
97.4786775384
 20
27.6551724122
 10
97.6503363469
 20
27.6839418139
 10
97.8129995724
 20
27.7117003882
 10
97.9665679879
 20
27.7383498164
 10
98.1108582587
 20
27.7637804208
 10
98.2457061843
 20
27.7878888347
 10
98.3710407921
 20
27.8105920937
 10
98.4867227169
 20
27.8317990146
 10
98.5926598743
 20
27.8514312234
 10
98.6887763583
 20
27.8694179755
 10
98.7749973504
 20
27.885693484
 10
98.8512248522
 20
27.9001924842
 10
98.9173799738
 20
27.912858321
 10
98.9734003272
 20
27.9236426926
 10
99.0192796201
 20
27.932513526
 10
99.0549994791
 20
27.939441992
 10
99.0804727623
 20
27.9443914837
 10
99.0954279844
 20
27.9472952666
 10
99.1018641618
 20
27.948533526
  0
LINE
  5
27A
100
AcDbEntity
  8
DEFAULT_2
100
AcDbLine
 62
8
  6
CONTINUOUS
 10
100.7290134959
 20
15.1990312208
 11
118.2505783408
 21
15.1990312208
  0
LINE
  5
27B
100
AcDbEntity
  8
DEFAULT_2
100
AcDbLine
 62
8
  6
CONTINUOUS
 10
106.4924507465
 20
15.5009652985
 11
103.6685406493
 21
15.5009652986
  0
LINE
  5
27C
100
AcDbEntity
  8
DEFAULT_2
100
AcDbLine
 62
8
  6
CONTINUOUS
 10
112.4871410901
 20
15.5009652985
 11
115.3110511874
 21
15.5009652986
  0
LINE
  5
27D
100
AcDbEntity
  8
0
100
AcDbLine
 62
7
  6
CONTINUOUS
 10
123.7978803786
 20
34.9195757328
 11
123.7925232027
 21
34.9179550111
  0
LINE
  5
27E
100
AcDbEntity
  8
0
100
AcDbLine
 62
7
  6
CONTINUOUS
 10
123.858731524
 20
34.9335468735
 11
123.8553840273
 21
34.9329838136
  0
LINE
  5
27F
100
AcDbEntity
  8
0
100
AcDbLine
 62
7
  6
CONTINUOUS
 10
123.3800181525
 20
33.5508504242
 11
123.329962607
 21
33.5428968837
  0
LWPOLYLINE
  5
280
100
AcDbEntity
  8
DEFAULT_2
100
AcDbPolyline
 62
8
  6
CONTINUOUS
 90
43
 70
0
 10
100.7290134997
 20
15.1990312217
 10
100.6620574943
 20
15.1996721482
 10
100.5951205382
 20
15.201617424
 10
100.5282343248
 20
15.2048989015
 10
100.4642941348
 20
15.2093197525
 10
100.4004568159
 20
15.2150174584
 10
100.3367497241
 20
15.2220156768
 10
100.2753894811
 20
15.2300271579
 10
100.2142044097
 20
15.2392847648
 10
100.1532227797
 20
15.2498002094
 10
100.0944927279
 20
15.2611735728
 10
100.0360094222
 20
15.2737522958
 10
99.9778030734
 20
15.2875553389
 10
99.921977483
 20
15.3020397618
 10
99.8664694254
 20
15.317696501
 10
99.8113109225
 20
15.3345422512
 10
99.7582970144
 20
15.3519898611
 10
99.7056696661
 20
15.3705710148
 10
99.6534581124
 20
15.3902901805
 10
99.6034135649
 20
15.4104374315
 10
99.553816008
 20
15.431660591
 10
99.5046966289
 20
15.4539681165
 10
99.4579350944
 20
15.4764552185
 10
99.4116800539
 20
15.4999658579
 10
99.3659668096
 20
15.5245126477
 10
99.3224609125
 20
15.5491574013
 10
99.2795216788
 20
15.5747767065
 10
99.2371798712
 20
15.60137122
 10
99.1967120401
 20
15.6280960723
 10
99.1568605366
 20
15.6557315611
 10
99.117650751
 20
15.6842703261
 10
99.0801246037
 20
15.7129120195
 10
99.0432605321
 20
15.7424005081
 10
99.0070884898
 20
15.7727336569
 10
98.9724335105
 20
15.8031916665
 10
98.9384929697
 20
15.8344437702
 10
98.9052916931
 20
15.8664793118
 10
98.8732541152
 20
15.8988715966
 10
98.8419784939
 20
15.9320007907
 10
98.8114816852
 20
15.9658502267
 10
98.781757632
 20
16.0004278657
 10
98.7528426804
 20
16.0356829984
 10
98.7247490605
 20
16.0715884804
  0
LINE
  5
281
100
AcDbEntity
  8
6_SURFACES-PATINS-SPEC
100
AcDbLine
 62
7
  6
CONTINUOUS
 10
104.49125346
 20
12.0938612211
 11
104.5737131095
 21
12.0901946963
  0
LINE
  5
282
100
AcDbEntity
  8
0
100
AcDbLine
 62
7
  6
CONTINUOUS
 10
123.7941978272
 20
34.9184660128
 11
123.7905922417
 21
34.9173519992
  0
LINE
  5
283
100
AcDbEntity
  8
0
100
AcDbLine
 62
7
  6
CONTINUOUS
 10
123.5951611702
 20
33.5974193139
 11
123.5790926076
 21
33.5926595312
  0
LINE
  5
284
100
AcDbEntity
  8
0
100
AcDbLine
 62
7
  6
CONTINUOUS
 10
123.8620587564
 20
34.9340834063
 11
123.8569939975
 21
34.933259005
  0
LINE
  5
285
100
AcDbEntity
  8
0
100
AcDbLine
 62
7
  6
CONTINUOUS
 10
123.3387206634
 20
33.5515755939
 11
123.2941823523
 21
33.545020084
  0
LWPOLYLINE
  5
286
100
AcDbEntity
  8
1_CURVES_JETS
100
AcDbPolyline
 62
7
  6
CONTINUOUS
 90
20
 70
0
 10
100.1923509627
 20
13.657983705
 10
100.1937536983
 20
13.6579309638
 10
100.1951571054
 20
13.6579006123
 10
100.196560993
 20
13.6578912594
 10
100.19796517
 20
13.6579015142
 10
100.1993694452
 20
13.6579299856
 10
100.2007736278
 20
13.6579752827
 10
100.2021775265
 20
13.6580360145
 10
100.2035809503
 20
13.6581107899
 10
100.2049837081
 20
13.6581982179
 10
100.206385609
 20
13.6582969076
 10
100.2084641744
 20
13.6584617876
 10
100.2105404154
 20
13.6586477147
 10
100.2126143157
 20
13.6588539979
 10
100.2146858591
 20
13.6590799461
 10
100.2167550294
 20
13.6593248679
 10
100.2188218103
 20
13.6595880725
 10
100.2208861858
 20
13.6598688684
 10
100.2229481395
 20
13.6601665647
 10
100.2250076553
 20
13.6604804702
  0
LINE
  5
287
100
AcDbEntity
  8
6_SURFACES-PATINS-SPEC
100
AcDbLine
 62
7
  6
CONTINUOUS
 10
113.1774298716
 20
12.0938612227
 11
113.2598895391
 21
12.0901946963
  0
LINE
  5
288
100
AcDbEntity
  8
0
100
AcDbLine
 62
7
  6
CONTINUOUS
 10
123.7925232027
 20
34.9179550111
 11
123.7869792477
 21
34.9162056873
  0
LINE
  5
289
100
AcDbEntity
  8
0
100
AcDbLine
 62
7
  6
CONTINUOUS
 10
123.8658347766
 20
34.9346657935
 11
123.8614527932
 21
34.9339887959
  0
LINE
  5
28A
100
AcDbEntity
  8
0
100
AcDbLine
 62
7
  6
CONTINUOUS
 10
123.329962607
 20
33.5428968837
 11
123.2751420511
 21
33.5349109521
  0
LINE
  5
28B
100
AcDbEntity
  8
1_CURVES_JETS
100
AcDbLine
 62
7
  6
CONTINUOUS
 10
100.1923406271
 20
13.6579842885
 11
102.5544587712
 21
13.5493413512
  0
LINE
  5
28C
100
AcDbEntity
  8
1_CURVES_JETS
100
AcDbLine
 62
7
  6
CONTINUOUS
 10
102.5544587712
 20
13.5493413512
 11
103.5391937562
 21
13.5039953126
  0
LINE
  5
28D
100
AcDbEntity
  8
1_CURVES_JETS
100
AcDbLine
 62
7
  6
CONTINUOUS
 10
103.5391937562
 20
13.5039953126
 11
104.4413563073
 21
13.4624032959
  0
LINE
  5
28E
100
AcDbEntity
  8
1_CURVES_JETS
100
AcDbLine
 62
7
  6
CONTINUOUS
 10
104.4413563073
 20
13.4624032959
 11
105.2792580751
 21
13.4237098833
  0
LINE
  5
28F
100
AcDbEntity
  8
1_CURVES_JETS
100
AcDbLine
 62
7
  6
CONTINUOUS
 10
105.2792580751
 20
13.4237098833
 11
106.0706547205
 21
13.3870736097
  0
LINE
  5
290
100
AcDbEntity
  8
1_CURVES_JETS
100
AcDbLine
 62
7
  6
CONTINUOUS
 10
106.0706547205
 20
13.3870736097
 11
106.8313954254
 21
13.3517186159
  0
LINE
  5
291
100
AcDbEntity
  8
0
100
AcDbLine
 62
7
  6
CONTINUOUS
 10
123.7871095498
 20
34.9162503603
 11
123.7815473772
 21
34.9144252806
  0
LINE
  5
292
100
AcDbEntity
  8
0
100
AcDbLine
 62
7
  6
CONTINUOUS
 10
123.7869792477
 20
34.9162056873
 11
123.7851701883
 21
34.9156203643
  0
LINE
  5
293
100
AcDbEntity
  8
0
100
AcDbLine
 62
7
  6
CONTINUOUS
 10
123.8701370298
 20
34.9352918423
 11
123.8653649376
 21
34.9345937884
  0
LINE
  5
294
100
AcDbEntity
  8
0
100
AcDbLine
 62
7
  6
CONTINUOUS
 10
123.2751420511
 20
33.5349109521
 11
123.2155917738
 21
33.5269663976
  0
LWPOLYLINE
  5
295
100
AcDbEntity
  8
DEFAULT_2
100
AcDbPolyline
 62
8
  6
CONTINUOUS
 90
33
 70
0
 10
113.6613245015
 20
15.5009652575
 10
113.6320639791
 20
15.5018267669
 10
113.602819043
 20
15.5031879128
 10
113.5736002377
 20
15.5050534739
 10
113.5444181076
 20
15.507428229
 10
113.5154167347
 20
15.5103022954
 10
113.486471554
 20
15.5136890757
 10
113.457591971
 20
15.5175920221
 10
113.4287873908
 20
15.522014587
 10
113.4001171725
 20
15.5269508977
 10
113.3715415941
 20
15.5324101725
 10
113.3430711798
 20
15.5383941188
 10
113.3147164542
 20
15.5449044439
 10
113.2864431719
 20
15.5519541185
 10
113.258307143
 20
15.5595331769
 10
113.2303190063
 20
15.5676412357
 10
113.2024894007
 20
15.5762779118
 10
113.1746858555
 20
15.5854916482
 10
113.1470643832
 20
15.5952378885
 10
113.1196361253
 20
15.6055154029
 10
113.0924122232
 20
15.6163229612
 10
113.0651718556
 20
15.627758997
 10
113.038161952
 20
15.6397294112
 10
113.0113937464
 20
15.6522306086
 10
112.9848784727
 20
15.6652589944
 10
112.9583036037
 20
15.678981794
 10
112.9320094945
 20
15.6932355597
 10
112.9060061537
 20
15.708014612
 10
112.8803035898
 20
15.7233132713
 10
112.8544938102
 20
15.7393915245
 10
112.8290163536
 20
15.7559908952
 10
112.8038823714
 20
15.7731013992
 10
112.7791030152
 20
15.7907130521
  0
LINE
  5
296
100
AcDbEntity
  8
1_CURVES_JETS
100
AcDbLine
 62
7
  6
CONTINUOUS
 10
106.8313954254
 20
13.3517186159
 11
107.5140909595
 21
13.319790447
  0
LINE
  5
297
100
AcDbEntity
  8
1_CURVES_JETS
100
AcDbLine
 62
7
  6
CONTINUOUS
 10
107.5140909595
 20
13.319790447
 11
107.5146571394
 21
13.3197602813
  0
LINE
  5
298
100
AcDbEntity
  8
0
100
AcDbLine
 62
7
  6
CONTINUOUS
 10
95.5879447103
 20
34.0277422704
 11
95.5625940564
 21
34.2604954289
  0
LINE
  5
299
100
AcDbEntity
  8
0
100
AcDbLine
 62
7
  6
CONTINUOUS
 10
95.5625940564
 20
34.2604954289
 11
95.5375409458
 21
34.4927153135
  0
LINE
  5
29A
100
AcDbEntity
  8
0
100
AcDbLine
 62
7
  6
CONTINUOUS
 10
95.6381162431
 20
33.544723368
 11
95.5373163358
 21
34.4929936098
  0
LINE
  5
29B
100
AcDbEntity
  8
1_CURVES_JETS
100
AcDbLine
 62
7
  6
CONTINUOUS
 10
95.7248919623
 20
31.4401946387
 11
95.7953846065
 21
30.7748565029
  0
LINE
  5
29C
100
AcDbEntity
  8
1_CURVES_JETS
100
AcDbLine
 62
7
  6
CONTINUOUS
 10
95.7953846065
 20
30.7748565029
 11
96.027084399
 21
28.582166731
  0
LINE
  5
29D
100
AcDbEntity
  8
1_CURVES_JETS
100
AcDbLine
 62
7
  6
CONTINUOUS
 10
96.027084399
 20
28.582166731
 11
96.2889385676
 21
26.1006151973
  0
LINE
  5
29E
100
AcDbEntity
  8
DEFAULT_2
100
AcDbLine
 62
8
  6
CONTINUOUS
 10
95.5368564144
 20
34.4924587698
 11
96.388583333
 21
26.3888123062
  0
LINE
  5
29F
100
AcDbEntity
  8
0
100
AcDbLine
 62
7
  6
CONTINUOUS
 10
95.6364481626
 20
33.5449905889
 11
95.5368657515
 21
34.4924584396
  0
LINE
  5
2A0
100
AcDbEntity
  8
DEFAULT_2
100
AcDbLine
 62
8
  6
CONTINUOUS
 10
97.3310840531
 20
25.4943152536
 11
98.072841665
 21
18.4401946387
  0
LINE
  5
2A1
100
AcDbEntity
  8
0
100
AcDbLine
 62
7
  6
CONTINUOUS
 10
127.203551477
 20
34.7119835744
 11
127.4897959183
 21
31.4401946387
  0
LWPOLYLINE
  5
2A2
100
AcDbEntity
  8
DEFAULT_2
100
AcDbPolyline
 62
8
  6
CONTINUOUS
 90
15
 70
0
 10
112.0840285431
 20
18.2000053415
 10
112.0858287241
 20
18.1753702141
 10
112.0873789255
 20
18.1507174248
 10
112.0886884874
 20
18.1260503881
 10
112.0897975353
 20
18.1005253528
 10
112.0906561513
 20
18.0749909418
 10
112.0912613479
 20
18.0494493679
 10
112.0916089893
 20
18.0242039746
 10
112.0917120921
 20
17.9989563195
 10
112.0915765168
 20
17.9737089746
 10
112.0912336089
 20
17.9496621695
 10
112.0907014799
 20
17.9256187479
 10
112.0900021529
 20
17.9015794778
 10
112.0887942465
 20
17.8684119717
 10
112.0873140386
 20
17.8352558745
  0
LINE
  5
2A3
100
AcDbEntity
  8
6_SURFACES-PATINS-SPEC
100
AcDbLine
 62
7
  6
CONTINUOUS
 10
115.4665407201
 20
13.4652555537
 11
115.4683295814
 21
13.4340738704
  0
LINE
  5
2A4
100
AcDbEntity
  8
DEFAULT_2
100
AcDbLine
 62
8
  6
CONTINUOUS
 10
110.337830475
 20
26.2006165343
 11
110.8439276674
 21
17.2456959987
  0
LINE
  5
2A5
100
AcDbEntity
  8
6_SURFACES-PATINS-SPEC
100
AcDbLine
 62
7
  6
CONTINUOUS
 10
116.8914802809
 20
13.5086358647
 11
116.8932105618
 21
13.4774407062
  0
LINE
  5
2A6
100
AcDbEntity
  8
6_SURFACES-PATINS-SPEC
100
AcDbLine
 62
7
  6
CONTINUOUS
 10
116.8932445648
 20
13.4776859888
 11
116.8915136532
 21
13.5088791834
  0
LINE
  5
2A7
100
AcDbEntity
  8
6_SURFACES-PATINS-SPEC
100
AcDbLine
 62
7
  6
CONTINUOUS
 10
114.0995113046
 20
13.3563107041
 11
114.1011718344
 21
13.32510737
  0
LWPOLYLINE
  5
2A8
100
AcDbEntity
  8
DEFAULT_2
100
AcDbPolyline
 62
8
  6
CONTINUOUS
 90
43
 70
0
 10
110.8439276674
 20
17.2456959987
 10
110.8463545023
 20
17.1984604627
 10
110.8493694843
 20
17.1512570279
 10
110.8529835051
 20
17.1040951844
 10
110.8571331954
 20
17.0577603047
 10
110.8618853293
 20
17.011483826
 10
110.8672523566
 20
16.9652747374
 10
110.873132874
 20
16.9199773166
 10
110.8796322618
 20
16.8747644456
 10
110.8867645682
 20
16.8296470371
 10
110.8943856766
 20
16.7855164672
 10
110.9026444469
 20
16.7415008365
 10
110.9115566573
 20
16.697612833
 10
110.9209295179
 20
16.6547864641
 10
110.9309611708
 20
16.6121096313
 10
110.9416691108
 20
16.5695974095
 10
110.9528042892
 20
16.5282257458
 10
110.9646212768
 20
16.4870436892
 10
110.9771392852
 20
16.4460692376
 10
110.9900480331
 20
16.4063073994
 10
111.0036632518
 20
16.3667819493
 10
111.0180057163
 20
16.3275144911
 10
111.0326943582
 20
16.2895383873
 10
111.0481146066
 20
16.2518534913
 10
111.0642884677
 20
16.2144857767
 10
111.0807593852
 20
16.1784806551
 10
111.0979862869
 20
16.1428311382
 10
111.1159918095
 20
16.1075683783
 10
111.1342421515
 20
16.073728927
 10
111.1532701497
 20
16.0403206881
 10
111.1730979851
 20
16.0073808435
 10
111.193117189
 20
15.9759119892
 10
111.213930291
 20
15.9449625347
 10
111.2355576768
 20
15.9145761369
 10
111.2573241504
 20
15.8856938789
 10
111.2798908449
 20
15.8574328788
 10
111.3032732687
 20
15.8298439941
 10
111.3267528423
 20
15.8037689569
 10
111.3510255362
 20
15.7784295842
 10
111.3761020217
 20
15.7538810019
 10
111.4012565677
 20
15.7308299706
 10
111.4271726033
 20
15.7086431908
 10
111.4538419629
 20
15.6873855358
  0
LWPOLYLINE
  5
2A9
100
AcDbEntity
  8
0
100
AcDbPolyline
 62
7
  6
CONTINUOUS
 90
49
 70
0
 10
108.302461607
 20
29.9971320743
 10
108.3037267477
 20
29.9592175521
 10
108.3062367997
 20
29.9213370727
 10
108.3099865839
 20
29.8835386207
 10
108.3149709213
 20
29.8458701807
 10
108.3211846328
 20
29.8083797373
 10
108.3286225392
 20
29.7711152752
 10
108.3372872259
 20
29.7340865946
 10
108.3471600131
 20
29.6973689476
 10
108.3582275849
 20
29.6609988627
 10
108.3704766254
 20
29.6250128681
 10
108.3838938187
 20
29.5894474923
 10
108.3984658491
 20
29.5543392634
 10
108.414206571
 20
29.5196645229
 10
108.4310719649
 20
29.4855205059
 10
108.4490411941
 20
29.451942536
 10
108.4680934218
 20
29.4189659367
 10
108.4882078112
 20
29.3866260317
 10
108.5093635254
 20
29.3549581446
 10
108.5315895102
 20
29.3239280563
 10
108.5548133711
 20
29.2936380837
 10
108.5790079177
 20
29.2641178275
 10
108.6041459598
 20
29.2353968885
 10
108.6302003073
 20
29.2075048677
 10
108.6571437698
 20
29.1804713659
 10
108.6850160629
 20
29.1542633922
 10
108.713722413
 20
29.1289716127
 10
108.7432308144
 20
29.104619838
 10
108.7735092617
 20
29.081231879
 10
108.804525749
 20
29.0588315463
 10
108.8362482709
 20
29.0374426508
 10
108.8687159976
 20
29.017044346
 10
108.901824445
 20
28.9977030705
 10
108.9355373417
 20
28.9794360547
 10
108.9698184161
 20
28.9622605288
 10
109.0046313969
 20
28.9461937231
 10
109.0399400126
 20
28.9312528679
 10
109.0757680935
 20
28.9174319841
 10
109.1120209087
 20
28.904768524
 10
109.1486622947
 20
28.8932729115
 10
109.1856560876
 20
28.8829555709
 10
109.222966124
 20
28.8738269264
 10
109.2605562402
 20
28.865897402
 10
109.2984225073
 20
28.8591707981
 10
109.3364867494
 20
28.8536593905
 10
109.374702589
 20
28.8493666677
 10
109.4130236486
 20
28.846296118
 10
109.4514035509
 20
28.8444512301
 10
109.4897959183
 20
28.8438354922
  0
LINE
  5
2AA
100
AcDbEntity
  8
0
100
AcDbLine
 62
7
  6
CONTINUOUS
 10
95.536860111
 20
34.4903217028
 11
95.5368654702
 21
34.4886602254
  0
LWPOLYLINE
  5
2AB
100
AcDbEntity
  8
0
100
AcDbPolyline
 62
7
  6
CONTINUOUS
 90
16
 70
0
 10
95.5369113073
 20
34.4582893693
 10
95.5369348068
 20
34.4459533146
 10
95.5369524344
 20
34.4317097236
 10
95.5370154872
 20
34.415621539
 10
95.537175189
 20
34.3977517042
 10
95.5374430455
 20
34.3781151872
 10
95.5378169342
 20
34.3567104868
 10
95.5388740231
 20
34.3085904125
 10
95.5403362325
 20
34.2533893679
 10
95.5421907097
 20
34.191106621
 10
95.5444239492
 20
34.1217440241
 10
95.5470219756
 20
34.0453053568
 10
95.5499679222
 20
33.9617961997
 10
95.5532445356
 20
33.8712240881
 10
95.5568324353
 20
33.7735978411
 10
95.5648520616
 20
33.5572231764
  0
LINE
  5
2AC
100
AcDbEntity
  8
0
100
AcDbLine
 62
7
  6
CONTINUOUS
 10
95.5368836899
 20
34.4732364586
 11
95.5369113073
 21
34.4582893693
  0
LINE
  5
2AD
100
AcDbEntity
  8
0
100
AcDbLine
 62
7
  6
CONTINUOUS
 10
95.5368654702
 20
34.4886602254
 11
95.5368836899
 21
34.4732364586
  0
LINE
  5
2AE
100
AcDbEntity
  8
0
100
AcDbLine
 62
7
  6
CONTINUOUS
 10
97.0001528827
 20
33.4702372284
 11
97.0001528829
 21
33.4549778802
  0
LINE
  5
2AF
100
AcDbEntity
  8
DEFAULT_1
100
AcDbLine
 62
7
  6
CENTER
 10
109.4897959183
 20
10.0767600656
 11
109.4897959183
 21
33.4497128634
  0
LINE
  5
2B0
100
AcDbEntity
  8
0
100
AcDbLine
 62
7
  6
CONTINUOUS
 10
109.4897959183
 20
33.4497128634
 11
109.4897959183
 21
33.4545019016
  0
LINE
  5
2B1
100
AcDbEntity
  8
DEFAULT_1
100
AcDbLine
 62
7
  6
CENTER
 10
109.4897959183
 20
33.4545019016
 11
109.4897959183
 21
36.3413810473
  0
LINE
  5
2B2
100
AcDbEntity
  8
0
100
AcDbLine
 62
7
  6
CONTINUOUS
 10
123.4427263664
 20
34.4886602219
 11
123.4427137199
 21
34.4772705172
  0
LWPOLYLINE
  5
2B3
100
AcDbEntity
  8
0
100
AcDbPolyline
 62
7
  6
CONTINUOUS
 90
18
 70
0
 10
123.4427137199
 20
34.4772705172
 10
123.4427009405
 20
34.4687276562
 10
123.4426805293
 20
34.4582893388
 10
123.4426570298
 20
34.4459532731
 10
123.4426394022
 20
34.4317096694
 10
123.442576349
 20
34.4156214707
 10
123.4424166467
 20
34.3977516204
 10
123.4421487896
 20
34.3781150864
 10
123.4417749002
 20
34.3567103672
 10
123.4407178096
 20
34.3085902511
 10
123.4392555983
 20
34.253389158
 10
123.4374011187
 20
34.1911063563
 10
123.4351678767
 20
34.1217436985
 10
123.4325698475
 20
34.045304964
 10
123.4296238978
 20
33.9617957333
 10
123.4263472811
 20
33.8712235418
 10
123.422759378
 20
33.7735972088
 10
123.4147397446
 20
33.5572223532
  0
LWPOLYLINE
  5
2B4
100
AcDbEntity
  8
0
100
AcDbPolyline
 62
7
  6
CONTINUOUS
 90
4
 70
0
 10
123.4427443253
 20
34.4922211238
 10
123.4427400297
 20
34.4915087399
 10
123.4427357752
 20
34.4909745357
 10
123.4427263664
 20
34.4886602219
  0
LWPOLYLINE
  5
2B5
100
AcDbEntity
  8
0
100
AcDbPolyline
 62
7
  6
CONTINUOUS
 90
49
 70
0
 10
108.3022960672
 20
29.9971245401
 10
108.302932375
 20
30.0354605854
 10
108.3048409059
 20
30.0737832604
 10
108.3080171541
 20
30.1120429246
 10
108.3124566141
 20
30.1501899377
 10
108.31815478
 20
30.1881746593
 10
108.3251071461
 20
30.2259474492
 10
108.3333160171
 20
30.2634956038
 10
108.3427637138
 20
30.3007437652
 10
108.3534370273
 20
30.3376540022
 10
108.3653227491
 20
30.3741883835
 10
108.3784076703
 20
30.4103089778
 10
108.3926785822
 20
30.4459778537
 10
108.408148621
 20
30.4812175486
 10
108.4247744091
 20
30.5159291543
 10
108.4425348639
 20
30.550075922
 10
108.4614089032
 20
30.5836211029
 10
108.4813754446
 20
30.6165279481
 10
108.5024134058
 20
30.6487597088
 10
108.5245513777
 20
30.6803506159
 10
108.5477166114
 20
30.7111956437
 10
108.5718813088
 20
30.741263947
 10
108.5970176717
 20
30.7705246806
 10
108.6230979017
 20
30.7989469992
 10
108.6500942007
 20
30.8265000576
 10
108.6780464857
 20
30.8532174269
 10
108.706858463
 20
30.8790054949
 10
108.7364972503
 20
30.9038394269
 10
108.7669299651
 20
30.9276943885
 10
108.798123725
 20
30.950545545
 10
108.8300456476
 20
30.9723680619
 10
108.8627354619
 20
30.9931832927
 10
108.8960862793
 20
31.012922378
 10
108.9300607253
 20
31.0315673394
 10
108.9646214255
 20
31.0491001988
 10
108.9997310052
 20
31.0655029777
 10
109.03535209
 20
31.080757698
 10
109.0715089028
 20
31.0948704577
 10
109.1081041391
 20
31.1078023464
 10
109.1451004833
 20
31.1195424858
 10
109.18246062
 20
31.1300799975
 10
109.2201472336
 20
31.1394040032
 10
109.2581230085
 20
31.1475036247
 10
109.2963837378
 20
31.1543748692
 10
109.3348488847
 20
31.1600049627
 10
109.3734705626
 20
31.1643902635
 10
109.4122008851
 20
31.1675271299
 10
109.4509919658
 20
31.1694119203
 10
109.4897959183
 20
31.170040993
  0
LWPOLYLINE
  5
2B6
100
AcDbEntity
  8
0
100
AcDbPolyline
 62
7
  6
CONTINUOUS
 90
49
 70
0
 10
110.6772957696
 20
29.9971245925
 10
110.6766569439
 20
29.958790003
 10
110.6747460687
 20
29.9204688641
 10
110.6715676338
 20
29.8822108093
 10
110.6671261289
 20
29.8440654721
 10
110.661426044
 20
29.8060824863
 10
110.6544718689
 20
29.7683114853
 10
110.6462613424
 20
29.7307654128
 10
110.6368121031
 20
29.6935193717
 10
110.6261373619
 20
29.6566112887
 10
110.6142503297
 20
29.6200790903
 10
110.6011642175
 20
29.5839607031
 10
110.586892236
 20
29.5482940537
 10
110.57142131
 20
29.5130567363
 10
110.554794767
 20
29.4783475122
 10
110.5370336886
 20
29.4442031237
 10
110.5181591564
 20
29.4106603126
 10
110.4981922519
 20
29.377755821
 10
110.4771540567
 20
29.3455263908
 10
110.4550159774
 20
29.3139377882
 10
110.4318507621
 20
29.2830950293
 10
110.407686206
 20
29.2530289539
 10
110.3825501044
 20
29.2237704017
 10
110.3564702526
 20
29.1953502124
 10
110.329474446
 20
29.1677992256
 10
110.3015226588
 20
29.1410837707
 10
110.27271128
 20
29.1152975568
 10
110.2430731881
 20
29.0904654149
 10
110.2126412613
 20
29.0666121757
 10
110.1814483779
 20
29.0437626703
 10
110.1495274162
 20
29.0219417294
 10
110.1168384468
 20
29.0011278773
 10
110.0834885426
 20
28.9813901015
 10
110.0495150745
 20
28.9627463774
 10
110.0149554131
 20
28.9452146804
 10
109.9798469292
 20
28.9288129859
 10
109.9442269935
 20
28.9135592691
 10
109.9080711605
 20
28.899447349
 10
109.8714769442
 20
28.8865162292
 10
109.8344816566
 20
28.874776787
 10
109.7971226096
 20
28.8642399
 10
109.7594371153
 20
28.8549164455
 10
109.7214624855
 20
28.8468173009
 10
109.6832027845
 20
28.8399464355
 10
109.6447386826
 20
28.8343166539
 10
109.6061180625
 20
28.8299315972
 10
109.5673888067
 20
28.826794906
 10
109.5285987977
 20
28.8249102214
 10
109.4897959183
 20
28.8242811841
  0
LWPOLYLINE
  5
2B7
100
AcDbEntity
  8
DEFAULT_2
100
AcDbPolyline
 62
8
  6
CONTINUOUS
 90
43
 70
0
 10
108.1356641693
 20
17.2456959987
 10
108.1332373344
 20
17.1984604627
 10
108.1302223524
 20
17.1512570279
 10
108.1266083316
 20
17.1040951844
 10
108.1224586413
 20
17.0577603047
 10
108.1177065074
 20
17.011483826
 10
108.1123394801
 20
16.9652747374
 10
108.1064589627
 20
16.9199773166
 10
108.0999595748
 20
16.8747644456
 10
108.0928272684
 20
16.8296470371
 10
108.08520616
 20
16.7855164672
 10
108.0769473897
 20
16.7415008365
 10
108.0680351793
 20
16.697612833
 10
108.0586623187
 20
16.6547864641
 10
108.0486306658
 20
16.6121096313
 10
108.0379227258
 20
16.5695974095
 10
108.0267875475
 20
16.5282257458
 10
108.0149705599
 20
16.4870436892
 10
108.0024525515
 20
16.4460692376
 10
107.9895438035
 20
16.4063073994
 10
107.9759285849
 20
16.3667819493
 10
107.9615861203
 20
16.3275144911
 10
107.9468974784
 20
16.2895383873
 10
107.9314772301
 20
16.2518534913
 10
107.915303369
 20
16.2144857767
 10
107.8988324515
 20
16.1784806551
 10
107.8816055498
 20
16.1428311382
 10
107.8636000272
 20
16.1075683783
 10
107.8453496852
 20
16.073728927
 10
107.826321687
 20
16.0403206881
 10
107.8064938516
 20
16.0073808435
 10
107.7864746477
 20
15.9759119892
 10
107.7656615457
 20
15.9449625347
 10
107.7440341598
 20
15.9145761369
 10
107.7222676863
 20
15.8856938789
 10
107.6997009918
 20
15.8574328788
 10
107.676318568
 20
15.8298439941
 10
107.6528389944
 20
15.8037689569
 10
107.6285663005
 20
15.7784295842
 10
107.603489815
 20
15.7538810019
 10
107.578335269
 20
15.7308299706
 10
107.5524192334
 20
15.7086431908
 10
107.5257498738
 20
15.6873855358
  0
LINE
  5
2B8
100
AcDbEntity
  8
6_SURFACES-PATINS-SPEC
100
AcDbLine
 62
7
  6
CONTINUOUS
 10
104.8784472285
 20
13.3252065162
 11
104.880109003
 21
13.3564122667
  0
LINE
  5
2B9
100
AcDbEntity
  8
6_SURFACES-PATINS-SPEC
100
AcDbLine
 62
7
  6
CONTINUOUS
 10
104.8784200029
 20
13.325107383
 11
104.8800805313
 21
13.3563106905
  0
LINE
  5
2BA
100
AcDbEntity
  8
6_SURFACES-PATINS-SPEC
100
AcDbLine
 62
7
  6
CONTINUOUS
 10
102.0880779286
 20
13.5088798129
 11
102.0863470289
 21
13.4776865711
  0
LINE
  5
2BB
100
AcDbEntity
  8
6_SURFACES-PATINS-SPEC
100
AcDbLine
 62
7
  6
CONTINUOUS
 10
102.0863812627
 20
13.4774406878
 11
102.0881115509
 21
13.5086358846
  0
LINE
  5
2BC
100
AcDbEntity
  8
DEFAULT_2
100
AcDbLine
 62
8
  6
CONTINUOUS
 10
108.6417613617
 20
26.2006165343
 11
108.1356641693
 21
17.2456959987
  0
LINE
  5
2BD
100
AcDbEntity
  8
6_SURFACES-PATINS-SPEC
100
AcDbLine
 62
7
  6
CONTINUOUS
 10
103.5112622552
 20
13.4340738652
 11
103.513051117
 21
13.4652555594
  0
LWPOLYLINE
  5
2BE
100
AcDbEntity
  8
DEFAULT_2
100
AcDbPolyline
 62
8
  6
CONTINUOUS
 90
15
 70
0
 10
106.8955632936
 20
18.2000053415
 10
106.8937631126
 20
18.1753702141
 10
106.8922129112
 20
18.1507174248
 10
106.8909033492
 20
18.1260503881
 10
106.8897943014
 20
18.1005253528
 10
106.8889356854
 20
18.0749909418
 10
106.8883304888
 20
18.0494493679
 10
106.8879828473
 20
18.0242039746
 10
106.8878797446
 20
17.9989563195
 10
106.8880153199
 20
17.9737089746
 10
106.8883582277
 20
17.9496621695
 10
106.8888903567
 20
17.9256187479
 10
106.8895896837
 20
17.9015794778
 10
106.8907975902
 20
17.8684119717
 10
106.8922777981
 20
17.8352558745
  0
LINE
  5
2BF
100
AcDbEntity
  8
0
100
AcDbLine
 62
7
  6
CONTINUOUS
 10
91.7760403597
 20
34.7119835744
 11
91.4897959183
 21
31.4401946387
  0
LINE
  5
2C0
100
AcDbEntity
  8
2_PLANES
100
AcDbLine
 62
7
  6
CONTINUOUS
 10
123.4427260852
 20
34.4924584396
 11
123.343143748
 21
33.5449912918
  0
LINE
  5
2C1
100
AcDbEntity
  8
DEFAULT_2
100
AcDbLine
 62
8
  6
CONTINUOUS
 10
122.5910085037
 20
26.3888123062
 11
123.4427354223
 21
34.4924587698
  0
LINE
  5
2C2
100
AcDbEntity
  8
DEFAULT_2
100
AcDbLine
 62
8
  6
CONTINUOUS
 10
120.9067501717
 20
18.4401946387
 11
121.6485077836
 21
25.4943152536
  0
LINE
  5
2C3
100
AcDbEntity
  8
1_CURVES_JETS
100
AcDbLine
 62
7
  6
CONTINUOUS
 10
122.6906532659
 20
26.1006151674
 11
122.817198923
 21
27.3000995976
  0
LINE
  5
2C4
100
AcDbEntity
  8
1_CURVES_JETS
100
AcDbLine
 62
7
  6
CONTINUOUS
 10
122.965477806
 20
28.7050248459
 11
123.1252006494
 21
30.217014899
  0
LINE
  5
2C5
100
AcDbEntity
  8
1_CURVES_JETS
100
AcDbLine
 62
7
  6
CONTINUOUS
 10
122.817198923
 20
27.3000995976
 11
122.965477806
 21
28.7050248459
  0
LINE
  5
2C6
100
AcDbEntity
  8
1_CURVES_JETS
100
AcDbLine
 62
7
  6
CONTINUOUS
 10
123.1252006494
 20
30.217014899
 11
123.2053256035
 21
30.9743384785
  0
LINE
  5
2C7
100
AcDbEntity
  8
1_CURVES_JETS
100
AcDbLine
 62
7
  6
CONTINUOUS
 10
123.2053256035
 20
30.9743384785
 11
123.2547000475
 21
31.4401946387
  0
LINE
  5
2C8
100
AcDbEntity
  8
0
100
AcDbLine
 62
7
  6
CONTINUOUS
 10
123.341475679
 20
33.5447241718
 11
123.4420363888
 21
34.4907439333
  0
LINE
  5
2C9
100
AcDbEntity
  8
0
100
AcDbLine
 62
7
  6
CONTINUOUS
 10
123.4420363888
 20
34.4907439333
 11
123.4422755009
 21
34.4929936098
  0
LINE
  5
2CA
100
AcDbEntity
  8
2_PLANES
100
AcDbLine
 62
7
  6
CONTINUOUS
 10
123.4418377594
 20
34.4907634941
 11
123.4169977803
 21
34.2604954289
  0
LWPOLYLINE
  5
2CB
100
AcDbEntity
  8
6_SURFACES-PATINS-SPEC
100
AcDbPolyline
 62
7
  6
CONTINUOUS
 90
44
 70
0
 10
102.0863470281
 20
13.4776865563
 10
102.0863540252
 20
13.4777508508
 10
102.0863674895
 20
13.4778135623
 10
102.086386964
 20
13.4778746726
 10
102.086411992
 20
13.4779341635
 10
102.0864421165
 20
13.4779920167
 10
102.0864768807
 20
13.4780482141
 10
102.0865158278
 20
13.4781027374
 10
102.0865585009
 20
13.4781555685
 10
102.0866044431
 20
13.478206689
 10
102.0866531975
 20
13.4782560808
 10
102.0867043074
 20
13.4783037257
 10
102.0867573159
 20
13.4783496055
 10
102.0868117661
 20
13.478393702
 10
102.0868672011
 20
13.4784359969
 10
102.0869231641
 20
13.4784764721
 10
102.0870194007
 20
13.4785416772
 10
102.087115973
 20
13.4786020894
 10
102.0872130076
 20
13.4786583155
 10
102.0873106312
 20
13.4787109621
 10
102.0874089706
 20
13.4787606358
 10
102.0875081523
 20
13.4788079433
 10
102.087608303
 20
13.4788534912
 10
102.0877932419
 20
13.4789332777
 10
102.0879812015
 20
13.4790094568
 10
102.0881715732
 20
13.4790822393
 10
102.0883637482
 20
13.4791518366
 10
102.0885571181
 20
13.4792184597
 10
102.0888514774
 20
13.4793142072
 10
102.0891470821
 20
13.479404109
 10
102.0894438309
 20
13.4794886679
 10
102.0897416223
 20
13.4795683866
 10
102.0900403547
 20
13.4796437677
 10
102.0903399268
 20
13.4797153139
 10
102.0906402371
 20
13.479783528
 10
102.0909411841
 20
13.4798489127
 10
102.0912426664
 20
13.4799119707
 10
102.0917728626
 20
13.4800181462
 10
102.0923042456
 20
13.4801190469
 10
102.0928366661
 20
13.4802150172
 10
102.0933699746
 20
13.4803064012
 10
102.0939040216
 20
13.4803935431
 10
102.0944386578
 20
13.4804767871
 10
102.0949737337
 20
13.4805564775
  0
LINE
  5
2CC
100
AcDbEntity
  8
2_PLANES
100
AcDbLine
 62
7
  6
CONTINUOUS
 10
123.4169977803
 20
34.2604954289
 11
123.3916471263
 21
34.0277422704
  0
LINE
  5
2CD
100
AcDbEntity
  8
2_PLANES
100
AcDbLine
 62
7
  6
CONTINUOUS
 10
123.3916471263
 20
34.0277422704
 11
123.3678489408
 21
33.8117269314
  0
LINE
  5
2CE
100
AcDbEntity
  8
2_PLANES
100
AcDbLine
 62
7
  6
CONTINUOUS
 10
123.3678489408
 20
33.8117269314
 11
123.3451350173
 21
33.6082110262
  0
LINE
  5
2CF
100
AcDbEntity
  8
1_CURVES_JETS
100
AcDbLine
 62
7
  6
CONTINUOUS
 10
122.6858449508
 20
26.0612433982
 11
122.6874969631
 21
26.0759386503
  0
LINE
  5
2D0
100
AcDbEntity
  8
2_PLANES
100
AcDbLine
 62
7
  6
CONTINUOUS
 10
123.3451350173
 20
33.6082110262
 11
123.337880224
 21
33.5441549479
  0
LINE
  5
2D1
100
AcDbEntity
  8
0
100
AcDbLine
 62
7
  6
CONTINUOUS
 10
123.4436799423
 20
34.500866976
 11
123.44272419
 21
34.4924586738
  0
LINE
  5
2D2
100
AcDbEntity
  8
0
100
AcDbLine
 62
7
  6
CONTINUOUS
 10
123.4424826481
 20
34.4964875195
 11
123.4420204034
 21
34.4924399676
  0
LWPOLYLINE
  5
2D3
100
AcDbEntity
  8
DEFAULT_2
100
AcDbPolyline
 62
8
  6
CONTINUOUS
 90
57
 70
0
 10
121.6485074896
 20
25.4943152845
 10
121.6499842497
 20
25.5068420071
 10
121.6517737428
 20
25.5193058025
 10
121.6538768765
 20
25.5317119716
 10
121.6562945583
 20
25.5440658154
 10
121.6590268628
 20
25.5563691249
 10
121.6620705318
 20
25.5686096511
 10
121.6654214744
 20
25.5807716353
 10
121.6690755993
 20
25.5928393186
 10
121.6730295313
 20
25.6047996098
 10
121.6772827585
 20
25.6166500889
 10
121.6818354848
 20
25.6283910033
 10
121.6866879143
 20
25.6400226006
 10
121.6918390311
 20
25.6515426257
 10
121.6972829408
 20
25.662938814
 10
121.7030125292
 20
25.6741963982
 10
121.7090206821
 20
25.6853006112
 10
121.715301402
 20
25.6962390963
 10
121.7218531584
 20
25.7070091395
 10
121.7286755374
 20
25.7176104372
 10
121.7357681253
 20
25.7280426861
 10
121.7431292956
 20
25.7383038242
 10
121.7507525725
 20
25.7483847556
 10
121.7586302675
 20
25.7582746259
 10
121.766754692
 20
25.7679625808
 10
121.7751186615
 20
25.7774388846
 10
121.7837170063
 20
25.7866982773
 10
121.7925450609
 20
25.7957366173
 10
121.8015981594
 20
25.8045497634
 10
121.8108717004
 20
25.8131335024
 10
121.8203613396
 20
25.8214833354
 10
121.8300627971
 20
25.8295946916
 10
121.8399717928
 20
25.8374630003
 10
121.8500828924
 20
25.8450832392
 10
121.8603860436
 20
25.8524485791
 10
121.8708700398
 20
25.8595517391
 10
121.8815236744
 20
25.8663854382
 10
121.8923375522
 20
25.8729435143
 10
121.9033095239
 20
25.8792242799
 10
121.9144392514
 20
25.8852271662
 10
121.9257263969
 20
25.8909516045
 10
121.9371681413
 20
25.8963960345
 10
121.9487517412
 20
25.9015549304
 10
121.9604619722
 20
25.9064217749
 10
121.9722836099
 20
25.9109900509
 10
121.9842039936
 20
25.9152543368
 10
121.996220719
 20
25.9192135949
 10
122.0083339454
 20
25.9228678828
 10
122.0205438324
 20
25.9262172585
 10
122.0328478234
 20
25.9292612063
 10
122.0452324982
 20
25.9319969164
 10
122.0576817204
 20
25.9344210054
 10
122.0701793538
 20
25.93653009
 10
122.082712853
 20
25.938321446
 10
122.0952840359
 20
25.9397949862
 10
122.1078983109
 20
25.9409512826
 10
122.1205610869
 20
25.9417909072
  0
LWPOLYLINE
  5
2D4
100
AcDbEntity
  8
0
100
AcDbPolyline
 62
7
  6
CONTINUOUS
 90
4
 70
0
 10
95.5368568997
 20
34.4924585858
 10
95.5368498901
 20
34.4923992367
 10
95.5368475113
 20
34.492221124
 10
95.536860111
 20
34.4903217028
  0
LWPOLYLINE
  5
2D5
100
AcDbEntity
  8
1_CURVES_JETS
100
AcDbPolyline
 62
7
  6
CONTINUOUS
 90
25
 70
0
 10
122.6906532785
 20
26.100614784
 10
122.68878948
 20
26.0849806715
 10
122.6865302351
 20
26.0693952047
 10
122.6839191054
 20
26.0538612608
 10
122.6809996528
 20
26.0383817169
 10
122.6759128682
 20
26.0143178818
 10
122.6702631077
 20
25.9903832587
 10
122.6641332037
 20
25.9665673482
 10
122.6564947421
 20
25.938987649
 10
122.6483873441
 20
25.9115415895
 10
122.6398801591
 20
25.884216254
 10
122.6296009534
 20
25.8526732552
 10
122.61893836
 20
25.8212583031
 10
122.6079533424
 20
25.7899545585
 10
122.5948861959
 20
25.7537747421
 10
122.5815250171
 20
25.7177025301
 10
122.5679273178
 20
25.6817186453
 10
122.5437012409
 20
25.6188595737
 10
122.5191377332
 20
25.5561319017
 10
122.4897372739
 20
25.4815198188
 10
122.4604443236
 20
25.4068638976
 10
122.4422605953
 20
25.3599782386
 10
122.4243102994
 20
25.313002855
 10
122.4066722061
 20
25.2659109256
 10
122.3894250854
 20
25.2186756293
  0
LINE
  5
2D6
100
AcDbEntity
  8
1_CURVES_JETS
100
AcDbLine
 62
7
  6
CONTINUOUS
 10
121.1231161781
 20
15.8137842975
 11
121.2333191647
 21
16.7321555993
  0
LINE
  5
2D7
100
AcDbEntity
  8
1_CURVES_JETS
100
AcDbLine
 62
7
  6
CONTINUOUS
 10
121.2333191647
 20
16.7321555993
 11
121.3395416329
 21
17.6087985374
  0
LINE
  5
2D8
100
AcDbEntity
  8
0
100
AcDbLine
 62
7
  6
CONTINUOUS
 10
123.4430277287
 20
34.5009491939
 11
123.4424826481
 21
34.4964875195
  0
LINE
  5
2D9
100
AcDbEntity
  8
1_CURVES_JETS
100
AcDbLine
 62
7
  6
CONTINUOUS
 10
121.3395416329
 20
17.6087985374
 11
121.4400219899
 21
18.4295720101
  0
LINE
  5
2DA
100
AcDbEntity
  8
1_CURVES_JETS
100
AcDbLine
 62
7
  6
CONTINUOUS
 10
121.4400219899
 20
18.4295720101
 11
121.534932581
 21
19.1965501909
  0
LINE
  5
2DB
100
AcDbEntity
  8
1_CURVES_JETS
100
AcDbLine
 62
7
  6
CONTINUOUS
 10
121.534932581
 20
19.1965501909
 11
121.6244263322
 21
19.9116718903
  0
LINE
  5
2DC
100
AcDbEntity
  8
1_CURVES_JETS
100
AcDbLine
 62
7
  6
CONTINUOUS
 10
121.6244263322
 20
19.9116718903
 11
121.7086796651
 21
20.5770818918
  0
LINE
  5
2DD
100
AcDbEntity
  8
1_CURVES_JETS
100
AcDbLine
 62
7
  6
CONTINUOUS
 10
121.7086796651
 20
20.5770818918
 11
121.7878502514
 21
21.1947873621
  0
LINE
  5
2DE
100
AcDbEntity
  8
1_CURVES_JETS
100
AcDbLine
 62
7
  6
CONTINUOUS
 10
121.7878502514
 20
21.1947873621
 11
121.8620354831
 21
21.7663435824
  0
LINE
  5
2DF
100
AcDbEntity
  8
0
100
AcDbLine
 62
7
  6
CONTINUOUS
 10
123.4436794673
 20
34.5059174185
 11
123.4430277287
 21
34.5009491939
  0
LINE
  5
2E0
100
AcDbEntity
  8
1_CURVES_JETS
100
AcDbLine
 62
7
  6
CONTINUOUS
 10
121.8620354831
 20
21.7663435824
 11
121.9313567315
 21
22.2935152145
  0
LINE
  5
2E1
100
AcDbEntity
  8
0
100
AcDbLine
 62
7
  6
CONTINUOUS
 10
123.4450410221
 20
34.5111192607
 11
123.4436799423
 21
34.500866976
  0
LINE
  5
2E2
100
AcDbEntity
  8
1_CURVES_JETS
100
AcDbLine
 62
7
  6
CONTINUOUS
 10
121.9313567315
 20
22.2935152145
 11
121.9959465738
 21
22.7781640238
  0
LINE
  5
2E3
100
AcDbEntity
  8
1_CURVES_JETS
100
AcDbLine
 62
7
  6
CONTINUOUS
 10
121.9959465738
 20
22.7781640238
 11
122.0559357024
 21
23.2221412603
  0
LINE
  5
2E4
100
AcDbEntity
  8
1_CURVES_JETS
100
AcDbLine
 62
7
  6
CONTINUOUS
 10
122.0559357024
 20
23.2221412603
 11
122.0970494814
 21
23.5227290867
  0
LINE
  5
2E5
100
AcDbEntity
  8
6_SURFACES-PATINS-SPEC
100
AcDbLine
 62
7
  6
CONTINUOUS
 10
116.8914802809
 20
13.5086358647
 11
116.8915136541
 21
13.5088791665
  0
LINE
  5
2E6
100
AcDbEntity
  8
1_CURVES_JETS
100
AcDbLine
 62
7
  6
CONTINUOUS
 10
122.0970924735
 20
23.5230439378
 11
122.1556100528
 21
23.9481575389
  0
LINE
  5
2E7
100
AcDbEntity
  8
1_CURVES_JETS
100
AcDbLine
 62
7
  6
CONTINUOUS
 10
122.1556100528
 20
23.9481575389
 11
122.2334115087
 21
24.5119753546
  0
LINE
  5
2E8
100
AcDbEntity
  8
1_CURVES_JETS
100
AcDbLine
 62
7
  6
CONTINUOUS
 10
122.2334115087
 20
24.5119753546
 11
122.2841775823
 21
24.8790755206
  0
LINE
  5
2E9
100
AcDbEntity
  8
6_SURFACES-PATINS-SPEC
100
AcDbLine
 62
7
  6
CONTINUOUS
 10
116.8932445742
 20
13.4776859893
 11
116.8932105618
 21
13.4774407062
  0
LINE
  5
2EA
100
AcDbEntity
  8
1_CURVES_JETS
100
AcDbLine
 62
7
  6
CONTINUOUS
 10
121.1099761987
 20
15.7194374243
 11
121.1231143428
 21
15.8137722382
  0
LINE
  5
2EB
100
AcDbEntity
  8
DEFAULT_2
100
AcDbLine
 62
8
  6
CONTINUOUS
 10
106.8955632936
 20
18.2000053415
 11
108.0245781494
 21
26.2425636191
  0
LWPOLYLINE
  5
2EC
100
AcDbEntity
  8
DEFAULT_2
100
AcDbPolyline
 62
8
  6
CONTINUOUS
 90
34
 70
0
 10
112.0873140386
 20
17.8352558745
 10
112.0807792808
 20
17.7888100907
 10
112.0749624982
 20
17.7422661594
 10
112.0698736266
 20
17.695636306
 10
112.0655886497
 20
17.6497068854
 10
112.0620268545
 20
17.6037164888
 10
112.0591978239
 20
17.5576754153
 10
112.0571378014
 20
17.5123058861
 10
112.0558073605
 20
17.4669089425
 10
112.0552164774
 20
17.4214963112
 10
112.0553679735
 20
17.3766986609
 10
112.0562588172
 20
17.3319096812
 10
112.0578991062
 20
17.2871418965
 10
112.0602665895
 20
17.2429299376
 10
112.0633862036
 20
17.1987646772
 10
112.0672681615
 20
17.1546598769
 10
112.07187437
 20
17.1110515996
 10
112.0772485932
 20
17.0675313034
 10
112.0834010407
 20
17.0241141649
 10
112.0902866793
 20
16.9811413517
 10
112.0979589501
 20
16.9383019925
 10
112.1064278837
 20
16.8956129829
 10
112.1156508256
 20
16.8533223827
 10
112.1256813859
 20
16.8112159819
 10
112.1365292414
 20
16.7693125489
 10
112.1481621984
 20
16.7277747891
 10
112.1606251849
 20
16.6864785644
 10
112.1739269576
 20
16.6454452017
 10
112.1880549452
 20
16.6047554277
 10
112.2030362329
 20
16.5643715618
 10
112.2188790469
 20
16.5243161512
 10
112.2355998473
 20
16.4845923181
 10
112.2531952395
 20
16.4452496553
 10
112.2716691545
 20
16.4063179639
  0
LINE
  5
2ED
100
AcDbEntity
  8
0
100
AcDbLine
 62
7
  6
CONTINUOUS
 10
123.4444698695
 20
34.511505007
 11
123.4436794673
 21
34.5059174185
  0
LWPOLYLINE
  5
2EE
100
AcDbEntity
  8
DEFAULT_2
100
AcDbPolyline
 62
8
  6
CONTINUOUS
 90
32
 70
0
 10
108.0245781494
 20
26.2425636191
 10
108.0330193593
 20
26.2999759949
 10
108.0421044971
 20
26.3572932355
 10
108.0518941227
 20
26.4144949171
 10
108.0624487959
 20
26.4715606161
 10
108.0726589091
 20
26.5228266625
 10
108.083573183
 20
26.5739472699
 10
108.0952259732
 20
26.6249038895
 10
108.1076516347
 20
26.6756779729
 10
108.1192813105
 20
26.7202904243
 10
108.1315747787
 20
26.7647244594
 10
108.14456794
 20
26.8089580734
 10
108.158296695
 20
26.8529692615
 10
108.1710420084
 20
26.8915740765
 10
108.1844157443
 20
26.9299657649
 10
108.1984464596
 20
26.9681212538
 10
108.2131627113
 20
27.0060174708
 10
108.2267111649
 20
27.0391517086
 10
108.2408344277
 20
27.0720451207
 10
108.2555536648
 20
27.1046757861
 10
108.2708900418
 20
27.137021784
 10
108.2849757517
 20
27.1653537555
 10
108.2995777178
 20
27.1934228647
 10
108.3147135979
 20
27.2212057341
 10
108.33040105
 20
27.2486789863
 10
108.349842072
 20
27.2809934909
 10
108.3700954257
 20
27.3128072435
 10
108.3911645754
 20
27.3440926727
 10
108.4060188351
 20
27.3651217314
 10
108.4212846496
 20
27.3858520403
 10
108.4369919783
 20
27.406243775
 10
108.4531707808
 20
27.4262571107
  0
LINE
  5
2EF
100
AcDbEntity
  8
0
100
AcDbLine
 62
7
  6
CONTINUOUS
 10
123.4454409105
 20
34.5178409342
 11
123.4444698695
 21
34.511505007
  0
LINE
  5
2F0
100
AcDbEntity
  8
0
100
AcDbLine
 62
7
  6
CONTINUOUS
 10
123.446603834
 20
34.5212802034
 11
123.4450410221
 21
34.5111192607
  0
LINE
  5
2F1
100
AcDbEntity
  8
DEFAULT_2
100
AcDbLine
 62
8
  6
CONTINUOUS
 10
98.2842532415
 20
28.8343976843
 11
98.30771841
 21
28.9825509354
  0
LINE
  5
2F2
100
AcDbEntity
  8
DEFAULT_2
100
AcDbLine
 62
8
  6
CONTINUOUS
 10
99.7470746309
 20
28.8811374344
 11
99.7040551553
 21
28.6095231408
  0
LINE
  5
2F3
100
AcDbEntity
  8
0
100
AcDbLine
 62
7
  6
CONTINUOUS
 10
123.4466498567
 20
34.5250839072
 11
123.4454409105
 21
34.5178409342
  0
LINE
  5
2F4
100
AcDbEntity
  8
0
100
AcDbLine
 62
7
  6
CONTINUOUS
 10
123.4483639397
 20
34.5313460368
 11
123.446603834
 21
34.5212802034
  0
LWPOLYLINE
  5
2F5
100
AcDbEntity
  8
DEFAULT_2
100
AcDbPolyline
 62
8
  6
CONTINUOUS
 90
77
 70
0
 10
99.7040551553
 20
28.6095231408
 10
99.6983570431
 20
28.5774765907
 10
99.6914559777
 20
28.5456768395
 10
99.6833647805
 20
28.5141780074
 10
99.6740962726
 20
28.4830342145
 10
99.6636646001
 20
28.4522991237
 10
99.6520892078
 20
28.4220245687
 10
99.6393908654
 20
28.3922619259
 10
99.6255903426
 20
28.3630625718
 10
99.6107096378
 20
28.3344771821
 10
99.5947756644
 20
28.3065536299
 10
99.5778165646
 20
28.2793390873
 10
99.5598604807
 20
28.2528807269
 10
99.5409366559
 20
28.2272248084
 10
99.5210787388
 20
28.2024139416
 10
99.500321479
 20
28.178489824
 10
99.4786996259
 20
28.1554941528
 10
99.4562488725
 20
28.1334675227
 10
99.4330086839
 20
28.112446117
 10
99.4090194686
 20
28.0924650165
 10
99.3843216352
 20
28.0735593018
 10
99.3589563513
 20
28.0557627916
 10
99.332967823
 20
28.0391042561
 10
99.3064010153
 20
28.0236112037
 10
99.2793008937
 20
28.0093111427
 10
99.2517129783
 20
27.9962301941
 10
99.2236850095
 20
27.9843889304
 10
99.1952652829
 20
27.9738065366
 10
99.1665020938
 20
27.964502198
 10
99.1374440732
 20
27.9564936255
 10
99.1081411939
 20
27.9497926321
 10
99.0786437642
 20
27.944409557
 10
99.0490020925
 20
27.9403547388
 10
99.0192665938
 20
27.9376369952
 10
98.9894881102
 20
27.936259058
 10
98.9597175905
 20
27.9362221377
 10
98.9300059837
 20
27.9375274449
 10
98.9004041138
 20
27.9401746632
 10
98.8709623052
 20
27.9441573686
 10
98.8417307576
 20
27.9494676104
 10
98.8127596709
 20
27.9560974375
 10
98.7840988916
 20
27.9640374085
 10
98.7557968539
 20
27.9732721188
 10
98.727901639
 20
27.9837846729
 10
98.7004613281
 20
27.9955581756
 10
98.6735234307
 20
28.0085743177
 10
98.6471331696
 20
28.0228091339
 10
98.621335196
 20
28.0382372455
 10
98.596174161
 20
28.0548332733
 10
98.5716939412
 20
28.0725705398
 10
98.5479353143
 20
28.0914171733
 10
98.5249382836
 20
28.1113400035
 10
98.502742852
 20
28.1323058601
 10
98.4813880664
 20
28.1542804249
 10
98.4609091471
 20
28.1772247888
 10
98.4413403581
 20
28.2010988948
 10
98.4227159634
 20
28.2258626861
 10
98.4050691148
 20
28.2514751399
 10
98.3884285146
 20
28.2778913713
 10
98.3728217531
 20
28.3050655298
 10
98.3582764204
 20
28.3329517646
 10
98.344818869
 20
28.3615034679
 10
98.3324705003
 20
28.3906710023
 10
98.3212514779
 20
28.420403973
 10
98.3111819655
 20
28.4506519852
 10
98.3022807974
 20
28.4813641167
 10
98.2945614907
 20
28.512487335
 10
98.2880362332
 20
28.5439680802
 10
98.2827172127
 20
28.5757527923
 10
98.2786152317
 20
28.6077876246
 10
98.2757355523
 20
28.6400175837
 10
98.2740820516
 20
28.6723873896
 10
98.2736586063
 20
28.7048417623
 10
98.2744676923
 20
28.7373253961
 10
98.2765061803
 20
28.7697828832
 10
98.2797695402
 20
28.8021587904
 10
98.2842532415
 20
28.8343976843
  0
LINE
  5
2F6
100
AcDbEntity
  8
0
100
AcDbLine
 62
7
  6
CONTINUOUS
 10
123.448176135
 20
34.5334319718
 11
123.4466498567
 21
34.5250839072
  0
LWPOLYLINE
  5
2F7
100
AcDbEntity
  8
DEFAULT_2
100
AcDbPolyline
 62
8
  6
CONTINUOUS
 90
10
 70
0
 10
120.5925822889
 20
16.5447262266
 10
120.6309817936
 20
16.7511901859
 10
120.6694284476
 20
16.9586845797
 10
120.7079207553
 20
17.1672050932
 10
120.7464577651
 20
17.3767503725
 10
120.7850407018
 20
17.5873309077
 10
120.8236713344
 20
17.7989601496
 10
120.8623508908
 20
18.0116485865
 10
120.9010784346
 20
18.2253948575
 10
120.9398524881
 20
18.4401946387
  0
LINE
  5
2F8
100
AcDbEntity
  8
6_SURFACES-PATINS-SPEC
100
AcDbLine
 62
7
  6
CONTINUOUS
 10
104.8740688422
 20
13.3582468257
 11
104.8748198273
 21
13.3622713304
  0
LINE
  5
2F9
100
AcDbEntity
  8
0
100
AcDbLine
 62
7
  6
CONTINUOUS
 10
123.4503168573
 20
34.5413131583
 11
123.4483639397
 21
34.5313460368
  0
LINE
  5
2FA
100
AcDbEntity
  8
1_CURVES_JETS
100
AcDbLine
 62
7
  6
CONTINUOUS
 10
121.0760924483
 20
15.5468694986
 11
121.1099761987
 21
15.7194374243
  0
LINE
  5
2FB
100
AcDbEntity
  8
1_CURVES_JETS
100
AcDbLine
 62
7
  6
CONTINUOUS
 10
122.6548460951
 20
25.9041240252
 11
122.6858449508
 21
26.0612433982
  0
LINE
  5
2FC
100
AcDbEntity
  8
0
100
AcDbLine
 62
7
  6
CONTINUOUS
 10
123.441837925
 20
34.4907650362
 11
123.4422865561
 21
34.4929949984
  0
LINE
  5
2FD
100
AcDbEntity
  8
0
100
AcDbLine
 62
7
  6
CONTINUOUS
 10
123.4501310365
 20
34.5431315494
 11
123.448176135
 21
34.5334319718
  0
LINE
  5
2FE
100
AcDbEntity
  8
6_SURFACES-PATINS-SPEC
100
AcDbLine
 62
7
  6
CONTINUOUS
 10
102.094895336
 20
13.4455510021
 11
102.0950208737
 21
13.4461716479
  0
LINE
  5
2FF
100
AcDbEntity
  8
1_CURVES_JETS
100
AcDbLine
 62
7
  6
CONTINUOUS
 10
122.2841771516
 20
24.87907243
 11
122.288638305
 21
24.9007308639
  0
LINE
  5
300
100
AcDbEntity
  8
0
100
AcDbLine
 62
7
  6
CONTINUOUS
 10
123.4524580671
 20
34.5511781298
 11
123.4503168573
 21
34.5413131583
  0
LINE
  5
301
100
AcDbEntity
  8
6_SURFACES-PATINS-SPEC
100
AcDbLine
 62
7
  6
CONTINUOUS
 10
104.8748198273
 20
13.3622713304
 11
104.876348775
 21
13.3691672334
  0
LINE
  5
302
100
AcDbEntity
  8
0
100
AcDbLine
 62
7
  6
CONTINUOUS
 10
123.4526692643
 20
34.554476103
 11
123.4501310365
 21
34.5431315494
  0
LINE
  5
303
100
AcDbEntity
  8
0
100
AcDbLine
 62
7
  6
CONTINUOUS
 10
123.4547830157
 20
34.5609376752
 11
123.4524580671
 21
34.5511781298
  0
LWPOLYLINE
  5
304
100
AcDbEntity
  8
6_SURFACES-PATINS-SPEC
100
AcDbPolyline
 62
7
  6
CONTINUOUS
 90
14
 70
0
 10
104.876348775
 20
13.3691672334
 10
104.8771254231
 20
13.3723590199
 10
104.8779326709
 20
13.375543308
 10
104.878765903
 20
13.3787210238
 10
104.8796205041
 20
13.381893093
 10
104.8810868155
 20
13.3871859148
 10
104.8825928634
 20
13.3924674194
 10
104.8841315549
 20
13.3977394845
 10
104.8863058419
 20
13.4050296713
 10
104.8885234394
 20
13.4123068983
 10
104.8907786314
 20
13.4195727158
 10
104.8930657019
 20
13.4268286739
 10
104.8953789352
 20
13.4340763227
 10
104.8977126151
 20
13.4413172124
  0
LINE
  5
305
100
AcDbEntity
  8
0
100
AcDbLine
 62
7
  6
CONTINUOUS
 10
123.4560085857
 20
34.5678179495
 11
123.4526692643
 21
34.554476103
  0
LINE
  5
306
100
AcDbEntity
  8
0
100
AcDbLine
 62
7
  6
CONTINUOUS
 10
123.4572871222
 20
34.5705886797
 11
123.4547830157
 21
34.5609376752
  0
LINE
  5
307
100
AcDbEntity
  8
6_SURFACES-PATINS-SPEC
100
AcDbLine
 62
7
  6
CONTINUOUS
 10
116.8910285487
 20
13.470751828
 11
116.8845709485
 21
13.4461717143
  0
LINE
  5
308
100
AcDbEntity
  8
1_CURVES_JETS
100
AcDbLine
 62
7
  6
CONTINUOUS
 10
121.0298699676
 20
15.3771530792
 11
121.0760924483
 21
15.5468694986
  0
LINE
  5
309
100
AcDbEntity
  8
6_SURFACES-PATINS-SPEC
100
AcDbLine
 62
7
  6
CONTINUOUS
 10
104.8784473942
 20
13.3252065073
 11
104.8784200029
 21
13.325107383
  0
LINE
  5
30A
100
AcDbEntity
  8
0
100
AcDbLine
 62
7
  6
CONTINUOUS
 10
123.4599657817
 20
34.5801281877
 11
123.4572871222
 21
34.5705886797
  0
LINE
  5
30B
100
AcDbEntity
  8
6_SURFACES-PATINS-SPEC
100
AcDbLine
 62
7
  6
CONTINUOUS
 10
104.8801089867
 20
13.3564119639
 11
104.8800805313
 21
13.3563106905
  0
LINE
  5
30C
100
AcDbEntity
  8
0
100
AcDbLine
 62
7
  6
CONTINUOUS
 10
123.4604422968
 20
34.5835246713
 11
123.4560085857
 21
34.5678179495
  0
LINE
  5
30D
100
AcDbEntity
  8
1_CURVES_JETS
100
AcDbLine
 62
7
  6
CONTINUOUS
 10
122.6146815537
 20
25.7644438161
 11
122.6548460951
 21
25.9041240252
  0
LINE
  5
30E
100
AcDbEntity
  8
6_SURFACES-PATINS-SPEC
100
AcDbLine
 62
7
  6
CONTINUOUS
 10
104.8800453114
 20
13.3554081655
 11
104.8804362493
 21
13.3567663828
  0
LINE
  5
30F
100
AcDbEntity
  8
6_SURFACES-PATINS-SPEC
100
AcDbLine
 62
7
  6
CONTINUOUS
 10
104.8804362493
 20
13.3567663828
 11
104.8823135535
 21
13.3631749615
  0
LINE
  5
310
100
AcDbEntity
  8
6_SURFACES-PATINS-SPEC
100
AcDbLine
 62
7
  6
CONTINUOUS
 10
104.8823135535
 20
13.3631749615
 11
104.8844044565
 21
13.3701344073
  0
LINE
  5
311
100
AcDbEntity
  8
0
100
AcDbLine
 62
7
  6
CONTINUOUS
 10
123.4628143713
 20
34.5895534015
 11
123.4599657817
 21
34.5801281877
  0
LWPOLYLINE
  5
312
100
AcDbEntity
  8
6_SURFACES-PATINS-SPEC
100
AcDbPolyline
 62
7
  6
CONTINUOUS
 90
9
 70
0
 10
104.8844044565
 20
13.3701344073
 10
104.8867085155
 20
13.3776437606
 10
104.8890504211
 20
13.3851414657
 10
104.8914245984
 20
13.3926291012
 10
104.8938254726
 20
13.4001082454
 10
104.8971403296
 20
13.4103154793
 10
104.9004898512
 20
13.4205113131
 10
104.903869274
 20
13.4306972504
 10
104.907273834
 20
13.4408747947
  0
LINE
  5
313
100
AcDbEntity
  8
0
100
AcDbLine
 62
7
  6
CONTINUOUS
 10
123.4662664703
 20
34.6016847343
 11
123.4604422968
 21
34.5835246713
  0
LINE
  5
314
100
AcDbEntity
  8
0
100
AcDbLine
 62
7
  6
CONTINUOUS
 10
123.4658282534
 20
34.5988616789
 11
123.4628143713
 21
34.5895534015
  0
LINE
  5
315
100
AcDbEntity
  8
6_SURFACES-PATINS-SPEC
100
AcDbLine
 62
7
  6
CONTINUOUS
 10
116.8922122665
 20
13.4744056666
 11
116.8910285487
 21
13.470751828
  0
LINE
  5
316
100
AcDbEntity
  8
1_CURVES_JETS
100
AcDbLine
 62
7
  6
CONTINUOUS
 10
122.288638305
 20
24.9007308639
 11
122.2923388865
 21
24.9120011401
  0
LINE
  5
317
100
AcDbEntity
  8
6_SURFACES-PATINS-SPEC
100
AcDbLine
 62
7
  6
CONTINUOUS
 10
116.893210574
 20
13.4774406878
 11
116.8922122665
 21
13.4744056666
  0
LINE
  5
318
100
AcDbEntity
  8
1_CURVES_JETS
100
AcDbLine
 62
7
  6
CONTINUOUS
 10
122.5703697876
 20
25.6356467611
 11
122.6146815537
 21
25.7644438161
  0
LINE
  5
319
100
AcDbEntity
  8
0
100
AcDbLine
 62
7
  6
CONTINUOUS
 10
123.4690027814
 20
34.6080505314
 11
123.4658282534
 21
34.5988616789
  0
LINE
  5
31A
100
AcDbEntity
  8
1_CURVES_JETS
100
AcDbLine
 62
7
  6
CONTINUOUS
 10
120.9716183191
 20
15.2113662701
 11
121.0298699676
 21
15.3771530792
  0
LINE
  5
31B
100
AcDbEntity
  8
6_SURFACES-PATINS-SPEC
100
AcDbLine
 62
7
  6
CONTINUOUS
 10
106.8269136821
 20
13.3519269024
 11
106.5939101309
 21
12.7070507544
  0
LINE
  5
31C
100
AcDbEntity
  8
1_CURVES_JETS
100
AcDbLine
 62
7
  6
CONTINUOUS
 10
122.3587342511
 20
25.0901463045
 11
122.3587418202
 21
25.0901671495
  0
LINE
  5
31D
100
AcDbEntity
  8
6_SURFACES-PATINS-SPEC
100
AcDbLine
 62
7
  6
CONTINUOUS
 10
104.5061089223
 20
13.0789250431
 11
104.3707577503
 21
12.7070507544
  0
LINE
  5
31E
100
AcDbEntity
  8
6_SURFACES-PATINS-SPEC
100
AcDbLine
 62
7
  6
CONTINUOUS
 10
116.5615892662
 20
13.231356035
 11
116.3707577503
 21
12.7070507544
  0
LINE
  5
31F
100
AcDbEntity
  8
6_SURFACES-PATINS-SPEC
100
AcDbLine
 62
7
  6
CONTINUOUS
 10
106.6002958344
 20
12.7070507544
 11
106.8351055824
 21
13.3515451006
  0
LINE
  5
320
100
AcDbEntity
  8
0
100
AcDbLine
 62
7
  6
CONTINUOUS
 10
123.4737272081
 20
34.6220608304
 11
123.4662664703
 21
34.6016847343
  0
LINE
  5
321
100
AcDbEntity
  8
0
100
AcDbLine
 62
7
  6
CONTINUOUS
 10
123.4723333028
 20
34.6171176225
 11
123.4690027814
 21
34.6080505314
  0
LINE
  5
322
100
AcDbEntity
  8
1_CURVES_JETS
100
AcDbLine
 62
7
  6
CONTINUOUS
 10
122.2923378706
 20
24.9119984887
 11
122.3587418202
 21
25.0901671495
  0
LWPOLYLINE
  5
323
100
AcDbEntity
  8
6_SURFACES-PATINS-SPEC
100
AcDbPolyline
 62
7
  6
CONTINUOUS
 90
49
 70
0
 10
106.5939101334
 20
12.7070507544
 10
106.5855352965
 20
12.6847644894
 10
106.5765930268
 20
12.6626886622
 10
106.5670913383
 20
12.6408393697
 10
106.5570382451
 20
12.6192327087
 10
106.5464417613
 20
12.5978847761
 10
106.5353099008
 20
12.5768116688
 10
106.5236619753
 20
12.5560488591
 10
106.5114945524
 20
12.5355894122
 10
106.498814481
 20
12.515446329
 10
106.4856286103
 20
12.4956326105
 10
106.4719437893
 20
12.4761612577
 10
106.4577668671
 20
12.4570452716
 10
106.4431212349
 20
12.4383170992
 10
106.4280022962
 20
12.4199676251
 10
106.4124209644
 20
12.4020079634
 10
106.3963881526
 20
12.3844492285
 10
106.3799147741
 20
12.3673025347
 10
106.3630117422
 20
12.3505789961
 10
106.3457092697
 20
12.3343073944
 10
106.3279999021
 20
12.3184800706
 10
106.3098945632
 20
12.3031079887
 10
106.2914041769
 20
12.2882021124
 10
106.272539667
 20
12.2737734056
 10
106.2533119573
 20
12.2598328323
 10
106.2337531938
 20
12.2464045893
 10
106.2138565991
 20
12.2334815831
 10
106.1936358782
 20
12.2210710015
 10
106.1731047361
 20
12.2091800324
 10
106.1522768778
 20
12.1978158635
 10
106.1311660083
 20
12.1869856825
 10
106.1098051281
 20
12.1767056273
 10
106.0881894795
 20
12.1669729195
 10
106.0663331193
 20
12.1577946978
 10
106.0442501039
 20
12.1491781012
 10
106.02195449
 20
12.1411302684
 10
105.9994603341
 20
12.1336583381
 10
105.9767967056
 20
12.1267730097
 10
105.9539634808
 20
12.1204725314
 10
105.9309753071
 20
12.1147594751
 10
105.9078468319
 20
12.1096364129
 10
105.8845927027
 20
12.1051059169
 10
105.861227567
 20
12.1011705591
 10
105.8377738551
 20
12.097833815
 10
105.8142420161
 20
12.0950968278
 10
105.7906502229
 20
12.0929620098
 10
105.7670166484
 20
12.0914317735
 10
105.7433594657
 20
12.0905085313
 10
105.7196968477
 20
12.0901946955
  0
LINE
  5
324
100
AcDbEntity
  8
1_CURVES_JETS
100
AcDbLine
 62
7
  6
CONTINUOUS
 10
122.5233481667
 20
25.5112400366
 11
122.5703697876
 21
25.6356467611
  0
LINE
  5
325
100
AcDbEntity
  8
1_CURVES_JETS
100
AcDbLine
 62
7
  6
CONTINUOUS
 10
122.3587342555
 20
25.0901463028
 11
122.418934655
 21
25.2481474242
  0
LINE
  5
326
100
AcDbEntity
  8
0
100
AcDbLine
 62
7
  6
CONTINUOUS
 10
123.4758151644
 20
34.6260607649
 11
123.4723333028
 21
34.6171176225
  0
LINE
  5
327
100
AcDbEntity
  8
1_CURVES_JETS
100
AcDbLine
 62
7
  6
CONTINUOUS
 10
122.4733228289
 20
25.3847564193
 11
122.5233481667
 21
25.5112400366
  0
LINE
  5
328
100
AcDbEntity
  8
1_CURVES_JETS
100
AcDbLine
 62
7
  6
CONTINUOUS
 10
122.418934655
 20
25.2481474242
 11
122.4733228289
 21
25.3847564193
  0
LWPOLYLINE
  5
329
100
AcDbEntity
  8
6_SURFACES-PATINS-SPEC
100
AcDbPolyline
 62
7
  6
CONTINUOUS
 90
10
 70
0
 10
116.9266418374
 20
13.5723828143
 10
116.9226607338
 20
13.5624771208
 10
116.9186494184
 20
13.5525836237
 10
116.914602645
 20
13.5427044783
 10
116.9105151675
 20
13.53284184
 10
116.908038853
 20
13.5269302632
 10
116.9055402317
 20
13.5210281004
 10
116.9030135564
 20
13.5151380397
 10
116.9004530802
 20
13.5092627693
 10
116.8978530563
 20
13.5034049774
  0
LINE
  5
32A
100
AcDbEntity
  8
6_SURFACES-PATINS-SPEC
100
AcDbLine
 62
7
  6
CONTINUOUS
 10
106.5732830498
 20
12.6409198181
 11
106.6002958346
 21
12.7070507544
  0
LINE
  5
32B
100
AcDbEntity
  8
0
100
AcDbLine
 62
7
  6
CONTINUOUS
 10
123.4794437155
 20
34.6348779188
 11
123.4758151644
 21
34.6260607649
  0
LINE
  5
32C
100
AcDbEntity
  8
0
100
AcDbLine
 62
7
  6
CONTINUOUS
 10
123.4829701749
 20
34.6441361599
 11
123.4737272081
 21
34.6220608304
  0
LWPOLYLINE
  5
32D
100
AcDbEntity
  8
6_SURFACES-PATINS-SPEC
100
AcDbPolyline
 62
7
  6
CONTINUOUS
 90
9
 70
0
 10
116.9035019843
 20
13.4826799066
 10
116.906910279
 20
13.490702974
 10
116.9102705573
 20
13.4987465443
 10
116.9135920075
 20
13.5068064621
 10
116.9168838174
 20
13.5148785714
 10
116.9227357699
 20
13.5293783609
 10
116.9285304031
 20
13.5439006891
 10
116.9342761998
 20
13.5584422403
 10
116.9399816427
 20
13.5729996986
  0
LWPOLYLINE
  5
32E
100
AcDbEntity
  8
1_CURVES_JETS
100
AcDbPolyline
 62
7
  6
CONTINUOUS
 90
16
 70
0
 10
122.280222488
 20
24.8817669527
 10
122.2757273548
 20
24.8711920975
 10
122.2711218676
 20
24.8606645099
 10
122.2664089141
 20
24.8501838523
 10
122.2615913822
 20
24.839749787
 10
122.2558481554
 20
24.8276470735
 10
122.2499705205
 20
24.8156072945
 10
122.2439622108
 20
24.8036305497
 10
122.2378269594
 20
24.7917169391
 10
122.2315684996
 20
24.7798665624
 10
122.2251905648
 20
24.7680795194
 10
122.2186968881
 20
24.7563559099
 10
122.2120912027
 20
24.7446958337
 10
122.205377242
 20
24.7330993906
 10
122.1985587392
 20
24.7215666804
 10
122.1916394275
 20
24.7100978029
  0
LINE
  5
32F
100
AcDbEntity
  8
6_SURFACES-PATINS-SPEC
100
AcDbLine
 62
7
  6
CONTINUOUS
 10
104.5032272536
 20
13.0710077236
 11
104.5188766607
 21
13.1077784113
  0
LINE
  5
330
100
AcDbEntity
  8
6_SURFACES-PATINS-SPEC
100
AcDbLine
 62
7
  6
CONTINUOUS
 10
116.5498215217
 20
13.1990244272
 11
116.5659104843
 21
13.2366890085
  0
LINE
  5
331
100
AcDbEntity
  8
0
100
AcDbLine
 62
7
  6
CONTINUOUS
 10
123.4832143123
 20
34.6435671895
 11
123.4794437155
 21
34.6348779188
  0
LINE
  5
332
100
AcDbEntity
  8
1_CURVES_JETS
100
AcDbLine
 62
7
  6
CONTINUOUS
 10
120.9017710281
 20
15.050554692
 11
120.9716183191
 21
15.2113662701
  0
LINE
  5
333
100
AcDbEntity
  8
6_SURFACES-PATINS-SPEC
100
AcDbLine
 62
7
  6
CONTINUOUS
 10
116.8999423998
 20
13.4744667593
 11
116.9035019843
 21
13.4826799066
  0
LINE
  5
334
100
AcDbEntity
  8
6_SURFACES-PATINS-SPEC
100
AcDbLine
 62
7
  6
CONTINUOUS
 10
116.8982779445
 20
13.4706943402
 11
116.8999423998
 21
13.4744667593
  0
LINE
  5
335
100
AcDbEntity
  8
6_SURFACES-PATINS-SPEC
100
AcDbLine
 62
7
  6
CONTINUOUS
 10
116.8947691165
 20
13.4629347458
 11
116.8982779445
 21
13.4706943402
  0
LINE
  5
336
100
AcDbEntity
  8
0
100
AcDbLine
 62
7
  6
CONTINUOUS
 10
123.4871223218
 20
34.6521268247
 11
123.4832143123
 21
34.6435671895
  0
LINE
  5
337
100
AcDbEntity
  8
6_SURFACES-PATINS-SPEC
100
AcDbLine
 62
7
  6
CONTINUOUS
 10
116.8927151385
 20
13.4585572961
 11
116.8947691165
 21
13.4629347458
  0
LINE
  5
338
100
AcDbEntity
  8
0
100
AcDbLine
 62
7
  6
CONTINUOUS
 10
123.4943557134
 20
34.6679037743
 11
123.4829701749
 21
34.6441361599
  0
LINE
  5
339
100
AcDbEntity
  8
0
100
AcDbLine
 62
7
  6
CONTINUOUS
 10
123.4911631247
 20
34.6605552123
 11
123.4871223218
 21
34.6521268247
  0
LWPOLYLINE
  5
33A
100
AcDbEntity
  8
6_SURFACES-PATINS-SPEC
100
AcDbPolyline
 62
7
  6
CONTINUOUS
 90
28
 70
0
 10
102.0880779284
 20
13.5088798096
 10
102.0883300144
 20
13.5093990173
 10
102.0888358292
 20
13.5097862294
 10
102.0897423771
 20
13.5102155337
 10
102.0909990658
 20
13.5106287681
 10
102.0945581246
 20
13.5114066304
 10
102.0995038475
 20
13.5121190416
 10
102.105827291
 20
13.5127652395
 10
102.113517841
 20
13.513344417
 10
102.1329387495
 20
13.51429795
 10
102.1577057188
 20
13.5149722923
 10
102.1876937627
 20
13.5153603467
 10
102.2219948473
 20
13.5154567528
 10
102.2592239662
 20
13.5152837189
 10
102.2980956516
 20
13.5148826488
 10
102.3378278972
 20
13.5142950046
 10
102.3781534711
 20
13.5135508292
 10
102.4190145308
 20
13.51266981
 10
102.5024085551
 20
13.5105437794
 10
102.5881764302
 20
13.5079787429
 10
102.6770650916
 20
13.5049874621
 10
102.7701857061
 20
13.5015420198
 10
102.8689934461
 20
13.497575974
 10
102.9752282985
 20
13.4929862731
 10
103.0908399075
 20
13.4876360478
 10
103.2191001746
 20
13.4812953819
 10
103.3660897285
 20
13.4735327889
 10
103.5130511167
 20
13.465255554
  0
LINE
  5
33B
100
AcDbEntity
  8
6_SURFACES-PATINS-SPEC
100
AcDbLine
 62
7
  6
CONTINUOUS
 10
116.8908504776
 20
13.4547361782
 11
116.8927151385
 21
13.4585572961
  0
LINE
  5
33C
100
AcDbEntity
  8
0
100
AcDbLine
 62
7
  6
CONTINUOUS
 10
123.4953321199
 20
34.6688508778
 11
123.4911631247
 21
34.6605552123
  0
LWPOLYLINE
  5
33D
100
AcDbEntity
  8
6_SURFACES-PATINS-SPEC
100
AcDbPolyline
 62
7
  6
CONTINUOUS
 90
41
 70
0
 10
104.8784200023
 20
13.32510737
 10
104.8781677282
 20
13.3246088297
 10
104.8779129215
 20
13.3241119818
 10
104.8776549048
 20
13.323616893
 10
104.8773930003
 20
13.3231236296
 10
104.8771265307
 20
13.3226322582
 10
104.8768548181
 20
13.3221428453
 10
104.8765771852
 20
13.3216554573
 10
104.8763949627
 20
13.3213427728
 10
104.8762099388
 20
13.3210314738
 10
104.8760220481
 20
13.3207220787
 10
104.8758312256
 20
13.3204151055
 10
104.8756374061
 20
13.3201110726
 10
104.8754405242
 20
13.3198104982
 10
104.875240515
 20
13.3195139005
 10
104.8750373131
 20
13.3192217976
 10
104.8749396003
 20
13.3190848154
 10
104.8748406542
 20
13.3189490452
 10
104.8747399762
 20
13.3188145682
 10
104.8746370678
 20
13.3186814661
 10
104.8745314303
 20
13.3185498203
 10
104.8744225651
 20
13.3184197121
 10
104.8743099735
 20
13.3182912231
 10
104.874193157
 20
13.3181644347
 10
104.8740716169
 20
13.3180394284
 10
104.8739448547
 20
13.3179162856
 10
104.8738123717
 20
13.3177950878
 10
104.8737549109
 20
13.317744867
 10
104.8736963587
 20
13.3176955013
 10
104.8736367206
 20
13.3176474886
 10
104.8735760024
 20
13.3176013264
 10
104.8735142096
 20
13.3175575125
 10
104.8734513478
 20
13.3175165446
 10
104.8733874227
 20
13.3174789205
 10
104.8733224399
 20
13.3174451378
 10
104.873256405
 20
13.3174156943
 10
104.8731893237
 20
13.3173910876
 10
104.8731212015
 20
13.3173718155
 10
104.8730520442
 20
13.3173583757
 10
104.8729818572
 20
13.3173512659
 10
104.8729106463
 20
13.3173509838
  0
LINE
  5
33E
100
AcDbEntity
  8
6_SURFACES-PATINS-SPEC
100
AcDbLine
 62
7
  6
CONTINUOUS
 10
106.5360055537
 20
12.5674425104
 11
106.5732830498
 21
12.6409198181
  0
LINE
  5
33F
100
AcDbEntity
  8
1_CURVES_JETS
100
AcDbLine
 62
7
  6
CONTINUOUS
 10
120.8208913067
 20
14.8957301377
 11
120.9017710281
 21
15.050554692
  0
LINE
  5
340
100
AcDbEntity
  8
0
100
AcDbLine
 62
7
  6
CONTINUOUS
 10
123.4996247269
 20
34.6770124816
 11
123.4953321199
 21
34.6688508778
  0
LINE
  5
341
100
AcDbEntity
  8
0
100
AcDbLine
 62
7
  6
CONTINUOUS
 10
123.5086367666
 20
34.6938794959
 11
123.4943557134
 21
34.6679037743
  0
LINE
  5
342
100
AcDbEntity
  8
0
100
AcDbLine
 62
7
  6
CONTINUOUS
 10
123.5040363897
 20
34.6850388166
 11
123.4996247269
 21
34.6770124816
  0
LINE
  5
343
100
AcDbEntity
  8
6_SURFACES-PATINS-SPEC
100
AcDbLine
 62
7
  6
CONTINUOUS
 10
104.5188766607
 20
13.1077784113
 11
104.5386213318
 21
13.1431046681
  0
LINE
  5
344
100
AcDbEntity
  8
6_SURFACES-PATINS-SPEC
100
AcDbLine
 62
7
  6
CONTINUOUS
 10
116.5659104843
 20
13.2366890085
 11
116.5860622221
 21
13.2724546291
  0
LINE
  5
345
100
AcDbEntity
  8
0
100
AcDbLine
 62
7
  6
CONTINUOUS
 10
123.5085625798
 20
34.6929288055
 11
123.5040363897
 21
34.6850388166
  0
LINE
  5
346
100
AcDbEntity
  8
0
100
AcDbLine
 62
7
  6
CONTINUOUS
 10
123.5131987989
 20
34.7006814978
 11
123.5085625798
 21
34.6929288055
  0
LINE
  5
347
100
AcDbEntity
  8
1_CURVES_JETS
100
AcDbLine
 62
7
  6
CONTINUOUS
 10
120.7296650466
 20
14.7478407197
 11
120.8208913067
 21
14.8957301377
  0
LINE
  5
348
100
AcDbEntity
  8
6_SURFACES-PATINS-SPEC
100
AcDbLine
 62
7
  6
CONTINUOUS
 10
106.4924361246
 20
12.4974375764
 11
106.5360055537
 21
12.5674425104
  0
LINE
  5
349
100
AcDbEntity
  8
0
100
AcDbLine
 62
7
  6
CONTINUOUS
 10
123.5179405819
 20
34.7082960671
 11
123.5131987989
 21
34.7006814978
  0
LINE
  5
34A
100
AcDbEntity
  8
6_SURFACES-PATINS-SPEC
100
AcDbLine
 62
7
  6
CONTINUOUS
 10
116.884969965
 20
13.4453705545
 11
116.8908504776
 21
13.4547361782
  0
LINE
  5
34B
100
AcDbEntity
  8
0
100
AcDbLine
 62
7
  6
CONTINUOUS
 10
123.5269546765
 20
34.7226846209
 11
123.5086367666
 21
34.6938794959
  0
LINE
  5
34C
100
AcDbEntity
  8
0
100
AcDbLine
 62
7
  6
CONTINUOUS
 10
123.5227834998
 20
34.7157718085
 11
123.5179405819
 21
34.7082960671
  0
LINE
  5
34D
100
AcDbEntity
  8
0
100
AcDbLine
 62
7
  6
CONTINUOUS
 10
123.527723162
 20
34.7231081358
 11
123.5227834998
 21
34.7157718085
  0
LINE
  5
34E
100
AcDbEntity
  8
0
100
AcDbLine
 62
7
  6
CONTINUOUS
 10
123.532755219
 20
34.7303045782
 11
123.527723162
 21
34.7231081358
  0
LINE
  5
34F
100
AcDbEntity
  8
0
100
AcDbLine
 62
7
  6
CONTINUOUS
 10
123.5353842491
 20
34.7346144704
 11
123.5269546765
 21
34.7226846209
  0
LINE
  5
350
100
AcDbEntity
  8
6_SURFACES-PATINS-SPEC
100
AcDbLine
 62
7
  6
CONTINUOUS
 10
104.5386213318
 20
13.1431046681
 11
104.5620578713
 21
13.1760975108
  0
LINE
  5
351
100
AcDbEntity
  8
6_SURFACES-PATINS-SPEC
100
AcDbLine
 62
7
  6
CONTINUOUS
 10
116.5860622221
 20
13.2724546291
 11
116.6100030229
 21
13.3058036183
  0
LINE
  5
352
100
AcDbEntity
  8
1_CURVES_JETS
100
AcDbLine
 62
7
  6
CONTINUOUS
 10
120.6289823345
 20
14.6078678885
 11
120.7296650466
 21
14.7478407197
  0
LINE
  5
353
100
AcDbEntity
  8
0
100
AcDbLine
 62
7
  6
CONTINUOUS
 10
123.5378753647
 20
34.737360778
 11
123.532755219
 21
34.7303045782
  0
LINE
  5
354
100
AcDbEntity
  8
0
100
AcDbLine
 62
7
  6
CONTINUOUS
 10
123.5353844941
 20
34.734614292
 11
123.5353397415
 21
34.734552869
  0
LINE
  5
355
100
AcDbEntity
  8
0
100
AcDbLine
 62
7
  6
CONTINUOUS
 10
123.5415088193
 20
34.7428400986
 11
123.5353397415
 21
34.734552869
  0
LWPOLYLINE
  5
356
100
AcDbEntity
  8
DEFAULT_2
100
AcDbPolyline
 62
8
  6
CONTINUOUS
 90
33
 70
0
 10
120.2548443906
 20
16.0715880914
 10
120.2787496943
 20
16.1035379124
 10
120.3020118529
 20
16.1359666658
 10
120.3246273627
 20
16.1688541887
 10
120.3465927205
 20
16.2021803184
 10
120.3690478273
 20
16.2377767246
 10
120.3907754932
 20
16.2738197849
 10
120.411775135
 20
16.3102908484
 10
120.4320461692
 20
16.3471712641
 10
120.4525994877
 20
16.3864158182
 10
120.4723571171
 20
16.426067866
 10
120.491331416
 20
16.4661019488
 10
120.5095347426
 20
16.5064926075
 10
120.5278418331
 20
16.5492842135
 10
120.5453241087
 20
16.5924187538
 10
120.5619940747
 20
16.6358736923
 10
120.5778642366
 20
16.679626493
 10
120.5936546431
 20
16.7257785087
 10
120.6086062902
 20
16.7722091776
 10
120.622745248
 20
16.8188947141
 10
120.6360975867
 20
16.865811332
 10
120.649222923
 20
16.9150059307
 10
120.6615419514
 20
16.9644079146
 10
120.6730770249
 20
17.0139988087
 10
120.6838504968
 20
17.0637601381
 10
120.6942556432
 20
17.1155915058
 10
120.7038916362
 20
17.1675712651
 10
120.7127863664
 20
17.2196839672
 10
120.7209677243
 20
17.2719141629
 10
120.728679913
 20
17.325843052
 10
120.735685044
 20
17.3798676099
 10
120.7420039498
 20
17.4339751473
 10
120.7476574625
 20
17.4881529751
  0
LINE
  5
357
100
AcDbEntity
  8
6_SURFACES-PATINS-SPEC
100
AcDbLine
 62
7
  6
CONTINUOUS
 10
106.4428522373
 20
12.4314932707
 11
106.4924361246
 21
12.4974375764
  0
LINE
  5
358
100
AcDbEntity
  8
0
100
AcDbLine
 62
7
  6
CONTINUOUS
 10
123.5430793383
 20
34.7442764872
 11
123.5378753647
 21
34.737360778
  0
LWPOLYLINE
  5
359
100
AcDbEntity
  8
6_SURFACES-PATINS-SPEC
100
AcDbPolyline
 62
7
  6
CONTINUOUS
 90
26
 70
0
 10
114.1011440789
 20
13.3252074293
 10
114.1014573898
 20
13.3256232024
 10
114.1024563768
 20
13.3260915359
 10
114.1041672572
 20
13.3266147047
 10
114.106612891
 20
13.3271944292
 10
114.1098086623
 20
13.3278311965
 10
114.1137689415
 20
13.3285253271
 10
114.1240271305
 20
13.3300865507
 10
114.1374443464
 20
13.3318788367
 10
114.1540445761
 20
13.3339009392
 10
114.1738264073
 20
13.3361492215
 10
114.1967741266
 20
13.3386169454
 10
114.2228889846
 20
13.3413026391
 10
114.2521929312
 20
13.3442090889
 10
114.2847022227
 20
13.3473294206
 10
114.3203314602
 20
13.3506506711
 10
114.4000313271
 20
13.3578067275
 10
114.4897090234
 20
13.365493096
 10
114.5895647174
 20
13.373697128
 10
114.6998392594
 20
13.3823779273
 10
114.8185782919
 20
13.3913375037
 10
114.9436364931
 20
13.4003655597
 10
115.0736631373
 20
13.4093322473
 10
115.2066229125
 20
13.4180767165
 10
115.3374640506
 20
13.4262754531
 10
115.4683295814
 20
13.4340738704
  0
LINE
  5
35A
100
AcDbEntity
  8
0
100
AcDbLine
 62
7
  6
CONTINUOUS
 10
123.548362927
 20
34.7510515648
 11
123.5430793383
 21
34.7442764872
  0
LINE
  5
35B
100
AcDbEntity
  8
0
100
AcDbLine
 62
7
  6
CONTINUOUS
 10
123.5537219676
 20
34.7576859741
 11
123.548362927
 21
34.7510515648
  0
LINE
  5
35C
100
AcDbEntity
  8
0
100
AcDbLine
 62
7
  6
CONTINUOUS
 10
123.5651444512
 20
34.7716253711
 11
123.5415088193
 21
34.7428400986
  0
LINE
  5
35D
100
AcDbEntity
  8
1_CURVES_JETS
100
AcDbLine
 62
7
  6
CONTINUOUS
 10
120.5200814623
 20
14.4769066629
 11
120.6289823345
 21
14.6078678885
  0
LWPOLYLINE
  5
35E
100
AcDbEntity
  8
DEFAULT_2
100
AcDbPolyline
 62
8
  6
CONTINUOUS
 90
21
 70
0
 10
108.4531707808
 20
27.4262571107
 10
108.4627694504
 20
27.4377870033
 10
108.4725014751
 20
27.4492062211
 10
108.4823703178
 20
27.4605081713
 10
108.4923794413
 20
27.4716862615
 10
108.5025323083
 20
27.482733899
 10
108.5123463229
 20
27.4931375685
 10
108.5222930587
 20
27.5034143186
 10
108.5323714869
 20
27.5135617474
 10
108.5425805785
 20
27.5235774534
 10
108.552919305
 20
27.5334590347
 10
108.5630076814
 20
27.5428559341
 10
108.5732141374
 20
27.5521244659
 10
108.5835372357
 20
27.5612631402
 10
108.5939755389
 20
27.5702704671
 10
108.6045276095
 20
27.5791449568
 10
108.6149325813
 20
27.5876745523
 10
108.6254443781
 20
27.596072096
 10
108.6360628703
 20
27.6043334345
 10
108.6467879285
 20
27.6124544145
 10
108.6576194235
 20
27.6204308828
  0
LINE
  5
35F
100
AcDbEntity
  8
0
100
AcDbLine
 62
7
  6
CONTINUOUS
 10
123.5591523482
 20
34.7641797794
 11
123.5537219676
 21
34.7576859741
  0
LINE
  5
360
100
AcDbEntity
  8
0
100
AcDbLine
 62
7
  6
CONTINUOUS
 10
123.5646500105
 20
34.7705331431
 11
123.5591523482
 21
34.7641797794
  0
LINE
  5
361
100
AcDbEntity
  8
6_SURFACES-PATINS-SPEC
100
AcDbLine
 62
7
  6
CONTINUOUS
 10
104.5620578713
 20
13.1760975108
 11
104.5889133261
 21
13.2063726739
  0
LINE
  5
362
100
AcDbEntity
  8
0
100
AcDbLine
 62
7
  6
CONTINUOUS
 10
123.5702109511
 20
34.7767463232
 11
123.5646500105
 21
34.7705331431
  0
LWPOLYLINE
  5
363
100
AcDbEntity
  8
1_CURVES_JETS
100
AcDbPolyline
 62
7
  6
CONTINUOUS
 90
32
 70
0
 10
122.1916394292
 20
24.7100978033
 10
122.1971085458
 20
24.7162024496
 10
122.2024982763
 20
24.7223794152
 10
122.207802675
 20
24.7286309999
 10
122.2130157963
 20
24.7349595034
 10
122.2181316945
 20
24.7413672255
 10
122.2231444238
 20
24.747856466
 10
122.2280480388
 20
24.7544295247
 10
122.2317856746
 20
24.7596059131
 10
122.2354488928
 20
24.7648355304
 10
122.2390330032
 20
24.7701194176
 10
122.2425333155
 20
24.7754586152
 10
122.2459451396
 20
24.7808541642
 10
122.2492637852
 20
24.7863071052
 10
122.2524845622
 20
24.791818479
 10
122.2556027803
 20
24.7973893266
 10
122.2582963203
 20
24.8024147323
 10
122.2608990165
 20
24.8074884209
 10
122.2634055389
 20
24.8126104251
 10
122.2658105572
 20
24.8177807773
 10
122.2681087412
 20
24.8229995102
 10
122.2702947607
 20
24.8282666565
 10
122.2723632855
 20
24.8335822487
 10
122.2743089854
 20
24.8389463195
 10
122.2759623928
 20
24.8438514674
 10
122.2775055708
 20
24.8487937388
 10
122.2789336504
 20
24.8537703746
 10
122.2802417623
 20
24.8587786159
 10
122.2814250375
 20
24.8638157036
 10
122.2824786069
 20
24.8688788787
 10
122.2833976013
 20
24.8739653823
 10
122.2841771516
 20
24.8790724552
  0
LINE
  5
364
100
AcDbEntity
  8
6_SURFACES-PATINS-SPEC
100
AcDbLine
 62
7
  6
CONTINUOUS
 10
116.6100030229
 20
13.3058036183
 11
116.6374459706
 21
13.3363360585
  0
LINE
  5
365
100
AcDbEntity
  8
6_SURFACES-PATINS-SPEC
100
AcDbLine
 62
7
  6
CONTINUOUS
 10
106.3876080592
 20
12.3701637724
 11
106.4428522373
 21
12.4314932707
  0
LINE
  5
366
100
AcDbEntity
  8
0
100
AcDbLine
 62
7
  6
CONTINUOUS
 10
123.5758312228
 20
34.7828196698
 11
123.5702109511
 21
34.7767463232
  0
LINE
  5
367
100
AcDbEntity
  8
1_CURVES_JETS
100
AcDbLine
 62
7
  6
CONTINUOUS
 10
120.4044059788
 20
14.3558722486
 11
120.5200814623
 21
14.4769066629
  0
LINE
  5
368
100
AcDbEntity
  8
0
100
AcDbLine
 62
7
  6
CONTINUOUS
 10
123.5815069366
 20
34.7887536227
 11
123.5758312228
 21
34.7828196698
  0
LINE
  5
369
100
AcDbEntity
  8
0
100
AcDbLine
 62
7
  6
CONTINUOUS
 10
123.5940243156
 20
34.8016265796
 11
123.5651444512
 21
34.7716253711
  0
LINE
  5
36A
100
AcDbEntity
  8
0
100
AcDbLine
 62
7
  6
CONTINUOUS
 10
123.5872342626
 20
34.7945487079
 11
123.5815069366
 21
34.7887536227
  0
LINE
  5
36B
100
AcDbEntity
  8
DEFAULT_2
100
AcDbLine
 62
8
  6
CONTINUOUS
 10
110.938019223
 20
13.0134179434
 11
111.2964727472
 21
13.3718714675
  0
LINE
  5
36C
100
AcDbEntity
  8
1_CURVES_JETS
100
AcDbLine
 62
7
  6
CONTINUOUS
 10
111.0264075707
 20
12.9250295958
 11
111.3848614629
 21
13.283483488
  0
LINE
  5
36D
100
AcDbEntity
  8
0
100
AcDbLine
 62
7
  6
CONTINUOUS
 10
123.4422180225
 20
34.4929370714
 11
123.4422754984
 21
34.4929935874
  0
LINE
  5
36E
100
AcDbEntity
  8
0
100
AcDbLine
 62
7
  6
CONTINUOUS
 10
123.5930094313
 20
34.8002055353
 11
123.5872342626
 21
34.7945487079
  0
LINE
  5
36F
100
AcDbEntity
  8
0
100
AcDbLine
 62
7
  6
CONTINUOUS
 10
123.5988287348
 20
34.8057247955
 11
123.5930094313
 21
34.8002055353
  0
LINE
  5
370
100
AcDbEntity
  8
1_CURVES_JETS
100
AcDbLine
 62
7
  6
CONTINUOUS
 10
111.3848610856
 20
13.2834831126
 11
111.3897816911
 21
13.2881438211
  0
LINE
  5
371
100
AcDbEntity
  8
6_SURFACES-PATINS-SPEC
100
AcDbLine
 62
7
  6
CONTINUOUS
 10
106.327167051
 20
12.3138930625
 11
106.3876080592
 21
12.3701637724
  0
LINE
  5
372
100
AcDbEntity
  8
0
100
AcDbLine
 62
7
  6
CONTINUOUS
 10
123.6046885279
 20
34.8111072571
 11
123.5988287348
 21
34.8057247955
  0
LINE
  5
373
100
AcDbEntity
  8
1_CURVES_JETS
100
AcDbLine
 62
7
  6
CONTINUOUS
 10
120.2835640317
 20
14.2454573922
 11
120.4044059788
 21
14.3558722486
  0
LINE
  5
374
100
AcDbEntity
  8
6_SURFACES-PATINS-SPEC
100
AcDbLine
 62
7
  6
CONTINUOUS
 10
104.5889133261
 20
13.2063726739
 11
104.618874923
 21
13.2335775463
  0
LINE
  5
375
100
AcDbEntity
  8
6_SURFACES-PATINS-SPEC
100
AcDbLine
 62
7
  6
CONTINUOUS
 10
116.6374459706
 20
13.3363360585
 11
116.6680620981
 21
13.3636858283
  0
LINE
  5
376
100
AcDbEntity
  8
0
100
AcDbLine
 62
7
  6
CONTINUOUS
 10
123.6105851827
 20
34.8163537234
 11
123.6046885279
 21
34.8111072571
  0
LINE
  5
377
100
AcDbEntity
  8
0
100
AcDbLine
 62
7
  6
CONTINUOUS
 10
123.6278941034
 20
34.8312027543
 11
123.5940243156
 21
34.8016265796
  0
LINE
  5
378
100
AcDbEntity
  8
0
100
AcDbLine
 62
7
  6
CONTINUOUS
 10
123.6165147955
 20
34.8214647861
 11
123.6105851827
 21
34.8163537234
  0
LWPOLYLINE
  5
379
100
AcDbEntity
  8
DEFAULT_2
100
AcDbPolyline
 62
8
  6
CONTINUOUS
 90
31
 70
0
 10
119.6519240217
 20
14.3742137574
 10
119.6922427625
 20
14.4088001037
 10
119.7316780168
 20
14.4442177803
 10
119.7702449979
 20
14.4804765161
 10
119.8079504007
 20
14.5175776173
 10
119.8447668472
 20
14.5554886989
 10
119.880658441
 20
14.5941689532
 10
119.9155959939
 20
14.6335843494
 10
119.9495771494
 20
14.6737279656
 10
119.9826062591
 20
14.7145996565
 10
120.0146846608
 20
14.7561968156
 10
120.0458016381
 20
14.7985069897
 10
120.0759434607
 20
14.8415152641
 10
120.1050943347
 20
14.8852022223
 10
120.133230211
 20
14.929530441
 10
120.1603249769
 20
14.9744579949
 10
120.1863547507
 20
15.0199446138
 10
120.2113045759
 20
15.065956647
 10
120.2351617271
 20
15.1124620983
 10
120.257915342
 20
15.1594322529
 10
120.2795620104
 20
15.2068515202
 10
120.3001001852
 20
15.2547075906
 10
120.3195282907
 20
15.3029907546
 10
120.3378446355
 20
15.3517017029
 10
120.3550474996
 20
15.4008437262
 10
120.3711321472
 20
15.4504085857
 10
120.3860817798
 20
15.5003419247
 10
120.399876583
 20
15.5505778567
 10
120.4125010461
 20
15.6010648604
 10
120.4239568732
 20
15.6518088755
 10
120.4342500723
 20
15.7028302069
  0
LINE
  5
37A
100
AcDbEntity
  8
0
100
AcDbLine
 62
7
  6
CONTINUOUS
 10
123.6224733554
 20
34.8264410057
 11
123.6165147955
 21
34.8214647861
  0
LINE
  5
37B
100
AcDbEntity
  8
1_CURVES_JETS
100
AcDbLine
 62
7
  6
CONTINUOUS
 10
111.3897816911
 20
13.2881438211
 11
111.3970581478
 21
13.2941898215
  0
LINE
  5
37C
100
AcDbEntity
  8
0
100
AcDbLine
 62
7
  6
CONTINUOUS
 10
123.6284568908
 20
34.8312830425
 11
123.6224733554
 21
34.8264410057
  0
LINE
  5
37D
100
AcDbEntity
  8
1_CURVES_JETS
100
AcDbLine
 62
7
  6
CONTINUOUS
 10
120.1595878933
 20
14.1463342805
 11
120.2835640317
 21
14.2454573922
  0
LINE
  5
37E
100
AcDbEntity
  8
0
100
AcDbLine
 62
7
  6
CONTINUOUS
 10
123.6344614718
 20
34.8359916549
 11
123.6284568908
 21
34.8312830425
  0
LINE
  5
37F
100
AcDbEntity
  8
6_SURFACES-PATINS-SPEC
100
AcDbLine
 62
7
  6
CONTINUOUS
 10
106.2619994772
 20
12.2631316221
 11
106.327167051
 21
12.3138930625
  0
LINE
  5
380
100
AcDbEntity
  8
0
100
AcDbLine
 62
7
  6
CONTINUOUS
 10
123.6404832124
 20
34.8405676966
 11
123.6344614718
 21
34.8359916549
  0
LWPOLYLINE
  5
381
100
AcDbEntity
  8
DEFAULT_2
100
AcDbPolyline
 62
8
  6
CONTINUOUS
 90
31
 70
0
 10
106.2004810156
 20
15.7907140101
 10
106.2192594575
 20
15.8045705588
 10
106.2378236442
 20
15.8187164749
 10
106.2561689888
 20
15.8331469866
 10
106.2742909045
 20
15.8478573224
 10
106.2925018722
 20
15.863112276
 10
106.3104735785
 20
15.8786475234
 10
106.3282029763
 20
15.8944584155
 10
106.3456870187
 20
15.9105403035
 10
106.3632618268
 20
15.9272151166
 10
106.3805754172
 20
15.9441612194
 10
106.3976249194
 20
15.9613728915
 10
106.4144074633
 20
15.9788444122
 10
106.4312796501
 20
15.9969618294
 10
106.447868531
 20
16.0153391094
 10
106.4641725981
 20
16.0339707145
 10
106.4801903431
 20
16.0528511072
 10
106.4987873233
 20
16.0755244491
 10
106.5169789252
 20
16.0985285528
 10
106.5347634467
 20
16.121853027
 10
106.5521391856
 20
16.14548748
 10
106.5691044398
 20
16.1694215205
 10
106.5856575074
 20
16.193644757
 10
106.6017966862
 20
16.218146798
 10
106.6183385562
 20
16.2442313718
 10
106.6344197915
 20
16.2706015817
 10
106.6500403557
 20
16.297245582
 10
106.6652002124
 20
16.3241515273
 10
106.6798993253
 20
16.3513075722
 10
106.6941376579
 20
16.378701871
 10
106.7079151738
 20
16.4063225783
  0
LINE
  5
382
100
AcDbEntity
  8
0
100
AcDbLine
 62
7
  6
CONTINUOUS
 10
123.6465182731
 20
34.8450121141
 11
123.6404832124
 21
34.8405676966
  0
LINE
  5
383
100
AcDbEntity
  8
6_SURFACES-PATINS-SPEC
100
AcDbLine
 62
7
  6
CONTINUOUS
 10
104.618874923
 20
13.2335775463
 11
104.6515937037
 21
13.2573952721
  0
LINE
  5
384
100
AcDbEntity
  8
0
100
AcDbLine
 62
7
  6
CONTINUOUS
 10
123.6662938336
 20
34.8589356305
 11
123.6278941034
 21
34.8312027543
  0
LINE
  5
385
100
AcDbEntity
  8
0
100
AcDbLine
 62
7
  6
CONTINUOUS
 10
123.6525628629
 20
34.8493259443
 11
123.6465182731
 21
34.8450121141
  0
LINE
  5
386
100
AcDbEntity
  8
6_SURFACES-PATINS-SPEC
100
AcDbLine
 62
7
  6
CONTINUOUS
 10
116.6680620981
 20
13.3636858283
 11
116.7014843622
 21
13.3875250179
  0
LINE
  5
387
100
AcDbEntity
  8
1_CURVES_JETS
100
AcDbLine
 62
7
  6
CONTINUOUS
 10
111.3970581478
 20
13.2941898215
 11
111.4046313648
 21
13.2995763575
  0
LWPOLYLINE
  5
388
100
AcDbEntity
  8
DEFAULT_2
100
AcDbPolyline
 62
8
  6
CONTINUOUS
 90
35
 70
0
 10
108.6576194235
 20
27.6204308828
 10
108.6794441585
 20
27.6358900198
 10
108.7016584557
 20
27.6507916898
 10
108.7242459857
 20
27.6651232153
 10
108.7472414402
 20
27.6789033627
 10
108.7705780974
 20
27.6920953775
 10
108.7942386754
 20
27.7046965314
 10
108.8125464414
 20
27.7139359909
 10
108.8310252041
 20
27.7228290379
 10
108.8496665152
 20
27.7313766287
 10
108.8684619265
 20
27.7395797196
 10
108.8881336716
 20
27.7477349018
 10
108.9079533908
 20
27.7555234953
 10
108.9279119974
 20
27.7629493643
 10
108.9480004051
 20
27.7700163728
 10
108.9693799335
 20
27.7771055393
 10
108.9908849362
 20
27.7838045908
 10
109.012505832
 20
27.790120581
 10
109.0342330401
 20
27.7960605636
 10
109.0577677786
 20
27.8020521189
 10
109.0814051744
 20
27.8076249223
 10
109.1051354333
 20
27.8127891366
 10
109.128948761
 20
27.8175549243
 10
109.1552390313
 20
27.8223516228
 10
109.1816081049
 20
27.8266947195
 10
109.2080460499
 20
27.830600799
 10
109.2345429343
 20
27.8340864458
 10
109.2643429729
 20
27.8375171017
 10
109.2941956292
 20
27.8404531015
 10
109.324091777
 20
27.8429085915
 10
109.3540222901
 20
27.8448977179
 10
109.3879409581
 20
27.8466104244
 10
109.4218824636
 20
27.8477980183
 10
109.4558372895
 20
27.8485150988
 10
109.4897959183
 20
27.8488162656
  0
LINE
  5
389
100
AcDbEntity
  8
1_CURVES_JETS
100
AcDbLine
 62
7
  6
CONTINUOUS
 10
120.0348190376
 20
14.0589568528
 11
120.1595878933
 21
14.1463342805
  0
LINE
  5
38A
100
AcDbEntity
  8
0
100
AcDbLine
 62
7
  6
CONTINUOUS
 10
123.6586132409
 20
34.8535103114
 11
123.6525628629
 21
34.8493259443
  0
LINE
  5
38B
100
AcDbEntity
  8
0
100
AcDbLine
 62
7
  6
CONTINUOUS
 10
123.6646657185
 20
34.8575664241
 11
123.6586132409
 21
34.8535103114
  0
LINE
  5
38C
100
AcDbEntity
  8
6_SURFACES-PATINS-SPEC
100
AcDbLine
 62
7
  6
CONTINUOUS
 10
102.0946219579
 20
13.4453705412
 11
102.094895336
 21
13.4455510021
  0
LINE
  5
38D
100
AcDbEntity
  8
0
100
AcDbLine
 62
7
  6
CONTINUOUS
 10
123.6707166608
 20
34.8614955733
 11
123.6646657185
 21
34.8575664241
  0
LINE
  5
38E
100
AcDbEntity
  8
6_SURFACES-PATINS-SPEC
100
AcDbLine
 62
7
  6
CONTINUOUS
 10
106.1925865765
 20
12.2183313079
 11
106.2619994772
 21
12.2631316221
  0
LINE
  5
38F
100
AcDbEntity
  8
6_SURFACES-PATINS-SPEC
100
AcDbLine
 62
7
  6
CONTINUOUS
 10
114.87876303
 20
12.2183313219
 11
114.9478885274
 21
12.2629461435
  0
LINE
  5
390
100
AcDbEntity
  8
0
100
AcDbLine
 62
7
  6
CONTINUOUS
 10
123.6767624887
 20
34.8652991287
 11
123.6707166608
 21
34.8614955733
  0
LINE
  5
391
100
AcDbEntity
  8
1_CURVES_JETS
100
AcDbLine
 62
7
  6
CONTINUOUS
 10
119.9115731142
 20
13.9833343545
 11
120.0348190376
 21
14.0589568528
  0
LINE
  5
392
100
AcDbEntity
  8
0
100
AcDbLine
 62
7
  6
CONTINUOUS
 10
123.6827996799
 20
34.8689785365
 11
123.6767624887
 21
34.8652991287
  0
LINE
  5
393
100
AcDbEntity
  8
1_CURVES_JETS
100
AcDbLine
 62
7
  6
CONTINUOUS
 10
111.4046313648
 20
13.2995763575
 11
111.4123851835
 21
13.3042745286
  0
LINE
  5
394
100
AcDbEntity
  8
0
100
AcDbLine
 62
7
  6
CONTINUOUS
 10
123.688824942
 20
34.8725354153
 11
123.6827996799
 21
34.8689785365
  0
LINE
  5
395
100
AcDbEntity
  8
0
100
AcDbLine
 62
7
  6
CONTINUOUS
 10
123.7086463426
 20
34.8836956493
 11
123.6662938336
 21
34.8589356305
  0
LINE
  5
396
100
AcDbEntity
  8
6_SURFACES-PATINS-SPEC
100
AcDbLine
 62
7
  6
CONTINUOUS
 10
104.6515937037
 20
13.2573952721
 11
104.6866885978
 21
13.2775484507
  0
LINE
  5
397
100
AcDbEntity
  8
0
100
AcDbLine
 62
7
  6
CONTINUOUS
 10
123.6948355117
 20
34.8759717057
 11
123.688824942
 21
34.8725354153
  0
LINE
  5
398
100
AcDbEntity
  8
6_SURFACES-PATINS-SPEC
100
AcDbLine
 62
7
  6
CONTINUOUS
 10
116.7014843622
 20
13.3875250179
 11
116.7373121629
 21
13.4075679108
  0
LINE
  5
399
100
AcDbEntity
  8
0
100
AcDbLine
 62
7
  6
CONTINUOUS
 10
123.700828783
 20
34.8792894229
 11
123.6948355117
 21
34.8759717057
  0
LINE
  5
39A
100
AcDbEntity
  8
1_CURVES_JETS
100
AcDbLine
 62
7
  6
CONTINUOUS
 10
119.7916369678
 20
13.9188798136
 11
119.9115731142
 21
13.9833343545
  0
LINE
  5
39B
100
AcDbEntity
  8
0
100
AcDbLine
 62
7
  6
CONTINUOUS
 10
123.7068022313
 20
34.8824906074
 11
123.700828783
 21
34.8792894229
  0
LINE
  5
39C
100
AcDbEntity
  8
6_SURFACES-PATINS-SPEC
100
AcDbLine
 62
7
  6
CONTINUOUS
 10
106.1194857762
 20
12.1798298565
 11
106.1925865765
 21
12.2183313079
  0
LINE
  5
39D
100
AcDbEntity
  8
6_SURFACES-PATINS-SPEC
100
AcDbLine
 62
7
  6
CONTINUOUS
 10
114.8056622348
 20
12.1798298702
 11
114.87876303
 21
12.2183313219
  0
LINE
  5
39E
100
AcDbEntity
  8
0
100
AcDbLine
 62
7
  6
CONTINUOUS
 10
123.7127534125
 20
34.8855773226
 11
123.7068022313
 21
34.8824906074
  0
LINE
  5
39F
100
AcDbEntity
  8
1_CURVES_JETS
100
AcDbLine
 62
7
  6
CONTINUOUS
 10
111.4123851835
 20
13.3042745286
 11
111.4201956979
 21
13.3082748368
  0
LINE
  5
3A0
100
AcDbEntity
  8
0
100
AcDbLine
 62
7
  6
CONTINUOUS
 10
123.7186799618
 20
34.8885516521
 11
123.7127534125
 21
34.8855773226
  0
LINE
  5
3A1
100
AcDbEntity
  8
0
100
AcDbLine
 62
7
  6
CONTINUOUS
 10
123.7245795928
 20
34.8914156975
 11
123.7186799618
 21
34.8885516521
  0
LINE
  5
3A2
100
AcDbEntity
  8
1_CURVES_JETS
100
AcDbLine
 62
7
  6
CONTINUOUS
 10
119.6750055343
 20
13.8640902695
 11
119.7916369678
 21
13.9188798136
  0
LINE
  5
3A3
100
AcDbEntity
  8
0
100
AcDbLine
 62
7
  6
CONTINUOUS
 10
123.7304500964
 20
34.8941715757
 11
123.7245795928
 21
34.8914156975
  0
LINE
  5
3A4
100
AcDbEntity
  8
0
100
AcDbLine
 62
7
  6
CONTINUOUS
 10
123.7543150605
 20
34.9046242009
 11
123.7086463426
 21
34.8836956493
  0
LINE
  5
3A5
100
AcDbEntity
  8
0
100
AcDbLine
 62
7
  6
CONTINUOUS
 10
123.7362893394
 20
34.8968214173
 11
123.7304500964
 21
34.8941715757
  0
LINE
  5
3A6
100
AcDbEntity
  8
0
100
AcDbLine
 62
7
  6
CONTINUOUS
 10
123.7396265014
 20
34.89829169
 11
123.7366293693
 21
34.8969680496
  0
LINE
  5
3A7
100
AcDbEntity
  8
0
100
AcDbLine
 62
7
  6
CONTINUOUS
 10
123.7420952637
 20
34.8993673635
 11
123.7362893394
 21
34.8968214173
  0
LINE
  5
3A8
100
AcDbEntity
  8
6_SURFACES-PATINS-SPEC
100
AcDbLine
 62
7
  6
CONTINUOUS
 10
104.6866885978
 20
13.2775484507
 11
104.7237508694
 21
13.2938023681
  0
LINE
  5
3A9
100
AcDbEntity
  8
0
100
AcDbLine
 62
7
  6
CONTINUOUS
 10
123.6151787029
 20
33.6042817746
 11
123.6154446187
 21
33.6043965403
  0
LINE
  5
3AA
100
AcDbEntity
  8
0
100
AcDbLine
 62
7
  6
CONTINUOUS
 10
123.7451085168
 20
34.9006505977
 11
123.7414539637
 21
34.8990866701
  0
LINE
  5
3AB
100
AcDbEntity
  8
1_CURVES_JETS
100
AcDbLine
 62
7
  6
CONTINUOUS
 10
111.4201956979
 20
13.3082748368
 11
111.4279423268
 21
13.3115908027
  0
LINE
  5
3AC
100
AcDbEntity
  8
0
100
AcDbLine
 62
7
  6
CONTINUOUS
 10
123.747865885
 20
34.9018115648
 11
123.7420952637
 21
34.8993673635
  0
LINE
  5
3AD
100
AcDbEntity
  8
6_SURFACES-PATINS-SPEC
100
AcDbLine
 62
7
  6
CONTINUOUS
 10
116.7373121629
 20
13.4075679108
 11
116.7751161345
 21
13.4235743303
  0
LINE
  5
3AE
100
AcDbEntity
  8
6_SURFACES-PATINS-SPEC
100
AcDbLine
 62
7
  6
CONTINUOUS
 10
106.0433003235
 20
12.1479074835
 11
106.1194857762
 21
12.1798298565
  0
LINE
  5
3AF
100
AcDbEntity
  8
6_SURFACES-PATINS-SPEC
100
AcDbLine
 62
7
  6
CONTINUOUS
 10
114.7294767857
 20
12.1479074955
 11
114.8056622348
 21
12.1798298702
  0
LINE
  5
3B0
100
AcDbEntity
  8
0
100
AcDbLine
 62
7
  6
CONTINUOUS
 10
123.7487622663
 20
34.9021799901
 11
123.7451085168
 21
34.9006505977
  0
LINE
  5
3B1
100
AcDbEntity
  8
0
100
AcDbLine
 62
7
  6
CONTINUOUS
 10
123.7535992914
 20
34.9041561783
 11
123.747865885
 21
34.9018115648
  0
LINE
  5
3B2
100
AcDbEntity
  8
1_CURVES_JETS
100
AcDbLine
 62
7
  6
CONTINUOUS
 10
119.5611539181
 20
13.8175603249
 11
119.6750055343
 21
13.8640902695
  0
LINE
  5
3B3
100
AcDbEntity
  8
0
100
AcDbLine
 62
7
  6
CONTINUOUS
 10
123.7560658937
 20
34.9051360233
 11
123.7524148458
 21
34.9036750602
  0
LINE
  5
3B4
100
AcDbEntity
  8
0
100
AcDbLine
 62
7
  6
CONTINUOUS
 10
123.7592936424
 20
34.9064033663
 11
123.7535992914
 21
34.9041561783
  0
LINE
  5
3B5
100
AcDbEntity
  8
0
100
AcDbLine
 62
7
  6
CONTINUOUS
 10
123.6154446187
 20
33.6043965403
 11
123.6132436009
 21
33.6035320745
  0
LINE
  5
3B6
100
AcDbEntity
  8
0
100
AcDbLine
 62
7
  6
CONTINUOUS
 10
123.7615388136
 20
34.9072639962
 11
123.7578907315
 21
34.9058537829
  0
LINE
  5
3B7
100
AcDbEntity
  8
0
100
AcDbLine
 62
7
  6
CONTINUOUS
 10
123.7649471672
 20
34.9085552939
 11
123.7592936424
 21
34.9064033663
  0
LINE
  5
3B8
100
AcDbEntity
  8
0
100
AcDbLine
 62
7
  6
CONTINUOUS
 10
123.7670062987
 20
34.9093164696
 11
123.7633619704
 21
34.9079565054
  0
LINE
  5
3B9
100
AcDbEntity
  8
0
100
AcDbLine
 62
7
  6
CONTINUOUS
 10
123.770647652
 20
34.910643202
 11
123.7649471672
 21
34.9085552939
  0
LINE
  5
3BA
100
AcDbEntity
  8
0
100
AcDbLine
 62
7
  6
CONTINUOUS
 10
123.6132436009
 20
33.6035320745
 11
123.6064963943
 21
33.6011114134
  0
LINE
  5
3BB
100
AcDbEntity
  8
0
100
AcDbLine
 62
7
  6
CONTINUOUS
 10
123.7761241242
 20
34.9125817292
 11
123.7705581231
 21
34.9106141126
  0
LINE
  5
3BC
100
AcDbEntity
  8
1_CURVES_JETS
100
AcDbLine
 62
7
  6
CONTINUOUS
 10
111.4279423268
 20
13.3115908027
 11
111.4353717968
 21
13.314211609
  0
LINE
  5
3BD
100
AcDbEntity
  8
1_CURVES_JETS
100
AcDbLine
 62
7
  6
CONTINUOUS
 10
119.4495735587
 20
13.7782135526
 11
119.5611539181
 21
13.8175603249
  0
LINE
  5
3BE
100
AcDbEntity
  8
0
100
AcDbLine
 62
7
  6
CONTINUOUS
 10
123.8025033672
 20
34.9210507709
 11
123.7543150605
 21
34.9046242009
  0
LINE
  5
3BF
100
AcDbEntity
  8
0
100
AcDbLine
 62
7
  6
CONTINUOUS
 10
123.781642236
 20
34.9144598817
 11
123.7761241242
 21
34.9125817292
  0
LINE
  5
3C0
100
AcDbEntity
  8
0
100
AcDbLine
 62
7
  6
CONTINUOUS
 10
123.6064963943
 20
33.6011114134
 11
123.5951611702
 21
33.5974193139
  0
LINE
  5
3C1
100
AcDbEntity
  8
6_SURFACES-PATINS-SPEC
100
AcDbLine
 62
7
  6
CONTINUOUS
 10
105.9646050252
 20
12.1228171757
 11
106.0433003235
 21
12.1479074835
  0
LINE
  5
3C2
100
AcDbEntity
  8
6_SURFACES-PATINS-SPEC
100
AcDbLine
 62
7
  6
CONTINUOUS
 10
114.6507814878
 20
12.1228171846
 11
114.7294767857
 21
12.1479074955
  0
LINE
  5
3C3
100
AcDbEntity
  8
6_SURFACES-PATINS-SPEC
100
AcDbLine
 62
7
  6
CONTINUOUS
 10
104.7237508694
 20
13.2938023681
 11
104.7623488711
 21
13.3059677236
  0
LINE
  5
3C4
100
AcDbEntity
  8
1_CURVES_JETS
100
AcDbLine
 62
7
  6
CONTINUOUS
 10
119.3401460764
 20
13.7453269863
 11
119.4495735587
 21
13.7782135526
  0
LINE
  5
3C5
100
AcDbEntity
  8
6_SURFACES-PATINS-SPEC
100
AcDbLine
 62
7
  6
CONTINUOUS
 10
116.7751161345
 20
13.4235743303
 11
116.814443236
 21
13.4353524641
  0
LINE
  5
3C6
100
AcDbEntity
  8
1_CURVES_JETS
100
AcDbLine
 62
7
  6
CONTINUOUS
 10
111.4353717968
 20
13.314211609
 11
111.4422128315
 21
13.3161713489
  0
LINE
  5
3C7
100
AcDbEntity
  8
0
100
AcDbLine
 62
7
  6
CONTINUOUS
 10
123.871910832
 20
34.9355376482
 11
123.8686492377
 21
34.9350784033
  0
LINE
  5
3C8
100
AcDbEntity
  8
0
100
AcDbLine
 62
7
  6
CONTINUOUS
 10
123.8751489004
 20
34.9359719347
 11
123.8701370298
 21
34.9352918423
  0
LINE
  5
3C9
100
AcDbEntity
  8
0
100
AcDbLine
 62
7
  6
CONTINUOUS
 10
123.2941823523
 20
33.545020084
 11
123.2236544378
 21
33.5357057803
  0
LINE
  5
3CA
100
AcDbEntity
  8
0
100
AcDbLine
 62
7
  6
CONTINUOUS
 10
123.878490702
 20
34.9363986632
 11
123.8743566334
 21
34.9358688249
  0
LINE
  5
3CB
100
AcDbEntity
  8
0
100
AcDbLine
 62
7
  6
CONTINUOUS
 10
123.9028284825
 20
34.9388452224
 11
123.8523208035
 21
34.9325293773
  0
LINE
  5
3CC
100
AcDbEntity
  8
0
100
AcDbLine
 62
7
  6
CONTINUOUS
 10
123.2155917738
 20
33.5269663976
 11
123.151330313
 21
33.5191291561
  0
LINE
  5
3CD
100
AcDbEntity
  8
0
100
AcDbLine
 62
7
  6
CONTINUOUS
 10
123.8825363847
 20
34.9368833144
 11
123.8783626276
 21
34.9363816875
  0
LINE
  5
3CE
100
AcDbEntity
  8
0
100
AcDbLine
 62
7
  6
CONTINUOUS
 10
123.2236544378
 20
33.5357057803
 11
123.145369108
 21
33.5264753722
  0
LINE
  5
3CF
100
AcDbEntity
  8
0
100
AcDbLine
 62
7
  6
CONTINUOUS
 10
123.884713825
 20
34.9371293571
 11
123.881551204
 21
34.9367673447
  0
LINE
  5
3D0
100
AcDbEntity
  8
0
100
AcDbLine
 62
7
  6
CONTINUOUS
 10
123.8864912343
 20
34.937324805
 11
123.8825363847
 21
34.9368833144
  0
LINE
  5
3D1
100
AcDbEntity
  8
0
100
AcDbLine
 62
7
  6
CONTINUOUS
 10
123.151330313
 20
33.5191291561
 11
123.0822774637
 21
33.511451008
  0
LINE
  5
3D2
100
AcDbEntity
  8
0
100
AcDbLine
 62
7
  6
CONTINUOUS
 10
123.145369108
 20
33.5264753722
 11
123.0591382291
 21
33.5174589737
  0
LINE
  5
3D3
100
AcDbEntity
  8
0
100
AcDbLine
 62
7
  6
CONTINUOUS
 10
123.8903542161
 20
34.9377253129
 11
123.8862851522
 21
34.9373016407
  0
LINE
  5
3D4
100
AcDbEntity
  8
0
100
AcDbLine
 62
7
  6
CONTINUOUS
 10
123.0822774637
 20
33.511451008
 11
123.0083229198
 21
33.5039822342
  0
LINE
  5
3D5
100
AcDbEntity
  8
0
100
AcDbLine
 62
7
  6
CONTINUOUS
 10
123.8941246587
 20
34.9380870134
 11
123.8894073431
 21
34.9376290578
  0
LINE
  5
3D6
100
AcDbEntity
  8
0
100
AcDbLine
 62
7
  6
CONTINUOUS
 10
123.8955671098
 20
34.9382169888
 11
123.8925015909
 21
34.9379340098
  0
LINE
  5
3D7
100
AcDbEntity
  8
0
100
AcDbLine
 62
7
  6
CONTINUOUS
 10
123.0591382291
 20
33.5174589737
 11
122.9648242548
 21
33.5087926071
  0
LINE
  5
3D8
100
AcDbEntity
  8
0
100
AcDbLine
 62
7
  6
CONTINUOUS
 10
123.0083229198
 20
33.5039822342
 11
122.9293517451
 21
33.4967758099
  0
LWPOLYLINE
  5
3D9
100
AcDbEntity
  8
0
100
AcDbPolyline
 62
7
  6
CONTINUOUS
 90
31
 70
0
 10
127.2531771358
 20
32.769059031
 10
127.2667523025
 20
32.7702807691
 10
127.2803218991
 20
32.7715630394
 10
127.2922871435
 20
32.7727536352
 10
127.3042454243
 20
32.7740124685
 10
127.3110898971
 20
32.7747697793
 10
127.3179306666
 20
32.775559612
 10
127.3247668544
 20
32.7763877662
 10
127.3304277042
 20
32.7771079637
 10
127.3360836202
 20
32.7778661802
 10
127.3417334185
 20
32.7786701358
 10
127.3461713322
 20
32.7793414071
 10
127.350601595
 20
32.7800603781
 10
127.3550210725
 20
32.7808416823
 10
127.3576414411
 20
32.7813427338
 10
127.360254494
 20
32.7818805831
 10
127.362400102
 20
32.7823598405
 10
127.3645348598
 20
32.7828855408
 10
127.3662029094
 20
32.7833429499
 10
127.3678548665
 20
32.783854626
 10
127.368652374
 20
32.7841308052
 10
127.3694389321
 20
32.7844368915
 10
127.3702090307
 20
32.7847859892
 10
127.3706232605
 20
32.7850016324
 10
127.3710227048
 20
32.7852369655
 10
127.3713170728
 20
32.7854385373
 10
127.3715936826
 20
32.7856778582
 10
127.3717603514
 20
32.7858648077
 10
127.3718979426
 20
32.7860727151
 10
127.3719867242
 20
32.7862958663
 10
127.372006964
 20
32.7865285477
  0
LINE
  5
3DA
100
AcDbEntity
  8
0
100
AcDbLine
 62
7
  6
CONTINUOUS
 10
123.8986031197
 20
34.9384784978
 11
123.8941246587
 21
34.9380870134
  0
LINE
  5
3DB
100
AcDbEntity
  8
0
100
AcDbLine
 62
7
  6
CONTINUOUS
 10
122.9293517451
 20
33.4967758099
 11
122.8452499737
 21
33.489888547
  0
LINE
  5
3DC
100
AcDbEntity
  8
0
100
AcDbLine
 62
7
  6
CONTINUOUS
 10
123.901608845
 20
34.9387190498
 11
123.897801934
 21
34.9384120388
  0
LINE
  5
3DD
100
AcDbEntity
  8
0
100
AcDbLine
 62
7
  6
CONTINUOUS
 10
122.9648242548
 20
33.5087926071
 11
122.8623629135
 21
33.5006195122
  0
LINE
  5
3DE
100
AcDbEntity
  8
0
100
AcDbLine
 62
7
  6
CONTINUOUS
 10
123.9048746561
 20
34.9389603701
 11
123.9013854528
 21
34.9387024771
  0
LINE
  5
3DF
100
AcDbEntity
  8
0
100
AcDbLine
 62
7
  6
CONTINUOUS
 10
122.8452499737
 20
33.489888547
 11
122.7559112213
 21
33.483382086
  0
LINE
  5
3E0
100
AcDbEntity
  8
0
100
AcDbLine
 62
7
  6
CONTINUOUS
 10
122.8623629135
 20
33.5006195122
 11
122.7519769298
 21
33.4931021619
  0
LINE
  5
3E1
100
AcDbEntity
  8
0
100
AcDbLine
 62
7
  6
CONTINUOUS
 10
123.9082690052
 20
34.9391877127
 11
123.9045835148
 21
34.9389391679
  0
LINE
  5
3E2
100
AcDbEntity
  8
0
100
AcDbLine
 62
7
  6
CONTINUOUS
 10
122.7559112213
 20
33.483382086
 11
122.6612392124
 21
33.4773234237
  0
LINE
  5
3E3
100
AcDbEntity
  8
0
100
AcDbLine
 62
7
  6
CONTINUOUS
 10
123.9115677659
 20
34.9393864396
 11
123.9075263092
 21
34.9391393815
  0
LINE
  5
3E4
100
AcDbEntity
  8
0
100
AcDbLine
 62
7
  6
CONTINUOUS
 10
122.7519769298
 20
33.4931021619
 11
122.6342204644
 21
33.4864117002
  0
LINE
  5
3E5
100
AcDbEntity
  8
0
100
AcDbLine
 62
7
  6
CONTINUOUS
 10
122.6612392124
 20
33.4773234237
 11
122.5611529575
 21
33.4717856155
  0
LINE
  5
3E6
100
AcDbEntity
  8
0
100
AcDbLine
 62
7
  6
CONTINUOUS
 10
123.9147699902
 20
34.9395584315
 11
123.9104350471
 21
34.9393201489
  0
LINE
  5
3E7
100
AcDbEntity
  8
0
100
AcDbLine
 62
7
  6
CONTINUOUS
 10
123.9161356857
 20
34.9396251006
 11
123.9133060826
 21
34.9394818918
  0
LINE
  5
3E8
100
AcDbEntity
  8
0
100
AcDbLine
 62
7
  6
CONTINUOUS
 10
122.5611529575
 20
33.4717856155
 11
122.4556006797
 21
33.4668487729
  0
LINE
  5
3E9
100
AcDbEntity
  8
0
100
AcDbLine
 62
7
  6
CONTINUOUS
 10
123.9189200955
 20
34.9397503367
 11
123.9147699902
 21
34.9395584315
  0
LINE
  5
3EA
100
AcDbEntity
  8
0
100
AcDbLine
 62
7
  6
CONTINUOUS
 10
122.6342204644
 20
33.4864117002
 11
122.5098052203
 21
33.48070681
  0
LWPOLYLINE
  5
3EB
100
AcDbEntity
  8
0
100
AcDbPolyline
 62
7
  6
CONTINUOUS
 90
10
 70
0
 10
126.8774400037
 20
32.7461760198
 10
126.9257337223
 20
32.7483521827
 10
126.9740191737
 20
32.750711777
 10
127.022294602
 20
32.7532678226
 10
127.0705582515
 20
32.7560333397
 10
127.1139116204
 20
32.7587118591
 10
127.1572511802
 20
32.7616052394
 10
127.1823935177
 20
32.7633984778
 10
127.2075283143
 20
32.7652935431
 10
127.2326536498
 20
32.7673080404
  0
LINE
  5
3EC
100
AcDbEntity
  8
0
100
AcDbLine
 62
7
  6
CONTINUOUS
 10
123.9216554831
 20
34.9398582286
 11
123.9178747486
 21
34.9397055315
  0
LINE
  5
3ED
100
AcDbEntity
  8
0
100
AcDbLine
 62
7
  6
CONTINUOUS
 10
122.4556006797
 20
33.4668487729
 11
122.3445693241
 21
33.4626004455
  0
LINE
  5
3EE
100
AcDbEntity
  8
0
100
AcDbLine
 62
7
  6
CONTINUOUS
 10
123.9395394973
 20
34.9401946387
 11
123.9028284825
 21
34.9388452224
  0
LINE
  5
3EF
100
AcDbEntity
  8
0
100
AcDbLine
 62
7
  6
CONTINUOUS
 10
122.5098052203
 20
33.48070681
 11
122.3795810159
 21
33.4761290488
  0
LINE
  5
3F0
100
AcDbEntity
  8
0
100
AcDbLine
 62
7
  6
CONTINUOUS
 10
123.9243378574
 20
34.9399494675
 11
123.9208812119
 21
34.9398295469
  0
LINE
  5
3F1
100
AcDbEntity
  8
0
100
AcDbLine
 62
7
  6
CONTINUOUS
 10
122.3445693241
 20
33.4626004455
 11
122.2280985401
 21
33.4591359048
  0
LINE
  5
3F2
100
AcDbEntity
  8
0
100
AcDbLine
 62
7
  6
CONTINUOUS
 10
123.9303955835
 20
34.9401024712
 11
123.9232297117
 21
34.9399134695
  0
LINE
  5
3F3
100
AcDbEntity
  8
0
100
AcDbLine
 62
7
  6
CONTINUOUS
 10
122.3795810159
 20
33.4761290488
 11
122.244527082
 21
33.472799392
  0
LWPOLYLINE
  5
3F4
100
AcDbEntity
  8
DEFAULT_2
100
AcDbPolyline
 62
8
  6
CONTINUOUS
 90
49
 70
0
 10
109.4897959183
 20
27.3311523262
 10
109.4639354863
 20
27.3306065788
 10
109.4381093425
 20
27.328974063
 10
109.412371355
 20
27.3262618679
 10
109.3866944339
 20
27.3224658989
 10
109.361199512
 20
27.3176104785
 10
109.3359256897
 20
27.3117153505
 10
109.3106192786
 20
27.3047146526
 10
109.2856145748
 20
27.2966996422
 10
109.2609469405
 20
27.2877000579
 10
109.2361829849
 20
27.2775443432
 10
109.2118327946
 20
27.2664331669
 10
109.1879231263
 20
27.2544032743
 10
109.1638787068
 20
27.2411459125
 10
109.1403453329
 20
27.2270008552
 10
109.1173422652
 20
27.2120086335
 10
109.0941924322
 20
27.1957016885
 10
109.0716386415
 20
27.1785795878
 10
109.0496923761
 20
27.16068517
 10
109.0276119628
 20
27.1413809577
 10
109.0062001636
 20
27.1213375203
 10
108.9854614773
 20
27.1005982683
 10
108.9646240728
 20
27.0783514104
 10
108.9445167408
 20
27.0554422728
 10
108.9251375875
 20
27.031913313
 10
108.9057162083
 20
27.0067815509
 10
108.8870757923
 20
26.9810654581
 10
108.8692087253
 20
26.9548075885
 10
108.8513779722
 20
26.9268706012
 10
108.8343673261
 20
26.8984250224
 10
108.8181629092
 20
26.8695059794
 10
108.8017401261
 20
26.8381532967
 10
108.7862059921
 20
26.8063401383
 10
108.7715463343
 20
26.774105479
 10
108.7577469798
 20
26.7414882936
 10
108.7447937558
 20
26.7085275571
 10
108.7326724893
 20
26.6752622443
 10
108.7206122952
 20
26.6393876914
 10
108.7094639612
 20
26.6032328909
 10
108.6992039226
 20
26.5668214041
 10
108.6894100693
 20
26.5285356795
 10
108.6805391561
 20
26.4900198263
 10
108.6725704758
 20
26.4512981164
 10
108.6650521496
 20
26.4098526893
 10
108.6585139703
 20
26.3682321261
 10
108.6529358526
 20
26.3264673279
 10
108.6482977112
 20
26.2845891959
 10
108.6445794607
 20
26.2426286309
 10
108.6417610157
 20
26.2006165343
  0
LINE
  5
3F5
100
AcDbEntity
  8
0
100
AcDbLine
 62
7
  6
CONTINUOUS
 10
122.2280985401
 20
33.4591359048
 11
122.1062948211
 21
33.4565580365
  0
LINE
  5
3F6
100
AcDbEntity
  8
0
100
AcDbLine
 62
7
  6
CONTINUOUS
 10
123.9325760596
 20
34.9401395863
 11
123.9291519612
 21
34.9400772691
  0
LWPOLYLINE
  5
3F7
100
AcDbEntity
  8
0
100
AcDbPolyline
 62
7
  6
CONTINUOUS
 90
49
 70
0
 10
109.4897959183
 20
28.8438354922
 10
109.528188288
 20
28.8444512301
 10
109.5665681927
 20
28.8462961183
 10
109.6048892547
 20
28.8493666683
 10
109.6431050967
 20
28.8536593916
 10
109.6811693411
 20
28.8591707998
 10
109.7190356104
 20
28.8658974046
 10
109.7566257283
 20
28.8738269298
 10
109.7939357663
 20
28.8829555753
 10
109.8309295609
 20
28.893272917
 10
109.8675709483
 20
28.9047685306
 10
109.903823765
 20
28.9174319921
 10
109.9396518474
 20
28.9312528772
 10
109.9749604647
 20
28.9461937341
 10
110.009773447
 20
28.9622605415
 10
110.0440545229
 20
28.9794360693
 10
110.0777674209
 20
28.9977030871
 10
110.1108758696
 20
29.0170443647
 10
110.1433435975
 20
29.0374426717
 10
110.1750661206
 20
29.0588315695
 10
110.2060826091
 20
29.0812319046
 10
110.2363610574
 20
29.1046198661
 10
110.2658694597
 20
29.1289716433
 10
110.2945758106
 20
29.1542634255
 10
110.3224481043
 20
29.180471402
 10
110.3493915666
 20
29.207504906
 10
110.3754459136
 20
29.235396929
 10
110.4005839553
 20
29.2641178701
 10
110.4247785013
 20
29.2936381286
 10
110.4480023614
 20
29.3239281035
 10
110.4702283454
 20
29.354958194
 10
110.4913840588
 20
29.3866260835
 10
110.5114984472
 20
29.4189659909
 10
110.5305506738
 20
29.4519425925
 10
110.5485199018
 20
29.4855205647
 10
110.5653852944
 20
29.5196645841
 10
110.581126015
 20
29.5543393268
 10
110.5956980434
 20
29.5894475569
 10
110.6091152349
 20
29.625012934
 10
110.6213642734
 20
29.6609989296
 10
110.6324318432
 20
29.6973690156
 10
110.6423046282
 20
29.7340866635
 10
110.6509693126
 20
29.771115345
 10
110.6584072165
 20
29.8083798065
 10
110.6646209253
 20
29.8458702492
 10
110.6696052602
 20
29.8835386885
 10
110.673355042
 20
29.9213371397
 10
110.6758650919
 20
29.9592176182
 10
110.6771302307
 20
29.9971321394
  0
LINE
  5
3F8
100
AcDbEntity
  8
0
100
AcDbLine
 62
7
  6
CONTINUOUS
 10
122.244527082
 20
33.472799392
 11
122.105727273
 21
33.4708147477
  0
LINE
  5
3F9
100
AcDbEntity
  8
0
100
AcDbLine
 62
7
  6
CONTINUOUS
 10
123.9357430771
 20
34.9401766454
 11
123.9316099828
 21
34.9401244925
  0
LINE
  5
3FA
100
AcDbEntity
  8
0
100
AcDbLine
 62
7
  6
CONTINUOUS
 10
122.1062948211
 20
33.4565580365
 11
121.9793404902
 21
33.4549768037
  0
LINE
  5
3FB
100
AcDbEntity
  8
0
100
AcDbLine
 62
7
  6
CONTINUOUS
 10
123.9386568801
 20
34.9401928767
 11
123.9357430771
 21
34.9401766454
  0
LINE
  5
3FC
100
AcDbEntity
  8
0
100
AcDbLine
 62
7
  6
CONTINUOUS
 10
122.105727273
 20
33.4708147477
 11
121.979438954
 21
33.4702372283
  0
LINE
  5
3FD
100
AcDbEntity
  8
0
100
AcDbLine
 62
7
  6
CONTINUOUS
 10
121.9793404902
 20
33.4549768037
 11
121.8615287384
 21
33.4545019016
  0
LINE
  5
3FE
100
AcDbEntity
  8
0
100
AcDbLine
 62
7
  6
CONTINUOUS
 10
123.9397549094
 20
34.9401945882
 11
123.9386568801
 21
34.9401928767
  0
LINE
  5
3FF
100
AcDbEntity
  8
0
100
AcDbLine
 62
7
  6
CONTINUOUS
 10
123.9399190281
 20
34.940194637
 11
123.9398216757
 21
34.9401946145
  0
LINE
  5
400
100
AcDbEntity
  8
0
100
AcDbLine
 62
7
  6
CONTINUOUS
 10
91.4897959183
 20
31.4401946387
 11
127.4897959183
 21
31.4401946387
  0
LINE
  5
401
100
AcDbEntity
  8
0
100
AcDbLine
 62
7
  6
CONTINUOUS
 10
126.8774400037
 20
32.7461760198
 11
92.102151833
 21
32.7461760198
  0
LINE
  5
402
100
AcDbEntity
  8
0
100
AcDbLine
 62
7
  6
CONTINUOUS
 10
121.8615287384
 20
33.4545019016
 11
97.1180630983
 21
33.4545019016
  0
LINE
  5
403
100
AcDbEntity
  8
0
100
AcDbLine
 62
7
  6
CONTINUOUS
 10
97.0001528827
 20
33.4702372284
 11
121.979438954
 21
33.4702372284
  0
LINE
  5
404
100
AcDbEntity
  8
0
100
AcDbLine
 62
7
  6
CONTINUOUS
 10
123.9399552966
 20
34.9401946406
 11
123.9399488455
 21
34.9401946401
  0
LINE
  5
405
100
AcDbEntity
  8
0
100
AcDbLine
 62
7
  6
CONTINUOUS
 10
123.9399488455
 20
34.9401946401
 11
123.9399420126
 21
34.9401946396
  0
LINE
  5
406
100
AcDbEntity
  8
0
100
AcDbLine
 62
7
  6
CONTINUOUS
 10
123.9399671391
 20
34.9401946412
 11
123.9399613857
 21
34.9401946409
  0
LINE
  5
407
100
AcDbEntity
  8
0
100
AcDbLine
 62
7
  6
CONTINUOUS
 10
123.9399613857
 20
34.9401946409
 11
123.9399552966
 21
34.9401946406
  0
LINE
  5
408
100
AcDbEntity
  8
0
100
AcDbLine
 62
7
  6
CONTINUOUS
 10
123.9399725866
 20
34.9401946414
 11
123.9399671391
 21
34.9401946412
  0
LINE
  5
409
100
AcDbEntity
  8
0
100
AcDbLine
 62
7
  6
CONTINUOUS
 10
123.9399777538
 20
34.9401946415
 11
123.9399725866
 21
34.9401946414
  0
LINE
  5
40A
100
AcDbEntity
  8
0
100
AcDbLine
 62
7
  6
CONTINUOUS
 10
126.9545028025
 20
34.9401946387
 11
123.9399959132
 21
34.9401946387
  0
LINE
  5
40B
100
AcDbEntity
  8
0
100
AcDbLine
 62
7
  6
CONTINUOUS
 10
92.0250890342
 20
34.9401946387
 11
95.0395959234
 21
34.9401946387
  0
LINE
  5
40C
100
AcDbEntity
  8
0
100
AcDbLine
 62
7
  6
CONTINUOUS
 10
97.1180630983
 20
33.4545019016
 11
97.0002170928
 21
33.4549770802
  0
LINE
  5
40D
100
AcDbEntity
  8
0
100
AcDbLine
 62
7
  6
CONTINUOUS
 10
97.0001528827
 20
33.4702372283
 11
96.8734565689
 21
33.4708184949
  0
LINE
  5
40E
100
AcDbEntity
  8
0
100
AcDbLine
 62
7
  6
CONTINUOUS
 10
97.0002170928
 20
33.4549770802
 11
96.8732313082
 21
33.4565591449
  0
LINE
  5
40F
100
AcDbEntity
  8
0
100
AcDbLine
 62
7
  6
CONTINUOUS
 10
96.8734565689
 20
33.4708184949
 11
96.7344056506
 21
33.4728122485
  0
LWPOLYLINE
  5
410
100
AcDbEntity
  8
0
100
AcDbPolyline
 62
7
  6
CONTINUOUS
 90
49
 70
0
 10
109.4897959183
 20
28.8242811841
 10
109.450993041
 20
28.8249102213
 10
109.4122030342
 20
28.8267949058
 10
109.3734737805
 20
28.8299315966
 10
109.3348531625
 20
28.8343166529
 10
109.2963890627
 20
28.8399464339
 10
109.2581293637
 20
28.8468172986
 10
109.2201547353
 20
28.8549164424
 10
109.1824692423
 20
28.8642398961
 10
109.1451101967
 20
28.8747767822
 10
109.1081149104
 20
28.8865162233
 10
109.0715206954
 20
28.899447342
 10
109.0353648635
 20
28.9135592609
 10
108.9997449293
 20
28.9288129761
 10
108.9646364468
 20
28.945214669
 10
108.9300767868
 20
28.9627463643
 10
108.8961033199
 20
28.9813900866
 10
108.862753417
 20
29.0011278606
 10
108.8300644486
 20
29.0219417108
 10
108.798143488
 20
29.0437626496
 10
108.7669506056
 20
29.0666121529
 10
108.7365186796
 20
29.0904653899
 10
108.7068805884
 20
29.1152975295
 10
108.6780692102
 20
29.1410837411
 10
108.6501174235
 20
29.1677991936
 10
108.6231216165
 20
29.1953501785
 10
108.5970417644
 20
29.2237703659
 10
108.5719056623
 20
29.2530289162
 10
108.5477411056
 20
29.2830949896
 10
108.5245758896
 20
29.3139377465
 10
108.5024378095
 20
29.3455263472
 10
108.4813996135
 20
29.3777557753
 10
108.4614327081
 20
29.4106602649
 10
108.4425581749
 20
29.444203074
 10
108.4247970954
 20
29.4783474605
 10
108.4081705513
 20
29.5130566826
 10
108.392699624
 20
29.5482939982
 10
108.3784276407
 20
29.5839606469
 10
108.3653415266
 20
29.6200790334
 10
108.3534544926
 20
29.6566112313
 10
108.3427797495
 20
29.6935193139
 10
108.3333305083
 20
29.7307653546
 10
108.3251199798
 20
29.7683114267
 10
108.3181658024
 20
29.8060824286
 10
108.3124657153
 20
29.8440654153
 10
108.3080242083
 20
29.8822107534
 10
108.3048457713
 20
29.9204688093
 10
108.3029348944
 20
29.9587899494
 10
108.3022960672
 20
29.9971245401
  0
LWPOLYLINE
  5
411
100
AcDbEntity
  8
0
100
AcDbPolyline
 62
7
  6
CONTINUOUS
 90
49
 70
0
 10
109.4897959183
 20
31.170040993
 10
109.5285998707
 20
31.1694119203
 10
109.5673909514
 20
31.1675271299
 10
109.6061212739
 20
31.1643902635
 10
109.6447429517
 20
31.1600049627
 10
109.6832080985
 20
31.1543748692
 10
109.7214688279
 20
31.1475036246
 10
109.7594446028
 20
31.1394040032
 10
109.7971312164
 20
31.1300799974
 10
109.8344913531
 20
31.1195424857
 10
109.8714876973
 20
31.1078023463
 10
109.9080829336
 20
31.0948704576
 10
109.9442397464
 20
31.0807576979
 10
109.9798608305
 20
31.0655029779
 10
110.0149704095
 20
31.0491001994
 10
110.049531109
 20
31.0315673405
 10
110.0835055544
 20
31.0129223795
 10
110.1168563712
 20
30.9931832948
 10
110.1495461849
 20
30.9723680645
 10
110.1814681064
 20
30.9505455486
 10
110.2126618652
 20
30.9276943932
 10
110.243094579
 20
30.9038394328
 10
110.2727333654
 20
30.879005502
 10
110.3015453419
 20
30.8532174353
 10
110.3294976261
 20
30.8265000674
 10
110.3564939247
 20
30.7989470101
 10
110.3825741543
 20
30.7705246926
 10
110.4077105169
 20
30.7412639601
 10
110.431875214
 20
30.711195658
 10
110.4550404476
 20
30.6803506315
 10
110.4771784194
 20
30.6487597257
 10
110.4982163802
 20
30.6165279667
 10
110.5181829214
 20
30.5836211233
 10
110.5370569606
 20
30.5500759442
 10
110.5548174155
 20
30.5159291784
 10
110.5714432036
 20
30.4812175745
 10
110.5869132427
 20
30.4459778816
 10
110.6011841552
 20
30.4103090071
 10
110.614269077
 20
30.3741884143
 10
110.6261547994
 20
30.3376540345
 10
110.6368281138
 20
30.3007437989
 10
110.6462758113
 20
30.2634956389
 10
110.6544846833
 20
30.2259474857
 10
110.6614370504
 20
30.1881746985
 10
110.6671352174
 20
30.1501899796
 10
110.6715746786
 20
30.1120429692
 10
110.6747509282
 20
30.0737833076
 10
110.6766594604
 20
30.0354606353
 10
110.6772957696
 20
29.9971245925
  0
LWPOLYLINE
  5
412
100
AcDbEntity
  8
DEFAULT_2
100
AcDbPolyline
 62
8
  6
CONTINUOUS
 90
49
 70
0
 10
109.4897959183
 20
27.3311523262
 10
109.5156563504
 20
27.3306065788
 10
109.5414824942
 20
27.328974063
 10
109.5672204817
 20
27.3262618679
 10
109.5928974028
 20
27.3224658989
 10
109.6183923247
 20
27.3176104785
 10
109.643666147
 20
27.3117153505
 10
109.6689725581
 20
27.3047146526
 10
109.6939772619
 20
27.2966996422
 10
109.7186448962
 20
27.2877000579
 10
109.7434088518
 20
27.2775443432
 10
109.7677590421
 20
27.2664331669
 10
109.7916687104
 20
27.2544032743
 10
109.8157131299
 20
27.2411459125
 10
109.8392465038
 20
27.2270008552
 10
109.8622495714
 20
27.2120086335
 10
109.8853994045
 20
27.1957016885
 10
109.9079531952
 20
27.1785795878
 10
109.9298994605
 20
27.16068517
 10
109.9519798738
 20
27.1413809577
 10
109.973391673
 20
27.1213375203
 10
109.9941303593
 20
27.1005982683
 10
110.0149677638
 20
27.0783514104
 10
110.0350750958
 20
27.0554422728
 10
110.0544542491
 20
27.031913313
 10
110.0738756283
 20
27.0067815509
 10
110.0925160444
 20
26.9810654581
 10
110.1103831113
 20
26.9548075885
 10
110.1282138645
 20
26.9268706012
 10
110.1452245106
 20
26.8984250224
 10
110.1614289275
 20
26.8695059794
 10
110.1778517106
 20
26.8381532967
 10
110.1933858446
 20
26.8063401383
 10
110.2080455024
 20
26.774105479
 10
110.2218448568
 20
26.7414882936
 10
110.2347980809
 20
26.7085275571
 10
110.2469193474
 20
26.6752622443
 10
110.2589795415
 20
26.6393876914
 10
110.2701278755
 20
26.6032328909
 10
110.2803879141
 20
26.5668214041
 10
110.2901817674
 20
26.5285356795
 10
110.2990526806
 20
26.4900198263
 10
110.3070213609
 20
26.4512981164
 10
110.3145396871
 20
26.4098526893
 10
110.3210778664
 20
26.3682321261
 10
110.326655984
 20
26.3264673279
 10
110.3312941255
 20
26.2845891959
 10
110.335012376
 20
26.2426286309
 10
110.337830821
 20
26.2006165343
  0
LINE
  5
413
100
AcDbEntity
  8
0
100
AcDbLine
 62
7
  6
CONTINUOUS
 10
96.8732313082
 20
33.4565591449
 11
96.751399066
 21
33.4591383083
  0
LINE
  5
414
100
AcDbEntity
  8
0
100
AcDbLine
 62
7
  6
CONTINUOUS
 10
96.7344056506
 20
33.4728122485
 11
96.5992320521
 21
33.4761523632
  0
LINE
  5
415
100
AcDbEntity
  8
0
100
AcDbLine
 62
7
  6
CONTINUOUS
 10
96.751399066
 20
33.4591383083
 11
96.6349027308
 21
33.4626045239
  0
LINE
  5
416
100
AcDbEntity
  8
DEFAULT_2
100
AcDbLine
 62
8
  6
CONTINUOUS
 10
112.4871410901
 20
15.5009652985
 11
111.910655767
 21
15.5186192467
  0
LINE
  5
417
100
AcDbEntity
  8
0
100
AcDbLine
 62
7
  6
CONTINUOUS
 10
96.5992320521
 20
33.4761523632
 11
96.4689908441
 21
33.4807390697
  0
LINE
  5
418
100
AcDbEntity
  8
0
100
AcDbLine
 62
7
  6
CONTINUOUS
 10
95.0777743797
 20
34.9387697652
 11
95.0400523396
 21
34.9401946387
  0
LINE
  5
419
100
AcDbEntity
  8
0
100
AcDbLine
 62
7
  6
CONTINUOUS
 10
96.6349027308
 20
33.4626045239
 11
96.5238487693
 21
33.4668548322
  0
LWPOLYLINE
  5
41A
100
AcDbEntity
  8
DEFAULT_2
100
AcDbPolyline
 62
8
  6
CONTINUOUS
 90
33
 70
0
 10
111.9106397708
 20
15.5186191473
 10
111.895624405
 20
15.5192387045
 10
111.8806218358
 20
15.5201538229
 10
111.8656391133
 20
15.5213655374
 10
111.8506832873
 20
15.5228748825
 10
111.8357820827
 20
15.5246799188
 10
111.8209205018
 20
15.5267824279
 10
111.8061043167
 20
15.5291820536
 10
111.7913392996
 20
15.5318784399
 10
111.7765803517
 20
15.5348818689
 10
111.7618846815
 20
15.5381818817
 10
111.7472582312
 20
15.5417765989
 10
111.7327069428
 20
15.5456641409
 10
111.7181146898
 20
15.5498789574
 10
111.7036101712
 20
15.5543864175
 10
111.6891986409
 20
15.5591832808
 10
111.6748853525
 20
15.564266307
 10
111.6604863064
 20
15.5697055949
 10
111.6461984324
 20
15.5754304519
 10
111.6320266226
 20
15.5814359125
 10
111.6179757689
 20
15.5877170115
 10
111.6038019996
 20
15.594388696
 10
111.5897611049
 20
15.6013361231
 10
111.575855561
 20
15.6085545763
 10
111.5620878443
 20
15.6160393391
 10
111.547990371
 20
15.6240586465
 10
111.5340467972
 20
15.6323502358
 10
111.5202608148
 20
15.6409063307
 10
111.5066361161
 20
15.6497191547
 10
111.4931763931
 20
15.6587809312
 10
111.479885338
 20
15.6680838839
 10
111.4667666427
 20
15.6776202362
 10
111.4538239996
 20
15.6873822117
  0
LWPOLYLINE
  5
41B
100
AcDbEntity
  8
0
100
AcDbPolyline
 62
7
  6
CONTINUOUS
 90
10
 70
0
 10
92.102151833
 20
32.7461760198
 10
92.0538581144
 20
32.7483521827
 10
92.005572663
 20
32.750711777
 10
91.9572972346
 20
32.7532678226
 10
91.9090335852
 20
32.7560333397
 10
91.8656802163
 20
32.7587118591
 10
91.8223406565
 20
32.7616052394
 10
91.797198319
 20
32.7633984778
 10
91.7720635224
 20
32.7652935431
 10
91.7469381869
 20
32.7673080404
  0
LINE
  5
41C
100
AcDbEntity
  8
0
100
AcDbLine
 62
7
  6
CONTINUOUS
 10
96.4689908441
 20
33.4807390697
 11
96.3446307786
 21
33.4864497445
  0
LINE
  5
41D
100
AcDbEntity
  8
0
100
AcDbLine
 62
7
  6
CONTINUOUS
 10
96.5238487693
 20
33.4668548322
 11
96.4182767444
 21
33.4717938977
  0
LINE
  5
41E
100
AcDbEntity
  8
0
100
AcDbLine
 62
7
  6
CONTINUOUS
 10
96.4182767444
 20
33.4717938977
 11
96.3181734877
 21
33.4773341162
  0
LWPOLYLINE
  5
41F
100
AcDbEntity
  8
DEFAULT_2
100
AcDbPolyline
 62
8
  6
CONTINUOUS
 90
62
 70
0
 10
100.7245143828
 20
13.8237464801
 10
100.8909790847
 20
13.8142774572
 10
101.0537415146
 20
13.8050214882
 10
101.2127685446
 20
13.7959803943
 10
101.3680270469
 20
13.7871559967
 10
101.5194838933
 20
13.7785501166
 10
101.6671280387
 20
13.770163318
 10
101.8110367693
 20
13.761991136
 10
101.9513094544
 20
13.7540278483
 10
102.0880454627
 20
13.7462677328
 10
102.2213441633
 20
13.7387050672
 10
102.3832747719
 20
13.7295212756
 10
102.5401213156
 20
13.720629445
 10
102.6920152588
 20
13.7120219619
 10
102.8390880658
 20
13.7036912127
 10
102.9814792809
 20
13.6956291281
 10
103.1193607671
 20
13.687825816
 10
103.2529124673
 20
13.6802709284
 10
103.3823143243
 20
13.6729541177
 10
103.50774091
 20
13.6658653457
 10
103.6293453148
 20
13.658995814
 10
103.7472752579
 20
13.6523370336
 10
103.8616784588
 20
13.645880516
 10
103.972693555
 20
13.6396182881
 10
104.0804228557
 20
13.6335444402
 10
104.1849595884
 20
13.6276535783
 10
104.2863969805
 20
13.6219403087
 10
104.4169850867
 20
13.6145896486
 10
104.5424398513
 20
13.6075329401
 10
104.6629721338
 20
13.6007580047
 10
104.7787829464
 20
13.5942532233
 10
104.8900339112
 20
13.5880092155
 10
104.996876803
 20
13.58201716
 10
105.0994640906
 20
13.5762682059
 10
105.1979510218
 20
13.5707533832
 10
105.2924935383
 20
13.5654636916
 10
105.3832429085
 20
13.5603904
 10
105.470331706
 20
13.555525853
 10
105.5538878309
 20
13.5508626639
 10
105.6340442706
 20
13.5463931686
 10
105.7109543626
 20
13.5421085931
 10
105.7847765315
 20
13.5379998859
 10
105.8556753055
 20
13.5340576694
 10
105.9238396276
 20
13.5302712607
 10
105.9894645438
 20
13.5266296511
 10
106.0835478374
 20
13.5214157808
 10
106.1728984498
 20
13.5164725519
 10
106.2580452533
 20
13.5117703639
 10
106.3394640966
 20
13.5072827603
 10
106.4176051547
 20
13.5029848151
 10
106.4928689311
 20
13.4988545796
 10
106.5656223921
 20
13.4948720703
 10
106.6361480266
 20
13.4910221878
 10
106.7047076784
 20
13.4872910898
 10
106.7715650863
 20
13.4836650806
 10
106.8369732944
 20
13.4801311884
 10
106.9011406718
 20
13.4766791911
 10
107.026559521
 20
13.4699826595
 10
107.149462287
 20
13.4635015533
 10
107.2713845558
 20
13.4571754663
 10
107.3938758521
 20
13.4509537211
 10
107.5184653703
 20
13.444801156
  0
LINE
  5
420
100
AcDbEntity
  8
0
100
AcDbLine
 62
7
  6
CONTINUOUS
 10
96.3446307786
 20
33.4864497445
 11
96.2269713288
 21
33.4931423805
  0
LWPOLYLINE
  5
421
100
AcDbEntity
  8
6_SURFACES-PATINS-SPEC
100
AcDbPolyline
 62
7
  6
CONTINUOUS
 90
26
 70
0
 10
103.5112622555
 20
13.4340738708
 10
103.642135839
 20
13.4262749984
 10
103.7729850255
 20
13.4180757702
 10
103.9059438772
 20
13.4093310101
 10
104.0359766337
 20
13.4003642844
 10
104.1610388513
 20
13.3913355816
 10
104.279774438
 20
13.3823768604
 10
104.3900568942
 20
13.373693417
 10
104.4899111264
 20
13.3654925109
 10
104.5795842881
 20
13.3578033063
 10
104.6592900034
 20
13.3506487456
 10
104.6949234053
 20
13.347325133
 10
104.7274227673
 20
13.3442065017
 10
104.7567271544
 20
13.3413020563
 10
104.782838933
 20
13.3386149881
 10
104.8057864242
 20
13.3361460621
 10
104.8255652679
 20
13.3338986265
 10
104.8421633186
 20
13.3318769199
 10
104.8555771983
 20
13.3300849043
 10
104.8658325727
 20
13.3285237928
 10
104.8697913119
 20
13.3278296481
 10
104.8729858527
 20
13.3271928858
 10
104.8754295664
 20
13.3266132995
 10
104.8771377726
 20
13.3260903784
 10
104.8781347234
 20
13.3256222169
 10
104.8784472282
 20
13.3252065098
  0
LINE
  5
422
100
AcDbEntity
  8
1_CURVES_JETS
100
AcDbLine
 62
7
  6
CONTINUOUS
 10
100.1231577753
 20
13.6620989141
 11
100.1923466685
 21
13.6579839205
  0
LWPOLYLINE
  5
423
100
AcDbEntity
  8
6_SURFACES-PATINS-SPEC
100
AcDbPolyline
 62
7
  6
CONTINUOUS
 90
19
 70
0
 10
103.513051117
 20
13.4652555594
 10
103.6367303697
 20
13.4578958914
 10
103.760387966
 20
13.4501790594
 10
103.8852679204
 20
13.4420214304
 10
104.0101228106
 20
13.4334890367
 10
104.1270682215
 20
13.4251432122
 10
104.2439874478
 20
13.4164392975
 10
104.3514409695
 20
13.4081037718
 10
104.4499791824
 20
13.4001485431
 10
104.5391173207
 20
13.3926567759
 10
104.6194453258
 20
13.3856178134
 10
104.6903317417
 20
13.379116475
 10
104.7502357376
 20
13.3733230961
 10
104.7987155763
 20
13.3683035556
 10
104.8358475145
 20
13.3640729575
 10
104.8501408119
 20
13.3622617451
 10
104.86158884
 20
13.3606570471
 10
104.8702245418
 20
13.359258881
 10
104.8761090837
 20
13.3580663947
  0
LINE
  5
424
100
AcDbEntity
  8
1_CURVES_JETS
100
AcDbLine
 62
7
  6
CONTINUOUS
 10
107.5146571394
 20
13.3197602813
 11
107.5155680915
 21
13.3197037671
  0
LINE
  5
425
100
AcDbEntity
  8
0
100
AcDbLine
 62
7
  6
CONTINUOUS
 10
96.3181734877
 20
33.4773341162
 11
96.2234870877
 21
33.4833953294
  0
LWPOLYLINE
  5
426
100
AcDbEntity
  8
DEFAULT_2
100
AcDbPolyline
 62
8
  6
CONTINUOUS
 90
57
 70
0
 10
96.8590307497
 20
25.9417909072
 10
96.8716935257
 20
25.9409512826
 10
96.8843078008
 20
25.9397949862
 10
96.8968789836
 20
25.938321446
 10
96.9094124829
 20
25.9365300899
 10
96.9219101165
 20
25.9344210054
 10
96.9343593388
 20
25.9319969163
 10
96.9467440136
 20
25.9292612062
 10
96.9590480047
 20
25.9262172584
 10
96.9712578917
 20
25.9228678827
 10
96.9833711181
 20
25.9192135948
 10
96.9953878434
 20
25.9152543367
 10
97.0073082271
 20
25.9109900507
 10
97.0191298648
 20
25.9064217748
 10
97.0308400959
 20
25.9015549302
 10
97.0424236959
 20
25.8963960343
 10
97.0538654404
 20
25.8909516042
 10
97.065152586
 20
25.8852271659
 10
97.0762823136
 20
25.8792242795
 10
97.0872542852
 20
25.8729435138
 10
97.098068163
 20
25.8663854377
 10
97.1087217975
 20
25.8595517386
 10
97.1192057935
 20
25.8524485787
 10
97.1295089446
 20
25.845083239
 10
97.139620044
 20
25.8374630002
 10
97.1495290396
 20
25.8295946916
 10
97.159230497
 20
25.8214833355
 10
97.1687201362
 20
25.8131335025
 10
97.1779936772
 20
25.8045497635
 10
97.1870467757
 20
25.7957366175
 10
97.1958748303
 20
25.7866982774
 10
97.2044731752
 20
25.7774388847
 10
97.2128371447
 20
25.7679625808
 10
97.2209615693
 20
25.7582746258
 10
97.2288392643
 20
25.7483847555
 10
97.2364625412
 20
25.738303824
 10
97.2438237116
 20
25.7280426859
 10
97.2509162994
 20
25.717610437
 10
97.2577386784
 20
25.7070091392
 10
97.2642904348
 20
25.696239096
 10
97.2705711547
 20
25.6853006109
 10
97.2765793075
 20
25.674196398
 10
97.2823088959
 20
25.6629388137
 10
97.2877528056
 20
25.6515426254
 10
97.2929039224
 20
25.6400226003
 10
97.2977563519
 20
25.628391003
 10
97.3023090782
 20
25.6166500886
 10
97.3065623054
 20
25.6047996095
 10
97.3105162374
 20
25.5928393182
 10
97.3141703623
 20
25.580771635
 10
97.3175213049
 20
25.5686096509
 10
97.3205649739
 20
25.5563691247
 10
97.3232972783
 20
25.5440658153
 10
97.3257149602
 20
25.5317119716
 10
97.3278180939
 20
25.5193058025
 10
97.3296075869
 20
25.5068420071
 10
97.331084347
 20
25.4943152845
  0
LINE
  5
427
100
AcDbEntity
  8
0
100
AcDbLine
 62
7
  6
CONTINUOUS
 10
96.2269713288
 20
33.4931423805
 11
96.1166955552
 21
33.5006589638
  0
LINE
  5
428
100
AcDbEntity
  8
0
100
AcDbLine
 62
7
  6
CONTINUOUS
 10
96.2234870877
 20
33.4833953294
 11
96.134136417
 21
33.489904443
  0
LINE
  5
429
100
AcDbEntity
  8
1_CURVES_JETS
100
AcDbLine
 62
7
  6
CONTINUOUS
 10
107.5155680915
 20
13.3197037671
 11
107.5169393175
 21
13.3196028927
  0
LINE
  5
42A
100
AcDbEntity
  8
0
100
AcDbLine
 62
7
  6
CONTINUOUS
 10
96.1166955552
 20
33.5006589638
 11
96.0143324047
 21
33.5088299696
  0
LINE
  5
42B
100
AcDbEntity
  8
0
100
AcDbLine
 62
7
  6
CONTINUOUS
 10
96.134136417
 20
33.489904443
 11
96.05002514
 21
33.49679442
  0
LINE
  5
42C
100
AcDbEntity
  8
6_SURFACES-PATINS-SPEC
100
AcDbLine
 62
7
  6
CONTINUOUS
 10
114.1364318247
 20
13.3175433774
 11
114.1768215682
 21
13.314008507
  0
LINE
  5
42D
100
AcDbEntity
  8
6_SURFACES-PATINS-SPEC
100
AcDbLine
 62
7
  6
CONTINUOUS
 10
102.0946218632
 20
13.4453705456
 11
102.1255755756
 21
13.4426576168
  0
LINE
  5
42E
100
AcDbEntity
  8
1_CURVES_JETS
100
AcDbLine
 62
7
  6
CONTINUOUS
 10
107.5169393175
 20
13.3196028927
 11
107.5189502321
 21
13.3194237291
  0
LWPOLYLINE
  5
42F
100
AcDbEntity
  8
0
100
AcDbPolyline
 62
7
  6
CONTINUOUS
 90
31
 70
0
 10
91.7264147009
 20
32.769059031
 10
91.7128395341
 20
32.7702807691
 10
91.6992699376
 20
32.7715630394
 10
91.6873046931
 20
32.7727536352
 10
91.6753464124
 20
32.7740124685
 10
91.6685019395
 20
32.7747697793
 10
91.66166117
 20
32.775559612
 10
91.6548249822
 20
32.7763877662
 10
91.6491641325
 20
32.7771079637
 10
91.6435082164
 20
32.7778661802
 10
91.6378584181
 20
32.7786701358
 10
91.6334205044
 20
32.7793414071
 10
91.6289902416
 20
32.7800603781
 10
91.6245707641
 20
32.7808416823
 10
91.6219503956
 20
32.7813427338
 10
91.6193373427
 20
32.7818805831
 10
91.6171917347
 20
32.7823598405
 10
91.6150569769
 20
32.7828855408
 10
91.6133889273
 20
32.7833429499
 10
91.6117369702
 20
32.783854626
 10
91.6109394627
 20
32.7841308052
 10
91.6101529046
 20
32.7844368915
 10
91.609382806
 20
32.7847859892
 10
91.6089685762
 20
32.7850016324
 10
91.6085691319
 20
32.7852369655
 10
91.6082747639
 20
32.7854385373
 10
91.6079981541
 20
32.7856778582
 10
91.6078314853
 20
32.7858648077
 10
91.607693894
 20
32.7860727151
 10
91.6076051125
 20
32.7862958663
 10
91.6075848727
 20
32.7865285477
  0
LINE
  5
430
100
AcDbEntity
  8
1_CURVES_JETS
100
AcDbLine
 62
7
  6
CONTINUOUS
 10
100.0361547343
 20
13.6699549118
 11
100.1231577753
 21
13.6620989141
  0
LINE
  5
431
100
AcDbEntity
  8
0
100
AcDbLine
 62
7
  6
CONTINUOUS
 10
96.05002514
 20
33.49679442
 11
95.9710469079
 21
33.5040035738
  0
LINE
  5
432
100
AcDbEntity
  8
0
100
AcDbLine
 62
7
  6
CONTINUOUS
 10
96.0143324047
 20
33.5088299696
 11
95.9200950437
 21
33.5174942001
  0
LWPOLYLINE
  5
433
100
AcDbEntity
  8
DEFAULT_2
100
AcDbPolyline
 62
8
  6
CONTINUOUS
 90
18
 70
0
 10
116.2986299669
 20
15.4862550953
 10
116.2907240056
 20
15.4870132177
 10
116.2809011861
 20
15.4877644934
 10
116.2556178815
 20
15.4892407992
 10
116.223005873
 20
15.4906726013
 10
116.1832909802
 20
15.4920484882
 10
116.1367351873
 20
15.4933574098
 10
116.0837451379
 20
15.49458976
 10
116.0219911082
 20
15.4957873574
 10
115.9602335019
 20
15.4967877656
 10
115.8906205214
 20
15.4977353624
 10
115.8164824567
 20
15.4985719954
 10
115.7384063391
 20
15.4992912451
 10
115.657004332
 20
15.4998876437
 10
115.4867614743
 20
15.5006937727
 10
115.3992499785
 20
15.5008972402
 10
115.3551935908
 20
15.5009482619
 10
115.3110511874
 20
15.5009652986
  0
LWPOLYLINE
  5
434
100
AcDbEntity
  8
6_SURFACES-PATINS-SPEC
100
AcDbPolyline
 62
7
  6
CONTINUOUS
 90
43
 70
0
 10
116.8776468556
 20
13.4813758468
 10
116.8787752113
 20
13.4812643485
 10
116.8799028633
 20
13.4811466197
 10
116.8810297142
 20
13.4810213709
 10
116.882155667
 20
13.4808873125
 10
116.8832806244
 20
13.4807431548
 10
116.8844044892
 20
13.4805876083
 10
116.8850734782
 20
13.4804889234
 10
116.8857415354
 20
13.4803850994
 10
116.8864081516
 20
13.4802754979
 10
116.8870728173
 20
13.4801594809
 10
116.8876216775
 20
13.4800578812
 10
116.8881695772
 20
13.4799499311
 10
116.8887172433
 20
13.479834119
 10
116.8892654029
 20
13.4797089339
 10
116.8896142481
 20
13.4796238028
 10
116.8899618918
 20
13.4795341148
 10
116.8903066386
 20
13.4794397144
 10
116.8906467935
 20
13.4793404459
 10
116.8909806614
 20
13.4792361538
 10
116.891156176
 20
13.4791781217
 10
116.8913304003
 20
13.4791175819
 10
116.8915043246
 20
13.4790535069
 10
116.8916789397
 20
13.4789848691
 10
116.8918552361
 20
13.4789106408
 10
116.8920342043
 20
13.4788297944
 10
116.892216835
 20
13.4787413023
 10
116.8923066867
 20
13.4786954213
 10
116.8923968333
 20
13.4786473946
 10
116.8924864796
 20
13.4785971085
 10
116.8925748305
 20
13.4785444491
 10
116.8926610908
 20
13.4784893026
 10
116.8927444653
 20
13.4784315552
 10
116.892824159
 20
13.478371093
 10
116.8928993767
 20
13.4783078022
 10
116.8929693232
 20
13.478241569
 10
116.8930332035
 20
13.4781722795
 10
116.8930902223
 20
13.4780998199
 10
116.8931395845
 20
13.4780240764
 10
116.893180495
 20
13.4779449351
 10
116.8932121587
 20
13.4778622822
 10
116.8932337804
 20
13.4777760039
 10
116.8932445649
 20
13.4776859863
  0
LINE
  5
435
100
AcDbEntity
  8
0
100
AcDbLine
 62
7
  6
CONTINUOUS
 10
95.9710469079
 20
33.5040035738
 11
95.8970877944
 21
33.5114750437
  0
LINE
  5
436
100
AcDbEntity
  8
0
100
AcDbLine
 62
7
  6
CONTINUOUS
 10
95.9200950437
 20
33.5174942001
 11
95.8339248991
 21
33.5265085035
  0
LINE
  5
437
100
AcDbEntity
  8
0
100
AcDbLine
 62
7
  6
CONTINUOUS
 10
95.0950846028
 20
34.9371073091
 11
95.0918346738
 21
34.9374569217
  0
LINE
  5
438
100
AcDbEntity
  8
1_CURVES_JETS
100
AcDbLine
 62
7
  6
CONTINUOUS
 10
107.5189502321
 20
13.3194237291
 11
107.5218305648
 21
13.3191057923
  0
LINE
  5
439
100
AcDbEntity
  8
0
100
AcDbLine
 62
7
  6
CONTINUOUS
 10
95.8970877944
 20
33.5114750437
 11
95.8280328932
 21
33.519155804
  0
LWPOLYLINE
  5
43A
100
AcDbEntity
  8
DEFAULT_2
100
AcDbPolyline
 62
8
  6
CONTINUOUS
 90
15
 70
0
 10
116.2986232131
 20
15.4862556704
 10
116.4928440786
 20
15.4645303908
 10
116.6869622427
 20
15.4419027746
 10
116.8654159173
 20
15.4201926725
 10
117.0437474704
 20
15.3975027287
 10
117.2064310878
 20
15.3758166039
 10
117.3689683759
 20
15.3530594142
 10
117.5159016772
 20
15.331405824
 10
117.6626555924
 20
15.3085709937
 10
117.7501420579
 20
15.2942999305
 10
117.8375368494
 20
15.2794773129
 10
117.9248254681
 20
15.2640370207
 10
118.0018311239
 20
15.2498244539
 10
118.0787193279
 20
15.234993939
 10
118.1554667925
 20
15.2194611169
  0
LINE
  5
43B
100
AcDbEntity
  8
0
100
AcDbLine
 62
7
  6
CONTINUOUS
 10
95.0991808166
 20
34.9366328767
 11
95.0950846028
 21
34.9371073091
  0
LINE
  5
43C
100
AcDbEntity
  8
0
100
AcDbLine
 62
7
  6
CONTINUOUS
 10
95.8339248991
 20
33.5265085035
 11
95.7556902569
 21
33.5357366694
  0
LINE
  5
43D
100
AcDbEntity
  8
0
100
AcDbLine
 62
7
  6
CONTINUOUS
 10
95.8280328932
 20
33.519155804
 11
95.7637719211
 21
33.5269955205
  0
LINE
  5
43E
100
AcDbEntity
  8
0
100
AcDbLine
 62
7
  6
CONTINUOUS
 10
95.1033738953
 20
34.9361117126
 11
95.0991808166
 21
34.9366328767
  0
LINE
  5
43F
100
AcDbEntity
  8
1_CURVES_JETS
100
AcDbLine
 62
7
  6
CONTINUOUS
 10
99.9440433053
 20
13.6815856961
 11
100.0361547343
 21
13.6699549118
  0
LINE
  5
440
100
AcDbEntity
  8
0
100
AcDbLine
 62
7
  6
CONTINUOUS
 10
95.1281683259
 20
34.9323695882
 11
95.0777743797
 21
34.9387697652
  0
LINE
  5
441
100
AcDbEntity
  8
0
100
AcDbLine
 62
7
  6
CONTINUOUS
 10
95.7556902569
 20
33.5357366694
 11
95.6852079107
 21
33.5450482276
  0
LINE
  5
442
100
AcDbEntity
  8
0
100
AcDbLine
 62
7
  6
CONTINUOUS
 10
95.1076607435
 20
34.9355416346
 11
95.1033738953
 21
34.9361117126
  0
LINE
  5
443
100
AcDbEntity
  8
6_SURFACES-PATINS-SPEC
100
AcDbLine
 62
7
  6
CONTINUOUS
 10
104.4094037902
 20
12.1047628071
 11
104.49125346
 21
12.0938612211
  0
LINE
  5
444
100
AcDbEntity
  8
6_SURFACES-PATINS-SPEC
100
AcDbLine
 62
7
  6
CONTINUOUS
 10
113.0955801914
 20
12.1047628122
 11
113.1774298716
 21
12.0938612227
  0
LINE
  5
445
100
AcDbEntity
  8
0
100
AcDbLine
 62
7
  6
CONTINUOUS
 10
95.7637719211
 20
33.5269955205
 11
95.704224879
 21
33.5349423273
  0
LINE
  5
446
100
AcDbEntity
  8
1_CURVES_JETS
100
AcDbLine
 62
7
  6
CONTINUOUS
 10
107.5218305648
 20
13.3191057923
 11
107.5257575565
 21
13.3185588493
  0
LINE
  5
447
100
AcDbEntity
  8
0
100
AcDbLine
 62
7
  6
CONTINUOUS
 10
95.1120379708
 20
34.9349205325
 11
95.1076607435
 21
34.9355416346
  0
LINE
  5
448
100
AcDbEntity
  8
0
100
AcDbLine
 62
7
  6
CONTINUOUS
 10
95.704224879
 20
33.5349423273
 11
95.6494102564
 21
33.5429302202
  0
LWPOLYLINE
  5
449
100
AcDbEntity
  8
DEFAULT_2
100
AcDbPolyline
 62
8
  6
CONTINUOUS
 90
20
 70
0
 10
122.8477373236
 20
28.7936007222
 10
122.6353569942
 20
28.8246740946
 10
122.4316581088
 20
28.855272506
 10
122.2368999171
 20
28.8852545626
 10
122.0513296867
 20
28.9144817919
 10
121.8751801653
 20
28.942819639
 10
121.7086716481
 20
28.9701375122
 10
121.5520097636
 20
28.9963102697
 10
121.4053854196
 20
29.0212182802
 10
121.2689693855
 20
29.0447491685
 10
121.1429207756
 20
29.0667968783
 10
121.0273822839
 20
29.0872630089
 10
120.9224759779
 20
29.1060576325
 10
120.8283075145
 20
29.123099607
 10
120.7449744548
 20
29.1383147489
 10
120.6725665805
 20
29.1516363957
 10
120.6111695414
 20
29.1630048007
 10
120.5608511492
 20
29.1723699815
 10
120.5216530877
 20
29.1796932543
 10
120.4765513687
 20
29.1881373953
  0
LINE
  5
44A
100
AcDbEntity
  8
0
100
AcDbLine
 62
7
  6
CONTINUOUS
 10
95.6852079107
 20
33.5450482276
 11
95.640871121
 21
33.551576055
  0
LINE
  5
44B
100
AcDbEntity
  8
0
100
AcDbLine
 62
7
  6
CONTINUOUS
 10
95.1165021494
 20
34.9342463451
 11
95.1120379708
 21
34.9349205325
  0
LINE
  5
44C
100
AcDbEntity
  8
DEFAULT_2
100
AcDbLine
 62
8
  6
CONTINUOUS
 10
98.593749096
 20
29.1903644043
 11
99.643167902
 21
29.0241527851
  0
LINE
  5
44D
100
AcDbEntity
  8
0
100
AcDbLine
 62
7
  6
CONTINUOUS
 10
95.6494102564
 20
33.5429302202
 11
95.5993629583
 21
33.5508854076
  0
LINE
  5
44E
100
AcDbEntity
  8
0
100
AcDbLine
 62
7
  6
CONTINUOUS
 10
95.1210498138
 20
34.9335170665
 11
95.1165021494
 21
34.9342463451
  0
LINE
  5
44F
100
AcDbEntity
  8
1_CURVES_JETS
100
AcDbLine
 62
7
  6
CONTINUOUS
 10
99.8467371616
 20
13.6976548961
 11
99.9440433053
 21
13.6815856961
  0
LINE
  5
450
100
AcDbEntity
  8
0
100
AcDbLine
 62
7
  6
CONTINUOUS
 10
95.1256777674
 20
34.932730698
 11
95.1210498138
 21
34.9335170665
  0
LINE
  5
451
100
AcDbEntity
  8
0
100
AcDbLine
 62
7
  6
CONTINUOUS
 10
95.5993629583
 20
33.5508854076
 11
95.5541070817
 21
33.5587283351
  0
LINE
  5
452
100
AcDbEntity
  8
1_CURVES_JETS
100
AcDbLine
 62
7
  6
CONTINUOUS
 10
107.5257575565
 20
13.3185588493
 11
107.5306927226
 21
13.3176865317
  0
LINE
  5
453
100
AcDbEntity
  8
0
100
AcDbLine
 62
7
  6
CONTINUOUS
 10
95.1303846389
 20
34.9318849517
 11
95.1256777674
 21
34.932730698
  0
LINE
  5
454
100
AcDbEntity
  8
DEFAULT_2
100
AcDbLine
 62
8
  6
CONTINUOUS
 10
120.4765513687
 20
29.1881373953
 11
120.4712885635
 21
29.1891105178
  0
LINE
  5
455
100
AcDbEntity
  8
6_SURFACES-PATINS-SPEC
100
AcDbLine
 62
7
  6
CONTINUOUS
 10
102.1255755756
 20
13.4426576168
 11
102.1658593948
 21
13.4351806285
  0
LINE
  5
456
100
AcDbEntity
  8
0
100
AcDbLine
 62
7
  6
CONTINUOUS
 10
95.5541070817
 20
33.5587283351
 11
95.5136585682
 21
33.5663717447
  0
LINE
  5
457
100
AcDbEntity
  8
0
100
AcDbLine
 62
7
  6
CONTINUOUS
 10
95.1351697077
 20
34.9309773905
 11
95.1303846389
 21
34.9318849517
  0
LINE
  5
458
100
AcDbEntity
  8
DEFAULT_2
100
AcDbLine
 62
8
  6
CONTINUOUS
 10
119.8777276768
 20
27.9485335257
 11
119.8841634417
 21
27.9472953461
  0
LWPOLYLINE
  5
459
100
AcDbEntity
  8
DEFAULT_2
100
AcDbPolyline
 62
8
  6
CONTINUOUS
 90
23
 70
0
 10
119.8841634417
 20
27.9472953461
 10
119.9245899214
 20
27.9394424651
 10
119.960308984
 20
27.9325141521
 10
120.0061877718
 20
27.9236434139
 10
120.0622077753
 20
27.9128591059
 10
120.1283625392
 20
27.9001933328
 10
120.2045896662
 20
27.8856943976
 10
120.2908103481
 20
27.8694189399
 10
120.3869266415
 20
27.8514322145
 10
120.4928637177
 20
27.8318000106
 10
120.6085456412
 20
27.8105930786
 10
120.7338803101
 20
27.7878897963
 10
120.8687283603
 20
27.7637813473
 10
121.0130188322
 20
27.7383506939
 10
121.1665875291
 20
27.7117012033
 10
121.3292511114
 20
27.6839425546
 10
121.5009103476
 20
27.6551730681
 10
121.6813763962
 20
27.6255091417
 10
121.8704474777
 20
27.5950711612
 10
122.0679226513
 20
27.5639810328
 10
122.2735832481
 20
27.5323645877
 10
122.4872197178
 20
27.5003469475
 10
122.7085956904
 20
27.468057671
  0
LINE
  5
45A
100
AcDbEntity
  8
6_SURFACES-PATINS-SPEC
100
AcDbLine
 62
7
  6
CONTINUOUS
 10
114.1768215682
 20
13.314008507
 11
114.2165936188
 21
13.3061338375
  0
LINE
  5
45B
100
AcDbEntity
  8
0
100
AcDbLine
 62
7
  6
CONTINUOUS
 10
95.1400321978
 20
34.930005538
 11
95.1351697077
 21
34.9309773905
  0
LINE
  5
45C
100
AcDbEntity
  8
0
100
AcDbLine
 62
7
  6
CONTINUOUS
 10
95.5136585682
 20
33.5663717447
 11
95.4780283721
 21
33.5737180026
  0
LINE
  5
45D
100
AcDbEntity
  8
1_CURVES_JETS
100
AcDbLine
 62
7
  6
CONTINUOUS
 10
99.744544552
 20
13.7188241015
 11
99.8467371616
 21
13.6976548961
  0
LINE
  5
45E
100
AcDbEntity
  8
0
100
AcDbLine
 62
7
  6
CONTINUOUS
 10
95.1449712734
 20
34.9289668802
 11
95.1400321978
 21
34.930005538
  0
LINE
  5
45F
100
AcDbEntity
  8
0
100
AcDbLine
 62
7
  6
CONTINUOUS
 10
95.1499860372
 20
34.9278588665
 11
95.1449712734
 21
34.9289668802
  0
LINE
  5
460
100
AcDbEntity
  8
1_CURVES_JETS
100
AcDbLine
 62
7
  6
CONTINUOUS
 10
107.5306927226
 20
13.3176865317
 11
107.53650408
 21
13.316391775
  0
LINE
  5
461
100
AcDbEntity
  8
6_SURFACES-PATINS-SPEC
100
AcDbLine
 62
7
  6
CONTINUOUS
 10
104.3288103815
 20
12.1228171758
 11
104.4094037902
 21
12.1047628071
  0
LINE
  5
462
100
AcDbEntity
  8
6_SURFACES-PATINS-SPEC
100
AcDbLine
 62
7
  6
CONTINUOUS
 10
113.0149867784
 20
12.1228171846
 11
113.0955801914
 21
12.1047628122
  0
LINE
  5
463
100
AcDbEntity
  8
0
100
AcDbLine
 62
7
  6
CONTINUOUS
 10
95.4780283721
 20
33.5737180026
 11
95.4472318193
 21
33.5806540908
  0
LINE
  5
464
100
AcDbEntity
  8
0
100
AcDbLine
 62
7
  6
CONTINUOUS
 10
95.1550755278
 20
34.9266789105
 11
95.1499860372
 21
34.9278588665
  0
LINE
  5
465
100
AcDbEntity
  8
0
100
AcDbLine
 62
7
  6
CONTINUOUS
 10
95.1778666873
 20
34.9208283294
 11
95.1281683259
 21
34.9323695882
  0
LINE
  5
466
100
AcDbEntity
  8
0
100
AcDbLine
 62
7
  6
CONTINUOUS
 10
95.1602387171
 20
34.9254243916
 11
95.1550755278
 21
34.9266789105
  0
LWPOLYLINE
  5
467
100
AcDbEntity
  8
6_SURFACES-PATINS-SPEC
100
AcDbPolyline
 62
7
  6
CONTINUOUS
 90
43
 70
0
 10
104.8761090837
 20
13.3580663947
 10
104.876558229
 20
13.3579569028
 10
104.8767822564
 20
13.3579006388
 10
104.8770059624
 20
13.3578429601
 10
104.8772293785
 20
13.3577835647
 10
104.8774525361
 20
13.3577221504
 10
104.8776754667
 20
13.3576584153
 10
104.8778982019
 20
13.3575920573
 10
104.8780801762
 20
13.3575356636
 10
104.8782616884
 20
13.3574773662
 10
104.8784423864
 20
13.3574172177
 10
104.8786219178
 20
13.3573552708
 10
104.8787999302
 20
13.3572915782
 10
104.8789760713
 20
13.3572261925
 10
104.8791499888
 20
13.3571591662
 10
104.8792081172
 20
13.3571361497
 10
104.8792659481
 20
13.3571127337
 10
104.8793234771
 20
13.3570886998
 10
104.8793807001
 20
13.3570638295
 10
104.8794376127
 20
13.357037904
 10
104.8794942107
 20
13.357010705
 10
104.87955049
 20
13.3569820138
 10
104.8796064461
 20
13.3569516119
 10
104.879662075
 20
13.3569192807
 10
104.8797173724
 20
13.3568848017
 10
104.8797723339
 20
13.3568479563
 10
104.8798269554
 20
13.356808526
 10
104.8798812327
 20
13.3567662921
 10
104.879904956
 20
13.3567467783
 10
104.8799283958
 20
13.3567266796
 10
104.879951336
 20
13.3567059955
 10
104.8799735605
 20
13.3566847256
 10
104.8799948531
 20
13.3566628694
 10
104.8800149979
 20
13.3566404265
 10
104.8800337786
 20
13.3566173965
 10
104.8800509791
 20
13.3565937789
 10
104.8800663835
 20
13.3565695731
 10
104.8800797755
 20
13.3565447789
 10
104.880090939
 20
13.3565193957
 10
104.880099658
 20
13.3564934231
 10
104.8801057164
 20
13.3564668606
 10
104.880108898
 20
13.3564397077
 10
104.8801089867
 20
13.3564119641
  0
LINE
  5
468
100
AcDbEntity
  8
0
100
AcDbLine
 62
7
  6
CONTINUOUS
 10
95.4472318193
 20
33.5806540908
 11
95.4213325887
 21
33.5870356588
  0
LINE
  5
469
100
AcDbEntity
  8
1_CURVES_JETS
100
AcDbLine
 62
7
  6
CONTINUOUS
 10
99.6382373806
 20
13.7456602679
 11
99.744544552
 21
13.7188241015
  0
LINE
  5
46A
100
AcDbEntity
  8
0
100
AcDbLine
 62
7
  6
CONTINUOUS
 10
95.1654745085
 20
34.9240926561
 11
95.1602387171
 21
34.9254243916
  0
LINE
  5
46B
100
AcDbEntity
  8
0
100
AcDbLine
 62
7
  6
CONTINUOUS
 10
95.1707816973
 20
34.9226810284
 11
95.1654745085
 21
34.9240926561
  0
LINE
  5
46C
100
AcDbEntity
  8
0
100
AcDbLine
 62
7
  6
CONTINUOUS
 10
95.4213325887
 20
33.5870356588
 11
95.4003774157
 21
33.5926940318
  0
LINE
  5
46D
100
AcDbEntity
  8
1_CURVES_JETS
100
AcDbLine
 62
7
  6
CONTINUOUS
 10
107.53650408
 20
13.316391775
 11
107.5431223979
 21
13.3145546852
  0
LINE
  5
46E
100
AcDbEntity
  8
0
100
AcDbLine
 62
7
  6
CONTINUOUS
 10
95.1761582142
 20
34.9211870294
 11
95.1707816973
 21
34.9226810284
  0
LINE
  5
46F
100
AcDbEntity
  8
0
100
AcDbLine
 62
7
  6
CONTINUOUS
 10
95.1816011635
 20
34.9196084141
 11
95.1761582142
 21
34.9211870294
  0
LINE
  5
470
100
AcDbEntity
  8
0
100
AcDbLine
 62
7
  6
CONTINUOUS
 10
95.4003774157
 20
33.5926940318
 11
95.3843302719
 21
33.5974505729
  0
LINE
  5
471
100
AcDbEntity
  8
1_CURVES_JETS
100
AcDbLine
 62
7
  6
CONTINUOUS
 10
99.5288258693
 20
13.7786024992
 11
99.6382373806
 21
13.7456602679
  0
LINE
  5
472
100
AcDbEntity
  8
6_SURFACES-PATINS-SPEC
100
AcDbLine
 62
7
  6
CONTINUOUS
 10
102.1658593948
 20
13.4351806285
 11
102.2050870443
 21
13.4233535108
  0
LINE
  5
473
100
AcDbEntity
  8
0
100
AcDbLine
 62
7
  6
CONTINUOUS
 10
95.1871075635
 20
34.9179429937
 11
95.1816011635
 21
34.9196084141
  0
LINE
  5
474
100
AcDbEntity
  8
6_SURFACES-PATINS-SPEC
100
AcDbLine
 62
7
  6
CONTINUOUS
 10
114.2165936188
 20
13.3061338375
 11
114.2552830669
 21
13.2940114193
  0
LINE
  5
475
100
AcDbEntity
  8
0
100
AcDbLine
 62
7
  6
CONTINUOUS
 10
95.1926743779
 20
34.9161886315
 11
95.1871075635
 21
34.9179429937
  0
LINE
  5
476
100
AcDbEntity
  8
6_SURFACES-PATINS-SPEC
100
AcDbLine
 62
7
  6
CONTINUOUS
 10
104.2501150832
 20
12.1479074836
 11
104.3288103815
 21
12.1228171758
  0
LINE
  5
477
100
AcDbEntity
  8
6_SURFACES-PATINS-SPEC
100
AcDbLine
 62
7
  6
CONTINUOUS
 10
112.9362914805
 20
12.1479074955
 11
113.0149867784
 21
12.1228171846
  0
LINE
  5
478
100
AcDbEntity
  8
0
100
AcDbLine
 62
7
  6
CONTINUOUS
 10
95.3843302719
 20
33.5974505729
 11
95.3730211654
 21
33.6011369036
  0
LINE
  5
479
100
AcDbEntity
  8
0
100
AcDbLine
 62
7
  6
CONTINUOUS
 10
95.1982985169
 20
34.9143432463
 11
95.1926743779
 21
34.9161886315
  0
LINE
  5
47A
100
AcDbEntity
  8
0
100
AcDbLine
 62
7
  6
CONTINUOUS
 10
95.2039768381
 20
34.9124048168
 11
95.1982985169
 21
34.9143432463
  0
LINE
  5
47B
100
AcDbEntity
  8
1_CURVES_JETS
100
AcDbLine
 62
7
  6
CONTINUOUS
 10
107.5431223979
 20
13.3145546852
 11
107.5504883007
 21
13.3120354844
  0
LINE
  5
47C
100
AcDbEntity
  8
0
100
AcDbLine
 62
7
  6
CONTINUOUS
 10
95.2259320423
 20
34.9043623551
 11
95.1778666873
 21
34.9208283294
  0
LINE
  5
47D
100
AcDbEntity
  8
1_CURVES_JETS
100
AcDbLine
 62
7
  6
CONTINUOUS
 10
99.4172462727
 20
13.8180133079
 11
99.5288258693
 21
13.7786024992
  0
LINE
  5
47E
100
AcDbEntity
  8
0
100
AcDbLine
 62
7
  6
CONTINUOUS
 10
95.2097061475
 20
34.9103713845
 11
95.2039768381
 21
34.9124048168
  0
LINE
  5
47F
100
AcDbEntity
  8
0
100
AcDbLine
 62
7
  6
CONTINUOUS
 10
95.3730211654
 20
33.6011369036
 11
95.3663071233
 21
33.603547682
  0
LINE
  5
480
100
AcDbEntity
  8
0
100
AcDbLine
 62
7
  6
CONTINUOUS
 10
95.2154832152
 20
34.9082410525
 11
95.2097061475
 21
34.9103713845
  0
LINE
  5
481
100
AcDbEntity
  8
0
100
AcDbLine
 62
7
  6
CONTINUOUS
 10
95.2213053668
 20
34.9060117576
 11
95.2154832152
 21
34.9082410525
  0
LINE
  5
482
100
AcDbEntity
  8
0
100
AcDbLine
 62
7
  6
CONTINUOUS
 10
95.3663071233
 20
33.603547682
 11
95.3650588203
 21
33.6040296829
  0
LINE
  5
483
100
AcDbEntity
  8
0
100
AcDbLine
 62
7
  6
CONTINUOUS
 10
95.2271706778
 20
34.9036811517
 11
95.2213053668
 21
34.9060117576
  0
LINE
  5
484
100
AcDbEntity
  8
1_CURVES_JETS
100
AcDbLine
 62
7
  6
CONTINUOUS
 10
99.3033830706
 20
13.8646178563
 11
99.4172462727
 21
13.8180133079
  0
LINE
  5
485
100
AcDbEntity
  8
0
100
AcDbLine
 62
7
  6
CONTINUOUS
 10
95.2330772035
 20
34.9012468673
 11
95.2271706778
 21
34.9036811517
  0
LINE
  5
486
100
AcDbEntity
  8
1_CURVES_JETS
100
AcDbLine
 62
7
  6
CONTINUOUS
 10
107.5504883007
 20
13.3120354844
 11
107.5583697101
 21
13.3087501479
  0
LINE
  5
487
100
AcDbEntity
  8
6_SURFACES-PATINS-SPEC
100
AcDbLine
 62
7
  6
CONTINUOUS
 10
104.1739296306
 20
12.1798298567
 11
104.2501150832
 21
12.1479074836
  0
LINE
  5
488
100
AcDbEntity
  8
6_SURFACES-PATINS-SPEC
100
AcDbLine
 62
7
  6
CONTINUOUS
 10
112.8601060314
 20
12.1798298702
 11
112.9362914805
 21
12.1479074955
  0
LINE
  5
489
100
AcDbEntity
  8
6_SURFACES-PATINS-SPEC
100
AcDbLine
 62
7
  6
CONTINUOUS
 10
102.2050870443
 20
13.4233535108
 11
102.242790281
 21
13.4073174429
  0
LINE
  5
48A
100
AcDbEntity
  8
0
100
AcDbLine
 62
7
  6
CONTINUOUS
 10
95.2390229203
 20
34.8987065404
 11
95.2330772035
 21
34.9012468673
  0
LINE
  5
48B
100
AcDbEntity
  8
6_SURFACES-PATINS-SPEC
100
AcDbLine
 62
7
  6
CONTINUOUS
 10
114.2552830669
 20
13.2940114193
 11
114.2924376573
 21
13.2777829553
  0
LINE
  5
48C
100
AcDbEntity
  8
0
100
AcDbLine
 62
7
  6
CONTINUOUS
 10
95.2450057242
 20
34.8960578128
 11
95.2390229203
 21
34.8987065404
  0
LINE
  5
48D
100
AcDbEntity
  8
0
100
AcDbLine
 62
7
  6
CONTINUOUS
 10
95.251023429
 20
34.8932983344
 11
95.2450057242
 21
34.8960578128
  0
LINE
  5
48E
100
AcDbEntity
  8
0
100
AcDbLine
 62
7
  6
CONTINUOUS
 10
95.2714757346
 20
34.8834192243
 11
95.2259320423
 21
34.9043623551
  0
LINE
  5
48F
100
AcDbEntity
  8
1_CURVES_JETS
100
AcDbLine
 62
7
  6
CONTINUOUS
 10
99.1867359472
 20
13.9194923574
 11
99.3033830706
 21
13.8646178563
  0
LINE
  5
490
100
AcDbEntity
  8
0
100
AcDbLine
 62
7
  6
CONTINUOUS
 10
95.2570737652
 20
34.8904257656
 11
95.251023429
 21
34.8932983344
  0
LINE
  5
491
100
AcDbEntity
  8
0
100
AcDbLine
 62
7
  6
CONTINUOUS
 10
95.2631543784
 20
34.8874377798
 11
95.2570737652
 21
34.8904257656
  0
LINE
  5
492
100
AcDbEntity
  8
1_CURVES_JETS
100
AcDbLine
 62
7
  6
CONTINUOUS
 10
107.5583697101
 20
13.3087501479
 11
107.5664864148
 21
13.3046728487
  0
LINE
  5
493
100
AcDbEntity
  8
0
100
AcDbLine
 62
7
  6
CONTINUOUS
 10
95.269262828
 20
34.8843320661
 11
95.2631543784
 21
34.8874377798
  0
LINE
  5
494
100
AcDbEntity
  8
0
100
AcDbLine
 62
7
  6
CONTINUOUS
 10
95.275396586
 20
34.8811063315
 11
95.269262828
 21
34.8843320661
  0
LINE
  5
495
100
AcDbEntity
  8
6_SURFACES-PATINS-SPEC
100
AcDbLine
 62
7
  6
CONTINUOUS
 10
104.1008288304
 20
12.218331308
 11
104.1739296306
 21
12.1798298567
  0
LINE
  5
496
100
AcDbEntity
  8
6_SURFACES-PATINS-SPEC
100
AcDbLine
 62
7
  6
CONTINUOUS
 10
112.7870052362
 20
12.2183313219
 11
112.8601060314
 21
12.1798298702
  0
LINE
  5
497
100
AcDbEntity
  8
1_CURVES_JETS
100
AcDbLine
 62
7
  6
CONTINUOUS
 10
99.0667904742
 20
13.984039489
 11
99.1867359472
 21
13.9194923574
  0
LINE
  5
498
100
AcDbEntity
  8
0
100
AcDbLine
 62
7
  6
CONTINUOUS
 10
95.2815530356
 20
34.8777583045
 11
95.275396586
 21
34.8811063315
  0
LINE
  5
499
100
AcDbEntity
  8
6_SURFACES-PATINS-SPEC
100
AcDbLine
 62
7
  6
CONTINUOUS
 10
102.242790281
 20
13.4073174429
 11
102.2785190544
 21
13.3872638347
  0
LINE
  5
49A
100
AcDbEntity
  8
0
100
AcDbLine
 62
7
  6
CONTINUOUS
 10
95.2877294701
 20
34.8742857369
 11
95.2815530356
 21
34.8777583045
  0
LINE
  5
49B
100
AcDbEntity
  8
6_SURFACES-PATINS-SPEC
100
AcDbLine
 62
7
  6
CONTINUOUS
 10
114.2924376573
 20
13.2777829553
 11
114.3276230759
 21
13.2576381447
  0
LINE
  5
49C
100
AcDbEntity
  8
0
100
AcDbLine
 62
7
  6
CONTINUOUS
 10
95.2939230917
 20
34.8706864078
 11
95.2877294701
 21
34.8742857369
  0
LINE
  5
49D
100
AcDbEntity
  8
0
100
AcDbLine
 62
7
  6
CONTINUOUS
 10
95.3137037677
 20
34.8586706043
 11
95.2714757346
 21
34.8834192243
  0
LINE
  5
49E
100
AcDbEntity
  8
1_CURVES_JETS
100
AcDbLine
 62
7
  6
CONTINUOUS
 10
107.5664864148
 20
13.3046728487
 11
107.5746156087
 21
13.2998020048
  0
LINE
  5
49F
100
AcDbEntity
  8
0
100
AcDbLine
 62
7
  6
CONTINUOUS
 10
95.3001310082
 20
34.8669581269
 11
95.2939230917
 21
34.8706864078
  0
LINE
  5
4A0
100
AcDbEntity
  8
1_CURVES_JETS
100
AcDbLine
 62
7
  6
CONTINUOUS
 10
98.9435538452
 20
14.0597557251
 11
99.0667904742
 21
13.984039489
  0
LINE
  5
4A1
100
AcDbEntity
  8
0
100
AcDbLine
 62
7
  6
CONTINUOUS
 10
95.3063499937
 20
34.8630988891
 11
95.3001310082
 21
34.8669581269
  0
LINE
  5
4A2
100
AcDbEntity
  8
0
100
AcDbLine
 62
7
  6
CONTINUOUS
 10
95.3125762767
 20
34.8591070396
 11
95.3063499937
 21
34.8630988891
  0
LINE
  5
4A3
100
AcDbEntity
  8
6_SURFACES-PATINS-SPEC
100
AcDbLine
 62
7
  6
CONTINUOUS
 10
104.0317033085
 20
12.2629461429
 11
104.1008288304
 21
12.218331308
  0
LINE
  5
4A4
100
AcDbEntity
  8
6_SURFACES-PATINS-SPEC
100
AcDbLine
 62
7
  6
CONTINUOUS
 10
112.7175923406
 20
12.2631316355
 11
112.7870052362
 21
12.2183313219
  0
LINE
  5
4A5
100
AcDbEntity
  8
0
100
AcDbLine
 62
7
  6
CONTINUOUS
 10
95.318805967
 20
34.8549810396
 11
95.3125762767
 21
34.8591070396
  0
LINE
  5
4A6
100
AcDbEntity
  8
0
100
AcDbLine
 62
7
  6
CONTINUOUS
 10
95.3250351111
 20
34.8507194381
 11
95.318805967
 21
34.8549810396
  0
LINE
  5
4A7
100
AcDbEntity
  8
1_CURVES_JETS
100
AcDbLine
 62
7
  6
CONTINUOUS
 10
98.8188166461
 20
14.1472225966
 11
98.9435538452
 21
14.0597557251
  0
LINE
  5
4A8
100
AcDbEntity
  8
0
100
AcDbLine
 62
7
  6
CONTINUOUS
 10
95.3312596938
 20
34.8463208749
 11
95.3250351111
 21
34.8507194381
  0
LWPOLYLINE
  5
4A9
100
AcDbEntity
  8
DEFAULT_2
100
AcDbPolyline
 62
8
  6
CONTINUOUS
 90
35
 70
0
 10
110.3219724132
 20
27.6204308828
 10
110.3001476782
 20
27.6358900198
 10
110.2779333809
 20
27.6507916898
 10
110.2553458509
 20
27.6651232153
 10
110.2323503965
 20
27.6789033627
 10
110.2090137393
 20
27.6920953775
 10
110.1853531613
 20
27.7046965314
 10
110.1670453953
 20
27.7139359909
 10
110.1485666326
 20
27.7228290379
 10
110.1299253215
 20
27.7313766287
 10
110.1111299102
 20
27.7395797196
 10
110.0914581651
 20
27.7477349018
 10
110.0716384459
 20
27.7555234953
 10
110.0516798393
 20
27.7629493643
 10
110.0315914316
 20
27.7700163728
 10
110.0102119032
 20
27.7771055393
 10
109.9887069005
 20
27.7838045908
 10
109.9670860047
 20
27.790120581
 10
109.9453587966
 20
27.7960605636
 10
109.9218240581
 20
27.8020521189
 10
109.8981866623
 20
27.8076249223
 10
109.8744564034
 20
27.8127891366
 10
109.8506430757
 20
27.8175549243
 10
109.8243528054
 20
27.8223516228
 10
109.7979837318
 20
27.8266947195
 10
109.7715457868
 20
27.830600799
 10
109.7450489024
 20
27.8340864458
 10
109.7152488638
 20
27.8375171017
 10
109.6853962075
 20
27.8404531015
 10
109.6555000597
 20
27.8429085915
 10
109.6255695466
 20
27.8448977179
 10
109.5916508786
 20
27.8466104244
 10
109.5577093731
 20
27.8477980183
 10
109.5237545472
 20
27.8485150988
 10
109.4897959183
 20
27.8488162656
  0
LINE
  5
4AA
100
AcDbEntity
  8
1_CURVES_JETS
100
AcDbLine
 62
7
  6
CONTINUOUS
 10
107.5746156087
 20
13.2998020048
 11
107.582568646
 21
13.2941629358
  0
LINE
  5
4AB
100
AcDbEntity
  8
6_SURFACES-PATINS-SPEC
100
AcDbLine
 62
7
  6
CONTINUOUS
 10
102.2785190544
 20
13.3872638347
 11
102.3118468753
 21
13.363432044
  0
LINE
  5
4AC
100
AcDbEntity
  8
0
100
AcDbLine
 62
7
  6
CONTINUOUS
 10
95.3519823345
 20
34.830975782
 11
95.3137037677
 21
34.8586706043
  0
LINE
  5
4AD
100
AcDbEntity
  8
6_SURFACES-PATINS-SPEC
100
AcDbLine
 62
7
  6
CONTINUOUS
 10
114.3276230759
 20
13.2576381447
 11
114.360428025
 21
13.2338124668
  0
LINE
  5
4AE
100
AcDbEntity
  8
0
100
AcDbLine
 62
7
  6
CONTINUOUS
 10
95.3374756403
 20
34.841784084
 11
95.3312596938
 21
34.8463208749
  0
LWPOLYLINE
  5
4AF
100
AcDbEntity
  8
DEFAULT_2
100
AcDbPolyline
 62
8
  6
CONTINUOUS
 90
31
 70
0
 10
112.7791108211
 20
15.7907140101
 10
112.7603323792
 20
15.8045705588
 10
112.7417681925
 20
15.8187164749
 10
112.7234228479
 20
15.8331469866
 10
112.7053009322
 20
15.8478573224
 10
112.6870899644
 20
15.863112276
 10
112.6691182582
 20
15.8786475234
 10
112.6513888604
 20
15.8944584155
 10
112.6339048179
 20
15.9105403035
 10
112.6163300098
 20
15.9272151166
 10
112.5990164195
 20
15.9441612194
 10
112.5819669172
 20
15.9613728915
 10
112.5651843734
 20
15.9788444122
 10
112.5483121866
 20
15.9969618294
 10
112.5317233056
 20
16.0153391094
 10
112.5154192386
 20
16.0339707145
 10
112.4994014936
 20
16.0528511072
 10
112.4808045133
 20
16.0755244491
 10
112.4626129114
 20
16.0985285528
 10
112.44482839
 20
16.121853027
 10
112.4274526511
 20
16.14548748
 10
112.4104873968
 20
16.1694215205
 10
112.3939343293
 20
16.193644757
 10
112.3777951505
 20
16.218146798
 10
112.3612532805
 20
16.2442313718
 10
112.3451720452
 20
16.2706015817
 10
112.329551481
 20
16.297245582
 10
112.3143916243
 20
16.3241515273
 10
112.2996925114
 20
16.3513075722
 10
112.2854541788
 20
16.378701871
 10
112.2716766628
 20
16.4063225783
  0
LINE
  5
4B0
100
AcDbEntity
  8
0
100
AcDbLine
 62
7
  6
CONTINUOUS
 10
95.3436788184
 20
34.8371078971
 11
95.3374756403
 21
34.841784084
  0
LINE
  5
4B1
100
AcDbEntity
  8
0
100
AcDbLine
 62
7
  6
CONTINUOUS
 10
95.3498650404
 20
34.8322912464
 11
95.3436788184
 21
34.8371078971
  0
LINE
  5
4B2
100
AcDbEntity
  8
6_SURFACES-PATINS-SPEC
100
AcDbLine
 62
7
  6
CONTINUOUS
 10
112.6524247711
 20
12.3138930749
 11
112.7175923406
 21
12.2631316355
  0
LINE
  5
4B3
100
AcDbEntity
  8
1_CURVES_JETS
100
AcDbLine
 62
7
  6
CONTINUOUS
 10
98.6948927793
 20
14.2464274475
 11
98.8188166461
 21
14.1472225966
  0
LINE
  5
4B4
100
AcDbEntity
  8
0
100
AcDbLine
 62
7
  6
CONTINUOUS
 10
95.3560300656
 20
34.8273331681
 11
95.3498650404
 21
34.8322912464
  0
LWPOLYLINE
  5
4B5
100
AcDbEntity
  8
DEFAULT_2
100
AcDbPolyline
 62
8
  6
CONTINUOUS
 90
31
 70
0
 10
99.327667815
 20
14.3742137574
 10
99.3664457406
 20
14.3424066916
 10
99.4059082413
 20
14.3114287232
 10
99.4460658261
 20
14.281273652
 10
99.4869225543
 20
14.2519400749
 10
99.5284566856
 20
14.2234457762
 10
99.5706400295
 20
14.195813337
 10
99.613449079
 20
14.1690622625
 10
99.6568790588
 20
14.1431997536
 10
99.7009298767
 20
14.1182299353
 10
99.7455949713
 20
14.0941603214
 10
99.7908419036
 20
14.0710119812
 10
99.8366317654
 20
14.0488093731
 10
99.8829265607
 20
14.0275752263
 10
99.9296919423
 20
14.0073253529
 10
99.9768944749
 20
13.9880738362
 10
100.0245032429
 20
13.9698332757
 10
100.0724974081
 20
13.9526103367
 10
100.120858652
 20
13.9364102009
 10
100.1695728852
 20
13.9212373627
 10
100.2186429366
 20
13.9070935663
 10
100.2680758643
 20
13.8939798685
 10
100.3178706277
 20
13.8818994982
 10
100.3679937918
 20
13.8708643726
 10
100.418403823
 20
13.8608885813
 10
100.4690575368
 20
13.8519848934
 10
100.5199051457
 20
13.8441607972
 10
100.5708952113
 20
13.8374224609
 10
100.6219877254
 20
13.8317746742
 10
100.6731884014
 20
13.8272167143
 10
100.7245143828
 20
13.8237464801
  0
LINE
  5
4B6
100
AcDbEntity
  8
0
100
AcDbLine
 62
7
  6
CONTINUOUS
 10
95.362169603
 20
34.8222328051
 11
95.3560300656
 21
34.8273331681
  0
LINE
  5
4B7
100
AcDbEntity
  8
1_CURVES_JETS
100
AcDbLine
 62
7
  6
CONTINUOUS
 10
107.582568646
 20
13.2941629358
 11
107.5901735441
 21
13.2878165638
  0
LINE
  5
4B8
100
AcDbEntity
  8
0
100
AcDbLine
 62
7
  6
CONTINUOUS
 10
95.3682793135
 20
34.8169894102
 11
95.362169603
 21
34.8222328051
  0
LINE
  5
4B9
100
AcDbEntity
  8
0
100
AcDbLine
 62
7
  6
CONTINUOUS
 10
95.3857401651
 20
34.8014614891
 11
95.3519823345
 21
34.830975782
  0
LINE
  5
4BA
100
AcDbEntity
  8
0
100
AcDbLine
 62
7
  6
CONTINUOUS
 10
95.3743548131
 20
34.8116023488
 11
95.3682793135
 21
34.8169894102
  0
LINE
  5
4BB
100
AcDbEntity
  8
6_SURFACES-PATINS-SPEC
100
AcDbLine
 62
7
  6
CONTINUOUS
 10
102.3118468753
 20
13.363432044
 11
102.3423758571
 21
13.3361065693
  0
LINE
  5
4BC
100
AcDbEntity
  8
6_SURFACES-PATINS-SPEC
100
AcDbLine
 62
7
  6
CONTINUOUS
 10
114.360428025
 20
13.2338124668
 11
114.3904690241
 21
13.2065844366
  0
LINE
  5
4BD
100
AcDbEntity
  8
1_CURVES_JETS
100
AcDbLine
 62
7
  6
CONTINUOUS
 10
98.5741207398
 20
14.3569135762
 11
98.6948927793
 21
14.2464274475
  0
LINE
  5
4BE
100
AcDbEntity
  8
0
100
AcDbLine
 62
7
  6
CONTINUOUS
 10
95.3803917592
 20
34.8060710243
 11
95.3743548131
 21
34.8116023488
  0
LINE
  5
4BF
100
AcDbEntity
  8
6_SURFACES-PATINS-SPEC
100
AcDbLine
 62
7
  6
CONTINUOUS
 10
112.5919837663
 20
12.3701637837
 11
112.6524247711
 21
12.3138930749
  0
LINE
  5
4C0
100
AcDbEntity
  8
0
100
AcDbLine
 62
7
  6
CONTINUOUS
 10
95.3863861331
 20
34.8003945978
 11
95.3803917592
 21
34.8060710243
  0
LINE
  5
4C1
100
AcDbEntity
  8
1_CURVES_JETS
100
AcDbLine
 62
7
  6
CONTINUOUS
 10
107.5901735441
 20
13.2878165638
 11
107.5947307508
 21
13.2834831128
  0
LINE
  5
4C2
100
AcDbEntity
  8
0
100
AcDbLine
 62
7
  6
CONTINUOUS
 10
95.3923339527
 20
34.7945722208
 11
95.3863861331
 21
34.8003945978
  0
LINE
  5
4C3
100
AcDbEntity
  8
0
100
AcDbLine
 62
7
  6
CONTINUOUS
 10
95.5373738134
 20
34.4929370725
 11
95.5373163382
 21
34.4929935874
  0
LINE
  5
4C4
100
AcDbEntity
  8
1_CURVES_JETS
100
AcDbLine
 62
7
  6
CONTINUOUS
 10
107.5947303737
 20
13.283483488
 11
107.953184266
 21
12.9250295958
  0
LINE
  5
4C5
100
AcDbEntity
  8
DEFAULT_2
100
AcDbLine
 62
8
  6
CONTINUOUS
 10
107.6831190895
 20
13.3718714675
 11
108.0415726136
 21
13.0134179434
  0
LINE
  5
4C6
100
AcDbEntity
  8
0
100
AcDbLine
 62
7
  6
CONTINUOUS
 10
95.398231165
 20
34.7886031321
 11
95.3923339527
 21
34.7945722208
  0
LINE
  5
4C7
100
AcDbEntity
  8
0
100
AcDbLine
 62
7
  6
CONTINUOUS
 10
95.414530937
 20
34.7715309861
 11
95.3857401651
 21
34.8014614891
  0
LINE
  5
4C8
100
AcDbEntity
  8
0
100
AcDbLine
 62
7
  6
CONTINUOUS
 10
95.4040736477
 20
34.7824866616
 11
95.398231165
 21
34.7886031321
  0
LINE
  5
4C9
100
AcDbEntity
  8
1_CURVES_JETS
100
AcDbLine
 62
7
  6
CONTINUOUS
 10
98.4585286255
 20
14.4780076204
 11
98.5741207398
 21
14.3569135762
  0
LINE
  5
4CA
100
AcDbEntity
  8
0
100
AcDbLine
 62
7
  6
CONTINUOUS
 10
95.4098572103
 20
34.7762222333
 11
95.4040736477
 21
34.7824866616
  0
LINE
  5
4CB
100
AcDbEntity
  8
6_SURFACES-PATINS-SPEC
100
AcDbLine
 62
7
  6
CONTINUOUS
 10
112.5367395911
 20
12.4314932807
 11
112.5919837663
 21
12.3701637837
  0
LINE
  5
4CC
100
AcDbEntity
  8
6_SURFACES-PATINS-SPEC
100
AcDbLine
 62
7
  6
CONTINUOUS
 10
102.3423758571
 20
13.3361065693
 11
102.3697414531
 21
13.3056137272
  0
LWPOLYLINE
  5
4CD
100
AcDbEntity
  8
1_CURVES_JETS
100
AcDbPolyline
 62
7
  6
CONTINUOUS
 90
32
 70
0
 10
96.7879524075
 20
24.7100978033
 10
96.7824832984
 20
24.7162024411
 10
96.7770935752
 20
24.7223793979
 10
96.7717891836
 20
24.7286309737
 10
96.7665760691
 20
24.734959468
 10
96.7614601774
 20
24.7413671807
 10
96.7564474542
 20
24.7478564115
 10
96.7515438451
 20
24.7544294603
 10
96.7478062128
 20
24.7596058417
 10
96.744142998
 20
24.7648354519
 10
96.7405588908
 20
24.7701193317
 10
96.7370585813
 20
24.7754585219
 10
96.7336467597
 20
24.7808540632
 10
96.7303281163
 20
24.7863069965
 10
96.7271073412
 20
24.7918183624
 10
96.7239891246
 20
24.7973892019
 10
96.7212955853
 20
24.8024146009
 10
96.7186928893
 20
24.8074882828
 10
96.7161863669
 20
24.8126102801
 10
96.7137813483
 20
24.8177806253
 10
96.7114831635
 20
24.8229993512
 10
96.7092971428
 20
24.8282664903
 10
96.7072286164
 20
24.8335820753
 10
96.7052829144
 20
24.8389461387
 10
96.7036295047
 20
24.8438512801
 10
96.7020863239
 20
24.848793545
 10
96.7006582412
 20
24.8537701743
 10
96.6993501256
 20
24.858778409
 10
96.6981668463
 20
24.8638154902
 10
96.6971132724
 20
24.8688786589
 10
96.696194273
 20
24.8739651561
 10
96.6954147173
 20
24.8790722228
  0
LINE
  5
4CE
100
AcDbEntity
  8
0
100
AcDbLine
 62
7
  6
CONTINUOUS
 10
95.4155775953
 20
34.7698093688
 11
95.4098572103
 21
34.7762222333
  0
LINE
  5
4CF
100
AcDbEntity
  8
6_SURFACES-PATINS-SPEC
100
AcDbLine
 62
7
  6
CONTINUOUS
 10
114.3904690241
 20
13.2065844366
 11
114.4173949021
 21
13.1762723474
  0
LINE
  5
4D0
100
AcDbEntity
  8
0
100
AcDbLine
 62
7
  6
CONTINUOUS
 10
95.4212304802
 20
34.7632476908
 11
95.4155775953
 21
34.7698093688
  0
LWPOLYLINE
  5
4D1
100
AcDbEntity
  8
DEFAULT_2
100
AcDbPolyline
 62
8
  6
CONTINUOUS
 90
21
 70
0
 10
110.5264210559
 20
27.4262571107
 10
110.5168223863
 20
27.4377870033
 10
110.5070903615
 20
27.4492062211
 10
110.4972215188
 20
27.4605081713
 10
110.4872123954
 20
27.4716862615
 10
110.4770595283
 20
27.482733899
 10
110.4672455137
 20
27.4931375685
 10
110.4572987779
 20
27.5034143186
 10
110.4472203498
 20
27.5135617474
 10
110.4370112581
 20
27.5235774534
 10
110.4266725316
 20
27.5334590347
 10
110.4165841553
 20
27.5428559341
 10
110.4063776992
 20
27.5521244659
 10
110.3960546009
 20
27.5612631402
 10
110.3856162978
 20
27.5702704671
 10
110.3750642272
 20
27.5791449568
 10
110.3646592553
 20
27.5876745523
 10
110.3541474586
 20
27.596072096
 10
110.3435289664
 20
27.6043334345
 10
110.3328039082
 20
27.6124544145
 10
110.3219724132
 20
27.6204308828
  0
LINE
  5
4D2
100
AcDbEntity
  8
0
100
AcDbLine
 62
7
  6
CONTINUOUS
 10
95.4268114789
 20
34.7565369264
 11
95.4212304802
 21
34.7632476908
  0
LINE
  5
4D3
100
AcDbEntity
  8
1_CURVES_JETS
100
AcDbLine
 62
7
  6
CONTINUOUS
 10
98.3497211469
 20
14.6090159662
 11
98.4585286255
 21
14.4780076204
  0
LINE
  5
4D4
100
AcDbEntity
  8
0
100
AcDbLine
 62
7
  6
CONTINUOUS
 10
95.4381089578
 20
34.7428059896
 11
95.414530937
 21
34.7715309861
  0
LINE
  5
4D5
100
AcDbEntity
  8
0
100
AcDbLine
 62
7
  6
CONTINUOUS
 10
95.4323161435
 20
34.7496769104
 11
95.4268114789
 21
34.7565369264
  0
LINE
  5
4D6
100
AcDbEntity
  8
0
100
AcDbLine
 62
7
  6
CONTINUOUS
 10
95.4377399662
 20
34.7426675889
 11
95.4323161435
 21
34.7496769104
  0
LINE
  5
4D7
100
AcDbEntity
  8
6_SURFACES-PATINS-SPEC
100
AcDbLine
 62
7
  6
CONTINUOUS
 10
112.4871557063
 20
12.4974375848
 11
112.5367395911
 21
12.4314932807
  0
LWPOLYLINE
  5
4D8
100
AcDbEntity
  8
DEFAULT_2
100
AcDbPolyline
 62
8
  6
CONTINUOUS
 90
33
 70
0
 10
98.724747446
 20
16.0715880914
 10
98.7008421423
 20
16.1035379124
 10
98.6775799838
 20
16.1359666658
 10
98.654964474
 20
16.1688541887
 10
98.6329991162
 20
16.2021803184
 10
98.6105440094
 20
16.2377767246
 10
98.5888163435
 20
16.2738197849
 10
98.5678167017
 20
16.3102908484
 10
98.5475456675
 20
16.3471712641
 10
98.526992349
 20
16.3864158182
 10
98.5072347195
 20
16.426067866
 10
98.4882604207
 20
16.4661019488
 10
98.4700570941
 20
16.5064926075
 10
98.4517500036
 20
16.5492842135
 10
98.434267728
 20
16.5924187538
 10
98.4175977619
 20
16.6358736923
 10
98.4017276001
 20
16.679626493
 10
98.3859371936
 20
16.7257785087
 10
98.3709855465
 20
16.7722091776
 10
98.3568465887
 20
16.8188947141
 10
98.34349425
 20
16.865811332
 10
98.3303689137
 20
16.9150059307
 10
98.3180498853
 20
16.9644079146
 10
98.3065148118
 20
17.0139988087
 10
98.2957413399
 20
17.0637601381
 10
98.2853361935
 20
17.1155915058
 10
98.2757002005
 20
17.1675712651
 10
98.2668054703
 20
17.2196839672
 10
98.2586241123
 20
17.2719141629
 10
98.2509119237
 20
17.325843052
 10
98.2439067927
 20
17.3798676099
 10
98.2375878869
 20
17.4339751473
 10
98.2319343742
 20
17.4881529751
  0
LINE
  5
4D9
100
AcDbEntity
  8
0
100
AcDbLine
 62
7
  6
CONTINUOUS
 10
95.4430783815
 20
34.7355090225
 11
95.4377399662
 21
34.7426675889
  0
LINE
  5
4DA
100
AcDbEntity
  8
0
100
AcDbLine
 62
7
  6
CONTINUOUS
 10
95.4442515819
 20
34.7345535736
 11
95.4381089578
 21
34.7428059896
  0
LINE
  5
4DB
100
AcDbEntity
  8
0
100
AcDbLine
 62
7
  6
CONTINUOUS
 10
95.4442345275
 20
34.7345769831
 11
95.4442515819
 21
34.7345535736
  0
LINE
  5
4DC
100
AcDbEntity
  8
1_CURVES_JETS
100
AcDbLine
 62
7
  6
CONTINUOUS
 10
98.2491386521
 20
14.749022957
 11
98.3497211469
 21
14.6090159662
  0
LINE
  5
4DD
100
AcDbEntity
  8
0
100
AcDbLine
 62
7
  6
CONTINUOUS
 10
95.4483267681
 20
34.7282013898
 11
95.4430783815
 21
34.7355090225
  0
LINE
  5
4DE
100
AcDbEntity
  8
6_SURFACES-PATINS-SPEC
100
AcDbLine
 62
7
  6
CONTINUOUS
 10
102.3697414531
 20
13.3056137272
 11
102.3936169222
 21
13.2723177096
  0
LINE
  5
4DF
100
AcDbEntity
  8
6_SURFACES-PATINS-SPEC
100
AcDbLine
 62
7
  6
CONTINUOUS
 10
114.4173949021
 20
13.1762723474
 11
114.4408909121
 21
13.1432305402
  0
LINE
  5
4E0
100
AcDbEntity
  8
0
100
AcDbLine
 62
7
  6
CONTINUOUS
 10
95.4520219853
 20
34.723580692
 11
95.4442347724
 21
34.7345771615
  0
LINE
  5
4E1
100
AcDbEntity
  8
0
100
AcDbLine
 62
7
  6
CONTINUOUS
 10
95.4534804517
 20
34.720744991
 11
95.4483267681
 21
34.7282013898
  0
LINE
  5
4E2
100
AcDbEntity
  8
0
100
AcDbLine
 62
7
  6
CONTINUOUS
 10
95.458534707
 20
34.7131402509
 11
95.4534804517
 21
34.720744991
  0
LINE
  5
4E3
100
AcDbEntity
  8
0
100
AcDbLine
 62
7
  6
CONTINUOUS
 10
95.4705304964
 20
34.6945989493
 11
95.4520219853
 21
34.723580692
  0
LINE
  5
4E4
100
AcDbEntity
  8
0
100
AcDbLine
 62
7
  6
CONTINUOUS
 10
95.4634847607
 20
34.7053877225
 11
95.458534707
 21
34.7131402509
  0
LINE
  5
4E5
100
AcDbEntity
  8
6_SURFACES-PATINS-SPEC
100
AcDbLine
 62
7
  6
CONTINUOUS
 10
112.4435862794
 20
12.5674425168
 11
112.4871557063
 21
12.4974375848
  0
LINE
  5
4E6
100
AcDbEntity
  8
1_CURVES_JETS
100
AcDbLine
 62
7
  6
CONTINUOUS
 10
98.1580162204
 20
14.8969340212
 11
98.2491386521
 21
14.749022957
  0
LINE
  5
4E7
100
AcDbEntity
  8
0
100
AcDbLine
 62
7
  6
CONTINUOUS
 10
95.468325794
 20
34.6974880902
 11
95.4634847607
 21
34.7053877225
  0
LINE
  5
4E8
100
AcDbEntity
  8
0
100
AcDbLine
 62
7
  6
CONTINUOUS
 10
95.4730529458
 20
34.6894421734
 11
95.468325794
 21
34.6974880902
  0
LINE
  5
4E9
100
AcDbEntity
  8
6_SURFACES-PATINS-SPEC
100
AcDbLine
 62
7
  6
CONTINUOUS
 10
102.0858371618
 20
13.4607538332
 11
102.0947221715
 21
13.4453845216
  0
LINE
  5
4EA
100
AcDbEntity
  8
6_SURFACES-PATINS-SPEC
100
AcDbLine
 62
7
  6
CONTINUOUS
 10
102.3936169222
 20
13.2723177096
 11
102.4137172599
 21
13.2366162102
  0
LINE
  5
4EB
100
AcDbEntity
  8
0
100
AcDbLine
 62
7
  6
CONTINUOUS
 10
95.4776613153
 20
34.6812509295
 11
95.4730529458
 21
34.6894421734
  0
LINE
  5
4EC
100
AcDbEntity
  8
6_SURFACES-PATINS-SPEC
100
AcDbLine
 62
7
  6
CONTINUOUS
 10
114.4408909121
 20
13.1432305402
 11
114.4606824021
 21
13.1078452685
  0
LINE
  5
4ED
100
AcDbEntity
  8
0
100
AcDbLine
 62
7
  6
CONTINUOUS
 10
95.4851825648
 20
34.6680083868
 11
95.4705304964
 21
34.6945989493
  0
LINE
  5
4EE
100
AcDbEntity
  8
0
100
AcDbLine
 62
7
  6
CONTINUOUS
 10
95.4821459658
 20
34.6729154571
 11
95.4776613153
 21
34.6812509295
  0
LINE
  5
4EF
100
AcDbEntity
  8
1_CURVES_JETS
100
AcDbLine
 62
7
  6
CONTINUOUS
 10
98.0772413557
 20
15.05176856
 11
98.1580162204
 21
14.8969340212
  0
LINE
  5
4F0
100
AcDbEntity
  8
0
100
AcDbLine
 62
7
  6
CONTINUOUS
 10
95.4865019276
 20
34.6644369996
 11
95.4821459658
 21
34.6729154571
  0
LINE
  5
4F1
100
AcDbEntity
  8
6_SURFACES-PATINS-SPEC
100
AcDbLine
 62
7
  6
CONTINUOUS
 10
112.4063087852
 20
12.6409198218
 11
112.4435862794
 21
12.5674425168
  0
LINE
  5
4F2
100
AcDbEntity
  8
0
100
AcDbLine
 62
7
  6
CONTINUOUS
 10
95.4907242018
 20
34.6558169479
 11
95.4865019276
 21
34.6644369996
  0
LWPOLYLINE
  5
4F3
100
AcDbEntity
  8
6_SURFACES-PATINS-SPEC
100
AcDbPolyline
 62
7
  6
CONTINUOUS
 90
28
 70
0
 10
116.8915136534
 20
13.5088791785
 10
116.8912617633
 20
13.509398327
 10
116.8907563014
 20
13.5097856051
 10
116.8898503605
 20
13.5102149326
 10
116.8885944297
 20
13.5106282121
 10
116.8850370479
 20
13.5114062372
 10
116.8800923195
 20
13.5121187856
 10
116.8737680751
 20
13.5127649035
 10
116.8660764302
 20
13.5133438029
 10
116.8466644511
 20
13.5142977999
 10
116.821888737
 20
13.5149730945
 10
116.7919066087
 20
13.5153595564
 10
116.7576022434
 20
13.5154559198
 10
116.7203798453
 20
13.5152838932
 10
116.6815127467
 20
13.5148832371
 10
116.6417729384
 20
13.5142951622
 10
116.6014471825
 20
13.513550893
 10
116.5605864116
 20
13.5126705257
 10
116.4771930715
 20
13.5105434743
 10
116.3914224194
 20
13.5079792142
 10
116.3025340403
 20
13.5049877132
 10
116.2094113647
 20
13.5015421575
 10
116.110604797
 20
13.4975766149
 10
116.0043817692
 20
13.4929871006
 10
115.8887598489
 20
13.4876362022
 10
115.7604945803
 20
13.4812955556
 10
115.6135035598
 20
13.4735330154
 10
115.4665407201
 20
13.4652555537
  0
LINE
  5
4F4
100
AcDbEntity
  8
0
100
AcDbLine
 62
7
  6
CONTINUOUS
 10
95.4967817323
 20
34.6437777405
 11
95.4851825648
 21
34.6680083868
  0
LINE
  5
4F5
100
AcDbEntity
  8
0
100
AcDbLine
 62
7
  6
CONTINUOUS
 10
95.4948077639
 20
34.6470568437
 11
95.4907242018
 21
34.6558169479
  0
LINE
  5
4F6
100
AcDbEntity
  8
6_SURFACES-PATINS-SPEC
100
AcDbLine
 62
7
  6
CONTINUOUS
 10
102.0836133824
 20
13.4655753019
 11
102.0858371618
 21
13.4607538332
  0
LINE
  5
4F7
100
AcDbEntity
  8
6_SURFACES-PATINS-SPEC
100
AcDbLine
 62
7
  6
CONTINUOUS
 10
102.0816919745
 20
13.5035093675
 11
102.0857538733
 21
13.4946260697
  0
LINE
  5
4F8
100
AcDbEntity
  8
6_SURFACES-PATINS-SPEC
100
AcDbLine
 62
7
  6
CONTINUOUS
 10
102.0812099244
 20
13.4709283944
 11
102.0836133824
 21
13.4655753019
  0
LINE
  5
4F9
100
AcDbEntity
  8
0
100
AcDbLine
 62
7
  6
CONTINUOUS
 10
95.4987475677
 20
34.6381583827
 11
95.4948077639
 21
34.6470568437
  0
LINE
  5
4FA
100
AcDbEntity
  8
6_SURFACES-PATINS-SPEC
100
AcDbLine
 62
7
  6
CONTINUOUS
 10
102.0795681034
 20
13.4746523833
 11
102.0812099244
 21
13.4709283944
  0
LINE
  5
4FB
100
AcDbEntity
  8
1_CURVES_JETS
100
AcDbLine
 62
7
  6
CONTINUOUS
 10
98.0074981074
 20
15.2125790234
 11
98.0772413557
 21
15.05176856
  0
LINE
  5
4FC
100
AcDbEntity
  8
6_SURFACES-PATINS-SPEC
100
AcDbLine
 62
7
  6
CONTINUOUS
 10
102.4137172599
 20
13.2366162102
 11
102.4297703149
 21
13.1990244272
  0
LINE
  5
4FD
100
AcDbEntity
  8
6_SURFACES-PATINS-SPEC
100
AcDbLine
 62
7
  6
CONTINUOUS
 10
114.4606824021
 20
13.1078452685
 11
114.4763645831
 21
13.0710077236
  0
LWPOLYLINE
  5
4FE
100
AcDbEntity
  8
1_CURVES_JETS
100
AcDbPolyline
 62
7
  6
CONTINUOUS
 90
16
 70
0
 10
96.6993694346
 20
24.8817667474
 10
96.7038645651
 20
24.8711919045
 10
96.7084700493
 20
24.8606643292
 10
96.7131829994
 20
24.8501836837
 10
96.7180005276
 20
24.8397496306
 10
96.7237437493
 20
24.827646932
 10
96.7296213788
 20
24.8156071678
 10
96.7356296828
 20
24.8036304378
 10
96.7417649281
 20
24.7917168417
 10
96.7480233815
 20
24.7798664793
 10
96.7544013096
 20
24.7680794506
 10
96.7608949793
 20
24.7563558551
 10
96.7675006574
 20
24.7446957928
 10
96.7742146105
 20
24.7330993635
 10
96.7810331055
 20
24.7215666669
 10
96.7879524092
 20
24.7100978029
  0
LINE
  5
4FF
100
AcDbEntity
  8
0
100
AcDbLine
 62
7
  6
CONTINUOUS
 10
95.502538549
 20
34.629123417
 11
95.4987475677
 21
34.6381583827
  0
LINE
  5
500
100
AcDbEntity
  8
0
100
AcDbLine
 62
7
  6
CONTINUOUS
 10
95.5059537936
 20
34.6218325633
 11
95.4967817323
 21
34.6437777405
  0
LINE
  5
501
100
AcDbEntity
  8
6_SURFACES-PATINS-SPEC
100
AcDbLine
 62
7
  6
CONTINUOUS
 10
112.3792960021
 20
12.7070507544
 11
112.4063087852
 21
12.6409198218
  0
LWPOLYLINE
  5
502
100
AcDbEntity
  8
6_SURFACES-PATINS-SPEC
100
AcDbPolyline
 62
7
  6
CONTINUOUS
 90
10
 70
0
 10
102.0529500501
 20
13.5723827065
 10
102.0569238469
 20
13.5624951423
 10
102.0609277124
 20
13.552619716
 10
102.0649668772
 20
13.5427585777
 10
102.0690465715
 20
13.5329138772
 10
102.071519847
 20
13.527008908
 10
102.074015331
 20
13.5211133098
 10
102.0765387175
 20
13.5152297452
 10
102.0790957006
 20
13.5093608768
 10
102.0816919745
 20
13.5035093675
  0
LINE
  5
503
100
AcDbEntity
  8
1_CURVES_JETS
100
AcDbLine
 62
7
  6
CONTINUOUS
 10
96.5062712133
 20
25.3847508972
 11
96.5606795266
 21
25.2480906992
  0
LINE
  5
504
100
AcDbEntity
  8
0
100
AcDbLine
 62
7
  6
CONTINUOUS
 10
95.5061756303
 20
34.6199539589
 11
95.502538549
 21
34.629123417
  0
LINE
  5
505
100
AcDbEntity
  8
1_CURVES_JETS
100
AcDbLine
 62
7
  6
CONTINUOUS
 10
96.4562158719
 20
25.5113114677
 11
96.5062712133
 21
25.3847508972
  0
LWPOLYLINE
  5
506
100
AcDbEntity
  8
6_SURFACES-PATINS-SPEC
100
AcDbPolyline
 62
7
  6
CONTINUOUS
 90
10
 70
0
 10
102.0396108641
 20
13.5729979899
 10
102.0453183353
 20
13.5584353909
 10
102.0510661903
 20
13.5438887111
 10
102.0568629261
 20
13.5293612715
 10
102.0627170396
 20
13.5148563933
 10
102.0660095138
 20
13.5067828602
 10
102.0693316565
 20
13.4987215308
 10
102.0726926685
 20
13.490676567
 10
102.0761017505
 20
13.4826521305
 10
102.0795681034
 20
13.4746523833
  0
LINE
  5
507
100
AcDbEntity
  8
1_CURVES_JETS
100
AcDbLine
 62
7
  6
CONTINUOUS
 10
96.5606795266
 20
25.2480906992
 11
96.6208575611
 21
25.0901463581
  0
LINE
  5
508
100
AcDbEntity
  8
1_CURVES_JETS
100
AcDbLine
 62
7
  6
CONTINUOUS
 10
96.409176732
 20
25.6357712035
 11
96.4562158719
 21
25.5113114677
  0
LINE
  5
509
100
AcDbEntity
  8
6_SURFACES-PATINS-SPEC
100
AcDbLine
 62
7
  6
CONTINUOUS
 10
116.8845709485
 20
13.4461717143
 11
116.8848659884
 21
13.4453856723
  0
LINE
  5
50A
100
AcDbEntity
  8
0
100
AcDbLine
 62
7
  6
CONTINUOUS
 10
95.5096537247
 20
34.6106521828
 11
95.5061756303
 21
34.6199539589
  0
LINE
  5
50B
100
AcDbEntity
  8
1_CURVES_JETS
100
AcDbLine
 62
7
  6
CONTINUOUS
 10
96.6208500164
 20
25.0901671495
 11
96.6872539661
 21
24.9119984887
  0
LINE
  5
50C
100
AcDbEntity
  8
0
100
AcDbLine
 62
7
  6
CONTINUOUS
 10
95.5131953973
 20
34.6020644854
 11
95.5059537936
 21
34.6218325633
  0
LINE
  5
50D
100
AcDbEntity
  8
6_SURFACES-PATINS-SPEC
100
AcDbLine
 62
7
  6
CONTINUOUS
 10
112.1444862543
 20
13.3515451006
 11
112.3792960023
 21
12.7070507544
  0
LINE
  5
50E
100
AcDbEntity
  8
6_SURFACES-PATINS-SPEC
100
AcDbLine
 62
7
  6
CONTINUOUS
 10
102.6088340863
 20
12.7070507544
 11
102.4180025705
 21
13.231356035
  0
LINE
  5
50F
100
AcDbEntity
  8
6_SURFACES-PATINS-SPEC
100
AcDbLine
 62
7
  6
CONTINUOUS
 10
114.6088340863
 20
12.7070507544
 11
114.4734829144
 21
13.0789250431
  0
LINE
  5
510
100
AcDbEntity
  8
1_CURVES_JETS
100
AcDbLine
 62
7
  6
CONTINUOUS
 10
96.6208575654
 20
25.0901463599
 11
96.6208500164
 21
25.0901671495
  0
LINE
  5
511
100
AcDbEntity
  8
6_SURFACES-PATINS-SPEC
100
AcDbLine
 62
7
  6
CONTINUOUS
 10
112.1526781546
 20
13.3519269024
 11
112.3856817057
 21
12.7070507544
  0
LINE
  5
512
100
AcDbEntity
  8
0
100
AcDbLine
 62
7
  6
CONTINUOUS
 10
95.5129677404
 20
34.6012204285
 11
95.5096537247
 21
34.6106521828
  0
LINE
  5
513
100
AcDbEntity
  8
1_CURVES_JETS
100
AcDbLine
 62
7
  6
CONTINUOUS
 10
97.94934807
 20
15.3783544157
 11
98.0074981074
 21
15.2125790234
  0
LINE
  5
514
100
AcDbEntity
  8
1_CURVES_JETS
100
AcDbLine
 62
7
  6
CONTINUOUS
 10
96.3648725903
 20
25.7645613586
 11
96.409176732
 21
25.6357712035
  0
LWPOLYLINE
  5
515
100
AcDbEntity
  8
6_SURFACES-PATINS-SPEC
100
AcDbPolyline
 62
7
  6
CONTINUOUS
 90
9
 70
0
 10
114.0723150921
 20
13.440883469
 10
114.075957041
 20
13.4299936235
 10
114.0795698234
 20
13.4190940477
 10
114.0831474832
 20
13.4081828545
 10
114.0866840641
 20
13.3972581568
 10
114.0891813004
 20
13.3894439326
 10
114.0916471688
 20
13.3816197939
 10
114.0940743075
 20
13.3737836815
 10
114.0964553542
 20
13.3659335365
  0
LINE
  5
516
100
AcDbEntity
  8
6_SURFACES-PATINS-SPEC
100
AcDbLine
 62
7
  6
CONTINUOUS
 10
102.087381501
 20
13.4743997699
 11
102.0863812627
 21
13.4774406878
  0
LINE
  5
517
100
AcDbEntity
  8
0
100
AcDbLine
 62
7
  6
CONTINUOUS
 10
95.5161125857
 20
34.5916612038
 11
95.5129677404
 21
34.6012204285
  0
LINE
  5
518
100
AcDbEntity
  8
1_CURVES_JETS
100
AcDbLine
 62
7
  6
CONTINUOUS
 10
96.6872534063
 20
24.9119999475
 11
96.6910706121
 21
24.900310724
  0
LINE
  5
519
100
AcDbEntity
  8
0
100
AcDbLine
 62
7
  6
CONTINUOUS
 10
95.5188660454
 20
34.584466643
 11
95.5131953973
 21
34.6020644854
  0
LINE
  5
51A
100
AcDbEntity
  8
0
100
AcDbLine
 62
7
  6
CONTINUOUS
 10
95.5190831732
 20
34.5819771866
 11
95.5161125857
 21
34.5916612038
  0
LINE
  5
51B
100
AcDbEntity
  8
1_CURVES_JETS
100
AcDbLine
 62
7
  6
CONTINUOUS
 10
96.3247319364
 20
25.9041792332
 11
96.3648725903
 21
25.7645613586
  0
LINE
  5
51C
100
AcDbEntity
  8
0
100
AcDbLine
 62
7
  6
CONTINUOUS
 10
95.5232287604
 20
34.5691490768
 11
95.5188660454
 21
34.584466643
  0
LINE
  5
51D
100
AcDbEntity
  8
0
100
AcDbLine
 62
7
  6
CONTINUOUS
 10
95.5218744254
 20
34.5721712281
 11
95.5190831732
 21
34.5819771866
  0
LINE
  5
51E
100
AcDbEntity
  8
6_SURFACES-PATINS-SPEC
100
AcDbLine
 62
7
  6
CONTINUOUS
 10
114.0994822641
 20
13.3564129428
 11
114.0995113046
 21
13.3563107041
  0
LINE
  5
51F
100
AcDbEntity
  8
6_SURFACES-PATINS-SPEC
100
AcDbLine
 62
7
  6
CONTINUOUS
 10
114.1011718337
 20
13.325107383
 11
114.1011441823
 21
13.3252074368
  0
LINE
  5
520
100
AcDbEntity
  8
1_CURVES_JETS
100
AcDbLine
 62
7
  6
CONTINUOUS
 10
97.9032234128
 20
15.5480500678
 11
97.94934807
 21
15.3783544157
  0
LINE
  5
521
100
AcDbEntity
  8
6_SURFACES-PATINS-SPEC
100
AcDbLine
 62
7
  6
CONTINUOUS
 10
102.0950208792
 20
13.4461716368
 11
102.087381501
 21
13.4743997699
  0
LINE
  5
522
100
AcDbEntity
  8
0
100
AcDbLine
 62
7
  6
CONTINUOUS
 10
95.5244812794
 20
34.5622463542
 11
95.5218744254
 21
34.5721712281
  0
LINE
  5
523
100
AcDbEntity
  8
0
100
AcDbLine
 62
7
  6
CONTINUOUS
 10
95.5265532686
 20
34.5560309408
 11
95.5232287604
 21
34.5691490768
  0
LWPOLYLINE
  5
524
100
AcDbEntity
  8
6_SURFACES-PATINS-SPEC
100
AcDbPolyline
 62
7
  6
CONTINUOUS
 90
14
 70
0
 10
114.1032544526
 20
13.369119379
 10
114.1024781364
 20
13.3723117874
 10
114.1016711501
 20
13.3754966848
 10
114.1008381192
 20
13.3786749978
 10
114.0999836689
 20
13.3818476533
 10
114.0985170273
 20
13.3871431862
 10
114.0970105354
 20
13.3924273722
 10
114.0954713164
 20
13.3977020962
 10
114.0932954279
 20
13.4049985205
 10
114.0910761131
 20
13.4122819517
 10
114.0888191091
 20
13.4195539457
 10
114.0865301529
 20
13.4268160581
 10
114.0842149818
 20
13.4340698448
 10
114.0818793328
 20
13.4413168617
  0
LINE
  5
525
100
AcDbEntity
  8
0
100
AcDbLine
 62
7
  6
CONTINUOUS
 10
95.5268986922
 20
34.5522057686
 11
95.5244812794
 21
34.5622463542
  0
LINE
  5
526
100
AcDbEntity
  8
0
100
AcDbLine
 62
7
  6
CONTINUOUS
 10
95.5315497259
 20
34.529544755
 11
95.5298062465
 21
34.5369748844
  0
LINE
  5
527
100
AcDbEntity
  8
0
100
AcDbLine
 62
7
  6
CONTINUOUS
 10
95.5290811664
 20
34.5449089938
 11
95.5265532686
 21
34.5560309408
  0
LINE
  5
528
100
AcDbEntity
  8
6_SURFACES-PATINS-SPEC
100
AcDbLine
 62
7
  6
CONTINUOUS
 10
114.1047779236
 20
13.3622420396
 11
114.1032544526
 21
13.369119379
  0
LINE
  5
529
100
AcDbEntity
  8
0
100
AcDbLine
 62
7
  6
CONTINUOUS
 10
95.5291216464
 20
34.542052854
 11
95.5268986922
 21
34.5522057686
  0
LINE
  5
52A
100
AcDbEntity
  8
0
100
AcDbLine
 62
7
  6
CONTINUOUS
 10
95.5310215667
 20
34.5354683201
 11
95.5290811664
 21
34.5449089938
  0
LINE
  5
52B
100
AcDbEntity
  8
1_CURVES_JETS
100
AcDbLine
 62
7
  6
CONTINUOUS
 10
96.6910706121
 20
24.900310724
 11
96.6954147172
 21
24.8790721976
  0
LWPOLYLINE
  5
52C
100
AcDbEntity
  8
DEFAULT_2
100
AcDbPolyline
 62
8
  6
CONTINUOUS
 90
31
 70
0
 10
98.5453417643
 20
15.7028302069
 10
98.5556335992
 20
15.6518153199
 10
98.5670882618
 20
15.6010755947
 10
98.5797118396
 20
15.5505908761
 10
98.5935061604
 20
15.5003552925
 10
98.608456013
 20
15.4504201085
 10
98.6245419266
 20
15.4008508725
 10
98.6417472102
 20
15.3517020912
 10
98.6600662925
 20
15.3029841043
 10
98.6794963823
 20
15.2546962099
 10
98.7000349791
 20
15.2068395937
 10
98.7216807458
 20
15.1594229927
 10
98.7444326358
 20
15.1124570318
 10
98.7682877383
 20
15.0659557881
 10
98.7932356844
 20
15.0199471486
 10
98.8192642408
 20
14.9744624524
 10
98.8463588877
 20
14.9295348239
 10
98.8744959594
 20
14.8852045281
 10
98.9036495039
 20
14.841513615
 10
98.9337954072
 20
14.7984998708
 10
98.9649169085
 20
14.7561840261
 10
98.9969990852
 20
14.7145825476
 10
99.0300302469
 20
14.6737090945
 10
99.0640116308
 20
14.6335660958
 10
99.0989477063
 20
14.594153173
 10
99.1348363694
 20
14.5554766568
 10
99.1716492224
 20
14.5175697166
 10
99.2093512944
 20
14.480472231
 10
99.2479159366
 20
14.4442158737
 10
99.2873497893
 20
14.4087994993
 10
99.327667815
 20
14.3742137574
  0
LINE
  5
52D
100
AcDbEntity
  8
0
100
AcDbLine
 62
7
  6
CONTINUOUS
 10
95.5377539205
 20
34.4907649545
 11
95.5373052806
 21
34.4929949984
  0
LINE
  5
52E
100
AcDbEntity
  8
1_CURVES_JETS
100
AcDbLine
 62
7
  6
CONTINUOUS
 10
96.2937476239
 20
26.0612380723
 11
96.3247319364
 21
25.9041792332
  0
LINE
  5
52F
100
AcDbEntity
  8
0
100
AcDbLine
 62
7
  6
CONTINUOUS
 10
95.5311451555
 20
34.5317911748
 11
95.5291216464
 21
34.542052854
  0
LINE
  5
530
100
AcDbEntity
  8
1_CURVES_JETS
100
AcDbLine
 62
7
  6
CONTINUOUS
 10
97.869432602
 20
15.7205888947
 11
97.9032234128
 21
15.5480500678
  0
LINE
  5
531
100
AcDbEntity
  8
0
100
AcDbLine
 62
7
  6
CONTINUOUS
 10
95.5325357096
 20
34.5273841867
 11
95.5310215667
 21
34.5354683201
  0
LINE
  5
532
100
AcDbEntity
  8
6_SURFACES-PATINS-SPEC
100
AcDbLine
 62
7
  6
CONTINUOUS
 10
114.1055231503
 20
13.3582457636
 11
114.1047779236
 21
13.3622420396
  0
LWPOLYLINE
  5
533
100
AcDbEntity
  8
DEFAULT_2
100
AcDbPolyline
 62
8
  6
CONTINUOUS
 90
10
 70
0
 10
98.0397393485
 20
18.4401946387
 10
98.0785134021
 20
18.2253948575
 10
98.1172409459
 20
18.0116485865
 10
98.1559205023
 20
17.7989601496
 10
98.1945511349
 20
17.5873309077
 10
98.2331340716
 20
17.3767503725
 10
98.2716710814
 20
17.1672050932
 10
98.310163389
 20
16.9586845797
 10
98.3486100431
 20
16.7511901859
 10
98.3870095477
 20
16.5447262266
  0
LWPOLYLINE
  5
534
100
AcDbEntity
  8
DEFAULT_2
100
AcDbPolyline
 62
8
  6
CONTINUOUS
 90
77
 70
0
 10
119.2755366814
 20
28.6095231408
 10
119.2812347936
 20
28.5774765907
 10
119.2881358589
 20
28.5456768395
 10
119.2962270561
 20
28.5141780074
 10
119.305495564
 20
28.4830342145
 10
119.3159272366
 20
28.4522991237
 10
119.3275026289
 20
28.4220245687
 10
119.3402009713
 20
28.3922619259
 10
119.3540014941
 20
28.3630625718
 10
119.3688821989
 20
28.3344771821
 10
119.3848161723
 20
28.3065536299
 10
119.401775272
 20
28.2793390873
 10
119.419731356
 20
28.2528807269
 10
119.4386551807
 20
28.2272248084
 10
119.4585130978
 20
28.2024139416
 10
119.4792703577
 20
28.178489824
 10
119.5008922107
 20
28.1554941528
 10
119.5233429642
 20
28.1334675227
 10
119.5465831528
 20
28.112446117
 10
119.570572368
 20
28.0924650165
 10
119.5952702015
 20
28.0735593018
 10
119.6206354853
 20
28.0557627916
 10
119.6466240137
 20
28.0391042561
 10
119.6731908213
 20
28.0236112037
 10
119.700290943
 20
28.0093111427
 10
119.7278788584
 20
27.9962301941
 10
119.7559068271
 20
27.9843889304
 10
119.7843265537
 20
27.9738065366
 10
119.8130897428
 20
27.964502198
 10
119.8421477634
 20
27.9564936255
 10
119.8714506428
 20
27.9497926321
 10
119.9009480724
 20
27.944409557
 10
119.9305897442
 20
27.9403547388
 10
119.9603252429
 20
27.9376369952
 10
119.9901037265
 20
27.936259058
 10
120.0198742461
 20
27.9362221377
 10
120.0495858529
 20
27.9375274449
 10
120.0791877229
 20
27.9401746632
 10
120.1086295315
 20
27.9441573686
 10
120.137861079
 20
27.9494676104
 10
120.1668321658
 20
27.9560974375
 10
120.1954929451
 20
27.9640374085
 10
120.2237949828
 20
27.9732721188
 10
120.2516901977
 20
27.9837846729
 10
120.2791305085
 20
27.9955581756
 10
120.306068406
 20
28.0085743177
 10
120.3324586671
 20
28.0228091339
 10
120.3582566407
 20
28.0382372455
 10
120.3834176757
 20
28.0548332733
 10
120.4078978955
 20
28.0725705398
 10
120.4316565223
 20
28.0914171733
 10
120.4546535531
 20
28.1113400035
 10
120.4768489846
 20
28.1323058601
 10
120.4982037702
 20
28.1542804249
 10
120.5186826895
 20
28.1772247888
 10
120.5382514785
 20
28.2010988948
 10
120.5568758732
 20
28.2258626861
 10
120.5745227218
 20
28.2514751399
 10
120.591163322
 20
28.2778913713
 10
120.6067700835
 20
28.3050655298
 10
120.6213154162
 20
28.3329517646
 10
120.6347729676
 20
28.3615034679
 10
120.6471213364
 20
28.3906710023
 10
120.6583403588
 20
28.420403973
 10
120.6684098712
 20
28.4506519852
 10
120.6773110393
 20
28.4813641167
 10
120.6850303459
 20
28.512487335
 10
120.6915556034
 20
28.5439680802
 10
120.696874624
 20
28.5757527923
 10
120.700976605
 20
28.6077876246
 10
120.7038562843
 20
28.6400175837
 10
120.7055097851
 20
28.6723873896
 10
120.7059332304
 20
28.7048417623
 10
120.7051241444
 20
28.7373253961
 10
120.7030856564
 20
28.7697828832
 10
120.6998222965
 20
28.8021587904
 10
120.6953385952
 20
28.8343976843
  0
LINE
  5
535
100
AcDbEntity
  8
0
100
AcDbLine
 62
7
  6
CONTINUOUS
 10
95.5329642699
 20
34.5214244785
 11
95.5311451555
 21
34.5317911748
  0
LINE
  5
536
100
AcDbEntity
  8
0
100
AcDbLine
 62
7
  6
CONTINUOUS
 10
95.5337361763
 20
34.5203984229
 11
95.5325357096
 21
34.5273841867
  0
LINE
  5
537
100
AcDbEntity
  8
0
100
AcDbLine
 62
7
  6
CONTINUOUS
 10
95.5347021389
 20
34.5143087732
 11
95.5337361763
 21
34.5203984229
  0
LINE
  5
538
100
AcDbEntity
  8
DEFAULT_2
100
AcDbLine
 62
8
  6
CONTINUOUS
 10
119.2325172058
 20
28.8811374344
 11
119.2755366814
 21
28.6095231408
  0
LINE
  5
539
100
AcDbEntity
  8
DEFAULT_2
100
AcDbLine
 62
8
  6
CONTINUOUS
 10
120.6953385952
 20
28.8343976843
 11
120.6718734267
 21
28.9825509354
  0
LINE
  5
53A
100
AcDbEntity
  8
0
100
AcDbLine
 62
7
  6
CONTINUOUS
 10
95.5345740824
 20
34.5109566973
 11
95.5329642699
 21
34.5214244785
  0
LINE
  5
53B
100
AcDbEntity
  8
0
100
AcDbLine
 62
7
  6
CONTINUOUS
 10
95.5354900426
 20
34.5089567279
 11
95.5347021389
 21
34.5143087732
  0
LWPOLYLINE
  5
53C
100
AcDbEntity
  8
DEFAULT_2
100
AcDbPolyline
 62
8
  6
CONTINUOUS
 90
32
 70
0
 10
110.9550136873
 20
26.2425636191
 10
110.9465724774
 20
26.2999759949
 10
110.9374873395
 20
26.3572932355
 10
110.9276977139
 20
26.4144949171
 10
110.9171430407
 20
26.4715606161
 10
110.9069329276
 20
26.5228266625
 10
110.8960186536
 20
26.5739472699
 10
110.8843658635
 20
26.6249038895
 10
110.8719402019
 20
26.6756779729
 10
110.8603105261
 20
26.7202904243
 10
110.8480170579
 20
26.7647244594
 10
110.8350238966
 20
26.8089580734
 10
110.8212951416
 20
26.8529692615
 10
110.8085498283
 20
26.8915740765
 10
110.7951760924
 20
26.9299657649
 10
110.7811453771
 20
26.9681212538
 10
110.7664291254
 20
27.0060174708
 10
110.7528806718
 20
27.0391517086
 10
110.738757409
 20
27.0720451207
 10
110.7240381719
 20
27.1046757861
 10
110.7087017948
 20
27.137021784
 10
110.6946160849
 20
27.1653537555
 10
110.6800141189
 20
27.1934228647
 10
110.6648782388
 20
27.2212057341
 10
110.6491907867
 20
27.2486789863
 10
110.6297497647
 20
27.2809934909
 10
110.6094964109
 20
27.3128072435
 10
110.5884272613
 20
27.3440926727
 10
110.5735730016
 20
27.3651217314
 10
110.5583071871
 20
27.3858520403
 10
110.5425998584
 20
27.406243775
 10
110.5264210559
 20
27.4262571107
  0
LINE
  5
53D
100
AcDbEntity
  8
0
100
AcDbLine
 62
7
  6
CONTINUOUS
 10
95.5315956874
 20
34.5292237018
 11
95.5315497259
 21
34.529544755
  0
LWPOLYLINE
  5
53E
100
AcDbEntity
  8
DEFAULT_2
100
AcDbPolyline
 62
8
  6
CONTINUOUS
 90
34
 70
0
 10
106.8922777981
 20
17.8352558745
 10
106.8988125559
 20
17.7888100907
 10
106.9046293384
 20
17.7422661594
 10
106.90971821
 20
17.695636306
 10
106.914003187
 20
17.6497068854
 10
106.9175649822
 20
17.6037164888
 10
106.9203940128
 20
17.5576754153
 10
106.9224540353
 20
17.5123058861
 10
106.9237844762
 20
17.4669089425
 10
106.9243753593
 20
17.4214963112
 10
106.9242238632
 20
17.3766986609
 10
106.9233330195
 20
17.3319096812
 10
106.9216927305
 20
17.2871418965
 10
106.9193252472
 20
17.2429299376
 10
106.9162056331
 20
17.1987646772
 10
106.9123236752
 20
17.1546598769
 10
106.9077174667
 20
17.1110515996
 10
106.9023432435
 20
17.0675313034
 10
106.896190796
 20
17.0241141649
 10
106.8893051574
 20
16.9811413517
 10
106.8816328866
 20
16.9383019925
 10
106.873163953
 20
16.8956129829
 10
106.863941011
 20
16.8533223827
 10
106.8539104507
 20
16.8112159819
 10
106.8430625953
 20
16.7693125489
 10
106.8314296382
 20
16.7277747891
 10
106.8189666517
 20
16.6864785644
 10
106.8056648791
 20
16.6454452017
 10
106.7915368915
 20
16.6047554277
 10
106.7765556038
 20
16.5643715618
 10
106.7607127898
 20
16.5243161512
 10
106.7439919894
 20
16.4845923181
 10
106.7263965972
 20
16.4452496553
 10
106.7079226822
 20
16.4063179639
  0
LINE
  5
53F
100
AcDbEntity
  8
DEFAULT_2
100
AcDbLine
 62
8
  6
CONTINUOUS
 10
112.0840285431
 20
18.2000053415
 11
110.9550136873
 21
26.2425636191
  0
LINE
  5
540
100
AcDbEntity
  8
1_CURVES_JETS
100
AcDbLine
 62
7
  6
CONTINUOUS
 10
97.856477494
 20
15.8137722366
 11
97.869432602
 21
15.7205888947
  0
LINE
  5
541
100
AcDbEntity
  8
1_CURVES_JETS
100
AcDbLine
 62
7
  6
CONTINUOUS
 10
96.6954142552
 20
24.8790755153
 11
96.7456725102
 21
24.5156505096
  0
LINE
  5
542
100
AcDbEntity
  8
6_SURFACES-PATINS-SPEC
100
AcDbLine
 62
7
  6
CONTINUOUS
 10
102.0863812637
 20
13.4774407068
 11
102.0863473075
 21
13.4776865557
  0
LINE
  5
543
100
AcDbEntity
  8
1_CURVES_JETS
100
AcDbLine
 62
7
  6
CONTINUOUS
 10
96.7456725102
 20
24.5156505096
 11
96.8229842251
 21
23.9553965288
  0
LINE
  5
544
100
AcDbEntity
  8
6_SURFACES-PATINS-SPEC
100
AcDbLine
 62
7
  6
CONTINUOUS
 10
102.0881115509
 20
13.5086358846
 11
102.088077928
 21
13.5088798031
  0
LINE
  5
545
100
AcDbEntity
  8
1_CURVES_JETS
100
AcDbLine
 62
7
  6
CONTINUOUS
 10
96.8229842251
 20
23.9553965288
 11
96.8824960631
 21
23.5230679385
  0
LINE
  5
546
100
AcDbEntity
  8
0
100
AcDbLine
 62
7
  6
CONTINUOUS
 10
95.5361408355
 20
34.5042167129
 11
95.5354900426
 21
34.5089567279
  0
LINE
  5
547
100
AcDbEntity
  8
1_CURVES_JETS
100
AcDbLine
 62
7
  6
CONTINUOUS
 10
96.8825423553
 20
23.5227290867
 11
96.9236561343
 21
23.2221412603
  0
LINE
  5
548
100
AcDbEntity
  8
1_CURVES_JETS
100
AcDbLine
 62
7
  6
CONTINUOUS
 10
96.9236561343
 20
23.2221412603
 11
96.9836452628
 21
22.7781640238
  0
LINE
  5
549
100
AcDbEntity
  8
1_CURVES_JETS
100
AcDbLine
 62
7
  6
CONTINUOUS
 10
96.9836452628
 20
22.7781640238
 11
97.0482351052
 21
22.2935152145
  0
LINE
  5
54A
100
AcDbEntity
  8
0
100
AcDbLine
 62
7
  6
CONTINUOUS
 10
95.5359697347
 20
34.5003919496
 11
95.5345740824
 21
34.5109566973
  0
LINE
  5
54B
100
AcDbEntity
  8
1_CURVES_JETS
100
AcDbLine
 62
7
  6
CONTINUOUS
 10
97.0482351052
 20
22.2935152145
 11
97.1175563536
 21
21.7663435824
  0
LINE
  5
54C
100
AcDbEntity
  8
1_CURVES_JETS
100
AcDbLine
 62
7
  6
CONTINUOUS
 10
97.1175563536
 20
21.7663435824
 11
97.1917415853
 21
21.1947873621
  0
LINE
  5
54D
100
AcDbEntity
  8
0
100
AcDbLine
 62
7
  6
CONTINUOUS
 10
95.5366852965
 20
34.4999834165
 11
95.5361408355
 21
34.5042167129
  0
LINE
  5
54E
100
AcDbEntity
  8
1_CURVES_JETS
100
AcDbLine
 62
7
  6
CONTINUOUS
 10
97.1917415853
 20
21.1947873621
 11
97.2709121716
 21
20.5770818918
  0
LINE
  5
54F
100
AcDbEntity
  8
1_CURVES_JETS
100
AcDbLine
 62
7
  6
CONTINUOUS
 10
97.2709121716
 20
20.5770818918
 11
97.3551655045
 21
19.9116718903
  0
LINE
  5
550
100
AcDbEntity
  8
1_CURVES_JETS
100
AcDbLine
 62
7
  6
CONTINUOUS
 10
97.3551655045
 20
19.9116718903
 11
97.4446592557
 21
19.1965501909
  0
LINE
  5
551
100
AcDbEntity
  8
1_CURVES_JETS
100
AcDbLine
 62
7
  6
CONTINUOUS
 10
97.4446592557
 20
19.1965501909
 11
97.5395698468
 21
18.4295720101
  0
LINE
  5
552
100
AcDbEntity
  8
1_CURVES_JETS
100
AcDbLine
 62
7
  6
CONTINUOUS
 10
97.5395698468
 20
18.4295720101
 11
97.6400502038
 21
17.6087985374
  0
LINE
  5
553
100
AcDbEntity
  8
1_CURVES_JETS
100
AcDbLine
 62
7
  6
CONTINUOUS
 10
97.6400502038
 20
17.6087985374
 11
97.746272672
 21
16.7321555993
  0
LINE
  5
554
100
AcDbEntity
  8
0
100
AcDbLine
 62
7
  6
CONTINUOUS
 10
95.5371462859
 20
34.4961722502
 11
95.5366852965
 21
34.4999834165
  0
LINE
  5
555
100
AcDbEntity
  8
1_CURVES_JETS
100
AcDbLine
 62
7
  6
CONTINUOUS
 10
97.746272672
 20
16.7321555993
 11
97.8564756586
 21
15.8137842975
  0
LWPOLYLINE
  5
556
100
AcDbEntity
  8
1_CURVES_JETS
100
AcDbPolyline
 62
7
  6
CONTINUOUS
 90
25
 70
0
 10
96.288938555
 20
26.100614814
 10
96.2908023526
 20
26.0849807016
 10
96.2930615968
 20
26.0693952349
 10
96.2956727258
 20
26.0538612911
 10
96.2985921778
 20
26.0383817473
 10
96.3036789616
 20
26.014317912
 10
96.3093287216
 20
25.9903832887
 10
96.3154586251
 20
25.966567378
 10
96.3230970862
 20
25.9389876783
 10
96.3312044838
 20
25.9115416184
 10
96.3397116686
 20
25.8842162825
 10
96.3499908741
 20
25.8526732829
 10
96.3606534674
 20
25.8212583301
 10
96.371638485
 20
25.7899545847
 10
96.3847056316
 20
25.753774767
 10
96.3980668107
 20
25.7177025538
 10
96.4116645103
 20
25.6817186679
 10
96.4358905879
 20
25.6188595938
 10
96.4604540965
 20
25.5561319193
 10
96.4898545571
 20
25.4815198329
 10
96.5191475088
 20
25.4068639082
 10
96.5373312382
 20
25.3599782466
 10
96.5552815352
 20
25.3130028604
 10
96.5729196295
 20
25.2659109283
 10
96.5901667512
 20
25.2186756293
  0
LWPOLYLINE
  5
557
100
AcDbEntity
  8
0
100
AcDbPolyline
 62
7
  6
CONTINUOUS
 90
3
 70
0
 10
123.4427349369
 20
34.4924585858
 10
123.4427419466
 20
34.4923992367
 10
123.4427443253
 20
34.4922211238
  0
LINE
  5
558
100
AcDbEntity
  8
0
100
AcDbLine
 62
7
  6
CONTINUOUS
 10
95.5375409458
 20
34.4927153135
 11
95.5371462859
 21
34.4961722502
  0
LINE
  5
559
100
AcDbEntity
  8
0
100
AcDbLine
 62
7
  6
CONTINUOUS
 10
95.6417117282
 20
33.5441539273
 11
95.6344568194
 21
33.6082110262
  0
LINE
  5
55A
100
AcDbEntity
  8
0
100
AcDbLine
 62
7
  6
CONTINUOUS
 10
95.5368676467
 20
34.4924586738
 11
95.5359697347
 21
34.5003919496
  0
LINE
  5
55B
100
AcDbEntity
  8
1_CURVES_JETS
100
AcDbLine
 62
7
  6
CONTINUOUS
 10
96.292094996
 20
26.0759378745
 11
96.2937476239
 21
26.0612380723
  0
LINE
  5
55C
100
AcDbEntity
  8
0
100
AcDbLine
 62
7
  6
CONTINUOUS
 10
95.6344568194
 20
33.6082110262
 11
95.6117428958
 21
33.8117269314
  0
LINE
  5
55D
100
AcDbEntity
  8
0
100
AcDbLine
 62
7
  6
CONTINUOUS
 10
95.6117428958
 20
33.8117269314
 11
95.5879447103
 21
34.0277422704
  0
ARC
  5
55E
100
AcDbEntity
  8
6_SURFACES-PATINS-SPEC
100
AcDbCircle
 62
7
  6
CONTINUOUS
 10
99.169613609
 20
13.0997728037
 40
16.3215381809
100
AcDbArc
 50
1.2888144922
 51
1.4270652499
  0
ARC
  5
55F
100
AcDbEntity
  8
1_CURVES_JETS
100
AcDbCircle
 62
7
  6
CONTINUOUS
 10
106.9611745226
 20
28.9502691015
 40
11.021914173
100
AcDbArc
 50
199.7892442589
 51
200.4672656362
  0
ARC
  5
560
100
AcDbEntity
  8
1_CURVES_JETS
100
AcDbCircle
 62
7
  6
CONTINUOUS
 10
106.6004762919
 20
28.8157921069
 40
10.6369631945
100
AcDbArc
 50
200.4680110755
 51
201.4918111391
  0
ARC
  5
561
100
AcDbEntity
  8
1_CURVES_JETS
100
AcDbCircle
 62
7
  6
CONTINUOUS
 10
106.1550459933
 20
28.6409533833
 40
10.1584483477
100
AcDbArc
 50
201.4946839252
 51
202.7651214848
  0
ARC
  5
562
100
AcDbEntity
  8
0
100
AcDbCircle
 62
7
  6
CONTINUOUS
 10
92.0821756186
 20
36.8178039779
 40
4.0643451472
100
AcDbArc
 50
264.9783500259
 51
265.268724551
  0
ARC
  5
563
100
AcDbEntity
  8
1_CURVES_JETS
100
AcDbCircle
 62
7
  6
CONTINUOUS
 10
97.6539843233
 20
25.2818754543
 40
1.0350732163
100
AcDbArc
 50
200.9371668461
 51
202.7400692501
  0
ARC
  5
564
100
AcDbEntity
  8
6_SURFACES-PATINS-SPEC
100
AcDbCircle
 62
7
  6
CONTINUOUS
 10
103.4897959183
 20
13.0276946387
 40
0.9375
100
AcDbArc
 50
200.0
 51
340.0
  0
ARC
  5
565
100
AcDbEntity
  8
1_CURVES_JETS
100
AcDbCircle
 62
7
  6
CONTINUOUS
 10
97.1678429043
 20
25.2886867167
 40
0.5819030696
100
AcDbArc
 50
186.9102245034
 51
199.9473014042
  0
ARC
  5
566
100
AcDbEntity
  8
DEFAULT_2
100
AcDbCircle
 62
8
  6
CONTINUOUS
 10
96.885848101
 20
26.4410748731
 40
0.5000036403
100
AcDbArc
 50
185.9997645276
 51
266.9255050954
  0
ARC
  5
567
100
AcDbEntity
  8
0
100
AcDbCircle
 62
7
  6
CONTINUOUS
 10
95.0400523109
 20
34.4401946387
 40
0.5000000001
100
AcDbArc
 50
6.0583701858
 51
89.9999961562
  0
ARC
  5
568
100
AcDbEntity
  8
0
100
AcDbCircle
 62
7
  6
CONTINUOUS
 10
95.0395959341
 20
34.4401946386
 40
0.5
100
AcDbArc
 50
5.9999673738
 51
90.0000012293
  0
ARC
  5
569
100
AcDbEntity
  8
0
100
AcDbCircle
 62
7
  6
CONTINUOUS
 10
95.040116565
 20
34.4401475816
 40
0.5
100
AcDbArc
 50
6.0670365011
 51
38.6479624005
  0
ARC
  5
56A
100
AcDbEntity
  8
6_SURFACES-PATINS-SPEC
100
AcDbCircle
 62
7
  6
CONTINUOUS
 10
102.4375725995
 20
13.6593365955
 40
0.3884661805
100
AcDbArc
 50
205.087523998
 51
205.5632498871
  0
ARC
  5
56B
100
AcDbEntity
  8
1_CURVES_JETS
100
AcDbCircle
 62
7
  6
CONTINUOUS
 10
108.2183493089
 20
13.1901946387
 40
0.375
100
AcDbArc
 50
225.0
 51
270.0
  0
ARC
  5
56C
100
AcDbEntity
  8
6_SURFACES-PATINS-SPEC
100
AcDbCircle
 62
7
  6
CONTINUOUS
 10
104.8584618712
 20
12.9506663509
 40
0.37497153
100
AcDbArc
 50
86.9489571288
 51
159.9981701171
  0
ARC
  5
56D
100
AcDbEntity
  8
DEFAULT_2
100
AcDbCircle
 62
8
  6
CONTINUOUS
 10
107.5063412089
 20
13.1950937411
 40
0.2500015686
100
AcDbArc
 50
44.999975017
 51
87.2202740849
  0
ARC
  5
56E
100
AcDbEntity
  8
DEFAULT_2
100
AcDbCircle
 62
8
  6
CONTINUOUS
 10
98.5546404863
 20
28.9434423209
 40
0.2500000005
100
AcDbArc
 50
81.0000014267
 51
171.0000000821
  0
ARC
  5
56F
100
AcDbEntity
  8
0
100
AcDbCircle
 62
7
  6
CONTINUOUS
 10
92.0250890342
 20
34.6901946387
 40
0.25
100
AcDbArc
 50
90.0
 51
175.0
  0
ARC
  5
570
100
AcDbEntity
  8
DEFAULT_2
100
AcDbCircle
 62
8
  6
CONTINUOUS
 10
108.2183493089
 20
13.1901946387
 40
0.25
100
AcDbArc
 50
225.0
 51
270.0
  0
ARC
  5
571
100
AcDbEntity
  8
DEFAULT_2
100
AcDbCircle
 62
8
  6
CONTINUOUS
 10
99.6236135963
 20
28.9006917433
 40
0.125
100
AcDbArc
 50
350.9999991015
 51
81.0000010767
  0
ARC
  5
572
100
AcDbEntity
  8
DEFAULT_2
100
AcDbCircle
 62
8
  6
CONTINUOUS
 10
-128.9004110384
 20
63.0298117553
 40
253.7865580491
100
AcDbArc
 50
349.2523694938
 51
349.4457711729
  0
ARC
  5
573
100
AcDbEntity
  8
6_SURFACES-PATINS-SPEC
100
AcDbCircle
 62
7
  6
CONTINUOUS
 10
119.8099830396
 20
13.0997726861
 40
16.3215429943
100
AcDbArc
 50
178.5729347581
 51
178.711185667
  0
ARC
  5
574
100
AcDbEntity
  8
1_CURVES_JETS
100
AcDbCircle
 62
7
  6
CONTINUOUS
 10
112.0184173136
 20
28.9502691016
 40
11.0219141734
100
AcDbArc
 50
339.5327343639
 51
340.2107557411
  0
ARC
  5
575
100
AcDbEntity
  8
1_CURVES_JETS
100
AcDbCircle
 62
7
  6
CONTINUOUS
 10
112.3791155446
 20
28.815792107
 40
10.6369631947
100
AcDbArc
 50
338.5081888609
 51
339.5319889245
  0
ARC
  5
576
100
AcDbEntity
  8
1_CURVES_JETS
100
AcDbCircle
 62
7
  6
CONTINUOUS
 10
112.8245458436
 20
28.6409533832
 40
10.1584483474
100
AcDbArc
 50
337.2348785152
 51
338.5053160748
  0
ARC
  5
577
100
AcDbEntity
  8
0
100
AcDbCircle
 62
7
  6
CONTINUOUS
 10
126.8974162181
 20
36.8178039777
 40
4.064345147
100
AcDbArc
 50
274.731275449
 51
275.0216499741
  0
ARC
  5
578
100
AcDbEntity
  8
1_CURVES_JETS
100
AcDbCircle
 62
7
  6
CONTINUOUS
 10
121.3256076925
 20
25.2818753844
 40
1.035073024
100
AcDbArc
 50
337.2599428055
 51
339.0628332206
  0
ARC
  5
579
100
AcDbEntity
  8
6_SURFACES-PATINS-SPEC
100
AcDbCircle
 62
7
  6
CONTINUOUS
 10
113.1842644282
 20
13.0923162892
 40
0.9523437843
100
AcDbArc
 50
16.0366681635
 51
16.6969374509
  0
ARC
  5
57A
100
AcDbEntity
  8
6_SURFACES-PATINS-SPEC
100
AcDbCircle
 62
7
  6
CONTINUOUS
 10
115.4897959183
 20
13.0276946387
 40
0.9375
100
AcDbArc
 50
200.0
 51
340.0
  0
ARC
  5
57B
100
AcDbEntity
  8
6_SURFACES-PATINS-SPEC
100
AcDbCircle
 62
7
  6
CONTINUOUS
 10
116.3357110824
 20
13.7552008004
 40
0.6159583876
100
AcDbArc
 50
334.9649202931
 51
335.8713369673
  0
ARC
  5
57C
100
AcDbEntity
  8
1_CURVES_JETS
100
AcDbCircle
 62
7
  6
CONTINUOUS
 10
121.8117489324
 20
25.2886867167
 40
0.5819030696
100
AcDbArc
 50
340.0526985958
 51
353.0897754966
  0
ARC
  5
57D
100
AcDbEntity
  8
DEFAULT_2
100
AcDbCircle
 62
8
  6
CONTINUOUS
 10
122.0937437356
 20
26.4410748731
 40
0.5000036403
100
AcDbArc
 50
273.0744949046
 51
354.0002354724
  0
ARC
  5
57E
100
AcDbEntity
  8
0
100
AcDbCircle
 62
7
  6
CONTINUOUS
 10
123.9395395258
 20
34.4401946387
 40
0.5000000001
100
AcDbArc
 50
90.0000038438
 51
173.9416298142
  0
ARC
  5
57F
100
AcDbEntity
  8
0
100
AcDbCircle
 62
7
  6
CONTINUOUS
 10
123.9394752716
 20
34.4401475816
 40
0.5
100
AcDbArc
 50
142.8576780737
 51
143.918643028
  0
ARC
  5
580
100
AcDbEntity
  8
0
100
AcDbCircle
 62
7
  6
CONTINUOUS
 10
123.9399959025
 20
34.4401946386
 40
0.5
100
AcDbArc
 50
89.9999987707
 51
174.0000326262
  0
ARC
  5
581
100
AcDbEntity
  8
0
100
AcDbCircle
 62
7
  6
CONTINUOUS
 10
123.9394752716
 20
34.4401475816
 40
0.5
100
AcDbArc
 50
143.9273516627
 51
173.9329634989
  0
ARC
  5
582
100
AcDbEntity
  8
6_SURFACES-PATINS-SPEC
100
AcDbCircle
 62
7
  6
CONTINUOUS
 10
116.5428546374
 20
13.6589587055
 40
0.3875494113
100
AcDbArc
 50
334.4335153334
 51
334.8972778676
  0
ARC
  5
583
100
AcDbEntity
  8
1_CURVES_JETS
100
AcDbCircle
 62
7
  6
CONTINUOUS
 10
110.7612425277
 20
13.1901946387
 40
0.375
100
AcDbArc
 50
270.0
 51
315.0
  0
ARC
  5
584
100
AcDbEntity
  8
6_SURFACES-PATINS-SPEC
100
AcDbCircle
 62
7
  6
CONTINUOUS
 10
114.1211299654
 20
12.9506663509
 40
0.37497153
100
AcDbArc
 50
20.0018298835
 51
93.0510428717
  0
ARC
  5
585
100
AcDbEntity
  8
DEFAULT_2
100
AcDbCircle
 62
8
  6
CONTINUOUS
 10
111.4732506278
 20
13.1950937411
 40
0.2500015686
100
AcDbArc
 50
92.7797259151
 51
135.000024983
  0
ARC
  5
586
100
AcDbEntity
  8
DEFAULT_2
100
AcDbCircle
 62
8
  6
CONTINUOUS
 10
120.4249513503
 20
28.9434423209
 40
0.2500000005
100
AcDbArc
 50
8.9999999178
 51
98.9999985736
  0
ARC
  5
587
100
AcDbEntity
  8
0
100
AcDbCircle
 62
7
  6
CONTINUOUS
 10
126.9545028025
 20
34.6901946387
 40
0.25
100
AcDbArc
 50
5.0
 51
90.0
  0
ARC
  5
588
100
AcDbEntity
  8
DEFAULT_2
100
AcDbCircle
 62
8
  6
CONTINUOUS
 10
110.7612425277
 20
13.1901946387
 40
0.25
100
AcDbArc
 50
270.0
 51
315.0
  0
ARC
  5
589
100
AcDbEntity
  8
DEFAULT_2
100
AcDbCircle
 62
8
  6
CONTINUOUS
 10
119.3559782403
 20
28.9006917433
 40
0.125
100
AcDbArc
 50
98.9999989251
 51
189.0000008982
  0
ARC
  5
58A
100
AcDbEntity
  8
DEFAULT_2
100
AcDbCircle
 62
8
  6
CONTINUOUS
 10
345.4715695098
 20
62.5768759256
 40
251.3359065964
100
AcDbArc
 50
190.5532873799
 51
190.7485748232
  0
ENDSEC
  0
SECTION
  2
OBJECTS
  0
DICTIONARY
  5
58B
100
AcDbDictionary
  3
ACAD_GROUP
350
58C
  3
ACAD_MLINESTYLE
350
58D
  0
DICTIONARY
  5
58C
102
{ACAD_REACTORS
330
58B
102
}
100
AcDbDictionary
  0
DICTIONARY
  5
58D
102
{ACAD_REACTORS
330
58B
102
}
100
AcDbDictionary
  3
STANDARD
350
58E
  0
MLINESTYLE
  5
58E
102
{ACAD_REACTORS
330
58D
102
}
100
AcDbMlineStyle
  2
STANDARD
 70
0
  3

 62
256
 51
90.0
 52
90.0
 71
2
 49
0.5
 62
256
  6
BYLAYER
 49
-0.5
 62
256
  6
BYLAYER
  0
ENDSEC
  0
EOF
