  0
SECTION
  2
HEADER
  9
$ACADVER
  1
AC1014
  9
$DWGCODEPAGE
  3
ANSI_1252
  9
$EXTMAX
 10
22.0
 20
17.0
 30
0.0
  9
$EXTMIN
 10
0.0
 20
0.0
 30
0.0
  9
$LIMMIN
 10
0.0
 20
0.0
  9
$LIMMAX
 10
22.0
 20
17.0
  9
$VIEWCTR
 10
11.0
 20
8.5
  9
$VIEWSIZE
 40
17.0
  9
$CLAYER
  8
0
  9
$LTSCALE
 40
1.21
  9
$CELTYPE
  6
BYLAYER
  9
$DIMSCALE
 40
1.0
  9
$DIMASZ
 40
0.1875
  9
$DIMEXO
 40
0.1375
  9
$DIMDLI
 40
0.836
  9
$DIMEXE
 40
0.396
  9
$DIMCEN
 40
0.198
  9
$DIMLFAC
 40
1.0
  9
$DIMBLK
  1
_ARROW_FILLED
  9
$DIMTXT
 40
0.125
  9
$DIMTOL
 70
1
  9
$DIMLIM
 70
0
  9
$DIMTFAC
 40
1.0
  9
$DIMTP
 40
0.00001
  9
$DIMTM
 40
0.00001
  9
$PDMODE
 70
3
  9
$PDSIZE
 40
0.03125
  9
$HANDSEED
  5
5AF
  9
$TILEMODE
 70
1
  9
$MEASUREMENT
 70
0
  0
ENDSEC
  0
SECTION
  2
CLASSES
  0
ENDSEC
  0
SECTION
  2
TABLES
  0
TABLE
  2
VPORT
  5
8
100
AcDbSymbolTable
 70
2
  0
VPORT
  5
1F4
100
AcDbSymbolTableRecord
100
AcDbViewportTableRecord
  2
*ACTIVE
 70
0
 10
0.0
 20
0.0
 11
1.0
 21
1.0
 12
11.0
 22
8.5
 13
0.0
 23
0.0
 14
1.0
 24
1.0
 15
0.0
 25
0.0
 16
0.0
 26
0.0
 36
1.0
 17
0.0
 27
0.0
 37
0.0
 40
17.0
 41
1.2941176471
 42
50.0
 43
0.0
 44
0.0
 50
0.0
 51
0.0
 71
0
 72
100
 73
1
 74
1
 75
0
 76
0
 77
0
 78
0
  0
ENDTAB
  0
TABLE
  2
LTYPE
  5
5
100
AcDbSymbolTable
 70
6
  0
LTYPE
  5
14
100
AcDbSymbolTableRecord
100
AcDbLinetypeTableRecord
  2
BYBLOCK
 70
0
  3

 72
65
 73
0
 40
0.0
  0
LTYPE
  5
15
100
AcDbSymbolTableRecord
100
AcDbLinetypeTableRecord
  2
BYLAYER
 70
0
  3

 72
65
 73
0
 40
0.0
  0
LTYPE
  5
16
100
AcDbSymbolTableRecord
100
AcDbLinetypeTableRecord
  2
CONTINUOUS
 70
64
  3
Solid line
 72
65
 73
0
 40
0.0
  0
LTYPE
  5
1F5
100
AcDbSymbolTableRecord
100
AcDbLinetypeTableRecord
  2
CENTER
 70
64
  3
____ _ ____ _ ____ _ ____ _ ____ _ ____ _ ____
 72
65
 73
4
 40
0.6
 49
0.375
 74
0
 49
-0.075
 74
0
 49
0.075
 74
0
 49
-0.075
 74
0
  0
LTYPE
  5
1F6
100
AcDbSymbolTableRecord
100
AcDbLinetypeTableRecord
  2
HIDDEN
 70
64
  3
- - - - - - - - - - - - - - - - - - - -
 72
65
 73
2
 40
0.2
 49
0.1
 74
0
 49
-0.1
 74
0
  0
LTYPE
  5
1F7
100
AcDbSymbolTableRecord
100
AcDbLinetypeTableRecord
  2
PHANTOM
 70
64
  3
_____ _ _ _____ _ _ _____ _ _ _____
 72
65
 73
6
 40
0.8
 49
0.45
 74
0
 49
-0.05
 74
0
 49
0.1
 74
0
 49
-0.05
 74
0
 49
0.1
 74
0
 49
-0.05
 74
0
  0
LTYPE
  5
1F8
100
AcDbSymbolTableRecord
100
AcDbLinetypeTableRecord
  2
DOT
 70
64
  3
. . . . . . . . . . . . . . . . . . . .
 72
65
 73
2
 40
0.2
 49
0.1
 74
0
 49
-0.1
 74
0
  0
LTYPE
  5
1F9
100
AcDbSymbolTableRecord
100
AcDbLinetypeTableRecord
  2
DASHED
 70
64
  3
- - - - - - - - - - - - - - - - - - - -
 72
65
 73
2
 40
0.2
 49
0.1
 74
0
 49
-0.1
 74
0
  0
ENDTAB
  0
TABLE
  2
LAYER
  5
2
100
AcDbSymbolTable
 70
36
  0
LAYER
  5
10
100
AcDbSymbolTableRecord
100
AcDbLayerTableRecord
  2
0
 70
0
 62
7
  6
CONTINUOUS
  0
LAYER
  5
1FA
100
AcDbSymbolTableRecord
100
AcDbLayerTableRecord
  2
DEFAULT_1
 70
0
 62
7
  6
CENTER
  0
LAYER
  5
1FB
100
AcDbSymbolTableRecord
100
AcDbLayerTableRecord
  2
DEFAULT_2
 70
0
 62
8
  6
HIDDEN
  0
LAYER
  5
1FC
100
AcDbSymbolTableRecord
100
AcDbLayerTableRecord
  2
DEFAULT_3
 70
0
 62
7
  6
PHANTOM
  0
LAYER
  5
1FD
100
AcDbSymbolTableRecord
100
AcDbLayerTableRecord
  2
1_CURVES
 70
0
 62
7
  6
CONTINUOUS
  0
LAYER
  5
1FE
100
AcDbSymbolTableRecord
100
AcDbLayerTableRecord
  2
1_CURVES_CONDUIT
 70
0
 62
7
  6
CONTINUOUS
  0
LAYER
  5
1FF
100
AcDbSymbolTableRecord
100
AcDbLayerTableRecord
  2
1_CURVES_JETS
 70
0
 62
7
  6
CONTINUOUS
  0
LAYER
  5
200
100
AcDbSymbolTableRecord
100
AcDbLayerTableRecord
  2
1_CURVES_PATINS
 70
0
 62
7
  6
CONTINUOUS
  0
LAYER
  5
201
100
AcDbSymbolTableRecord
100
AcDbLayerTableRecord
  2
1_CURVES_RESURFACAGE
 70
0
 62
7
  6
CONTINUOUS
  0
LAYER
  5
202
100
AcDbSymbolTableRecord
100
AcDbLayerTableRecord
  2
1_CURVES_SPEC
 70
0
 62
7
  6
CONTINUOUS
  0
LAYER
  5
203
100
AcDbSymbolTableRecord
100
AcDbLayerTableRecord
  2
2_PLANES
 70
0
 62
7
  6
CONTINUOUS
  0
LAYER
  5
204
100
AcDbSymbolTableRecord
100
AcDbLayerTableRecord
  2
2_PLANES_JETS
 70
0
 62
7
  6
CONTINUOUS
  0
LAYER
  5
205
100
AcDbSymbolTableRecord
100
AcDbLayerTableRecord
  2
3_POINTS
 70
0
 62
7
  6
CONTINUOUS
  0
LAYER
  5
206
100
AcDbSymbolTableRecord
100
AcDbLayerTableRecord
  2
3_POINTS_JETS
 70
0
 62
7
  6
CONTINUOUS
  0
LAYER
  5
207
100
AcDbSymbolTableRecord
100
AcDbLayerTableRecord
  2
4_CSYS
 70
0
 62
7
  6
CONTINUOUS
  0
LAYER
  5
208
100
AcDbSymbolTableRecord
100
AcDbLayerTableRecord
  2
5_AXIS
 70
0
 62
7
  6
CONTINUOUS
  0
LAYER
  5
209
100
AcDbSymbolTableRecord
100
AcDbLayerTableRecord
  2
5_AXIS_JETS
 70
0
 62
7
  6
CONTINUOUS
  0
LAYER
  5
20A
100
AcDbSymbolTableRecord
100
AcDbLayerTableRecord
  2
6_AIRE_CONDUIT
 70
0
 62
7
  6
CONTINUOUS
  0
LAYER
  5
20B
100
AcDbSymbolTableRecord
100
AcDbLayerTableRecord
  2
6_SURFACE-OFFSET-FIBRE-ACRYLIQU
 70
0
 62
7
  6
CONTINUOUS
  0
LAYER
  5
20C
100
AcDbSymbolTableRecord
100
AcDbLayerTableRecord
  2
6_SURFACES
 70
0
 62
7
  6
CONTINUOUS
  0
LAYER
  5
20D
100
AcDbSymbolTableRecord
100
AcDbLayerTableRecord
  2
6_SURFACES-PATINS-SPEC
 70
0
 62
7
  6
CONTINUOUS
  0
LAYER
  5
20E
100
AcDbSymbolTableRecord
100
AcDbLayerTableRecord
  2
6_SURFACES_AIRE
 70
0
 62
7
  6
CONTINUOUS
  0
LAYER
  5
20F
100
AcDbSymbolTableRecord
100
AcDbLayerTableRecord
  2
6_SURFACES_OFFSET_FIBRE
 70
0
 62
7
  6
CONTINUOUS
  0
LAYER
  5
210
100
AcDbSymbolTableRecord
100
AcDbLayerTableRecord
  2
6_SURFACES_OFFSET_FIBRE_ACRYLIQ
 70
0
 62
7
  6
CONTINUOUS
  0
LAYER
  5
211
100
AcDbSymbolTableRecord
100
AcDbLayerTableRecord
  2
6_SURFACES_POUR_CONDUIT
 70
0
 62
7
  6
CONTINUOUS
  0
LAYER
  5
212
100
AcDbSymbolTableRecord
100
AcDbLayerTableRecord
  2
6_SURFACES_POUR_HFL
 70
0
 62
7
  6
CONTINUOUS
  0
LAYER
  5
213
100
AcDbSymbolTableRecord
100
AcDbLayerTableRecord
  2
6_SURFACES_TOOLING
 70
0
 62
7
  6
CONTINUOUS
  0
LAYER
  5
214
100
AcDbSymbolTableRecord
100
AcDbLayerTableRecord
  2
7_NOTES
 70
0
 62
7
  6
CONTINUOUS
  0
LAYER
  5
215
100
AcDbSymbolTableRecord
100
AcDbLayerTableRecord
  2
8_COSMETIC
 70
0
 62
7
  6
CONTINUOUS
  0
LAYER
  5
216
100
AcDbSymbolTableRecord
100
AcDbLayerTableRecord
  2
9_IMPORT
 70
0
 62
7
  6
CONTINUOUS
  0
LAYER
  5
217
100
AcDbSymbolTableRecord
100
AcDbLayerTableRecord
  2
DEGAGEMENT_SERIGRAPHIE
 70
0
 62
7
  6
CONTINUOUS
  0
LAYER
  5
218
100
AcDbSymbolTableRecord
100
AcDbLayerTableRecord
  2
NONE
 70
0
 62
7
  6
CONTINUOUS
  0
LAYER
  5
219
100
AcDbSymbolTableRecord
100
AcDbLayerTableRecord
  2
XSEC_DATUMS
 70
0
 62
7
  6
CONTINUOUS
  0
ENDTAB
  0
TABLE
  2
STYLE
  5
3
100
AcDbSymbolTable
 70
1
  0
STYLE
  5
11
100
AcDbSymbolTableRecord
100
AcDbTextStyleTableRecord
  2
STANDARD
 70
0
 40
0.0
 41
0.8
 50
0.0
 71
0
 42
0.2
  3
txt
  4

  0
STYLE
  5
21A
100
AcDbSymbolTableRecord
100
AcDbTextStyleTableRecord
  2
TEXTSTYLE_1
 70
0
 40
0.0
 41
0.8
 50
0.0
 71
0
 42
0.2
  3
gdt
  4

  0
ENDTAB
  0
TABLE
  2
VIEW
  5
6
100
AcDbSymbolTable
 70
0
  0
ENDTAB
  0
TABLE
  2
UCS
  5
7
100
AcDbSymbolTable
 70
0
  0
ENDTAB
  0
TABLE
  2
APPID
  5
9
100
AcDbSymbolTable
 70
1
  0
APPID
  5
21B
100
AcDbSymbolTableRecord
100
AcDbRegAppTableRecord
  2
ACAD
 70
0
  0
ENDTAB
  0
TABLE
  2
BLOCK_RECORD
  5
1
100
AcDbSymbolTable
 70
0
  0
BLOCK_RECORD
  5
1F
100
AcDbSymbolTableRecord
100
AcDbBlockTableRecord
  2
*MODEL_SPACE
  0
BLOCK_RECORD
  5
1B
100
AcDbSymbolTableRecord
100
AcDbBlockTableRecord
  2
*PAPER_SPACE
  0
ENDTAB
  0
TABLE
  2
DIMSTYLE
  5
A
100
AcDbSymbolTable
 70
1
  0
DIMSTYLE
105
21C
100
AcDbSymbolTableRecord
100
AcDbDimStyleTableRecord
  2
STANDARD
 70
0
  3

  4

  5
_ARROW_FILLED
  6
_ARROW_FILLED
  7
_ARROW_FILLED
 40
1.0
 41
0.1875
 42
0.0625
 43
0.38
 44
0.18
 45
0.0
 46
0.0
 47
0.00001
 48
0.00001
140
0.125
141
0.09
142
0.0
143
25.4
144
1.0
145
0.0
146
1.0
147
0.09
 71
1.0
 72
0.0
 73
1
 74
1
 75
0
 76
0
 77
0
 78
4
170
0
171
2
172
0
173
0
174
0
175
0
176
0
177
0
178
0
270
2
271
5
272
5
273
2
274
2
275
0
280
0
281
0
282
0
283
1
284
4
285
0
286
0
287
3
288
0
340
11
  0
ENDTAB
  0
ENDSEC
  0
SECTION
  2
BLOCKS
  0
BLOCK
  5
20
100
AcDbEntity
  8
0
100
AcDbBlockBegin
  2
*MODEL_SPACE
 70
0
 10
0.0
 20
0.0
 30
0.0
  3
*MODEL_SPACE
  1

  0
ENDBLK
  5
21
100
AcDbEntity
  8
0
100
AcDbBlockEnd
  0
BLOCK
  5
1C
100
AcDbEntity
  8
0
100
AcDbBlockBegin
  2
*PAPER_SPACE
 70
0
 10
0.0
 20
0.0
 30
0.0
  3
*PAPER_SPACE
  1

  0
ENDBLK
  5
1D
100
AcDbEntity
  8
0
100
AcDbBlockEnd
  0
ENDSEC
  0
SECTION
  2
ENTITIES
  0
LINE
  5
21D
100
AcDbEntity
  8
0
100
AcDbLine
 62
7
  6
CONTINUOUS
 10
117.2587457881
 20
13.7718733494
 11
117.2662178519
 21
13.7739621999
  0
LINE
  5
21E
100
AcDbEntity
  8
0
100
AcDbLine
 62
7
  6
CONTINUOUS
 10
125.0506844292
 20
14.1807145931
 11
125.1485277844
 21
14.2065502333
  0
LINE
  5
21F
100
AcDbEntity
  8
6_SURFACES-PATINS-SPEC
100
AcDbLine
 62
7
  6
CONTINUOUS
 10
120.3817779949
 20
12.5622037046
 11
120.4623922244
 21
12.5802675854
  0
LINE
  5
220
100
AcDbEntity
  8
6_SURFACES-PATINS-SPEC
100
AcDbLine
 62
7
  6
CONTINUOUS
 10
111.692784405
 20
12.5622037036
 11
111.7733986336
 21
12.5802675837
  0
LINE
  5
221
100
AcDbEntity
  8
0
100
AcDbLine
 62
7
  6
CONTINUOUS
 10
124.9588486405
 20
14.1603375066
 11
125.0506844292
 21
14.1807145931
  0
LINE
  5
222
100
AcDbEntity
  8
0
100
AcDbLine
 62
7
  6
CONTINUOUS
 10
117.2662178519
 20
13.7739621999
 11
117.2722810627
 21
13.7752927678
  0
LINE
  5
223
100
AcDbEntity
  8
DEFAULT_2
100
AcDbLine
 62
8
  6
CONTINUOUS
 10
106.8396426191
 20
15.5314837978
 11
106.9402462423
 21
15.5519135011
  0
LINE
  5
224
100
AcDbEntity
  8
6_SURFACES-PATINS-SPEC
100
AcDbLine
 62
7
  6
CONTINUOUS
 10
110.5860452007
 20
13.7636864412
 11
110.62591796
 21
13.7715599733
  0
LINE
  5
225
100
AcDbEntity
  8
0
100
AcDbLine
 62
7
  6
CONTINUOUS
 10
124.8720994813
 20
14.1444396645
 11
124.9588486405
 21
14.1603375066
  0
LINE
  5
226
100
AcDbEntity
  8
0
100
AcDbLine
 62
7
  6
CONTINUOUS
 10
117.2722810627
 20
13.7752927678
 11
117.2768016201
 21
13.7760770531
  0
LWPOLYLINE
  5
227
100
AcDbEntity
  8
DEFAULT_2
100
AcDbPolyline
 62
8
  6
CONTINUOUS
 90
15
 70
0
 10
106.9402462423
 20
15.5519135011
 10
107.0330435176
 20
15.5698529212
 10
107.1259818954
 20
15.5870557635
 10
107.219039931
 20
15.6036025293
 10
107.3541422458
 20
15.6265766788
 10
107.4894203477
 20
15.6484860486
 10
107.6183684384
 20
15.6684843389
 10
107.7474307393
 20
15.6877327464
 10
107.8676781321
 20
15.7050492869
 10
107.988000725
 20
15.7218346144
 10
108.0986292954
 20
15.7368298708
 10
108.2093084446
 20
15.7514471379
 10
108.4127893064
 20
15.7774126382
 10
108.595101722
 20
15.7997685819
 10
108.7571609853
 20
15.8189955688
  0
LINE
  5
228
100
AcDbEntity
  8
0
100
AcDbLine
 62
7
  6
CONTINUOUS
 10
124.7898783683
 20
14.1323108713
 11
124.8720994813
 21
14.1444396645
  0
LINE
  5
229
100
AcDbEntity
  8
6_SURFACES-PATINS-SPEC
100
AcDbLine
 62
7
  6
CONTINUOUS
 10
120.2999125814
 20
12.5512969293
 11
120.3817779949
 21
12.5622037046
  0
LINE
  5
22A
100
AcDbEntity
  8
0
100
AcDbLine
 62
7
  6
CONTINUOUS
 10
117.2768016201
 20
13.7760770531
 11
117.2800496766
 21
13.7765309104
  0
LINE
  5
22B
100
AcDbEntity
  8
6_SURFACES-PATINS-SPEC
100
AcDbLine
 62
7
  6
CONTINUOUS
 10
111.6109189935
 20
12.551296929
 11
111.692784405
 21
12.5622037036
  0
LINE
  5
22C
100
AcDbEntity
  8
0
100
AcDbLine
 62
7
  6
CONTINUOUS
 10
129.4324540995
 20
33.9927079558
 11
129.4158765886
 21
33.9880982731
  0
LINE
  5
22D
100
AcDbEntity
  8
0
100
AcDbLine
 62
7
  6
CONTINUOUS
 10
117.2800496766
 20
13.7765309104
 11
117.2823470549
 21
13.7767951676
  0
LINE
  5
22E
100
AcDbEntity
  8
0
100
AcDbLine
 62
7
  6
CONTINUOUS
 10
124.7117752988
 20
14.1233918861
 11
124.7898783683
 21
14.1323108713
  0
LINE
  5
22F
100
AcDbEntity
  8
0
100
AcDbLine
 62
7
  6
CONTINUOUS
 10
129.6309772396
 20
35.3799193164
 11
129.6271297053
 21
35.3788506102
  0
LINE
  5
230
100
AcDbEntity
  8
0
100
AcDbLine
 62
7
  6
CONTINUOUS
 10
129.634790785
 20
35.3809460266
 11
129.6309772396
 21
35.3799193164
  0
LINE
  5
231
100
AcDbEntity
  8
0
100
AcDbLine
 62
7
  6
CONTINUOUS
 10
117.2823470549
 20
13.7767951676
 11
117.2839630726
 21
13.776951338
  0
LINE
  5
232
100
AcDbEntity
  8
0
100
AcDbLine
 62
7
  6
CONTINUOUS
 10
129.6385693177
 20
35.3819315481
 11
129.634790785
 21
35.3809460266
  0
LINE
  5
233
100
AcDbEntity
  8
0
100
AcDbLine
 62
7
  6
CONTINUOUS
 10
129.4158765886
 20
33.9880982731
 11
129.3939181507
 21
33.9825747651
  0
LINE
  5
234
100
AcDbEntity
  8
0
100
AcDbLine
 62
7
  6
CONTINUOUS
 10
124.6374139542
 20
14.1172221999
 11
124.7117752988
 21
14.1233918861
  0
LINE
  5
235
100
AcDbEntity
  8
0
100
AcDbLine
 62
7
  6
CONTINUOUS
 10
129.6423120557
 20
35.3828767554
 11
129.6385693177
 21
35.3819315481
  0
LINE
  5
236
100
AcDbEntity
  8
6_SURFACES-PATINS-SPEC
100
AcDbLine
 62
7
  6
CONTINUOUS
 10
110.62591796
 20
13.7715599733
 11
110.6664086313
 21
13.7750721813
  0
LINE
  5
237
100
AcDbEntity
  8
0
100
AcDbLine
 62
7
  6
CONTINUOUS
 10
117.2839630726
 20
13.776951338
 11
117.2850754431
 21
13.7770432194
  0
LWPOLYLINE
  5
238
100
AcDbEntity
  8
DEFAULT_2
100
AcDbPolyline
 62
8
  6
CONTINUOUS
 90
21
 70
0
 10
108.75715897
 20
15.8189953882
 10
108.7647067141
 20
15.8197599088
 10
108.7742012916
 20
15.8205177966
 10
108.7989179281
 20
15.8220078521
 10
108.8310828426
 20
15.823453911
 10
108.8704699985
 20
15.8248443297
 10
108.9200889747
 20
15.8262568979
 10
108.9697147591
 20
15.8274144161
 10
109.0315472973
 20
15.828625216
 10
109.0933832719
 20
15.8296386825
 10
109.1632362984
 20
15.8305977222
 10
109.2376960416
 20
15.8314448677
 10
109.3979998605
 20
15.8327784047
 10
109.4826119818
 20
15.8332529412
 10
109.5693107274
 20
15.8335945976
 10
109.6132259503
 20
15.8337149138
 10
109.6574028685
 20
15.8338011916
 10
109.679562384
 20
15.8338314809
 10
109.7017548282
 20
15.8338531584
 10
109.7239693694
 20
15.8338661899
 10
109.7461951759
 20
15.8338705412
  0
LWPOLYLINE
  5
239
100
AcDbEntity
  8
DEFAULT_2
100
AcDbPolyline
 62
8
  6
CONTINUOUS
 90
58
 70
0
 10
123.9322615027
 20
14.3125399226
 10
123.9867603892
 20
14.3165414027
 10
124.0411085686
 20
14.3217831675
 10
124.0953261542
 20
14.328267878
 10
124.1494198461
 20
14.3359964919
 10
124.2033426913
 20
14.3449631541
 10
124.2570343237
 20
14.3551603063
 10
124.3104362102
 20
14.3665786774
 10
124.3634971506
 20
14.3792021467
 10
124.4161677776
 20
14.3930128806
 10
124.4684091398
 20
14.4079962479
 10
124.5202239467
 20
14.4241504256
 10
124.5716253236
 20
14.4414767932
 10
124.622618883
 20
14.4599748496
 10
124.6731801863
 20
14.479636574
 10
124.7232772824
 20
14.5004520653
 10
124.7728769018
 20
14.5224099174
 10
124.8219405029
 20
14.5454927048
 10
124.870428226
 20
14.5696814967
 10
124.9182994681
 20
14.5949552798
 10
124.9655106539
 20
14.62128471
 10
125.0120174648
 20
14.6486383605
 10
125.0577858867
 20
14.676991412
 10
125.1028231241
 20
14.706345474
 10
125.1471466859
 20
14.7367087637
 10
125.1907656326
 20
14.768084464
 10
125.23365523
 20
14.800455622
 10
125.2757822953
 20
14.8338002508
 10
125.3171138936
 20
14.8680951367
 10
125.3576180818
 20
14.9033121583
 10
125.3972631648
 20
14.9394219674
 10
125.4360181664
 20
14.9763942582
 10
125.4738549856
 20
15.014194894
 10
125.5107462405
 20
15.0527887803
 10
125.5466707926
 20
15.0921480326
 10
125.5816324766
 20
15.1322736062
 10
125.6156413707
 20
15.1731736661
 10
125.648702053
 20
15.2148507005
 10
125.6807971011
 20
15.2572844906
 10
125.711903592
 20
15.3004491404
 10
125.7419982456
 20
15.344316245
 10
125.7710563513
 20
15.3888473623
 10
125.7990528411
 20
15.4340015407
 10
125.8259648771
 20
15.4797396146
 10
125.8517785417
 20
15.5260295618
 10
125.8764821477
 20
15.5728411457
 10
125.9000662891
 20
15.6201492568
 10
125.9225306847
 20
15.6679492933
 10
125.9438773349
 20
15.7162417802
 10
125.9641059353
 20
15.7650237528
 10
125.9832069633
 20
15.8142782866
 10
126.001168592
 20
15.8639849671
 10
126.0179779695
 20
15.9141158197
 10
126.0336181457
 20
15.9646126274
 10
126.0480711457
 20
16.0154096133
 10
126.0613232578
 20
16.0664555638
 10
126.0733778233
 20
16.1177575208
 10
126.0842424461
 20
16.1693370899
  0
LINE
  5
23A
100
AcDbEntity
  8
0
100
AcDbLine
 62
7
  6
CONTINUOUS
 10
117.2850754431
 20
13.7770432194
 11
117.2858015038
 21
13.7770952302
  0
LINE
  5
23B
100
AcDbEntity
  8
0
100
AcDbLine
 62
7
  6
CONTINUOUS
 10
129.6460185481
 20
35.3837826021
 11
129.6423120557
 21
35.3828767554
  0
LINE
  5
23C
100
AcDbEntity
  8
0
100
AcDbLine
 62
7
  6
CONTINUOUS
 10
129.3939181507
 20
33.9825747651
 11
129.3665598609
 21
33.9763344353
  0
LWPOLYLINE
  5
23D
100
AcDbEntity
  8
6_SURFACES-PATINS-SPEC
100
AcDbPolyline
 62
7
  6
CONTINUOUS
 90
25
 70
0
 10
121.2873159773
 20
13.9716022874
 10
121.1594613067
 20
13.9632273916
 10
121.0316399371
 20
13.9543572139
 10
120.9008377807
 20
13.9447529043
 10
120.7717059218
 20
13.9347198943
 10
120.646759996
 20
13.9244459389
 10
120.5278636376
 20
13.9141041349
 10
120.4166621346
 20
13.9038697596
 10
120.3147209272
 20
13.8939223707
 10
120.2228830816
 20
13.8843938976
 10
120.141871586
 20
13.8753974014
 10
120.0720913425
 20
13.8670307539
 10
120.0415969289
 20
13.8631113426
 10
120.0141352855
 20
13.8593860291
 10
119.9897734194
 20
13.8558660776
 10
119.9685663712
 20
13.852559534
 10
119.9505635485
 20
13.8494735646
 10
119.9358380498
 20
13.8466234221
 10
119.9244573868
 20
13.8440266326
 10
119.9200362427
 20
13.842828537
 10
119.9164571653
 20
13.8416989012
 10
119.9137091017
 20
13.8406380878
 10
119.9117806028
 20
13.8396463525
 10
119.9106565173
 20
13.838722886
 10
119.9103195058
 20
13.8378662497
  0
LINE
  5
23E
100
AcDbEntity
  8
0
100
AcDbLine
 62
7
  6
CONTINUOUS
 10
129.6496883854
 20
35.3846500402
 11
129.6460185481
 21
35.3837826021
  0
LINE
  5
23F
100
AcDbEntity
  8
0
100
AcDbLine
 62
7
  6
CONTINUOUS
 10
117.2858015038
 20
13.7770952302
 11
117.286218795
 21
13.7771214922
  0
LWPOLYLINE
  5
240
100
AcDbEntity
  8
DEFAULT_2
100
AcDbPolyline
 62
8
  6
CONTINUOUS
 90
38
 70
0
 10
119.3914816369
 20
14.0315276874
 10
119.5519293135
 20
14.0414751275
 10
119.6373337454
 20
14.0467666807
 10
119.7263257894
 20
14.0522784092
 10
119.8190156668
 20
14.0580171985
 10
119.9155159069
 20
14.0639900918
 10
120.0159439022
 20
14.070204445
 10
120.1204364978
 20
14.0766688653
 10
120.2291354022
 20
14.0833922722
 10
120.342188837
 20
14.090383993
 10
120.45977108
 20
14.0976549842
 10
120.5820629222
 20
14.1052166097
 10
120.6769892753
 20
14.1110858927
 10
120.7747909816
 20
14.1171328377
 10
120.8755925501
 20
14.1233652327
 10
120.9795184895
 20
14.1297908658
 10
121.0866934598
 20
14.1364175354
 10
121.1972427262
 20
14.1432530822
 10
121.3112917051
 20
14.1503053574
 10
121.428965813
 20
14.157582212
 10
121.5503968686
 20
14.1650918977
 10
121.6757423024
 20
14.1728442679
 10
121.8051659471
 20
14.1808495763
 10
121.9388316356
 20
14.1891180768
 10
122.0769001524
 20
14.1976598369
 10
122.2195200883
 20
14.2064841791
 10
122.3668369858
 20
14.2156002393
 10
122.5189963875
 20
14.2250171538
 10
122.6443158337
 20
14.2327739062
 10
122.7729472534
 20
14.2407365278
 10
122.9050102701
 20
14.2489124938
 10
123.0406245075
 20
14.2573092795
 10
123.1799095891
 20
14.2659343602
 10
123.3229585551
 20
14.274793564
 10
123.4697581092
 20
14.2838861301
 10
123.6202683716
 20
14.2932096505
 10
123.7744494627
 20
14.3027617173
 10
123.9322615027
 20
14.3125399226
  0
LWPOLYLINE
  5
241
100
AcDbEntity
  8
6_SURFACES-PATINS-SPEC
100
AcDbPolyline
 62
7
  6
CONTINUOUS
 90
28
 70
0
 10
121.2892666875
 20
13.9404412319
 10
121.4340399352
 20
13.9493326454
 10
121.5788506614
 20
13.9575936011
 10
121.7045280347
 20
13.9642413307
 10
121.8197508731
 20
13.9698885244
 10
121.9264443384
 20
13.9747085437
 10
122.0265857076
 20
13.9788449965
 10
122.1218514481
 20
13.9823982078
 10
122.2130860999
 20
13.9854059442
 10
122.3017502755
 20
13.9878931537
 10
122.3893096396
 20
13.9898330309
 10
122.4754469669
 20
13.9910864952
 10
122.5171969575
 20
13.9913864544
 10
122.5573672896
 20
13.9914194954
 10
122.5951493382
 20
13.9911483694
 10
122.6295119093
 20
13.9905435856
 10
122.6595178322
 20
13.9895913787
 10
122.6845561318
 20
13.9882922962
 10
122.6951018593
 20
13.9875156156
 10
122.7042950187
 20
13.9866563585
 10
122.7121146009
 20
13.9857160289
 10
122.7185413652
 20
13.9846961438
 10
122.7235628796
 20
13.9835990112
 10
122.7271726582
 20
13.9824276291
 10
122.728446619
 20
13.9818149842
 10
122.7293672797
 20
13.9811846623
 10
122.7298966697
 20
13.9805884898
 10
122.7301524859
 20
13.9798716358
  0
LINE
  5
242
100
AcDbEntity
  8
0
100
AcDbLine
 62
7
  6
CONTINUOUS
 10
124.582908507
 20
14.1141221295
 11
124.6374139542
 21
14.1172221999
  0
LINE
  5
243
100
AcDbEntity
  8
0
100
AcDbLine
 62
7
  6
CONTINUOUS
 10
117.286218795
 20
13.7771214922
 11
117.2863445437
 21
13.7771286447
  0
LINE
  5
244
100
AcDbEntity
  8
6_SURFACES-PATINS-SPEC
100
AcDbLine
 62
7
  6
CONTINUOUS
 10
120.2174438039
 20
12.5476281869
 11
120.2999125814
 21
12.5512969293
  0
LINE
  5
245
100
AcDbEntity
  8
0
100
AcDbLine
 62
7
  6
CONTINUOUS
 10
129.675360447
 20
35.3899953229
 11
129.6247992953
 21
35.3783244227
  0
LINE
  5
246
100
AcDbEntity
  8
0
100
AcDbLine
 62
7
  6
CONTINUOUS
 10
129.6533211758
 20
35.3854800137
 11
129.6496883854
 21
35.3846500402
  0
LWPOLYLINE
  5
247
100
AcDbEntity
  8
DEFAULT_2
100
AcDbPolyline
 62
8
  6
CONTINUOUS
 90
30
 70
0
 10
117.2835424872
 20
13.9023263626
 10
117.3462033076
 20
13.9055877213
 10
117.4066688699
 20
13.9088614546
 10
117.4648904861
 20
13.9121171406
 10
117.5212200432
 20
13.9153513852
 10
117.5760811036
 20
13.9185675191
 10
117.6297833567
 20
13.9217687435
 10
117.7348817999
 20
13.9281494747
 10
117.8388015393
 20
13.9345633262
 10
117.9431126307
 20
13.9410638582
 10
118.049219304
 20
13.9477103769
 10
118.1585796042
 20
13.9545758908
 10
118.2149331103
 20
13.95811535
 10
118.2726752035
 20
13.9617415604
 10
118.3320241089
 20
13.9654672482
 10
118.3931957257
 20
13.9693051334
 10
118.456420585
 20
13.9732689156
 10
118.5219900726
 20
13.9773762211
 10
118.5902118232
 20
13.9816457298
 10
118.6613976147
 20
13.9860964109
 10
118.7358923376
 20
13.9907493003
 10
118.8141691919
 20
13.9956334102
 10
118.8967281476
 20
14.0007794219
 10
118.9840479463
 20
14.0062167179
 10
119.0451453806
 20
14.0100181031
 10
119.1087426039
 20
14.0139725553
 10
119.1750130595
 20
14.0180907674
 10
119.2441258719
 20
14.0223831656
 10
119.3162328883
 20
14.0268591084
 10
119.3914816369
 20
14.0315276874
  0
LINE
  5
248
100
AcDbEntity
  8
6_SURFACES-PATINS-SPEC
100
AcDbLine
 62
7
  6
CONTINUOUS
 10
111.5284502196
 20
12.5476281869
 11
111.6109189935
 21
12.551296929
  0
LINE
  5
249
100
AcDbEntity
  8
0
100
AcDbLine
 62
7
  6
CONTINUOUS
 10
129.6569165447
 20
35.3862734586
 11
129.6533211758
 21
35.3854800137
  0
LINE
  5
24A
100
AcDbEntity
  8
0
100
AcDbLine
 62
7
  6
CONTINUOUS
 10
117.2863078792
 20
13.7771270638
 11
118.0829941564
 21
13.8143928622
  0
LINE
  5
24B
100
AcDbEntity
  8
0
100
AcDbLine
 62
7
  6
CONTINUOUS
 10
118.0829941564
 20
13.8143928622
 11
119.0073517028
 21
13.8573404842
  0
LINE
  5
24C
100
AcDbEntity
  8
0
100
AcDbLine
 62
7
  6
CONTINUOUS
 10
119.0073517028
 20
13.8573404842
 11
120.0006997502
 21
13.9032889418
  0
LINE
  5
24D
100
AcDbEntity
  8
0
100
AcDbLine
 62
7
  6
CONTINUOUS
 10
120.0006997502
 20
13.9032889418
 11
120.9041528513
 21
13.9449579698
  0
LINE
  5
24E
100
AcDbEntity
  8
0
100
AcDbLine
 62
7
  6
CONTINUOUS
 10
122.5855095715
 20
14.0223478587
 11
122.7663862875
 21
14.0306622834
  0
LINE
  5
24F
100
AcDbEntity
  8
0
100
AcDbLine
 62
7
  6
CONTINUOUS
 10
122.7663862875
 20
14.0306622834
 11
124.5829044788
 21
14.1141213114
  0
LINE
  5
250
100
AcDbEntity
  8
0
100
AcDbLine
 62
7
  6
CONTINUOUS
 10
129.6604741346
 20
35.3870313026
 11
129.6569165447
 21
35.3862734586
  0
LINE
  5
251
100
AcDbEntity
  8
0
100
AcDbLine
 62
7
  6
CONTINUOUS
 10
129.3665598609
 20
33.9763344353
 11
129.3338250816
 21
33.9695491078
  0
LINE
  5
252
100
AcDbEntity
  8
0
100
AcDbLine
 62
7
  6
CONTINUOUS
 10
129.6639936043
 20
35.3877544646
 11
129.6604741346
 21
35.3870313026
  0
LINE
  5
253
100
AcDbEntity
  8
0
100
AcDbLine
 62
7
  6
CONTINUOUS
 10
129.3338250816
 20
33.9695491078
 11
129.2957452045
 21
33.9623633113
  0
LINE
  5
254
100
AcDbEntity
  8
DEFAULT_2
100
AcDbLine
 62
8
  6
CONTINUOUS
 10
126.2083798079
 20
29.64779789
 11
125.1589609811
 21
29.4815862709
  0
LINE
  5
255
100
AcDbEntity
  8
0
100
AcDbLine
 62
7
  6
CONTINUOUS
 10
129.6674746289
 20
35.3884438548
 11
129.6639936043
 21
35.3877544646
  0
LWPOLYLINE
  5
256
100
AcDbEntity
  8
DEFAULT_2
100
AcDbPolyline
 62
8
  6
CONTINUOUS
 90
22
 70
0
 10
104.3315809892
 20
29.6465435824
 10
104.3262513275
 20
29.6455539287
 10
104.3092721022
 20
29.6423715023
 10
104.2812244686
 20
29.6371157101
 10
104.2420450525
 20
29.6297919432
 10
104.1917470305
 20
29.6204266257
 10
104.1303733944
 20
29.6090586831
 10
104.0579905486
 20
29.5957378329
 10
103.9746811885
 20
29.58052328
 10
103.8805343368
 20
29.5634815576
 10
103.7756482891
 20
29.5446869939
 10
103.6601302101
 20
29.5242210069
 10
103.5341032535
 20
29.5021737147
 10
103.397710022
 20
29.4786434953
 10
103.2511091856
 20
29.4537363212
 10
103.0944709807
 20
29.4275644725
 10
102.9279861331
 20
29.4002475477
 10
102.7518603019
 20
29.3719106911
 10
102.5663138605
 20
29.3426845027
 10
102.3715796625
 20
29.3127035486
 10
102.1679051125
 20
29.2821063139
 10
101.9555496384
 20
29.2510342082
  0
LINE
  5
257
100
AcDbEntity
  8
0
100
AcDbLine
 62
7
  6
CONTINUOUS
 10
129.670916899
 20
35.3891003743
 11
129.6674746289
 21
35.3884438548
  0
LWPOLYLINE
  5
258
100
AcDbEntity
  8
DEFAULT_2
100
AcDbPolyline
 62
8
  6
CONTINUOUS
 90
33
 70
0
 10
111.1412034542
 20
15.8338704919
 10
111.1704741961
 20
15.8347755075
 10
111.1997277372
 20
15.8362055902
 10
111.22895245
 20
15.8381655269
 10
111.2581367069
 20
15.8406601043
 10
111.2871538717
 20
15.8436807548
 10
111.3161090702
 20
15.8472396578
 10
111.3449920078
 20
15.8513399008
 10
111.3737923902
 20
15.855984571
 10
111.4024845359
 20
15.8611734967
 10
111.431072544
 20
15.8669102828
 10
111.4595450283
 20
15.8731958559
 10
111.4878906026
 20
15.8800311425
 10
111.5161928865
 20
15.8874425164
 10
111.5443446483
 20
15.8954066789
 10
111.5723345973
 20
15.9039220548
 10
111.6001514431
 20
15.912987069
 10
111.6279908651
 20
15.922674343
 10
111.6556314146
 20
15.9329155041
 10
111.6830613956
 20
15.9437081052
 10
111.7102691121
 20
15.9550496995
 10
111.7375482602
 20
15.9670757095
 10
111.7645765353
 20
15.9796556413
 10
111.7913423752
 20
15.9927843714
 10
111.8178342176
 20
16.0064567761
 10
111.8444459954
 20
16.0208924182
 10
111.8707537198
 20
16.0358754174
 10
111.8967478444
 20
16.0513977056
 10
111.9224188227
 20
16.067451215
 10
111.9482650085
 20
16.0843671067
 10
111.9737547748
 20
16.1018149369
 10
111.9988779597
 20
16.1197821607
 10
112.0236244016
 20
16.1382562332
  0
LINE
  5
259
100
AcDbEntity
  8
DEFAULT_2
100
AcDbLine
 62
8
  6
CONTINUOUS
 10
112.3153935911
 20
15.8338705414
 11
112.8918789143
 21
15.8515244895
  0
LINE
  5
25A
100
AcDbEntity
  8
6_SURFACES-PATINS-SPEC
100
AcDbLine
 62
7
  6
CONTINUOUS
 10
119.9295253631
 20
13.7748684648
 11
119.9597933754
 21
13.7750436904
  0
LINE
  5
25B
100
AcDbEntity
  8
6_SURFACES-PATINS-SPEC
100
AcDbLine
 62
7
  6
CONTINUOUS
 10
120.2174383661
 20
12.5476281856
 11
119.0972416367
 21
12.5476281245
  0
LINE
  5
25C
100
AcDbEntity
  8
6_SURFACES-PATINS-SPEC
100
AcDbLine
 62
7
  6
CONTINUOUS
 10
111.5284447818
 20
12.5476281856
 11
110.4082480524
 21
12.5476281245
  0
LINE
  5
25D
100
AcDbEntity
  8
6_SURFACES-PATINS-SPEC
100
AcDbLine
 62
7
  6
CONTINUOUS
 10
118.2224220131
 20
13.1644842401
 11
118.2163189284
 21
13.1644842401
  0
LINE
  5
25E
100
AcDbEntity
  8
6_SURFACES-PATINS-SPEC
100
AcDbLine
 62
7
  6
CONTINUOUS
 10
110.4079120543
 20
12.5476281856
 11
110.4082480421
 21
12.5476281245
  0
LINE
  5
25F
100
AcDbEntity
  8
6_SURFACES-PATINS-SPEC
100
AcDbLine
 62
7
  6
CONTINUOUS
 10
119.0969056386
 20
12.5476281856
 11
119.0972416367
 21
12.5476281245
  0
LINE
  5
260
100
AcDbEntity
  8
0
100
AcDbLine
 62
7
  6
CONTINUOUS
 10
129.6743201206
 20
35.389724915
 11
129.670916899
 21
35.3891003743
  0
LINE
  5
261
100
AcDbEntity
  8
0
100
AcDbLine
 62
7
  6
CONTINUOUS
 10
129.2957452045
 20
33.9623633113
 11
129.2523278314
 21
33.9548951282
  0
LINE
  5
262
100
AcDbEntity
  8
0
100
AcDbLine
 62
7
  6
CONTINUOUS
 10
114.0412286008
 20
13.2726281245
 11
116.5841218196
 21
13.2726281245
  0
LINE
  5
263
100
AcDbEntity
  8
DEFAULT_2
100
AcDbLine
 62
8
  6
CONTINUOUS
 10
114.0412286008
 20
13.3976281245
 11
116.5841218196
 21
13.3976281245
  0
LWPOLYLINE
  5
264
100
AcDbEntity
  8
DEFAULT_2
100
AcDbPolyline
 62
8
  6
CONTINUOUS
 90
70
 70
0
 10
115.3126752102
 20
13.8993695466
 10
115.463561633
 20
13.8993732029
 10
115.6136865277
 20
13.8993842431
 10
115.7620247773
 20
13.8994036094
 10
115.9076880972
 20
13.8994319107
 10
116.0498821711
 20
13.8994694578
 10
116.1877392434
 20
13.8995172511
 10
116.3204516283
 20
13.8995754889
 10
116.447270953
 20
13.8996453124
 10
116.567368071
 20
13.8997277055
 10
116.6801293572
 20
13.8998237682
 10
116.78483584
 20
13.8999355844
 10
116.8808575
 20
13.900064487
 10
116.9677103419
 20
13.9002133402
 10
117.0447606492
 20
13.900384496
 10
117.1116792106
 20
13.9005810961
 10
117.139929179
 20
13.9006000117
 10
117.1680000055
 20
13.9008071684
 10
117.1829588428
 20
13.9010517028
 10
117.1980170767
 20
13.9012116997
 10
117.2134112104
 20
13.901065849
 10
117.2223188992
 20
13.9008093281
 10
117.2311654143
 20
13.9006174647
 10
117.2397060453
 20
13.9007239452
 10
117.2476960824
 20
13.901362456
 10
117.2543895307
 20
13.9023575153
 10
117.2578709515
 20
13.9027340128
 10
117.2616406721
 20
13.9028433203
 10
117.2658475688
 20
13.9025455613
 10
117.2706405183
 20
13.9017008594
 10
117.2745964324
 20
13.9007400875
 10
117.2782859184
 20
13.9000467455
 10
117.280260772
 20
13.9000569384
 10
117.281612031
 20
13.9006717622
 10
117.2821376227
 20
13.9020855259
 10
117.2821220877
 20
13.9025206953
 10
117.2814952789
 20
13.9039440266
 10
117.2800998983
 20
13.9045728444
 10
117.2781240142
 20
13.9046003528
 10
117.2744831426
 20
13.9039367948
 10
117.2705940211
 20
13.9030070649
 10
117.2658533147
 20
13.9022003706
 10
117.2616585412
 20
13.9019380077
 10
117.2578709915
 20
13.9020807063
 10
117.2526497853
 20
13.9027495908
 10
117.2475645937
 20
13.903546469
 10
117.2395114476
 20
13.9042552234
 10
117.23094599
 20
13.9044342273
 10
117.2220957629
 20
13.9043156686
 10
117.2131883081
 20
13.9041317352
 10
117.1977151376
 20
13.904110134
 10
117.1825559208
 20
13.9043914411
 10
117.1674895874
 20
13.9047545387
 10
117.139195605
 20
13.905175497
 10
117.1107335079
 20
13.9053975097
 10
117.0432451358
 20
13.9060327162
 10
116.9653465131
 20
13.9066319338
 10
116.8778962505
 20
13.9071561192
 10
116.7813205693
 20
13.9075764309
 10
116.6763935915
 20
13.9078736492
 10
116.5638342711
 20
13.9080384738
 10
116.4438989489
 20
13.908083158
 10
116.3175639601
 20
13.9080283585
 10
116.1854097058
 20
13.9079033413
 10
116.0480142388
 20
13.9077462692
 10
115.9064013441
 20
13.9075905315
 10
115.7612705436
 20
13.9074620971
 10
115.6133812858
 20
13.9073794958
 10
115.4635773411
 20
13.9073416929
 10
115.3126752102
 20
13.9073336644
  0
LWPOLYLINE
  5
265
100
AcDbEntity
  8
DEFAULT_2
100
AcDbPolyline
 62
8
  6
CONTINUOUS
 90
70
 70
0
 10
115.3126752102
 20
13.8993695466
 10
115.1617887875
 20
13.8993732029
 10
115.0116638928
 20
13.8993842431
 10
114.8633256431
 20
13.8994036094
 10
114.7176623233
 20
13.8994319107
 10
114.5754682494
 20
13.8994694578
 10
114.437611177
 20
13.8995172511
 10
114.3048987921
 20
13.8995754889
 10
114.1780794674
 20
13.8996453124
 10
114.0579823494
 20
13.8997277055
 10
113.9452210632
 20
13.8998237682
 10
113.8405145804
 20
13.8999355844
 10
113.7444929205
 20
13.900064487
 10
113.6576400786
 20
13.9002133402
 10
113.5805897713
 20
13.900384496
 10
113.5136712098
 20
13.9005810961
 10
113.4854212414
 20
13.9006000117
 10
113.4573504149
 20
13.9008071684
 10
113.4423915777
 20
13.9010517028
 10
113.4273333438
 20
13.9012116997
 10
113.4119392101
 20
13.901065849
 10
113.4030315212
 20
13.9008093281
 10
113.3941850062
 20
13.9006174647
 10
113.3856443751
 20
13.9007239452
 10
113.377654338
 20
13.901362456
 10
113.3709608898
 20
13.9023575153
 10
113.367479469
 20
13.9027340128
 10
113.3637097484
 20
13.9028433203
 10
113.3595028516
 20
13.9025455613
 10
113.3547099022
 20
13.9017008594
 10
113.3507539881
 20
13.9007400875
 10
113.3470645021
 20
13.9000467455
 10
113.3450896485
 20
13.9000569384
 10
113.3437383894
 20
13.9006717622
 10
113.3432127977
 20
13.9020855259
 10
113.3432283328
 20
13.9025206953
 10
113.3438551415
 20
13.9039440266
 10
113.3452505221
 20
13.9045728444
 10
113.3472264062
 20
13.9046003528
 10
113.3508672778
 20
13.9039367948
 10
113.3547563993
 20
13.9030070649
 10
113.3594971057
 20
13.9022003706
 10
113.3636918792
 20
13.9019380077
 10
113.367479429
 20
13.9020807063
 10
113.3727006352
 20
13.9027495908
 10
113.3777858268
 20
13.903546469
 10
113.3858389729
 20
13.9042552234
 10
113.3944044304
 20
13.9044342273
 10
113.4032546575
 20
13.9043156686
 10
113.4121621123
 20
13.9041317352
 10
113.4276352829
 20
13.904110134
 10
113.4427944997
 20
13.9043914411
 10
113.4578608331
 20
13.9047545387
 10
113.4861548154
 20
13.905175497
 10
113.5146169126
 20
13.9053975097
 10
113.5821052847
 20
13.9060327162
 10
113.6600039074
 20
13.9066319338
 10
113.7474541699
 20
13.9071561192
 10
113.8440298511
 20
13.9075764309
 10
113.9489568289
 20
13.9078736492
 10
114.0615161493
 20
13.9080384738
 10
114.1814514715
 20
13.908083158
 10
114.3077864604
 20
13.9080283585
 10
114.4399407146
 20
13.9079033413
 10
114.5773361816
 20
13.9077462692
 10
114.7189490763
 20
13.9075905315
 10
114.8640798768
 20
13.9074620971
 10
115.0119691347
 20
13.9073794958
 10
115.1617730793
 20
13.9073416929
 10
115.3126752102
 20
13.9073336644
  0
LINE
  5
266
100
AcDbEntity
  8
0
100
AcDbLine
 62
7
  6
CONTINUOUS
 10
129.6776840143
 20
35.3903183595
 11
129.6743201206
 21
35.389724915
  0
LWPOLYLINE
  5
267
100
AcDbEntity
  8
DEFAULT_2
100
AcDbPolyline
 62
8
  6
CONTINUOUS
 90
25
 70
0
 10
102.0947283884
 20
27.9254911563
 10
102.3160595933
 20
27.9577760447
 10
102.529653129
 20
27.9897894135
 10
102.7352727513
 20
28.0214017603
 10
102.9327089977
 20
28.0524880141
 10
103.1217433391
 20
28.0829224008
 10
103.3021750194
 20
28.1125830788
 10
103.473802341
 20
28.1413497088
 10
103.6364365643
 20
28.1691059407
 10
103.7899784106
 20
28.1957534756
 10
103.9342446265
 20
28.2211826737
 10
104.0690712838
 20
28.2452902383
 10
104.1943878223
 20
28.267993302
 10
104.3100552379
 20
28.2892007664
 10
104.4159811032
 20
28.3088342116
 10
104.5120885473
 20
28.3268227236
 10
104.598303053
 20
28.3431005761
 10
104.6745289473
 20
28.3576029485
 10
104.7406906431
 20
28.3702738251
 10
104.7967268276
 20
28.3810651196
 10
104.842629469
 20
28.3899444249
 10
104.8783798075
 20
28.3968828234
 10
104.903901338
 20
28.4018457397
 10
104.9189692051
 20
28.4047753601
 10
104.9251510443
 20
28.4059683663
  0
LWPOLYLINE
  5
268
100
AcDbEntity
  8
DEFAULT_2
100
AcDbPolyline
 62
8
  6
CONTINUOUS
 90
40
 70
0
 10
123.7857078711
 20
15.5314837106
 10
123.8606086791
 20
15.5322597193
 10
123.9354846317
 20
15.5346089551
 10
124.0102943499
 20
15.5385726021
 10
124.0817359728
 20
15.5439101275
 10
124.1530432158
 20
15.5507911845
 10
124.2241801156
 20
15.5592451979
 10
124.2926395435
 20
15.5689216794
 10
124.3608693889
 20
15.5801061655
 10
124.4288322343
 20
15.5928141176
 10
124.4941598284
 20
15.606545483
 10
124.5591626744
 20
15.6217372831
 10
124.6237997914
 20
15.6384154185
 10
124.6857588331
 20
15.6559332293
 10
124.7472978694
 20
15.6748735205
 10
124.8083752676
 20
15.6952518994
 10
124.86697434
 20
15.7163438932
 10
124.9250651414
 20
15.7387980304
 10
124.982610252
 20
15.762616403
 10
125.0375263948
 20
15.7868711954
 10
125.0918561611
 20
15.8124109738
 10
125.1455549787
 20
15.8392511839
 10
125.1965496305
 20
15.8662973251
 10
125.2468774364
 20
15.8945648113
 10
125.2964960615
 20
15.9240584745
 10
125.3437568304
 20
15.9537427947
 10
125.3902812362
 20
15.9845684775
 10
125.4360354435
 20
16.0165261213
 10
125.4797363032
 20
16.0486645304
 10
125.5226412266
 20
16.0818575554
 10
125.5647138781
 20
16.1160992887
 10
125.6049127138
 20
16.1505003659
 10
125.6442511469
 20
16.1858817721
 10
125.6826950799
 20
16.2222318216
 10
125.7196642872
 20
16.258978372
 10
125.7557102703
 20
16.2966319359
 10
125.7908111387
 20
16.3351706661
 10
125.8249142152
 20
16.3745333713
 10
125.8580346804
 20
16.4147238128
 10
125.8901551172
 20
16.4557080249
  0
LINE
  5
269
100
AcDbEntity
  8
6_SURFACES-PATINS-SPEC
100
AcDbLine
 62
7
  6
CONTINUOUS
 10
110.6664086313
 20
13.7750721813
 11
110.6958251014
 21
13.7748684628
  0
LINE
  5
26A
100
AcDbEntity
  8
0
100
AcDbLine
 62
7
  6
CONTINUOUS
 10
129.6271297053
 20
35.3788506102
 11
129.6232492246
 21
35.3777391136
  0
LINE
  5
26B
100
AcDbEntity
  8
0
100
AcDbLine
 62
7
  6
CONTINUOUS
 10
129.6810083155
 20
35.3908815807
 11
129.6776840143
 21
35.3903183595
  0
LINE
  5
26C
100
AcDbEntity
  8
0
100
AcDbLine
 62
7
  6
CONTINUOUS
 10
129.2523278314
 20
33.9548951282
 11
129.2035815061
 21
33.9472468752
  0
LINE
  5
26D
100
AcDbEntity
  8
0
100
AcDbLine
 62
7
  6
CONTINUOUS
 10
129.6842927731
 20
35.3914154417
 11
129.6810083155
 21
35.3908815807
  0
LINE
  5
26E
100
AcDbEntity
  8
DEFAULT_2
100
AcDbLine
 62
8
  6
CONTINUOUS
 10
106.8396426191
 20
15.5314837978
 11
123.7857078014
 21
15.5314837978
  0
LINE
  5
26F
100
AcDbEntity
  8
DEFAULT_2
100
AcDbLine
 62
8
  6
CONTINUOUS
 10
120.8791552335
 20
15.8338705411
 11
118.3099568293
 21
15.8338705414
  0
LINE
  5
270
100
AcDbEntity
  8
DEFAULT_2
100
AcDbLine
 62
8
  6
CONTINUOUS
 10
109.7461951869
 20
15.8338705411
 11
112.3153935911
 21
15.8338705414
  0
LINE
  5
271
100
AcDbEntity
  8
DEFAULT_2
100
AcDbLine
 62
8
  6
CONTINUOUS
 10
117.7334715208
 20
15.8515244895
 11
112.8918788996
 21
15.8515244895
  0
LINE
  5
272
100
AcDbEntity
  8
0
100
AcDbLine
 62
7
  6
CONTINUOUS
 10
129.6232492246
 20
35.3777391136
 11
129.6193368542
 21
35.3765840446
  0
LINE
  5
273
100
AcDbEntity
  8
0
100
AcDbLine
 62
7
  6
CONTINUOUS
 10
129.687536922
 20
35.391920761
 11
129.6842927731
 21
35.3914154417
  0
LINE
  5
274
100
AcDbEntity
  8
0
100
AcDbLine
 62
7
  6
CONTINUOUS
 10
129.2035815061
 20
33.9472468752
 11
129.1495228886
 21
33.9395097747
  0
LWPOLYLINE
  5
275
100
AcDbEntity
  8
DEFAULT_2
100
AcDbPolyline
 62
8
  6
CONTINUOUS
 90
40
 70
0
 10
106.8396425494
 20
15.5314837106
 10
106.7647417414
 20
15.5322597193
 10
106.6898657888
 20
15.5346089551
 10
106.6150560705
 20
15.5385726021
 10
106.5436144477
 20
15.5439101275
 10
106.4723072047
 20
15.5507911845
 10
106.4011703049
 20
15.5592451979
 10
106.332710877
 20
15.5689216794
 10
106.2644810316
 20
15.5801061655
 10
106.1965181862
 20
15.5928141176
 10
106.1311905921
 20
15.606545483
 10
106.0661877461
 20
15.6217372831
 10
106.0015506291
 20
15.6384154185
 10
105.9395915873
 20
15.6559332293
 10
105.878052551
 20
15.6748735205
 10
105.8169751528
 20
15.6952518994
 10
105.7583760804
 20
15.7163438932
 10
105.700285279
 20
15.7387980304
 10
105.6427401684
 20
15.762616403
 10
105.5878240256
 20
15.7868711954
 10
105.5334942593
 20
15.8124109738
 10
105.4797954417
 20
15.8392511839
 10
105.4288007899
 20
15.8662973251
 10
105.378472984
 20
15.8945648113
 10
105.3288543589
 20
15.9240584745
 10
105.2815935901
 20
15.9537427947
 10
105.2350691843
 20
15.9845684775
 10
105.189314977
 20
16.0165261213
 10
105.1456141173
 20
16.0486645304
 10
105.1027091938
 20
16.0818575554
 10
105.0606365424
 20
16.1160992887
 10
105.0204377067
 20
16.1505003659
 10
104.9810992735
 20
16.1858817721
 10
104.9426553406
 20
16.2222318216
 10
104.9056861333
 20
16.258978372
 10
104.8696401501
 20
16.2966319359
 10
104.8345392817
 20
16.3351706661
 10
104.8004362052
 20
16.3745333713
 10
104.76731574
 20
16.4147238128
 10
104.7351953032
 20
16.4557080249
  0
LWPOLYLINE
  5
276
100
AcDbEntity
  8
0
100
AcDbPolyline
 62
7
  6
CONTINUOUS
 90
26
 70
0
 10
106.0424484619
 20
14.1141211885
 10
106.0433276667
 20
14.1140985559
 10
106.0442074529
 20
14.1141069118
 10
106.0450872025
 20
14.1141397956
 10
106.0459662975
 20
14.1141907469
 10
106.0476342003
 20
14.1143203967
 10
106.0492982426
 20
14.1144844617
 10
106.050959162
 20
14.1146754152
 10
106.0533693214
 20
14.1149886516
 10
106.0557747303
 20
14.1153385068
 10
106.0581756788
 20
14.1157206814
 10
106.060572457
 20
14.1161308759
 10
106.0629653551
 20
14.1165647908
 10
106.0653546631
 20
14.1170181266
 10
106.0694055507
 20
14.1178235757
 10
106.0734473828
 20
14.1186699141
 10
106.0774806247
 20
14.1195544026
 10
106.0815057421
 20
14.1204743022
 10
106.0855232002
 20
14.1214268738
 10
106.0896177731
 20
14.12243009
 10
106.0937058053
 20
14.1234601311
 10
106.0977882557
 20
14.1245126171
 10
106.1012287053
 20
14.1254160261
 10
106.1046644912
 20
14.1263367851
 10
106.1080942409
 20
14.1272793841
 10
106.1115165816
 20
14.1282483135
  0
LWPOLYLINE
  5
277
100
AcDbEntity
  8
6_SURFACES-PATINS-SPEC
100
AcDbPolyline
 62
7
  6
CONTINUOUS
 90
36
 70
0
 10
119.9295253644
 20
13.7748684356
 10
119.9293680257
 20
13.7748730909
 10
119.9292129069
 20
13.77489962
 10
119.929060424
 20
13.7749449836
 10
119.9289109934
 20
13.7750061424
 10
119.9287650314
 20
13.7750800571
 10
119.9286229542
 20
13.7751636882
 10
119.928485178
 20
13.7752539966
 10
119.9282291836
 20
13.7754415639
 10
119.9279888014
 20
13.7756413546
 10
119.9277616524
 20
13.7758517178
 10
119.9275453576
 20
13.7760710025
 10
119.9273375379
 20
13.776297558
 10
119.9271358145
 20
13.7765297332
 10
119.9267855515
 20
13.776954227
 10
119.9264462659
 20
13.7773896705
 10
119.9261170925
 20
13.7778343681
 10
119.9257971654
 20
13.7782866246
 10
119.9254856193
 20
13.7787447444
 10
119.9249768702
 20
13.7795271036
 10
119.9244863362
 20
13.7803196113
 10
119.9240108506
 20
13.7811205582
 10
119.923547247
 20
13.7819282349
 10
119.922828619
 20
13.7832229271
 10
119.9221300514
 20
13.7845289843
 10
119.9214495738
 20
13.7858450807
 10
119.920785216
 20
13.7871698907
 10
119.9201350076
 20
13.7885020883
 10
119.9194969782
 20
13.7898403478
 10
119.9188691577
 20
13.7911833435
 10
119.9178865252
 20
13.7933293656
 10
119.9169227596
 20
13.7954832336
 10
119.915975834
 20
13.7976441442
 10
119.9150437214
 20
13.7998112939
 10
119.9141243948
 20
13.8019838796
 10
119.9132158271
 20
13.8041610979
  0
LINE
  5
278
100
AcDbEntity
  8
6_SURFACES-PATINS-SPEC
100
AcDbLine
 62
7
  6
CONTINUOUS
 10
110.3254378229
 20
12.5512969308
 11
110.4079066165
 21
12.5476281869
  0
LINE
  5
279
100
AcDbEntity
  8
0
100
AcDbLine
 62
7
  6
CONTINUOUS
 10
129.6193368542
 20
35.3765840446
 11
129.6153936646
 21
35.3753846342
  0
LINE
  5
27A
100
AcDbEntity
  8
0
100
AcDbLine
 62
7
  6
CONTINUOUS
 10
129.6907396834
 20
35.3923982616
 11
129.687536922
 21
35.391920761
  0
LINE
  5
27B
100
AcDbEntity
  8
6_SURFACES-PATINS-SPEC
100
AcDbLine
 62
7
  6
CONTINUOUS
 10
119.0144314107
 20
12.5512969305
 11
119.0969002008
 21
12.5476281869
  0
LINE
  5
27C
100
AcDbEntity
  8
0
100
AcDbLine
 62
7
  6
CONTINUOUS
 10
129.6153936646
 20
35.3753846342
 11
129.61142074
 21
35.374140127
  0
LINE
  5
27D
100
AcDbEntity
  8
0
100
AcDbLine
 62
7
  6
CONTINUOUS
 10
129.6938998818
 20
35.3928486634
 11
129.6907396834
 21
35.3923982616
  0
LINE
  5
27E
100
AcDbEntity
  8
0
100
AcDbLine
 62
7
  6
CONTINUOUS
 10
129.1508750364
 20
33.9469253274
 11
129.1113714057
 21
33.9416884284
  0
LINE
  5
27F
100
AcDbEntity
  8
0
100
AcDbLine
 62
7
  6
CONTINUOUS
 10
129.1495228886
 20
33.9395097747
 11
129.0901809091
 21
33.9317669298
  0
LINE
  5
280
100
AcDbEntity
  8
0
100
AcDbLine
 62
7
  6
CONTINUOUS
 10
106.0424459416
 20
14.1141213114
 11
107.8589641329
 21
14.0306622834
  0
LINE
  5
281
100
AcDbEntity
  8
0
100
AcDbLine
 62
7
  6
CONTINUOUS
 10
107.8589641329
 20
14.0306622834
 11
108.0398276414
 21
14.0223484658
  0
LINE
  5
282
100
AcDbEntity
  8
0
100
AcDbLine
 62
7
  6
CONTINUOUS
 10
109.7211937565
 20
13.9449581456
 11
110.6246506702
 21
13.9032889418
  0
LINE
  5
283
100
AcDbEntity
  8
0
100
AcDbLine
 62
7
  6
CONTINUOUS
 10
110.6246506702
 20
13.9032889418
 11
111.6179987176
 21
13.8573404842
  0
LINE
  5
284
100
AcDbEntity
  8
0
100
AcDbLine
 62
7
  6
CONTINUOUS
 10
111.6179987176
 20
13.8573404842
 11
112.542356264
 21
13.8143928622
  0
LINE
  5
285
100
AcDbEntity
  8
0
100
AcDbLine
 62
7
  6
CONTINUOUS
 10
112.542356264
 20
13.8143928622
 11
113.3390425412
 21
13.7771270638
  0
LINE
  5
286
100
AcDbEntity
  8
0
100
AcDbLine
 62
7
  6
CONTINUOUS
 10
101.3816345154
 20
34.7564551395
 11
101.360922547
 21
34.9467572048
  0
LINE
  5
287
100
AcDbEntity
  8
0
100
AcDbLine
 62
7
  6
CONTINUOUS
 10
101.3606137513
 20
34.9467402114
 11
101.3602182695
 21
34.950459102
  0
LINE
  5
288
100
AcDbEntity
  8
0
100
AcDbLine
 62
7
  6
CONTINUOUS
 10
101.4676083475
 20
33.9407139186
 11
101.3606137513
 21
34.9467402114
  0
LINE
  5
289
100
AcDbEntity
  8
0
100
AcDbLine
 62
7
  6
CONTINUOUS
 10
101.5493462257
 20
31.8976281245
 11
101.6290041706
 21
31.1446477231
  0
LINE
  5
28A
100
AcDbEntity
  8
0
100
AcDbLine
 62
7
  6
CONTINUOUS
 10
101.6290041706
 20
31.1446477231
 11
101.7548149093
 21
29.9534358903
  0
LINE
  5
28B
100
AcDbEntity
  8
0
100
AcDbLine
 62
7
  6
CONTINUOUS
 10
101.7825414653
 20
29.690740342
 11
102.1052925388
 21
26.6304782076
  0
LINE
  5
28C
100
AcDbEntity
  8
0
100
AcDbLine
 62
7
  6
CONTINUOUS
 10
101.7548149093
 20
29.9534358903
 11
101.7825414653
 21
29.690740342
  0
LINE
  5
28D
100
AcDbEntity
  8
0
100
AcDbLine
 62
7
  6
CONTINUOUS
 10
101.4657787921
 20
33.940970509
 11
101.3595294776
 21
34.9518875902
  0
LINE
  5
28E
100
AcDbEntity
  8
DEFAULT_2
100
AcDbLine
 62
8
  6
CONTINUOUS
 10
101.3597339544
 20
34.9498920324
 11
102.2152715635
 21
26.8099695494
  0
LINE
  5
28F
100
AcDbEntity
  8
DEFAULT_2
100
AcDbLine
 62
8
  6
CONTINUOUS
 10
103.43934982
 20
25.9086914503
 11
104.1771418716
 21
18.8976281245
  0
LINE
  5
290
100
AcDbEntity
  8
0
100
AcDbLine
 62
7
  6
CONTINUOUS
 10
133.0264307689
 20
35.1694170602
 11
133.3126752102
 21
31.8976281245
  0
LWPOLYLINE
  5
291
100
AcDbEntity
  8
DEFAULT_2
100
AcDbPolyline
 62
8
  6
CONTINUOUS
 90
16
 70
0
 10
117.9068442823
 20
18.6070494659
 10
117.9085616533
 20
18.5863188198
 10
117.9100455745
 20
18.5655692201
 10
117.9113066645
 20
18.5448040556
 10
117.9123555422
 20
18.524026715
 10
117.9132228077
 20
18.5026137713
 10
117.9138725363
 20
18.4811936566
 10
117.9143011193
 20
18.4597685249
 10
117.9145049479
 20
18.4383405304
 10
117.9144899757
 20
18.4179897559
 10
117.9142828484
 20
18.397639744
 10
117.9138973757
 20
18.3772918966
 10
117.913347367
 20
18.3569476156
 10
117.9124987302
 20
18.3329133401
 10
117.9114295545
 20
18.3088885133
 10
117.9101297778
 20
18.2848756461
  0
LINE
  5
292
100
AcDbEntity
  8
6_SURFACES-PATINS-SPEC
100
AcDbLine
 62
7
  6
CONTINUOUS
 10
121.2873159774
 20
13.9716022858
 11
121.2892666878
 21
13.9404412326
  0
LINE
  5
293
100
AcDbEntity
  8
6_SURFACES-PATINS-SPEC
100
AcDbLine
 62
7
  6
CONTINUOUS
 10
122.7281526864
 20
14.0105010109
 11
122.730072634
 21
13.9793242431
  0
LINE
  5
294
100
AcDbEntity
  8
6_SURFACES-PATINS-SPEC
100
AcDbLine
 62
7
  6
CONTINUOUS
 10
122.7301524857
 20
13.9798716406
 11
122.7282319142
 21
14.0110465161
  0
LINE
  5
295
100
AcDbEntity
  8
6_SURFACES-PATINS-SPEC
100
AcDbLine
 62
7
  6
CONTINUOUS
 10
119.9103194872
 20
13.8378665522
 11
119.9122296423
 21
13.8066815764
  0
LINE
  5
296
100
AcDbEntity
  8
6_SURFACES-PATINS-SPEC
100
AcDbLine
 62
7
  6
CONTINUOUS
 10
119.9103893776
 20
13.8375694054
 11
119.9122982697
 21
13.806387351
  0
LINE
  5
297
100
AcDbEntity
  8
DEFAULT_2
100
AcDbLine
 62
8
  6
CONTINUOUS
 10
116.1606462142
 20
26.6198756147
 11
116.6667434065
 21
17.6649550791
  0
LWPOLYLINE
  5
298
100
AcDbEntity
  8
DEFAULT_2
100
AcDbPolyline
 62
8
  6
CONTINUOUS
 90
42
 70
0
 10
116.6667434065
 20
17.6649550791
 10
116.6693785488
 20
17.611589449
 10
116.6726958862
 20
17.5582597531
 10
116.6767093208
 20
17.5049773352
 10
116.6813419605
 20
17.4527101511
 10
116.6866754672
 20
17.4005104207
 10
116.6927260159
 20
17.3483890656
 10
116.6993647065
 20
17.2974167187
 10
116.7067256441
 20
17.2465435427
 10
116.7148274326
 20
17.1957830135
 10
116.7234856609
 20
17.1462638731
 10
116.7328914448
 20
17.096881353
 10
116.7430659978
 20
17.04765145
 10
116.753755432
 20
16.9997802802
 10
116.7652208693
 20
16.9520890629
 10
116.7774862345
 20
16.904597227
 10
116.7902209831
 20
16.8585663164
 10
116.8037634637
 20
16.8127666105
 10
116.8181403487
 20
16.7672218691
 10
116.8329303031
 20
16.7232499109
 10
116.8485619395
 20
16.679570172
 10
116.8650644977
 20
16.6362118901
 10
116.8819150788
 20
16.5945326704
 10
116.8996422381
 20
16.5532187781
 10
116.9182773015
 20
16.5123062377
 10
116.9371860517
 20
16.473171294
 10
116.9570048868
 20
16.4344894619
 10
116.9777660763
 20
16.3963050754
 10
116.9987230628
 20
16.3599755183
 10
117.0206191562
 20
16.3242042288
 10
117.0434860135
 20
16.2890450362
 10
117.0664680544
 20
16.2557981554
 10
117.0904077598
 20
16.2232346948
 10
117.1153320386
 20
16.1914197575
 10
117.1339683906
 20
16.1689360188
 10
117.1531419288
 20
16.146907931
 10
117.1728617901
 20
16.1253663875
 10
117.1931371117
 20
16.1043422817
 10
117.2132322013
 20
16.084579241
 10
117.2338515333
 20
16.0653642611
 10
117.2549938003
 20
16.0467349942
 10
117.276657695
 20
16.0287290924
  0
LWPOLYLINE
  5
299
100
AcDbEntity
  8
0
100
AcDbPolyline
 62
7
  6
CONTINUOUS
 90
49
 70
0
 10
114.1253409007
 20
30.3967644008
 10
114.126606045
 20
30.3588498805
 10
114.1291161005
 20
30.3209694031
 10
114.1328658879
 20
30.2831709531
 10
114.1378502283
 20
30.2455025154
 10
114.1440639426
 20
30.2080120743
 10
114.1515018517
 20
30.1707476146
 10
114.1601665408
 20
30.1337189372
 10
114.1700393302
 20
30.0970012936
 10
114.181106904
 20
30.060631212
 10
114.1933559464
 20
30.0246452208
 10
114.2067731414
 20
29.9890798483
 10
114.2213451732
 20
29.9539716229
 10
114.2370858962
 20
29.9192968864
 10
114.253951291
 20
29.8851528733
 10
114.2719205208
 20
29.8515749073
 10
114.2909727489
 20
29.818598312
 10
114.3110871384
 20
29.7862584109
 10
114.3322428527
 20
29.7545905276
 10
114.3544688372
 20
29.723560443
 10
114.3776926976
 20
29.693270474
 10
114.4018872436
 20
29.6637502213
 10
114.4270252849
 20
29.6350292858
 10
114.4530796314
 20
29.6071372684
 10
114.4800230927
 20
29.5801037698
 10
114.5078953846
 20
29.5538957991
 10
114.5366017333
 20
29.5286040225
 10
114.5661101333
 20
29.5042522506
 10
114.5963885789
 20
29.4808642942
 10
114.6274050645
 20
29.458463964
 10
114.6591275844
 20
29.4370750709
 10
114.6915953101
 20
29.4166767677
 10
114.7247037563
 20
29.3973354938
 10
114.7584166516
 20
29.3790684794
 10
114.7926977247
 20
29.3618929549
 10
114.827510704
 20
29.3458261505
 10
114.8628193182
 20
29.3308852965
 10
114.8986473982
 20
29.3170644136
 10
114.9349002124
 20
29.3044009542
 10
114.9715415972
 20
29.2929053425
 10
115.008535389
 20
29.2825880026
 10
115.0458454243
 20
29.2734593586
 10
115.0834355393
 20
29.2655298347
 10
115.1213018052
 20
29.2588032312
 10
115.1593660461
 20
29.253291824
 10
115.1975818846
 20
29.2489991014
 10
115.235902943
 20
29.245928552
 10
115.2742828441
 20
29.2440836641
 10
115.3126752102
 20
29.2434679263
  0
LWPOLYLINE
  5
29A
100
AcDbEntity
  8
6_SURFACES-PATINS-SPEC
100
AcDbPolyline
 62
7
  6
CONTINUOUS
 90
48
 70
0
 10
119.9122296424
 20
13.8066815753
 10
119.9122280471
 20
13.8067308838
 10
119.9122292513
 20
13.806779892
 10
119.9122331533
 20
13.806828582
 10
119.9122396513
 20
13.806876936
 10
119.9122486432
 20
13.8069249362
 10
119.9122600274
 20
13.8069725648
 10
119.912273702
 20
13.807019804
 10
119.912289565
 20
13.8070666358
 10
119.9123075147
 20
13.8071130426
 10
119.9123274492
 20
13.8071590065
 10
119.9123492667
 20
13.8072045096
 10
119.9123728653
 20
13.8072495342
 10
119.9123981431
 20
13.8072940624
 10
119.9124249984
 20
13.8073380764
 10
119.9124533292
 20
13.8073815583
 10
119.9124830337
 20
13.8074244905
 10
119.91251401
 20
13.8074668549
 10
119.9125461564
 20
13.8075086339
 10
119.9125793709
 20
13.8075498095
 10
119.9126135518
 20
13.807590364
 10
119.9126485971
 20
13.8076302796
 10
119.9126844049
 20
13.8076695384
 10
119.9127208736
 20
13.8077081226
 10
119.9127579012
 20
13.8077460144
 10
119.9127953858
 20
13.8077831959
 10
119.9128332256
 20
13.8078196494
 10
119.9128713188
 20
13.8078553569
 10
119.9129402068
 20
13.8079176569
 10
119.9130095925
 20
13.8079776572
 10
119.9130794838
 20
13.8080355258
 10
119.9131498888
 20
13.8080914307
 10
119.9132208155
 20
13.80814554
 10
119.913292272
 20
13.8081980217
 10
119.9133642664
 20
13.8082490438
 10
119.9134368067
 20
13.8082987743
 10
119.9135099009
 20
13.8083473813
 10
119.913583557
 20
13.8083950328
 10
119.9136577832
 20
13.8084418969
 10
119.9137325875
 20
13.8084881414
 10
119.9138808743
 20
13.8085774212
 10
119.9140311671
 20
13.8086649462
 10
119.9141832199
 20
13.8087506963
 10
119.9143367866
 20
13.8088346512
 10
119.9144916213
 20
13.8089167906
 10
119.9146474779
 20
13.8089970944
 10
119.9148041104
 20
13.8090755424
 10
119.9149612728
 20
13.8091521142
  0
LINE
  5
29B
100
AcDbEntity
  8
0
100
AcDbLine
 62
7
  6
CONTINUOUS
 10
102.8256458534
 20
33.8742564429
 11
102.8256458546
 21
33.8605128618
  0
LINE
  5
29C
100
AcDbEntity
  8
0
100
AcDbLine
 62
7
  6
CONTINUOUS
 10
102.9390719228
 20
33.8561584276
 11
102.9390719228
 21
33.860107531
  0
LINE
  5
29D
100
AcDbEntity
  8
1_CURVES_SPEC
100
AcDbLine
 62
7
  6
PHANTOM
 10
115.3126752102
 20
33.8742564429
 11
115.3126752102
 21
33.8561584272
  0
LINE
  5
29E
100
AcDbEntity
  8
1_CURVES_SPEC
100
AcDbLine
 62
7
  6
PHANTOM
 10
115.3126752102
 20
31.5696734271
 11
115.3126752102
 21
29.2434679263
  0
LINE
  5
29F
100
AcDbEntity
  8
DEFAULT_1
100
AcDbLine
 62
7
  6
CENTER
 10
115.3126752102
 20
8.7103897236
 11
115.3126752102
 21
13.7472592707
  0
LINE
  5
2A0
100
AcDbEntity
  8
0
100
AcDbLine
 62
7
  6
CONTINUOUS
 10
115.3126752102
 20
13.7472592707
 11
115.3126752102
 21
29.2239136182
  0
LINE
  5
2A1
100
AcDbEntity
  8
DEFAULT_1
100
AcDbLine
 62
7
  6
CENTER
 10
115.3126752102
 20
29.2239136182
 11
115.3126752102
 21
31.5696734271
  0
LINE
  5
2A2
100
AcDbEntity
  8
0
100
AcDbLine
 62
7
  6
CONTINUOUS
 10
115.3126752102
 20
31.5696734271
 11
115.3126752102
 21
31.8976281245
  0
LINE
  5
2A3
100
AcDbEntity
  8
0
100
AcDbLine
 62
7
  6
CONTINUOUS
 10
115.3126752102
 20
33.8561584276
 11
115.3126752102
 21
33.860107531
  0
LINE
  5
2A4
100
AcDbEntity
  8
DEFAULT_1
100
AcDbLine
 62
7
  6
CENTER
 10
115.3126752102
 20
31.8976281245
 11
115.3126752102
 21
33.8561584276
  0
LINE
  5
2A5
100
AcDbEntity
  8
DEFAULT_1
100
AcDbLine
 62
7
  6
CENTER
 10
115.3126752102
 20
33.860107531
 11
115.3126752102
 21
36.4642947943
  0
LINE
  5
2A6
100
AcDbEntity
  8
0
100
AcDbLine
 62
7
  6
CONTINUOUS
 10
127.6862784976
 20
33.8561584276
 11
127.6862784976
 21
33.860107531
  0
LINE
  5
2A7
100
AcDbEntity
  8
0
100
AcDbLine
 62
7
  6
CONTINUOUS
 10
127.799704567
 20
33.8742564429
 11
127.7997045658
 21
33.8605378508
  0
LWPOLYLINE
  5
2A8
100
AcDbEntity
  8
0
100
AcDbPolyline
 62
7
  6
CONTINUOUS
 90
49
 70
0
 10
114.125175359
 20
30.3967568584
 10
114.1258116629
 20
30.4350929063
 10
114.1277201901
 20
30.4734155839
 10
114.130896435
 20
30.5116752509
 10
114.1353358918
 20
30.5498222669
 10
114.1410340547
 20
30.5878069916
 10
114.1479864181
 20
30.6255797845
 10
114.1561952864
 20
30.6631279421
 10
114.1656429805
 20
30.7003761066
 10
114.1763162917
 20
30.7372863467
 10
114.1882020113
 20
30.7738207311
 10
114.2012869305
 20
30.8099413286
 10
114.2155578406
 20
30.8456102078
 10
114.2310278778
 20
30.880849906
 10
114.2476536643
 20
30.915561515
 10
114.2654141179
 20
30.9497082861
 10
114.2842881562
 20
30.9832534704
 10
114.3042546967
 20
31.016160319
 10
114.3252926571
 20
31.048392083
 10
114.3474306284
 20
31.0799829933
 10
114.3705958618
 20
31.1108280244
 10
114.3947605589
 20
31.1408963309
 10
114.4198969217
 20
31.1701570676
 10
114.4459771518
 20
31.1985793893
 10
114.4729734511
 20
31.2261324508
 10
114.5009257365
 20
31.2528498231
 10
114.5297377144
 20
31.2786378939
 10
114.5593765024
 20
31.3034718287
 10
114.5898092181
 20
31.327326793
 10
114.621002979
 20
31.3501779522
 10
114.6529249027
 20
31.3720004716
 10
114.6856147184
 20
31.392815705
 10
114.7189655374
 20
31.4125547928
 10
114.7529399852
 20
31.4311997565
 10
114.7875006872
 20
31.4487326181
 10
114.8226102689
 20
31.4651353991
 10
114.8582313557
 20
31.4803901213
 10
114.8943881704
 20
31.4945028827
 10
114.9309834087
 20
31.507434773
 10
114.967979755
 20
31.5191749138
 10
115.0053398938
 20
31.5297124268
 10
115.0430265096
 20
31.5390364336
 10
115.0810022868
 20
31.547136056
 10
115.1192630184
 20
31.5540073014
 10
115.1577281675
 20
31.5596373956
 10
115.1963498476
 20
31.5640226969
 10
115.2350801724
 20
31.5671595637
 10
115.2738712554
 20
31.5690443543
 10
115.3126752102
 20
31.5696734271
  0
LWPOLYLINE
  5
2A9
100
AcDbEntity
  8
0
100
AcDbPolyline
 62
7
  6
CONTINUOUS
 90
49
 70
0
 10
116.5001750616
 20
30.3967569284
 10
116.4995362325
 20
30.358422341
 10
116.4976253541
 20
30.3201012042
 10
116.4944469162
 20
30.2818431516
 10
116.4900054086
 20
30.2436978168
 10
116.4843053212
 20
30.2057148334
 10
116.4773511436
 20
30.1679438349
 10
116.469140615
 20
30.1303977655
 10
116.4596913738
 20
30.0931517277
 10
116.4490166308
 20
30.0562436479
 10
116.4371295971
 20
30.0197114527
 10
116.4240434834
 20
29.9835930688
 10
116.4097715006
 20
29.9479264228
 10
116.3943005738
 20
29.9126891089
 10
116.3776740301
 20
29.8779798885
 10
116.3599129512
 20
29.8438355035
 10
116.3410384187
 20
29.8102926959
 10
116.3210715141
 20
29.7773882078
 10
116.3000333191
 20
29.7451587811
 10
116.2778952401
 20
29.7135701819
 10
116.2547300252
 20
29.6827274264
 10
116.2305654698
 20
29.6526613542
 10
116.2054293691
 20
29.6234028052
 10
116.1793495184
 20
29.5949826189
 10
116.152353713
 20
29.5674316351
 10
116.1244019268
 20
29.5407161827
 10
116.0955905493
 20
29.5149299713
 10
116.0659524587
 20
29.4900978317
 10
116.0355205333
 20
29.4662445948
 10
116.0043276514
 20
29.4433950915
 10
115.9724066915
 20
29.4215741526
 10
115.939717723
 20
29.4007603018
 10
115.9063678198
 20
29.3810225273
 10
115.8723943527
 20
29.3623788044
 10
115.8378346925
 20
29.3448471085
 10
115.8027262097
 20
29.328445415
 10
115.7671062753
 20
29.3131916992
 10
115.730950443
 20
29.2990797797
 10
115.6943562275
 20
29.2861486605
 10
115.6573609408
 20
29.2744092189
 10
115.6200018948
 20
29.2638723324
 10
115.5823164014
 20
29.2545488783
 10
115.5443417725
 20
29.2464497341
 10
115.5060820722
 20
29.2395788689
 10
115.4676179712
 20
29.2339490876
 10
115.4289973518
 20
29.229564031
 10
115.3902680969
 20
29.22642734
 10
115.3514780888
 20
29.2245426555
 10
115.3126752102
 20
29.2239136182
  0
LWPOLYLINE
  5
2AA
100
AcDbEntity
  8
6_SURFACES-PATINS-SPEC
100
AcDbPolyline
 62
7
  6
CONTINUOUS
 90
58
 70
0
 10
110.6957701025
 20
13.8110753201
 10
110.6957623886
 20
13.8108455233
 10
110.6957568525
 20
13.810615457
 10
110.6957536529
 20
13.8103852254
 10
110.6957529486
 20
13.8101549327
 10
110.6957548985
 20
13.8099246831
 10
110.6957596612
 20
13.8096945807
 10
110.6957673956
 20
13.8094647297
 10
110.6957782604
 20
13.8092352343
 10
110.6957924145
 20
13.8090061986
 10
110.6958100167
 20
13.8087777269
 10
110.6958205353
 20
13.8086600307
 10
110.6958322154
 20
13.8085425191
 10
110.6958452572
 20
13.8084251986
 10
110.6958598611
 20
13.8083080757
 10
110.6958762271
 20
13.808191157
 10
110.6958945556
 20
13.8080744489
 10
110.6959150468
 20
13.8079579579
 10
110.6959379008
 20
13.8078416907
 10
110.695963318
 20
13.8077256537
 10
110.6959914985
 20
13.8076098534
 10
110.6960226426
 20
13.8074942964
 10
110.6960569505
 20
13.8073789891
 10
110.6960946224
 20
13.8072639381
 10
110.6961358587
 20
13.8071491499
 10
110.6961598479
 20
13.8070868978
 10
110.696185031
 20
13.8070249059
 10
110.6962114898
 20
13.8069633547
 10
110.6962393058
 20
13.8069024248
 10
110.6962685608
 20
13.8068422969
 10
110.6962993365
 20
13.8067831516
 10
110.6963317145
 20
13.8067251693
 10
110.6963657765
 20
13.8066685308
 10
110.6964016042
 20
13.8066134166
 10
110.6964392792
 20
13.8065600073
 10
110.6964788832
 20
13.8065084834
 10
110.696520498
 20
13.8064590257
 10
110.6965642052
 20
13.8064118146
 10
110.6966100864
 20
13.8063670308
 10
110.6966582233
 20
13.8063248549
 10
110.6967086977
 20
13.8062854674
 10
110.6967615912
 20
13.806249049
 10
110.6968103455
 20
13.8062194943
 10
110.6968608479
 20
13.8061925183
 10
110.6969128952
 20
13.8061682424
 10
110.6969662842
 20
13.8061467881
 10
110.6970208118
 20
13.8061282766
 10
110.697076275
 20
13.8061128294
 10
110.6971324705
 20
13.8061005679
 10
110.6971891954
 20
13.8060916134
 10
110.6972526508
 20
13.8060856155
 10
110.6973163352
 20
13.8060835864
 10
110.6973800743
 20
13.8060852577
 10
110.6974436939
 20
13.8060903607
 10
110.6975070199
 20
13.8060986268
 10
110.697569878
 20
13.8061097873
 10
110.6976320939
 20
13.8061235737
 10
110.6976934936
 20
13.8061397174
  0
LWPOLYLINE
  5
2AB
100
AcDbEntity
  8
DEFAULT_2
100
AcDbPolyline
 62
8
  6
CONTINUOUS
 90
42
 70
0
 10
113.9586070139
 20
17.6649550791
 10
113.9559718717
 20
17.611589449
 10
113.9526545343
 20
17.5582597531
 10
113.9486410996
 20
17.5049773352
 10
113.9440084599
 20
17.4527101511
 10
113.9386749532
 20
17.4005104207
 10
113.9326244045
 20
17.3483890656
 10
113.9259857139
 20
17.2974167187
 10
113.9186247763
 20
17.2465435427
 10
113.9105229878
 20
17.1957830135
 10
113.9018647595
 20
17.1462638731
 10
113.8924589757
 20
17.096881353
 10
113.8822844227
 20
17.04765145
 10
113.8715949885
 20
16.9997802802
 10
113.8601295511
 20
16.9520890629
 10
113.8478641859
 20
16.904597227
 10
113.8351294373
 20
16.8585663164
 10
113.8215869567
 20
16.8127666105
 10
113.8072100717
 20
16.7672218691
 10
113.7924201173
 20
16.7232499109
 10
113.7767884809
 20
16.679570172
 10
113.7602859227
 20
16.6362118901
 10
113.7434353416
 20
16.5945326704
 10
113.7257081823
 20
16.5532187781
 10
113.7070731189
 20
16.5123062377
 10
113.6881643687
 20
16.473171294
 10
113.6683455336
 20
16.4344894619
 10
113.6475843441
 20
16.3963050754
 10
113.6266273576
 20
16.3599755183
 10
113.6047312642
 20
16.3242042288
 10
113.5818644069
 20
16.2890450362
 10
113.5588823661
 20
16.2557981554
 10
113.5349426607
 20
16.2232346948
 10
113.5100183819
 20
16.1914197575
 10
113.4913820299
 20
16.1689360188
 10
113.4722084917
 20
16.146907931
 10
113.4524886303
 20
16.1253663875
 10
113.4322133088
 20
16.1043422817
 10
113.4121182191
 20
16.084579241
 10
113.3914988872
 20
16.0653642611
 10
113.3703566202
 20
16.0467349942
 10
113.3486927254
 20
16.0287290924
  0
LINE
  5
2AC
100
AcDbEntity
  8
DEFAULT_2
100
AcDbLine
 62
8
  6
CONTINUOUS
 10
114.4647042063
 20
26.6198756147
 11
113.9586070139
 21
17.6649550791
  0
LINE
  5
2AD
100
AcDbEntity
  8
6_SURFACES-PATINS-SPEC
100
AcDbLine
 62
7
  6
CONTINUOUS
 10
110.7131206458
 20
13.806681259
 11
110.715030776
 21
13.8378661933
  0
LINE
  5
2AE
100
AcDbEntity
  8
6_SURFACES-PATINS-SPEC
100
AcDbLine
 62
7
  6
CONTINUOUS
 10
110.7149610498
 20
13.8375693791
 11
110.7130521523
 21
13.806387376
  0
LINE
  5
2AF
100
AcDbEntity
  8
6_SURFACES-PATINS-SPEC
100
AcDbLine
 62
7
  6
CONTINUOUS
 10
107.8971182647
 20
14.0110469485
 11
107.8951977021
 21
13.9798720471
  0
LINE
  5
2B0
100
AcDbEntity
  8
6_SURFACES-PATINS-SPEC
100
AcDbLine
 62
7
  6
CONTINUOUS
 10
107.8971977268
 20
14.0105010324
 11
107.8952777695
 21
13.9793242239
  0
LINE
  5
2B1
100
AcDbEntity
  8
6_SURFACES-PATINS-SPEC
100
AcDbLine
 62
7
  6
CONTINUOUS
 10
109.3380344433
 20
13.9716022878
 11
109.336083733
 21
13.9404412319
  0
LINE
  5
2B2
100
AcDbEntity
  8
6_SURFACES-PATINS-SPEC
100
AcDbLine
 62
7
  6
CONTINUOUS
 10
107.9180254061
 20
13.9037656768
 11
107.9180423557
 21
13.9039975141
  0
LWPOLYLINE
  5
2B3
100
AcDbEntity
  8
DEFAULT_2
100
AcDbPolyline
 62
8
  6
CONTINUOUS
 90
16
 70
0
 10
112.7185061382
 20
18.6070494659
 10
112.7167887672
 20
18.5863188198
 10
112.715304846
 20
18.5655692201
 10
112.7140437559
 20
18.5448040556
 10
112.7129948783
 20
18.524026715
 10
112.7121276127
 20
18.5026137713
 10
112.7114778841
 20
18.4811936566
 10
112.7110493011
 20
18.4597685249
 10
112.7108454725
 20
18.4383405304
 10
112.7108604448
 20
18.4179897559
 10
112.711067572
 20
18.397639744
 10
112.7114530447
 20
18.3772918966
 10
112.7120030534
 20
18.3569476156
 10
112.7128516902
 20
18.3329133401
 10
112.7139208659
 20
18.3088885133
 10
112.7152206427
 20
18.2848756461
  0
LINE
  5
2B4
100
AcDbEntity
  8
0
100
AcDbLine
 62
7
  6
CONTINUOUS
 10
97.5989196515
 20
35.1694170602
 11
97.3126752102
 21
31.8976281245
  0
LINE
  5
2B5
100
AcDbEntity
  8
0
100
AcDbLine
 62
7
  6
CONTINUOUS
 10
129.2656132788
 20
34.9498917286
 11
129.1595692257
 21
33.9409476494
  0
LINE
  5
2B6
100
AcDbEntity
  8
DEFAULT_2
100
AcDbLine
 62
8
  6
CONTINUOUS
 10
128.410078857
 20
26.8099695494
 11
129.265616466
 21
34.9498920324
  0
LINE
  5
2B7
100
AcDbEntity
  8
DEFAULT_2
100
AcDbLine
 62
8
  6
CONTINUOUS
 10
126.4482085488
 20
18.8976281245
 11
127.1860006005
 21
25.9086914503
  0
LINE
  5
2B8
100
AcDbEntity
  8
0
100
AcDbLine
 62
7
  6
CONTINUOUS
 10
128.5200578807
 20
26.6304781986
 11
128.7839897168
 21
29.1333144749
  0
LINE
  5
2B9
100
AcDbEntity
  8
0
100
AcDbLine
 62
7
  6
CONTINUOUS
 10
128.7839897168
 20
29.1333144749
 11
129.0089457584
 21
31.2638394663
  0
LINE
  5
2BA
100
AcDbEntity
  8
0
100
AcDbLine
 62
7
  6
CONTINUOUS
 10
129.0089457584
 20
31.2638394663
 11
129.0760053485
 21
31.8976281245
  0
LINE
  5
2BB
100
AcDbEntity
  8
0
100
AcDbLine
 62
7
  6
CONTINUOUS
 10
129.1577387897
 20
33.9406830509
 11
129.2647366758
 21
34.9467402742
  0
LINE
  5
2BC
100
AcDbEntity
  8
0
100
AcDbLine
 62
7
  6
CONTINUOUS
 10
129.2647366758
 20
34.9467402742
 11
129.265132151
 21
34.950459102
  0
LINE
  5
2BD
100
AcDbEntity
  8
0
100
AcDbLine
 62
7
  6
CONTINUOUS
 10
129.2647691778
 20
34.9498395923
 11
129.243715905
 21
34.7564551395
  0
LINE
  5
2BE
100
AcDbEntity
  8
0
100
AcDbLine
 62
7
  6
CONTINUOUS
 10
129.243715905
 20
34.7564551395
 11
129.2205246498
 21
34.5466299329
  0
LINE
  5
2BF
100
AcDbEntity
  8
0
100
AcDbLine
 62
7
  6
CONTINUOUS
 10
129.2205246498
 20
34.5466299329
 11
129.1989524713
 21
34.3552819784
  0
LINE
  5
2C0
100
AcDbEntity
  8
0
100
AcDbLine
 62
7
  6
CONTINUOUS
 10
129.26651424
 20
34.9579009358
 11
129.265607176
 21
34.9498922567
  0
LINE
  5
2C1
100
AcDbEntity
  8
0
100
AcDbLine
 62
7
  6
CONTINUOUS
 10
129.1989524713
 20
34.3552819784
 11
129.1784318837
 21
34.1774643305
  0
LINE
  5
2C2
100
AcDbEntity
  8
0
100
AcDbLine
 62
7
  6
CONTINUOUS
 10
129.2651349566
 20
34.9529914965
 11
129.2647691778
 21
34.9498395923
  0
LWPOLYLINE
  5
2C3
100
AcDbEntity
  8
DEFAULT_2
100
AcDbPolyline
 62
8
  6
CONTINUOUS
 90
57
 70
0
 10
127.1859998305
 20
25.9086915311
 10
127.1875185306
 20
25.9215312212
 10
127.1893656984
 20
25.9343049702
 10
127.1915423667
 20
25.9470184898
 10
127.1940495685
 20
25.9596774918
 10
127.1968874251
 20
25.9722839038
 10
127.20005241
 20
25.9848245156
 10
127.2035400851
 20
25.9972823329
 10
127.2073460121
 20
26.009640361
 10
127.2114665336
 20
26.0218844768
 10
127.2159011147
 20
26.0340120414
 10
127.2206500012
 20
26.0460232871
 10
127.2257134391
 20
26.0579184462
 10
127.2310903368
 20
26.0696950681
 10
127.2367742542
 20
26.0813399704
 10
127.2427574135
 20
26.0928372878
 10
127.2490320371
 20
26.1041711549
 10
127.2555915687
 20
26.1153282901
 10
127.2624343354
 20
26.1263057466
 10
127.2695598859
 20
26.137103161
 10
127.2769677685
 20
26.1477201702
 10
127.2846562005
 20
26.1581545333
 10
127.2926180743
 20
26.1683964993
 10
127.3008449511
 20
26.1784344392
 10
127.309328392
 20
26.1882567243
 10
127.3180605093
 20
26.1978529287
 10
127.327035619
 20
26.207217438
 10
127.3362485882
 20
26.2163458408
 10
127.345694284
 20
26.2252337255
 10
127.355367641
 20
26.2338766021
 10
127.3652638647
 20
26.2422696663
 10
127.3753782277
 20
26.2504080356
 10
127.3857060032
 20
26.258286827
 10
127.3962412047
 20
26.2659007052
 10
127.4069728085
 20
26.2732425241
 10
127.4178885316
 20
26.2803046849
 10
127.4289760912
 20
26.2870795888
 10
127.4402251806
 20
26.2935608005
 10
127.4516333996
 20
26.2997465379
 10
127.4632003241
 20
26.3056361826
 10
127.4749255303
 20
26.3112291161
 10
127.4868058959
 20
26.3165237255
 10
127.4988275054
 20
26.3215144216
 10
127.5109737449
 20
26.3261946205
 10
127.5232280007
 20
26.3305577386
 10
127.5355764493
 20
26.334598302
 10
127.5480164298
 20
26.338315276
 10
127.5605480716
 20
26.3417087356
 10
127.5731715043
 20
26.3447787558
 10
127.5858839119
 20
26.3475248861
 10
127.5986706978
 20
26.3499445735
 10
127.6115143198
 20
26.3520347395
 10
127.6243972359
 20
26.3537923056
 10
127.637305804
 20
26.3552147845
 10
127.6502419822
 20
26.3563020545
 10
127.6632116288
 20
26.3570545849
 10
127.6762206017
 20
26.3574728451
  0
LWPOLYLINE
  5
2C4
100
AcDbEntity
  8
0
100
AcDbPolyline
 62
7
  6
CONTINUOUS
 90
27
 70
0
 10
128.5200580663
 20
26.6304779879
 10
128.5181802001
 20
26.6146124067
 10
128.5158799628
 20
26.5988020539
 10
128.5128496115
 20
26.5814194505
 10
128.5094001189
 20
26.5641138388
 10
128.5052564181
 20
26.5452148407
 10
128.5007813807
 20
26.5263923174
 10
128.4955490374
 20
26.5059137921
 10
128.4900012762
 20
26.4855179871
 10
128.4810743441
 20
26.4547229294
 10
128.4716172704
 20
26.4240844922
 10
128.4617205551
 20
26.3935840083
 10
128.4496041091
 20
26.3577957
 10
128.4370728508
 20
26.322151834
 10
128.4241967893
 20
26.2866312109
 10
128.4087004307
 20
26.2449890198
 10
128.3928927067
 20
26.203463819
 10
128.3768422972
 20
26.1620314713
 10
128.347924687
 20
26.0885922613
 10
128.3187171719
 20
26.0152689152
 10
128.2832346256
 20
25.9262796788
 10
128.2480931212
 20
25.8371504552
 10
128.2298911447
 20
25.7901875467
 10
128.2119671168
 20
25.7431172731
 10
128.1943979959
 20
25.6959156976
 10
128.17726074
 20
25.6485588837
 10
128.1606323073
 20
25.6010228947
  0
LINE
  5
2C5
100
AcDbEntity
  8
0
100
AcDbLine
 62
7
  6
CONTINUOUS
 10
129.1784318837
 20
34.1774643305
 11
129.157944501
 21
34.004696907
  0
LINE
  5
2C6
100
AcDbEntity
  8
0
100
AcDbLine
 62
7
  6
CONTINUOUS
 10
126.9004853344
 20
16.2610610166
 11
127.0090183604
 21
17.1597881098
  0
LINE
  5
2C7
100
AcDbEntity
  8
0
100
AcDbLine
 62
7
  6
CONTINUOUS
 10
128.5142695309
 20
26.5839498958
 11
128.5171828048
 21
26.6078825652
  0
LINE
  5
2C8
100
AcDbEntity
  8
0
100
AcDbLine
 62
7
  6
CONTINUOUS
 10
129.2655461159
 20
34.9563674158
 11
129.2651349566
 21
34.9529914965
  0
LINE
  5
2C9
100
AcDbEntity
  8
0
100
AcDbLine
 62
7
  6
CONTINUOUS
 10
127.0090183604
 20
17.1597881098
 11
127.1135028506
 21
18.016226545
  0
LINE
  5
2CA
100
AcDbEntity
  8
0
100
AcDbLine
 62
7
  6
CONTINUOUS
 10
129.157944501
 20
34.004696907
 11
129.1499755283
 21
33.9395745584
  0
LINE
  5
2CB
100
AcDbEntity
  8
0
100
AcDbLine
 62
7
  6
CONTINUOUS
 10
127.1135028506
 20
18.016226545
 11
127.2121805248
 21
18.8164100031
  0
LINE
  5
2CC
100
AcDbEntity
  8
0
100
AcDbLine
 62
7
  6
CONTINUOUS
 10
127.2121805248
 20
18.8164100031
 11
127.3052407803
 21
19.5626005714
  0
LINE
  5
2CD
100
AcDbEntity
  8
0
100
AcDbLine
 62
7
  6
CONTINUOUS
 10
127.3052407803
 20
19.5626005714
 11
127.3928530168
 21
20.2569183171
  0
LINE
  5
2CE
100
AcDbEntity
  8
0
100
AcDbLine
 62
7
  6
CONTINUOUS
 10
127.3928530168
 20
20.2569183171
 11
127.4752118764
 21
20.9016971675
  0
LINE
  5
2CF
100
AcDbEntity
  8
0
100
AcDbLine
 62
7
  6
CONTINUOUS
 10
129.266013495
 20
34.9600150308
 11
129.2655461159
 21
34.9563674158
  0
LINE
  5
2D0
100
AcDbEntity
  8
0
100
AcDbLine
 62
7
  6
CONTINUOUS
 10
129.2674835948
 20
34.9654083439
 11
129.26651424
 21
34.9579009358
  0
LINE
  5
2D1
100
AcDbEntity
  8
0
100
AcDbLine
 62
7
  6
CONTINUOUS
 10
127.4752118764
 20
20.9016971675
 11
127.5525338566
 21
21.499440372
  0
LINE
  5
2D2
100
AcDbEntity
  8
0
100
AcDbLine
 62
7
  6
CONTINUOUS
 10
127.5525338566
 20
21.499440372
 11
127.6250463032
 21
22.0527177238
  0
LINE
  5
2D3
100
AcDbEntity
  8
0
100
AcDbLine
 62
7
  6
CONTINUOUS
 10
127.6250463032
 20
22.0527177238
 11
127.6930009675
 21
22.5642542472
  0
LWPOLYLINE
  5
2D4
100
AcDbEntity
  8
DEFAULT_2
100
AcDbPolyline
 62
8
  6
CONTINUOUS
 90
37
 70
0
 10
117.9101297778
 20
18.2848756461
 10
117.904107474
 20
18.2401382636
 10
117.8986897808
 20
18.1953215968
 10
117.8938839142
 20
18.1504346647
 10
117.8897546452
 20
18.1061531228
 10
117.8862333107
 20
18.0618196541
 10
117.8833270225
 20
18.017441775
 10
117.8810709129
 20
17.9736549878
 10
117.8794269992
 20
17.9298408238
 10
117.8784027764
 20
17.8860077644
 10
117.8780069253
 20
17.8427276537
 10
117.8782300225
 20
17.7994463594
 10
117.8790798407
 20
17.7561728459
 10
117.8805436655
 20
17.7134103839
 10
117.8826355898
 20
17.6706740446
 10
117.8853636366
 20
17.6279735861
 10
117.888699282
 20
17.5857416623
 10
117.8926746208
 20
17.5435651551
 10
117.8972979123
 20
17.5014547429
 10
117.9025303594
 20
17.459774175
 10
117.9084164621
 20
17.4181808818
 10
117.9149646456
 20
17.3766866494
 10
117.9221312288
 20
17.3355887826
 10
117.9299675885
 20
17.2946133536
 10
117.9384822198
 20
17.2537734785
 10
117.9476316757
 20
17.213303623
 10
117.9574689114
 20
17.1729953974
 10
117.9680023965
 20
17.1328633763
 10
117.9791932882
 20
17.0930849401
 10
117.9910912352
 20
17.0535123049
 10
118.003704309
 20
17.0141620454
 10
118.0170035773
 20
16.975156244
 10
118.0310301677
 20
16.9364056985
 10
118.0457921057
 20
16.8979280038
 10
118.0612747104
 20
16.8597950124
 10
118.0775038655
 20
16.8219749199
 10
118.0944848302
 20
16.7844909935
  0
LINE
  5
2D5
100
AcDbEntity
  8
0
100
AcDbLine
 62
7
  6
CONTINUOUS
 10
127.6930009675
 20
22.5642542472
 11
127.7566596863
 21
23.0368052191
  0
LINE
  5
2D6
100
AcDbEntity
  8
0
100
AcDbLine
 62
7
  6
CONTINUOUS
 10
129.2665511987
 20
34.9639926769
 11
129.266013495
 21
34.9600150308
  0
LINE
  5
2D7
100
AcDbEntity
  8
0
100
AcDbLine
 62
7
  6
CONTINUOUS
 10
127.7566596863
 20
23.0368052191
 11
127.8162609383
 21
23.4729003703
  0
LINE
  5
2D8
100
AcDbEntity
  8
0
100
AcDbLine
 62
7
  6
CONTINUOUS
 10
127.8162609383
 20
23.4729003703
 11
127.872030359
 21
23.8749243696
  0
LINE
  5
2D9
100
AcDbEntity
  8
0
100
AcDbLine
 62
7
  6
CONTINUOUS
 10
126.8876831949
 20
16.1692864876
 11
126.9004781106
 21
16.2610017723
  0
LINE
  5
2DA
100
AcDbEntity
  8
DEFAULT_2
100
AcDbLine
 62
8
  6
CONTINUOUS
 10
112.7185061382
 20
18.6070494659
 11
113.847520994
 21
26.6496077434
  0
LINE
  5
2DB
100
AcDbEntity
  8
0
100
AcDbLine
 62
7
  6
CONTINUOUS
 10
127.872030359
 20
23.8749243696
 11
127.9167214983
 21
24.1925259378
  0
LINE
  5
2DC
100
AcDbEntity
  8
0
100
AcDbLine
 62
7
  6
CONTINUOUS
 10
127.916752462
 20
24.1927452499
 11
127.9621666559
 21
24.5131257878
  0
LINE
  5
2DD
100
AcDbEntity
  8
0
100
AcDbLine
 62
7
  6
CONTINUOUS
 10
127.9621666559
 20
24.5131257878
 11
128.0299585074
 21
24.9907093971
  0
LINE
  5
2DE
100
AcDbEntity
  8
0
100
AcDbLine
 62
7
  6
CONTINUOUS
 10
128.0299585074
 20
24.9907093971
 11
128.0748039553
 21
25.3062244046
  0
LINE
  5
2DF
100
AcDbEntity
  8
0
100
AcDbLine
 62
7
  6
CONTINUOUS
 10
129.2671778962
 20
34.9683729085
 11
129.2665511987
 21
34.9639926769
  0
LINE
  5
2E0
100
AcDbEntity
  8
0
100
AcDbLine
 62
7
  6
CONTINUOUS
 10
129.26856154
 20
34.9728676817
 11
129.2674835948
 21
34.9654083439
  0
LINE
  5
2E1
100
AcDbEntity
  8
6_SURFACES-PATINS-SPEC
100
AcDbLine
 62
7
  6
CONTINUOUS
 10
122.7281526864
 20
14.0105010109
 11
122.7282319197
 21
14.0110464269
  0
LINE
  5
2E2
100
AcDbEntity
  8
6_SURFACES-PATINS-SPEC
100
AcDbLine
 62
7
  6
CONTINUOUS
 10
122.7301523015
 20
13.9798716292
 11
122.730072634
 21
13.9793242431
  0
LWPOLYLINE
  5
2E3
100
AcDbEntity
  8
DEFAULT_2
100
AcDbPolyline
 62
8
  6
CONTINUOUS
 90
33
 70
0
 10
113.8475370926
 20
26.6496088997
 10
113.8538488451
 20
26.6926894997
 10
113.8606897956
 20
26.7356932118
 10
113.8680761535
 20
26.7786086669
 10
113.8760241281
 20
26.8214244958
 10
113.8845499288
 20
26.8641293294
 10
113.8930153562
 20
26.9037497093
 10
113.9020102724
 20
26.9432526481
 10
113.9115499986
 20
26.9826266174
 10
113.9216498561
 20
27.0218600887
 10
113.9323251663
 20
27.0609415336
 10
113.9428033876
 20
27.097207846
 10
113.9538080038
 20
27.1333184707
 10
113.9653525285
 20
27.1692597105
 10
113.9774504755
 20
27.205017868
 10
113.9901153582
 20
27.2405792461
 10
114.0024685383
 20
27.2736035518
 10
114.015339493
 20
27.3064298216
 10
114.0287396276
 20
27.339043634
 10
114.0426803474
 20
27.3714305676
 10
114.0571730578
 20
27.4035762009
 10
114.0719657834
 20
27.4349202833
 10
114.0873124887
 20
27.4659989467
 10
114.1032229291
 20
27.4967937918
 10
114.1197068602
 20
27.5272864195
 10
114.1367740375
 20
27.5574584305
 10
114.1544342163
 20
27.5872914256
 10
114.1713626553
 20
27.614658721
 10
114.1888129845
 20
27.6416977062
 10
114.2067879111
 20
27.6683879293
 10
114.2252901422
 20
27.6947089387
 10
114.2443223849
 20
27.7206402826
 10
114.2638873462
 20
27.7461615093
  0
LINE
  5
2E4
100
AcDbEntity
  8
0
100
AcDbLine
 62
7
  6
CONTINUOUS
 10
129.2679176722
 20
34.9732405284
 11
129.2671778962
 21
34.9683729085
  0
LINE
  5
2E5
100
AcDbEntity
  8
DEFAULT_2
100
AcDbLine
 62
8
  6
CONTINUOUS
 10
104.1075331857
 20
29.2918311701
 11
104.1309983546
 21
29.4399844212
  0
LINE
  5
2E6
100
AcDbEntity
  8
DEFAULT_2
100
AcDbLine
 62
8
  6
CONTINUOUS
 10
105.5703546042
 20
29.3385709202
 11
105.5273351277
 21
29.0669566266
  0
LINE
  5
2E7
100
AcDbEntity
  8
0
100
AcDbLine
 62
7
  6
CONTINUOUS
 10
129.2697463546
 20
34.9802774472
 11
129.26856154
 21
34.9728676817
  0
LINE
  5
2E8
100
AcDbEntity
  8
0
100
AcDbLine
 62
7
  6
CONTINUOUS
 10
129.268801141
 20
34.978690872
 11
129.2679176722
 21
34.9732405284
  0
LINE
  5
2E9
100
AcDbEntity
  8
0
100
AcDbLine
 62
7
  6
CONTINUOUS
 10
129.2698692242
 20
34.9848413309
 11
129.268801141
 21
34.978690872
  0
LINE
  5
2EA
100
AcDbEntity
  8
0
100
AcDbLine
 62
7
  6
CONTINUOUS
 10
129.2710363042
 20
34.9876361857
 11
129.2697463546
 21
34.9802774472
  0
LWPOLYLINE
  5
2EB
100
AcDbEntity
  8
DEFAULT_2
100
AcDbPolyline
 62
8
  6
CONTINUOUS
 90
77
 70
0
 10
105.5273351277
 20
29.0669566266
 10
105.5216370154
 20
29.0349100765
 10
105.5147359499
 20
29.0031103253
 10
105.5066447525
 20
28.9716114931
 10
105.4973762445
 20
28.9404677002
 10
105.4869445717
 20
28.9097326094
 10
105.4753691792
 20
28.8794580544
 10
105.4626708365
 20
28.8496954116
 10
105.4488703134
 20
28.8204960575
 10
105.4339896083
 20
28.7919106679
 10
105.4180556346
 20
28.7639871156
 10
105.4010965345
 20
28.7367725731
 10
105.3831404502
 20
28.7103142127
 10
105.3642166251
 20
28.6846582941
 10
105.3443587076
 20
28.6598474274
 10
105.3236014473
 20
28.6359233097
 10
105.3019795938
 20
28.6129276385
 10
105.2795288399
 20
28.5909010084
 10
105.2562886509
 20
28.5698796027
 10
105.2322994352
 20
28.5498985022
 10
105.2076016013
 20
28.5309927875
 10
105.1822363169
 20
28.5131962773
 10
105.1562477881
 20
28.4965377418
 10
105.1296809799
 20
28.4810446894
 10
105.1025808577
 20
28.4667446284
 10
105.0749929417
 20
28.4536636798
 10
105.0469649724
 20
28.4418224161
 10
105.0185452452
 20
28.4312400223
 10
104.9897820556
 20
28.4219356837
 10
104.9607240344
 20
28.4139271112
 10
104.9314211545
 20
28.4072261178
 10
104.9019237242
 20
28.4018430427
 10
104.8722820519
 20
28.3977882246
 10
104.8425465526
 20
28.3950704809
 10
104.8127680684
 20
28.3936925437
 10
104.7829975482
 20
28.3936556235
 10
104.7532859408
 20
28.3949609307
 10
104.7236840702
 20
28.397608149
 10
104.6942422611
 20
28.4015908544
 10
104.665010713
 20
28.4069010962
 10
104.6360396256
 20
28.4135309233
 10
104.6073788457
 20
28.4214708943
 10
104.5790768075
 20
28.4307056046
 10
104.551181592
 20
28.4412181587
 10
104.5237412806
 20
28.4529916614
 10
104.4968033826
 20
28.4660078034
 10
104.470413121
 20
28.4802426197
 10
104.4446151469
 20
28.4956707312
 10
104.4194541114
 20
28.512266759
 10
104.3949738911
 20
28.5300040255
 10
104.3712152638
 20
28.548850659
 10
104.3482182326
 20
28.5687734892
 10
104.3260228006
 20
28.5897393458
 10
104.3046680145
 20
28.6117139106
 10
104.2841890948
 20
28.6346582745
 10
104.2646203054
 20
28.6585323805
 10
104.2459959104
 20
28.6832961718
 10
104.2283490614
 20
28.7089086256
 10
104.2117084609
 20
28.735324857
 10
104.1961016991
 20
28.7624990155
 10
104.1815563661
 20
28.7903852503
 10
104.1680988144
 20
28.8189369537
 10
104.1557504454
 20
28.848104488
 10
104.1445314228
 20
28.8778374587
 10
104.1344619102
 20
28.908085471
 10
104.1255607419
 20
28.9387976025
 10
104.1178414351
 20
28.9699208208
 10
104.1113161775
 20
29.001401566
 10
104.1059971569
 20
29.033186278
 10
104.1018951758
 20
29.0652211103
 10
104.0990154964
 20
29.0974510694
 10
104.0973619956
 20
29.1298208754
 10
104.0969385503
 20
29.1622752481
 10
104.0977476362
 20
29.1947588819
 10
104.0997861243
 20
29.227216369
 10
104.1030494843
 20
29.2595922762
 10
104.1075331857
 20
29.2918311701
  0
LINE
  5
2EC
100
AcDbEntity
  8
0
100
AcDbLine
 62
7
  6
CONTINUOUS
 10
129.2711775062
 20
34.9918383196
 11
129.2698692242
 21
34.9848413309
  0
LINE
  5
2ED
100
AcDbEntity
  8
0
100
AcDbLine
 62
7
  6
CONTINUOUS
 10
129.2724296422
 20
34.9949424893
 11
129.2710363042
 21
34.9876361857
  0
LINE
  5
2EE
100
AcDbEntity
  8
0
100
AcDbLine
 62
7
  6
CONTINUOUS
 10
128.4921741565
 20
26.4683296001
 11
128.5142695309
 21
26.5839498958
  0
LINE
  5
2EF
100
AcDbEntity
  8
0
100
AcDbLine
 62
7
  6
CONTINUOUS
 10
126.8528251654
 20
15.9923997892
 11
126.8876831949
 21
16.1692864876
  0
LWPOLYLINE
  5
2F0
100
AcDbEntity
  8
DEFAULT_2
100
AcDbPolyline
 62
8
  6
CONTINUOUS
 90
10
 70
0
 10
126.0842424461
 20
16.1693370899
 10
126.1428299618
 20
16.465080194
 10
126.2014944713
 20
16.7626602901
 10
126.2602324795
 20
17.0620683287
 10
126.3190417649
 20
17.3633017904
 10
126.3779252003
 20
17.6663842754
 10
126.4368869319
 20
17.9713459139
 10
126.4959298236
 20
18.2782102091
 10
126.5550516096
 20
18.5869741565
 10
126.6142487417
 20
18.8976281245
  0
LINE
  5
2F1
100
AcDbEntity
  8
0
100
AcDbLine
 62
7
  6
CONTINUOUS
 10
128.0748049425
 20
25.3062313902
 11
128.079181079
 21
25.3282762236
  0
LINE
  5
2F2
100
AcDbEntity
  8
0
100
AcDbLine
 62
7
  6
CONTINUOUS
 10
129.2728024812
 20
34.9998652251
 11
129.2711775062
 21
34.9918383196
  0
LINE
  5
2F3
100
AcDbEntity
  8
0
100
AcDbLine
 62
7
  6
CONTINUOUS
 10
129.2739246106
 20
35.0021949971
 11
129.2724296422
 21
34.9949424893
  0
LINE
  5
2F4
100
AcDbEntity
  8
0
100
AcDbLine
 62
7
  6
CONTINUOUS
 10
129.2748505297
 20
35.009151125
 11
129.2728024812
 21
34.9998652251
  0
LINE
  5
2F5
100
AcDbEntity
  8
0
100
AcDbLine
 62
7
  6
CONTINUOUS
 10
129.2755194417
 20
35.0093923944
 11
129.2739246106
 21
35.0021949971
  0
LINE
  5
2F6
100
AcDbEntity
  8
6_SURFACES-PATINS-SPEC
100
AcDbLine
 62
7
  6
CONTINUOUS
 10
110.7131203811
 20
13.8066812752
 11
110.7130521523
 21
13.806387376
  0
LINE
  5
2F7
100
AcDbEntity
  8
6_SURFACES-PATINS-SPEC
100
AcDbLine
 62
7
  6
CONTINUOUS
 10
110.7149610498
 20
13.8375693791
 11
110.7150307594
 21
13.8378659229
  0
LINE
  5
2F8
100
AcDbEntity
  8
0
100
AcDbLine
 62
7
  6
CONTINUOUS
 10
129.2772123585
 20
35.0165334128
 11
129.2755194417
 21
35.0093923944
  0
LINE
  5
2F9
100
AcDbEntity
  8
0
100
AcDbLine
 62
7
  6
CONTINUOUS
 10
129.2774667787
 20
35.0199638287
 11
129.2748505297
 21
35.009151125
  0
LINE
  5
2FA
100
AcDbEntity
  8
0
100
AcDbLine
 62
7
  6
CONTINUOUS
 10
129.2790015759
 20
35.0236168298
 11
129.2772123585
 21
35.0165334128
  0
LINE
  5
2FB
100
AcDbEntity
  8
0
100
AcDbLine
 62
7
  6
CONTINUOUS
 10
128.4641536625
 20
26.362120698
 11
128.4921741565
 21
26.4683296001
  0
LINE
  5
2FC
100
AcDbEntity
  8
0
100
AcDbLine
 62
7
  6
CONTINUOUS
 10
129.280845236
 20
35.0325962315
 11
129.2774667787
 21
35.0199638287
  0
LINE
  5
2FD
100
AcDbEntity
  8
0
100
AcDbLine
 62
7
  6
CONTINUOUS
 10
129.280885302
 20
35.0306414682
 11
129.2790015759
 21
35.0236168298
  0
LINE
  5
2FE
100
AcDbEntity
  8
0
100
AcDbLine
 62
7
  6
CONTINUOUS
 10
126.8050074619
 20
15.8186121233
 11
126.8528251654
 21
15.9923997892
  0
LINE
  5
2FF
100
AcDbEntity
  8
6_SURFACES-PATINS-SPEC
100
AcDbLine
 62
7
  6
CONTINUOUS
 10
122.7202003016
 20
13.9504311879
 11
122.7073080328
 21
13.9039964481
  0
LINE
  5
300
100
AcDbEntity
  8
0
100
AcDbLine
 62
7
  6
CONTINUOUS
 10
129.2828617389
 20
35.0376061962
 11
129.280885302
 21
35.0306414682
  0
LINE
  5
301
100
AcDbEntity
  8
0
100
AcDbLine
 62
7
  6
CONTINUOUS
 10
129.2852492234
 20
35.0473760631
 11
129.280845236
 21
35.0325962315
  0
LINE
  5
302
100
AcDbEntity
  8
0
100
AcDbLine
 62
7
  6
CONTINUOUS
 10
129.2849290833
 20
35.0445099266
 11
129.2828617389
 21
35.0376061962
  0
LINE
  5
303
100
AcDbEntity
  8
0
100
AcDbLine
 62
7
  6
CONTINUOUS
 10
128.079181079
 20
25.3282762236
 11
128.0839613032
 21
25.3439153836
  0
LINE
  5
304
100
AcDbEntity
  8
0
100
AcDbLine
 62
7
  6
CONTINUOUS
 10
129.2870855282
 20
35.0513516166
 11
129.2849290833
 21
35.0445099266
  0
LINE
  5
305
100
AcDbEntity
  8
0
100
AcDbLine
 62
7
  6
CONTINUOUS
 10
128.4311006039
 20
26.2577012109
 11
128.4641536625
 21
26.362120698
  0
LINE
  5
306
100
AcDbEntity
  8
6_SURFACES-PATINS-SPEC
100
AcDbLine
 62
7
  6
CONTINUOUS
 10
110.7108688012
 20
13.8417425056
 11
110.7135025685
 21
13.8499850718
  0
LWPOLYLINE
  5
307
100
AcDbEntity
  8
6_SURFACES-PATINS-SPEC
100
AcDbPolyline
 62
7
  6
CONTINUOUS
 90
9
 70
0
 10
110.719848896
 20
13.8988840937
 10
110.7174654304
 20
13.8915546791
 10
110.7151032725
 20
13.8842182584
 10
110.7132765218
 20
13.8784885049
 10
110.7114678476
 20
13.8727529337
 10
110.7096814464
 20
13.8670104298
 10
110.7079215143
 20
13.8612598783
 10
110.7061922476
 20
13.8555001643
 10
110.7044978425
 20
13.8497301726
  0
LINE
  5
308
100
AcDbEntity
  8
0
100
AcDbLine
 62
7
  6
CONTINUOUS
 10
129.2893292633
 20
35.0581302674
 11
129.2870855282
 21
35.0513516166
  0
LINE
  5
309
100
AcDbEntity
  8
6_SURFACES-PATINS-SPEC
100
AcDbLine
 62
7
  6
CONTINUOUS
 10
110.7135025685
 20
13.8499850718
 11
110.7295460856
 21
13.8984148349
  0
LINE
  5
30A
100
AcDbEntity
  8
0
100
AcDbLine
 62
7
  6
CONTINUOUS
 10
129.2910022363
 20
35.0645661461
 11
129.2852492234
 21
35.0473760631
  0
LINE
  5
30B
100
AcDbEntity
  8
0
100
AcDbLine
 62
7
  6
CONTINUOUS
 10
128.1333465623
 20
25.4844476778
 11
128.1333545343
 21
25.4844707135
  0
LINE
  5
30C
100
AcDbEntity
  8
0
100
AcDbLine
 62
7
  6
CONTINUOUS
 10
129.2916584757
 20
35.0648449238
 11
129.2893292633
 21
35.0581302674
  0
LINE
  5
30D
100
AcDbEntity
  8
6_SURFACES-PATINS-SPEC
100
AcDbLine
 62
7
  6
CONTINUOUS
 10
107.9177373222
 20
13.9029416967
 11
107.9180254061
 21
13.9037656768
  0
LINE
  5
30E
100
AcDbEntity
  8
0
100
AcDbLine
 62
7
  6
CONTINUOUS
 10
128.0839611076
 20
25.3439148355
 11
128.1333545343
 21
25.4844707135
  0
LINE
  5
30F
100
AcDbEntity
  8
0
100
AcDbLine
 62
7
  6
CONTINUOUS
 10
128.3947271663
 20
26.1550187423
 11
128.4311006039
 21
26.2577012109
  0
LINE
  5
310
100
AcDbEntity
  8
0
100
AcDbLine
 62
7
  6
CONTINUOUS
 10
126.744522333
 20
15.6489251498
 11
126.8050074619
 21
15.8186121233
  0
LWPOLYLINE
  5
311
100
AcDbEntity
  8
6_SURFACES-PATINS-SPEC
100
AcDbPolyline
 62
7
  6
CONTINUOUS
 90
28
 70
0
 10
107.895197701
 20
13.9798720287
 10
107.8954536551
 20
13.9805889353
 10
107.8959832927
 20
13.9811850838
 10
107.8969042733
 20
13.981815379
 10
107.8981784979
 20
13.9824279604
 10
107.901788747
 20
13.9835991629
 10
107.906810677
 20
13.984696231
 10
107.9132372299
 20
13.9857163055
 10
107.9210571177
 20
13.9866568787
 10
107.9302508622
 20
13.9875161267
 10
107.9407974551
 20
13.9882923409
 10
107.9658341775
 20
13.9895907674
 10
107.9958418848
 20
13.9905442376
 10
108.0302036255
 20
13.991149053
 10
108.0679848962
 20
13.9914195155
 10
108.1081646125
 20
13.9913860366
 10
108.1499044365
 20
13.9910865533
 10
108.2360455218
 20
13.9898322463
 10
108.323602199
 20
13.9878937074
 10
108.4122655452
 20
13.9854058585
 10
108.5035019011
 20
13.9823980862
 10
108.5987681729
 20
13.9788448838
 10
108.6989081861
 20
13.9747081903
 10
108.8056018981
 20
13.9698883915
 10
108.9208240916
 20
13.9642414595
 10
109.0465008863
 20
13.9575935127
 10
109.191311037
 20
13.949332403
 10
109.336083733
 20
13.9404412319
  0
LINE
  5
312
100
AcDbEntity
  8
6_SURFACES-PATINS-SPEC
100
AcDbLine
 62
7
  6
CONTINUOUS
 10
112.6362391954
 20
13.8100013941
 11
112.4029284073
 21
13.1644842401
  0
LINE
  5
313
100
AcDbEntity
  8
0
100
AcDbLine
 62
7
  6
CONTINUOUS
 10
129.2940713517
 20
35.0714946736
 11
129.2916584757
 21
35.0648449238
  0
LINE
  5
314
100
AcDbEntity
  8
6_SURFACES-PATINS-SPEC
100
AcDbLine
 62
7
  6
CONTINUOUS
 10
110.1936370422
 20
13.1644842401
 11
110.337760609
 21
13.5604604854
  0
LINE
  5
315
100
AcDbEntity
  8
6_SURFACES-PATINS-SPEC
100
AcDbLine
 62
7
  6
CONTINUOUS
 10
122.1936370422
 20
13.1644842401
 11
122.4007273566
 21
13.7334602027
  0
LINE
  5
316
100
AcDbEntity
  8
6_SURFACES-PATINS-SPEC
100
AcDbLine
 62
7
  6
CONTINUOUS
 10
112.409031492
 20
13.1644842401
 11
112.6440708928
 21
13.8096350586
  0
LINE
  5
317
100
AcDbEntity
  8
0
100
AcDbLine
 62
7
  6
CONTINUOUS
 10
128.1333465666
 20
25.4844476764
 11
128.1836495535
 21
25.6214189659
  0
LWPOLYLINE
  5
318
100
AcDbEntity
  8
6_SURFACES-PATINS-SPEC
100
AcDbPolyline
 62
7
  6
CONTINUOUS
 90
49
 70
0
 10
112.4029284097
 20
13.1644842401
 10
112.3945508302
 20
13.1421979097
 10
112.3856056799
 20
13.1201221376
 10
112.3761009886
 20
13.0982730226
 10
112.3660447857
 20
13.0766666637
 10
112.3554451011
 20
13.0553191599
 10
112.3443099644
 20
13.03424661
 10
112.3326582151
 20
13.013483637
 10
112.320486881
 20
12.9930241765
 10
112.307802827
 20
12.9728812252
 10
112.2946129181
 20
12.9530677796
 10
112.2809240193
 20
12.9335968362
 10
112.2667429954
 20
12.9144813915
 10
112.2520925494
 20
12.8957530042
 10
112.236968758
 20
12.8774034679
 10
112.2213825494
 20
12.8594438873
 10
112.2053448521
 20
12.841885367
 10
112.1888665943
 20
12.8247390118
 10
112.1719587043
 20
12.8080159263
 10
112.1546505523
 20
12.7917440913
 10
112.1369355119
 20
12.7759166689
 10
112.1188245181
 20
12.7605446102
 10
112.1003285063
 20
12.7456388663
 10
112.0814584116
 20
12.7312103884
 10
112.0622251693
 20
12.7172701275
 10
112.0426600204
 20
12.7038416521
 10
112.0227570777
 20
12.6909185165
 10
112.0025300524
 20
12.6785078941
 10
111.9819926561
 20
12.6666169584
 10
111.9611586003
 20
12.6552528829
 10
111.9400415965
 20
12.6444228411
 10
111.9186738087
 20
12.634142562
 10
111.8970513023
 20
12.6244096916
 10
111.875188135
 20
12.6152313561
 10
111.8530983647
 20
12.6066146818
 10
111.8307960493
 20
12.5985667948
 10
111.8082952467
 20
12.5910948214
 10
111.7856243783
 20
12.5842092599
 10
111.7627839559
 20
12.5779085716
 10
111.7397886243
 20
12.5721953197
 10
111.7166530281
 20
12.5670720676
 10
111.6933918118
 20
12.5625413786
 10
111.67001962
 20
12.5586058162
 10
111.6465585289
 20
12.5552688024
 10
111.6230193295
 20
12.5525315399
 10
111.5994201886
 20
12.5503964377
 10
111.5757792726
 20
12.5488659052
 10
111.5521147481
 20
12.5479423516
 10
111.5284447818
 20
12.547628186
  0
LINE
  5
319
100
AcDbEntity
  8
0
100
AcDbLine
 62
7
  6
CONTINUOUS
 10
129.2984281957
 20
35.0841818049
 11
129.2910022363
 21
35.0645661461
  0
LINE
  5
31A
100
AcDbEntity
  8
0
100
AcDbLine
 62
7
  6
CONTINUOUS
 10
129.2965660766
 20
35.0780786475
 11
129.2940713517
 21
35.0714946736
  0
LINE
  5
31B
100
AcDbEntity
  8
0
100
AcDbLine
 62
7
  6
CONTINUOUS
 10
128.356487837
 20
26.0543752381
 11
128.3947271663
 21
26.1550187423
  0
LINE
  5
31C
100
AcDbEntity
  8
0
100
AcDbLine
 62
7
  6
CONTINUOUS
 10
128.1836495535
 20
25.6214189659
 11
128.2307596894
 21
25.7411136546
  0
LINE
  5
31D
100
AcDbEntity
  8
0
100
AcDbLine
 62
7
  6
CONTINUOUS
 10
129.2991408362
 20
35.0845960182
 11
129.2965660766
 21
35.0780786475
  0
LINE
  5
31E
100
AcDbEntity
  8
0
100
AcDbLine
 62
7
  6
CONTINUOUS
 10
128.316560331
 20
25.9535589873
 11
128.356487837
 21
26.0543752381
  0
LINE
  5
31F
100
AcDbEntity
  8
0
100
AcDbLine
 62
7
  6
CONTINUOUS
 10
128.2307596894
 20
25.7411136546
 11
128.316560331
 21
25.9535589873
  0
LWPOLYLINE
  5
320
100
AcDbEntity
  8
6_SURFACES-PATINS-SPEC
100
AcDbPolyline
 62
7
  6
CONTINUOUS
 90
7
 70
0
 10
122.7391505934
 20
13.9692654344
 10
122.7418274629
 20
13.9758498907
 10
122.7444872207
 20
13.9824412902
 10
122.7492872113
 20
13.9944362658
 10
122.7540485606
 20
14.006446673
 10
122.7587770942
 20
14.0184700637
 10
122.7634786376
 20
14.0305039903
  0
LWPOLYLINE
  5
321
100
AcDbEntity
  8
0
100
AcDbPolyline
 62
7
  6
CONTINUOUS
 90
15
 70
0
 10
128.0705873324
 20
25.3086779751
 10
128.0673572214
 20
25.3007390473
 10
128.0640600503
 20
25.2928275925
 10
128.0606971157
 20
25.2849434822
 10
128.0572697138
 20
25.277086588
 10
128.0528572217
 20
25.2672163902
 10
128.0483466115
 20
25.2573895125
 10
128.0437402416
 20
25.2476061907
 10
128.0390404703
 20
25.2378666607
 10
128.0342496562
 20
25.2281711587
 10
128.0293701577
 20
25.2185199204
 10
128.0244043331
 20
25.2089131819
 10
128.0193545409
 20
25.199351179
 10
128.0142231394
 20
25.1898341477
 10
128.0090124872
 20
25.180362324
  0
LINE
  5
322
100
AcDbEntity
  8
6_SURFACES-PATINS-SPEC
100
AcDbLine
 62
7
  6
CONTINUOUS
 10
112.3821875246
 20
13.0987232387
 11
112.4090314922
 21
13.1644842401
  0
LINE
  5
323
100
AcDbEntity
  8
0
100
AcDbLine
 62
7
  6
CONTINUOUS
 10
129.3017938175
 20
35.0910460003
 11
129.2991408362
 21
35.0845960182
  0
LINE
  5
324
100
AcDbEntity
  8
6_SURFACES-PATINS-SPEC
100
AcDbLine
 62
7
  6
CONTINUOUS
 10
110.7130521508
 20
13.806387351
 11
110.7121318864
 21
13.804154509
  0
LWPOLYLINE
  5
325
100
AcDbEntity
  8
6_SURFACES-PATINS-SPEC
100
AcDbPolyline
 62
7
  6
CONTINUOUS
 90
36
 70
0
 10
110.7121318864
 20
13.804154509
 10
110.7112234785
 20
13.801977766
 10
110.7103043087
 20
13.7998056576
 10
110.7093723528
 20
13.7976389854
 10
110.7084255866
 20
13.795478551
 10
110.707461986
 20
13.793325156
 10
110.7064795267
 20
13.7911796021
 10
110.7058518314
 20
13.7898369216
 10
110.7052139298
 20
13.7884989761
 10
110.7045638497
 20
13.787167093
 10
110.7038996186
 20
13.7858425994
 10
110.703219264
 20
13.7845268228
 10
110.7025208136
 20
13.7832210906
 10
110.7018022949
 20
13.7819267299
 10
110.7013387402
 20
13.7811192357
 10
110.7008633093
 20
13.7803184679
 10
110.700372846
 20
13.7795261287
 10
110.6998641942
 20
13.7787439204
 10
110.6995527164
 20
13.7782858735
 10
110.6992328634
 20
13.7778336862
 10
110.6989037623
 20
13.7773890588
 10
110.6985645405
 20
13.7769536917
 10
110.6982143253
 20
13.7765292852
 10
110.6980126291
 20
13.7762971754
 10
110.6978048333
 20
13.7760706887
 10
110.6975885623
 20
13.7758514747
 10
110.6973614407
 20
13.7756411829
 10
110.6971210929
 20
13.7754414629
 10
110.6968651434
 20
13.7752539643
 10
110.6967273838
 20
13.7751636824
 10
110.6965853254
 20
13.7750800754
 10
110.696439384
 20
13.7750061806
 10
110.6962899752
 20
13.7749450354
 10
110.6961375148
 20
13.7748996769
 10
110.6959824184
 20
13.7748731425
 10
110.6958251017
 20
13.7748684695
  0
LINE
  5
326
100
AcDbEntity
  8
6_SURFACES-PATINS-SPEC
100
AcDbLine
 62
7
  6
CONTINUOUS
 10
110.3261371989
 20
13.5285254288
 11
110.3415345072
 21
13.5647807188
  0
LINE
  5
327
100
AcDbEntity
  8
0
100
AcDbLine
 62
7
  6
CONTINUOUS
 10
129.3045232094
 20
35.0974278495
 11
129.3017938175
 21
35.0910460003
  0
LINE
  5
328
100
AcDbEntity
  8
0
100
AcDbLine
 62
7
  6
CONTINUOUS
 10
129.3078082164
 20
35.1059731141
 11
129.2984281957
 21
35.0841818049
  0
LINE
  5
329
100
AcDbEntity
  8
0
100
AcDbLine
 62
7
  6
CONTINUOUS
 10
126.6717506125
 20
15.4843175604
 11
126.744522333
 21
15.6489251498
  0
LINE
  5
32A
100
AcDbEntity
  8
0
100
AcDbLine
 62
7
  6
CONTINUOUS
 10
129.3073272036
 20
35.1037408625
 11
129.3045232094
 21
35.0974278495
  0
LWPOLYLINE
  5
32B
100
AcDbEntity
  8
6_SURFACES-PATINS-SPEC
100
AcDbPolyline
 62
7
  6
CONTINUOUS
 90
10
 70
0
 10
122.7217086477
 20
13.9281527211
 10
122.7233555868
 20
13.9318412676
 10
122.7249822786
 20
13.9355388274
 10
122.7265912933
 20
13.9392441839
 10
122.7281852009
 20
13.9429561206
 10
122.7297665718
 20
13.9466734208
 10
122.7321415059
 20
13.9523094561
 10
122.7344957303
 20
13.9579540808
 10
122.7368313809
 20
13.963606379
 10
122.7391505934
 20
13.9692654344
  0
LINE
  5
32C
100
AcDbEntity
  8
6_SURFACES-PATINS-SPEC
100
AcDbLine
 62
7
  6
CONTINUOUS
 10
122.7180378006
 20
13.9201680653
 11
122.7217086477
 21
13.9281527211
  0
LINE
  5
32D
100
AcDbEntity
  8
0
100
AcDbLine
 62
7
  6
CONTINUOUS
 10
129.3102039952
 20
35.109984376
 11
129.3073272036
 21
35.1037408625
  0
LINE
  5
32E
100
AcDbEntity
  8
0
100
AcDbLine
 62
7
  6
CONTINUOUS
 10
129.3131517838
 20
35.1161577666
 11
129.3102039952
 21
35.109984376
  0
LINE
  5
32F
100
AcDbEntity
  8
6_SURFACES-PATINS-SPEC
100
AcDbLine
 62
7
  6
CONTINUOUS
 10
122.7141543121
 20
13.9122476458
 11
122.7180378006
 21
13.9201680653
  0
LINE
  5
330
100
AcDbEntity
  8
0
100
AcDbLine
 62
7
  6
CONTINUOUS
 10
129.3193805259
 20
35.1295452651
 11
129.3078082164
 21
35.1059731141
  0
LINE
  5
331
100
AcDbEntity
  8
0
100
AcDbLine
 62
7
  6
CONTINUOUS
 10
129.3161687738
 20
35.1222604501
 11
129.3131517838
 21
35.1161577666
  0
LWPOLYLINE
  5
332
100
AcDbEntity
  8
6_SURFACES-PATINS-SPEC
100
AcDbPolyline
 62
7
  6
CONTINUOUS
 90
14
 70
0
 10
110.7063283835
 20
13.8183203687
 10
110.7069335979
 20
13.8195297088
 10
110.7075283608
 20
13.8207442513
 10
110.7081135321
 20
13.82196351
 10
110.7086899716
 20
13.8231869988
 10
110.7092585392
 20
13.8244142317
 10
110.7098200948
 20
13.8256447226
 10
110.7103754982
 20
13.8268779854
 10
110.7111624832
 20
13.8286501911
 10
110.7119393559
 20
13.8304267434
 10
110.7127068826
 20
13.8322072903
 10
110.7134658296
 20
13.8339914799
 10
110.7142169632
 20
13.8357789602
 10
110.7149610498
 20
13.8375693791
  0
LINE
  5
333
100
AcDbEntity
  8
6_SURFACES-PATINS-SPEC
100
AcDbLine
 62
7
  6
CONTINUOUS
 10
112.3449266805
 20
13.0252028675
 11
112.3821875246
 21
13.0987232387
  0
LINE
  5
334
100
AcDbEntity
  8
0
100
AcDbLine
 62
7
  6
CONTINUOUS
 10
129.3192531753
 20
35.1282918809
 11
129.3161687738
 21
35.1222604501
  0
LINE
  5
335
100
AcDbEntity
  8
0
100
AcDbLine
 62
7
  6
CONTINUOUS
 10
129.3224032048
 20
35.1342515517
 11
129.3192531753
 21
35.1282918809
  0
LINE
  5
336
100
AcDbEntity
  8
0
100
AcDbLine
 62
7
  6
CONTINUOUS
 10
126.5871638165
 20
15.3257406367
 11
126.6717506125
 21
15.4843175604
  0
LINE
  5
337
100
AcDbEntity
  8
0
100
AcDbLine
 62
7
  6
CONTINUOUS
 10
129.3256170859
 20
35.1401389925
 11
129.3224032048
 21
35.1342515517
  0
LINE
  5
338
100
AcDbEntity
  8
6_SURFACES-PATINS-SPEC
100
AcDbLine
 62
7
  6
CONTINUOUS
 10
110.3415345072
 20
13.5647807188
 11
110.3613173823
 21
13.600283559
  0
LINE
  5
339
100
AcDbEntity
  8
0
100
AcDbLine
 62
7
  6
CONTINUOUS
 10
129.3336440167
 20
35.1549443801
 11
129.3193805259
 21
35.1295452651
  0
LINE
  5
33A
100
AcDbEntity
  8
0
100
AcDbLine
 62
7
  6
CONTINUOUS
 10
129.3288930499
 20
35.1459537707
 11
129.3256170859
 21
35.1401389925
  0
LINE
  5
33B
100
AcDbEntity
  8
0
100
AcDbLine
 62
7
  6
CONTINUOUS
 10
129.3322293363
 20
35.1516954898
 11
129.3288930499
 21
35.1459537707
  0
LINE
  5
33C
100
AcDbEntity
  8
0
100
AcDbLine
 62
7
  6
CONTINUOUS
 10
129.3356241936
 20
35.1573637895
 11
129.3322293363
 21
35.1516954898
  0
LINE
  5
33D
100
AcDbEntity
  8
0
100
AcDbLine
 62
7
  6
CONTINUOUS
 10
129.33907588
 20
35.1629583446
 11
129.3356241936
 21
35.1573637895
  0
LINE
  5
33E
100
AcDbEntity
  8
6_SURFACES-PATINS-SPEC
100
AcDbLine
 62
7
  6
CONTINUOUS
 10
112.3013652012
 20
12.9551529498
 11
112.3449266805
 21
13.0252028675
  0
LINE
  5
33F
100
AcDbEntity
  8
0
100
AcDbLine
 62
7
  6
CONTINUOUS
 10
126.4913256609
 20
15.1741100351
 11
126.5871638165
 21
15.3257406367
  0
LINE
  5
340
100
AcDbEntity
  8
0
100
AcDbLine
 62
7
  6
CONTINUOUS
 10
129.3425826633
 20
35.1684788646
 11
129.33907588
 21
35.1629583446
  0
LINE
  5
341
100
AcDbEntity
  8
0
100
AcDbLine
 62
7
  6
CONTINUOUS
 10
129.3513643376
 20
35.1823830676
 11
129.3336440167
 21
35.1549443801
  0
LINE
  5
342
100
AcDbEntity
  8
0
100
AcDbLine
 62
7
  6
CONTINUOUS
 10
129.3461428225
 20
35.1739250935
 11
129.3425826633
 21
35.1684788646
  0
LINE
  5
343
100
AcDbEntity
  8
6_SURFACES-PATINS-SPEC
100
AcDbLine
 62
7
  6
CONTINUOUS
 10
122.7078790147
 20
13.9028484774
 11
122.7141543121
 21
13.9122476458
  0
LINE
  5
344
100
AcDbEntity
  8
0
100
AcDbLine
 62
7
  6
CONTINUOUS
 10
129.3497546473
 20
35.1792968083
 11
129.3461428225
 21
35.1739250935
  0
LINE
  5
345
100
AcDbEntity
  8
0
100
AcDbLine
 62
7
  6
CONTINUOUS
 10
129.3534164394
 20
35.1845938195
 11
129.3497546473
 21
35.1792968083
  0
LINE
  5
346
100
AcDbEntity
  8
6_SURFACES-PATINS-SPEC
100
AcDbLine
 62
7
  6
CONTINUOUS
 10
110.3613173823
 20
13.600283559
 11
110.3848262766
 21
13.6334370457
  0
LINE
  5
347
100
AcDbEntity
  8
0
100
AcDbLine
 62
7
  6
CONTINUOUS
 10
129.3571265124
 20
35.1898159696
 11
129.3534164394
 21
35.1845938195
  0
LINE
  5
348
100
AcDbEntity
  8
0
100
AcDbLine
 62
7
  6
CONTINUOUS
 10
129.3608831927
 20
35.1949631331
 11
129.3571265124
 21
35.1898159696
  0
LINE
  5
349
100
AcDbEntity
  8
0
100
AcDbLine
 62
7
  6
CONTINUOUS
 10
126.3850452495
 20
15.0304869368
 11
126.4913256609
 21
15.1741100351
  0
LWPOLYLINE
  5
34A
100
AcDbEntity
  8
DEFAULT_2
100
AcDbPolyline
 62
8
  6
CONTINUOUS
 90
33
 70
0
 10
125.8901551361
 20
16.4557080292
 10
125.9154824536
 20
16.4895515773
 10
125.9401354312
 20
16.5238974163
 10
125.9641097703
 20
16.5587250481
 10
125.9874011722
 20
16.5940139742
 10
126.0111474984
 20
16.6315900421
 10
126.0341323904
 20
16.6696345915
 10
126.0563540111
 20
16.708128895
 10
126.0778105233
 20
16.747054225
 10
126.0994955354
 20
16.7883271832
 10
126.1203483334
 20
16.8300277954
 10
126.1403805799
 20
16.8721300596
 10
126.1596039372
 20
16.9146079738
 10
126.1788593236
 20
16.9594172798
 10
126.1972532164
 20
17.0045864131
 10
126.2147964782
 20
17.0500926025
 10
126.2314999719
 20
17.0959130771
 10
126.2480395848
 20
17.1440101698
 10
126.2637032291
 20
17.1923998205
 10
126.2785165061
 20
17.2410575184
 10
126.2925050173
 20
17.2899587523
 10
126.306187176
 20
17.3409825206
 10
126.3190290199
 20
17.3922235172
 10
126.3310523526
 20
17.4436626917
 10
126.3422789778
 20
17.4952809938
 10
126.3530671896
 20
17.5487917763
 10
126.3630555052
 20
17.6024575325
 10
126.3722715488
 20
17.6562622896
 10
126.3807429442
 20
17.7101900748
 10
126.3886897054
 20
17.7656432549
 10
126.3959023543
 20
17.8211959449
 10
126.4024018848
 20
17.8768349134
 10
126.4082092909
 20
17.9325469292
  0
LINE
  5
34B
100
AcDbEntity
  8
0
100
AcDbLine
 62
7
  6
CONTINUOUS
 10
129.3646848197
 20
35.2000352154
 11
129.3608831927
 21
35.1949631331
  0
LINE
  5
34C
100
AcDbEntity
  8
0
100
AcDbLine
 62
7
  6
CONTINUOUS
 10
129.3624579747
 20
35.1971849214
 11
129.3513643376
 21
35.1823830676
  0
LINE
  5
34D
100
AcDbEntity
  8
6_SURFACES-PATINS-SPEC
100
AcDbLine
 62
7
  6
CONTINUOUS
 10
112.2517814223
 20
12.8891631615
 11
112.3013652012
 21
12.9551529498
  0
LINE
  5
34E
100
AcDbEntity
  8
0
100
AcDbLine
 62
7
  6
CONTINUOUS
 10
129.3685297464
 20
35.2050321526
 11
129.3646848197
 21
35.2000352154
  0
LINE
  5
34F
100
AcDbEntity
  8
0
100
AcDbLine
 62
7
  6
CONTINUOUS
 10
129.3724163398
 20
35.2099539109
 11
129.3685297464
 21
35.2050321526
  0
LWPOLYLINE
  5
350
100
AcDbEntity
  8
DEFAULT_2
100
AcDbPolyline
 62
8
  6
CONTINUOUS
 90
21
 70
0
 10
114.2638778631
 20
27.7461716016
 10
114.2770103302
 20
27.7626905144
 10
114.2903769033
 20
27.7790236445
 10
114.3039770681
 20
27.7951646591
 10
114.3178103103
 20
27.8111072256
 10
114.3318761155
 20
27.8268450114
 10
114.3456951947
 20
27.8418594472
 10
114.3597302504
 20
27.8566714879
 10
114.3739803718
 20
27.8712760584
 10
114.388444648
 20
27.8856680836
 10
114.4031221682
 20
27.8998424883
 10
114.4180736177
 20
27.9138512263
 10
114.4332372032
 20
27.9276304784
 10
114.4486109747
 20
27.9411752926
 10
114.4641929823
 20
27.954480717
 10
114.4799812761
 20
27.9675417994
 10
114.4955488294
 20
27.9800186314
 10
114.5113064573
 20
27.9922545663
 10
114.5272505436
 20
28.0042450133
 10
114.5433774721
 20
28.0159853814
 10
114.5596836268
 20
28.0274710798
  0
LINE
  5
351
100
AcDbEntity
  8
0
100
AcDbLine
 62
7
  6
CONTINUOUS
 10
129.376342981
 20
35.2148004855
 11
129.3724163398
 21
35.2099539109
  0
LINE
  5
352
100
AcDbEntity
  8
0
100
AcDbLine
 62
7
  6
CONTINUOUS
 10
129.380308066
 20
35.2195719005
 11
129.376342981
 21
35.2148004855
  0
LINE
  5
353
100
AcDbEntity
  8
0
100
AcDbLine
 62
7
  6
CONTINUOUS
 10
129.3843100061
 20
35.2242682082
 11
129.380308066
 21
35.2195719005
  0
LWPOLYLINE
  5
354
100
AcDbEntity
  8
0
100
AcDbPolyline
 62
7
  6
CONTINUOUS
 90
31
 70
0
 10
128.009012491
 20
25.1803623248
 10
128.0128685939
 20
25.1848641137
 10
128.016665352
 20
25.1894175764
 10
128.0203987199
 20
25.1940240252
 10
128.0240646519
 20
25.1986847722
 10
128.0276591025
 20
25.2034011297
 10
128.0311780263
 20
25.2081744098
 10
128.0346173776
 20
25.2130059248
 10
128.0376428319
 20
25.2174076248
 10
128.0405959053
 20
25.2218583668
 10
128.0434720241
 20
25.2263589052
 10
128.0462666145
 20
25.2309099946
 10
128.0489751025
 20
25.2355123892
 10
128.0515929143
 20
25.2401668437
 10
128.0541154761
 20
25.2448741123
 10
128.0560439585
 20
25.2486429452
 10
128.0579064215
 20
25.2524452464
 10
128.0596995544
 20
25.256280833
 10
128.061420046
 20
25.2601495221
 10
128.0630645856
 20
25.2640511306
 10
128.0646298622
 20
25.2679854757
 10
128.0661125649
 20
25.2719523743
 10
128.0675093826
 20
25.2759516436
 10
128.0687159109
 20
25.2796597816
 10
128.0698440236
 20
25.2833933225
 10
128.0708908275
 20
25.2871504158
 10
128.0718534293
 20
25.2909292111
 10
128.0727289357
 20
25.2947278579
 10
128.0735144533
 20
25.2985445058
 10
128.0742070889
 20
25.3023773043
 10
128.0748039492
 20
25.3062244029
  0
LINE
  5
355
100
AcDbEntity
  8
0
100
AcDbLine
 62
7
  6
CONTINUOUS
 10
126.2694824266
 20
14.8960502753
 11
126.3850452495
 21
15.0304869368
  0
LINE
  5
356
100
AcDbEntity
  8
0
100
AcDbLine
 62
7
  6
CONTINUOUS
 10
129.388478087
 20
35.2296039879
 11
129.3821948241
 21
35.2223912288
  0
LINE
  5
357
100
AcDbEntity
  8
0
100
AcDbLine
 62
7
  6
CONTINUOUS
 10
129.3883472276
 20
35.2288894884
 11
129.3843100061
 21
35.2242682082
  0
LINE
  5
358
100
AcDbEntity
  8
6_SURFACES-PATINS-SPEC
100
AcDbLine
 62
7
  6
CONTINUOUS
 10
110.3848262766
 20
13.6334370457
 11
110.4117850553
 21
13.6638517114
  0
LINE
  5
359
100
AcDbEntity
  8
0
100
AcDbLine
 62
7
  6
CONTINUOUS
 10
129.3924181729
 20
35.2334358476
 11
129.3883472276
 21
35.2288894884
  0
LINE
  5
35A
100
AcDbEntity
  8
6_SURFACES-PATINS-SPEC
100
AcDbLine
 62
7
  6
CONTINUOUS
 10
112.196530101
 20
12.8277892933
 11
112.2517814223
 21
12.8891631615
  0
LINE
  5
35B
100
AcDbEntity
  8
0
100
AcDbLine
 62
7
  6
CONTINUOUS
 10
129.3965213004
 20
35.2379074187
 11
129.3924181729
 21
35.2334358476
  0
LINE
  5
35C
100
AcDbEntity
  8
0
100
AcDbLine
 62
7
  6
CONTINUOUS
 10
129.4006550849
 20
35.2423043605
 11
129.3965213004
 21
35.2379074187
  0
LINE
  5
35D
100
AcDbEntity
  8
0
100
AcDbLine
 62
7
  6
CONTINUOUS
 10
129.4162796191
 20
35.2584893657
 11
129.388478087
 21
35.2296039879
  0
LINE
  5
35E
100
AcDbEntity
  8
0
100
AcDbLine
 62
7
  6
CONTINUOUS
 10
129.4090086077
 20
35.250875115
 11
129.4048180178
 21
35.2466268565
  0
LINE
  5
35F
100
AcDbEntity
  8
0
100
AcDbLine
 62
7
  6
CONTINUOUS
 10
126.1460010262
 20
14.7718012899
 11
126.2694824266
 21
14.8960502753
  0
LINE
  5
360
100
AcDbEntity
  8
DEFAULT_2
100
AcDbLine
 62
8
  6
CONTINUOUS
 10
116.7608985149
 20
13.4708514292
 11
117.1194718808
 21
13.8294247951
  0
LINE
  5
361
100
AcDbEntity
  8
0
100
AcDbLine
 62
7
  6
CONTINUOUS
 10
116.8492868626
 20
13.3824630816
 11
117.2078618666
 21
13.7410380856
  0
LINE
  5
362
100
AcDbEntity
  8
0
100
AcDbLine
 62
7
  6
CONTINUOUS
 10
129.4132253801
 20
35.255049368
 11
129.4090086077
 21
35.250875115
  0
LINE
  5
363
100
AcDbEntity
  8
0
100
AcDbLine
 62
7
  6
CONTINUOUS
 10
129.417466878
 20
35.2591498708
 11
129.4132253801
 21
35.255049368
  0
LINE
  5
364
100
AcDbEntity
  8
0
100
AcDbLine
 62
7
  6
CONTINUOUS
 10
129.4217316621
 20
35.2631769014
 11
129.417466878
 21
35.2591498708
  0
LINE
  5
365
100
AcDbEntity
  8
6_SURFACES-PATINS-SPEC
100
AcDbLine
 62
7
  6
CONTINUOUS
 10
112.1360755866
 20
12.771477153
 11
112.196530101
 21
12.8277892933
  0
LINE
  5
366
100
AcDbEntity
  8
0
100
AcDbLine
 62
7
  6
CONTINUOUS
 10
117.2078601654
 20
13.7410365365
 11
117.2146079827
 21
13.7473042913
  0
LINE
  5
367
100
AcDbEntity
  8
0
100
AcDbLine
 62
7
  6
CONTINUOUS
 10
129.4260183111
 20
35.2671307599
 11
129.4217316621
 21
35.2631769014
  0
LINE
  5
368
100
AcDbEntity
  8
6_SURFACES-PATINS-SPEC
100
AcDbLine
 62
7
  6
CONTINUOUS
 10
110.4117850553
 20
13.6638517114
 11
110.4418770506
 21
13.6911702646
  0
LINE
  5
369
100
AcDbEntity
  8
0
100
AcDbLine
 62
7
  6
CONTINUOUS
 10
129.4303254201
 20
35.2710117666
 11
129.4260183111
 21
35.2671307599
  0
LINE
  5
36A
100
AcDbEntity
  8
0
100
AcDbLine
 62
7
  6
CONTINUOUS
 10
129.4346515236
 20
35.2748201942
 11
129.4303254201
 21
35.2710117666
  0
LINE
  5
36B
100
AcDbEntity
  8
0
100
AcDbLine
 62
7
  6
CONTINUOUS
 10
129.4495269776
 20
35.2876612142
 11
129.4162796191
 21
35.2584893657
  0
LINE
  5
36C
100
AcDbEntity
  8
0
100
AcDbLine
 62
7
  6
CONTINUOUS
 10
126.0163025318
 20
14.6586624066
 11
126.1460010262
 21
14.7718012899
  0
LINE
  5
36D
100
AcDbEntity
  8
0
100
AcDbLine
 62
7
  6
CONTINUOUS
 10
129.4389950548
 20
35.2785562403
 11
129.4346515236
 21
35.2748201942
  0
LINE
  5
36E
100
AcDbEntity
  8
0
100
AcDbLine
 62
7
  6
CONTINUOUS
 10
129.4433544485
 20
35.2822201234
 11
129.4389950548
 21
35.2785562403
  0
LINE
  5
36F
100
AcDbEntity
  8
0
100
AcDbLine
 62
7
  6
CONTINUOUS
 10
129.4477281506
 20
35.2858120908
 11
129.4433544485
 21
35.2822201234
  0
LINE
  5
370
100
AcDbEntity
  8
0
100
AcDbLine
 62
7
  6
CONTINUOUS
 10
129.4521146187
 20
35.2893324181
 11
129.4477281506
 21
35.2858120908
  0
LWPOLYLINE
  5
371
100
AcDbEntity
  8
DEFAULT_2
100
AcDbPolyline
 62
8
  6
CONTINUOUS
 90
33
 70
0
 10
113.3487116062
 20
16.0287255227
 10
113.3358068587
 20
16.0185050739
 10
113.3227157134
 20
16.0085118146
 10
113.3094415242
 20
15.9987545423
 10
113.2959876449
 20
15.9892420541
 10
113.2823574291
 20
15.9799831474
 10
113.2685542307
 20
15.9709866196
 10
113.2545814034
 20
15.9622612679
 10
113.2404423011
 20
15.9538158896
 10
113.2266915558
 20
15.9459662908
 10
113.2127923892
 20
15.9383895169
 10
113.1987470458
 20
15.9310913444
 10
113.1845577701
 20
15.9240775499
 10
113.1705227106
 20
15.9174890058
 10
113.1563566305
 20
15.9111848678
 10
113.1420644427
 20
15.9051711717
 10
113.12765106
 20
15.8994539532
 10
113.1133495624
 20
15.8941212468
 10
113.0989409358
 20
15.8890856541
 10
113.0844307261
 20
15.8843511606
 10
113.0698244787
 20
15.8799217517
 10
113.055282497
 20
15.8758427871
 10
113.0406582815
 20
15.872068969
 10
113.0259582021
 20
15.868602823
 10
113.0111886287
 20
15.8654468748
 10
112.9964316442
 20
15.8626170581
 10
112.9816184579
 20
15.8600975976
 10
112.9667553505
 20
15.8578893041
 10
112.9518486028
 20
15.8559929885
 10
112.9368969728
 20
15.8544084337
 10
112.921915707
 20
15.8531360827
 10
112.9069125677
 20
15.8521750257
 10
112.8918953175
 20
15.851524353
  0
LINE
  5
372
100
AcDbEntity
  8
0
100
AcDbLine
 62
7
  6
CONTINUOUS
 10
117.2146079827
 20
13.7473042913
 11
117.2234279073
 21
13.7542449785
  0
LINE
  5
373
100
AcDbEntity
  8
0
100
AcDbLine
 62
7
  6
CONTINUOUS
 10
129.4565123228
 20
35.2927814086
 11
129.4521146187
 21
35.2893324181
  0
LINE
  5
374
100
AcDbEntity
  8
6_SURFACES-PATINS-SPEC
100
AcDbLine
 62
7
  6
CONTINUOUS
 10
112.0708893049
 20
12.7206783689
 11
112.1360755866
 21
12.771477153
  0
LINE
  5
375
100
AcDbEntity
  8
6_SURFACES-PATINS-SPEC
100
AcDbLine
 62
7
  6
CONTINUOUS
 10
120.7598828928
 20
12.7206783715
 11
120.7650896881
 21
12.7247359564
  0
LWPOLYLINE
  5
376
100
AcDbEntity
  8
DEFAULT_2
100
AcDbPolyline
 62
8
  6
CONTINUOUS
 90
30
 70
0
 10
112.02362032
 20
16.1382566178
 10
112.0452904854
 20
16.1550944837
 10
112.0666582952
 20
16.1723251909
 10
112.0877181412
 20
16.1899398214
 10
112.1084644151
 20
16.2079294574
 10
112.1288915086
 20
16.226285181
 10
112.1489938134
 20
16.2449980742
 10
112.1687657212
 20
16.2640592193
 10
112.1890967645
 20
16.2843688939
 10
112.2090574759
 20
16.3050400327
 10
112.228645466
 20
16.326062512
 10
112.2478583456
 20
16.3474262084
 10
112.2666937253
 20
16.3691209985
 10
112.2851492157
 20
16.3911367587
 10
112.3032224276
 20
16.4134633655
 10
112.3193347791
 20
16.4340417573
 10
112.3351290599
 20
16.4548621945
 10
112.3506057263
 20
16.4759177066
 10
112.3657652344
 20
16.4972013231
 10
112.3810168009
 20
16.5193081325
 10
112.3959346357
 20
16.5416425755
 10
112.410519589
 20
16.5641986674
 10
112.4247725105
 20
16.5869704237
 10
112.4413380169
 20
16.614402081
 10
112.4574328158
 20
16.6421184331
 10
112.4730572714
 20
16.670105927
 10
112.4882117477
 20
16.69835101
 10
112.5028966089
 20
16.7268401291
 10
112.5171122192
 20
16.7555597313
 10
112.5308589425
 20
16.7844962637
  0
LINE
  5
377
100
AcDbEntity
  8
0
100
AcDbLine
 62
7
  6
CONTINUOUS
 10
129.4609197453
 20
35.2961593925
 11
129.4565123228
 21
35.2927814086
  0
LINE
  5
378
100
AcDbEntity
  8
0
100
AcDbLine
 62
7
  6
CONTINUOUS
 10
125.8829199339
 20
14.5577351567
 11
126.0163025318
 21
14.6586624066
  0
LINE
  5
379
100
AcDbEntity
  8
0
100
AcDbLine
 62
7
  6
CONTINUOUS
 10
129.4653353818
 20
35.2994667269
 11
129.4609197453
 21
35.2961593925
  0
LINE
  5
37A
100
AcDbEntity
  8
0
100
AcDbLine
 62
7
  6
CONTINUOUS
 10
129.4697577415
 20
35.302703795
 11
129.4653353818
 21
35.2994667269
  0
LINE
  5
37B
100
AcDbEntity
  8
0
100
AcDbLine
 62
7
  6
CONTINUOUS
 10
129.4877598369
 20
35.3154606162
 11
129.4495269776
 21
35.2876612142
  0
LINE
  5
37C
100
AcDbEntity
  8
6_SURFACES-PATINS-SPEC
100
AcDbLine
 62
7
  6
CONTINUOUS
 10
110.4418770506
 20
13.6911702646
 11
110.4747487693
 21
13.7150717796
  0
LINE
  5
37D
100
AcDbEntity
  8
0
100
AcDbLine
 62
7
  6
CONTINUOUS
 10
129.4741853475
 20
35.3058710054
 11
129.4697577415
 21
35.302703795
  0
LINE
  5
37E
100
AcDbEntity
  8
0
100
AcDbLine
 62
7
  6
CONTINUOUS
 10
129.4786167373
 20
35.3089687917
 11
129.4741853475
 21
35.3058710054
  0
LINE
  5
37F
100
AcDbEntity
  8
0
100
AcDbLine
 62
7
  6
CONTINUOUS
 10
129.4830504632
 20
35.311997612
 11
129.4786167373
 21
35.3089687917
  0
LWPOLYLINE
  5
380
100
AcDbEntity
  8
DEFAULT_2
100
AcDbPolyline
 62
8
  6
CONTINUOUS
 90
33
 70
0
 10
114.5596812575
 20
28.0274751702
 10
114.5816443277
 20
28.0423513403
 10
114.6039211889
 20
28.0567682736
 10
114.6265006924
 20
28.0707174927
 10
114.6493716896
 20
28.0841905202
 10
114.6725230316
 20
28.0971788788
 10
114.6959435698
 20
28.109674091
 10
114.7189970816
 20
28.121359997
 10
114.7422848352
 20
28.132567297
 10
114.7657964006
 20
28.1432930073
 10
114.7895213478
 20
28.1535341442
 10
114.8134492468
 20
28.1632877241
 10
114.8375696675
 20
28.1725507634
 10
114.8606441766
 20
28.1808909373
 10
114.8838738399
 20
28.1887859713
 10
114.9072495971
 20
28.1962357972
 10
114.9307623877
 20
28.2032403466
 10
114.9544031515
 20
28.2097995509
 10
114.977930471
 20
28.215856107
 10
115.0015656138
 20
28.2214774125
 10
115.0252997992
 20
28.2266649811
 10
115.0491242466
 20
28.2314203264
 10
115.0730301754
 20
28.2357449622
 10
115.0968508845
 20
28.2396163568
 10
115.1207359474
 20
28.2430669124
 10
115.1446779713
 20
28.2460993517
 10
115.1686695634
 20
28.2487163976
 10
115.1927033311
 20
28.2509207729
 10
115.2166603781
 20
28.2527079401
 10
115.2406439881
 20
28.2540922328
 10
115.2646462625
 20
28.2550769404
 10
115.2886593028
 20
28.2556653525
 10
115.3126752102
 20
28.2558607587
  0
LINE
  5
381
100
AcDbEntity
  8
0
100
AcDbLine
 62
7
  6
CONTINUOUS
 10
129.4874850926
 20
35.314957948
 11
129.4830504632
 21
35.311997612
  0
LINE
  5
382
100
AcDbEntity
  8
0
100
AcDbLine
 62
7
  6
CONTINUOUS
 10
125.7487193721
 20
14.4696956982
 11
125.8829199339
 21
14.5577351567
  0
LINE
  5
383
100
AcDbEntity
  8
0
100
AcDbLine
 62
7
  6
CONTINUOUS
 10
117.2234279073
 20
13.7542449785
 11
117.2324020228
 21
13.7601096586
  0
LINE
  5
384
100
AcDbEntity
  8
0
100
AcDbLine
 62
7
  6
CONTINUOUS
 10
129.4919192083
 20
35.3178503048
 11
129.4874850926
 21
35.314957948
  0
LINE
  5
385
100
AcDbEntity
  8
6_SURFACES-PATINS-SPEC
100
AcDbLine
 62
7
  6
CONTINUOUS
 10
112.0014536965
 20
12.6758453516
 11
112.0708893049
 21
12.7206783689
  0
LINE
  5
386
100
AcDbEntity
  8
6_SURFACES-PATINS-SPEC
100
AcDbLine
 62
7
  6
CONTINUOUS
 10
120.6904472855
 20
12.6758453543
 11
120.7598828928
 21
12.7206783715
  0
LINE
  5
387
100
AcDbEntity
  8
0
100
AcDbLine
 62
7
  6
CONTINUOUS
 10
129.4963514091
 20
35.3206752099
 11
129.4919192083
 21
35.3178503048
  0
LINE
  5
388
100
AcDbEntity
  8
0
100
AcDbLine
 62
7
  6
CONTINUOUS
 10
129.5007803097
 20
35.3234332131
 11
129.4963514091
 21
35.3206752099
  0
LINE
  5
389
100
AcDbEntity
  8
0
100
AcDbLine
 62
7
  6
CONTINUOUS
 10
129.5052045414
 20
35.3261248855
 11
129.5007803097
 21
35.3234332131
  0
LINE
  5
38A
100
AcDbEntity
  8
0
100
AcDbLine
 62
7
  6
CONTINUOUS
 10
129.5096227889
 20
35.3287508407
 11
129.5052045414
 21
35.3261248855
  0
LINE
  5
38B
100
AcDbEntity
  8
0
100
AcDbLine
 62
7
  6
CONTINUOUS
 10
129.5302047184
 20
35.3404521678
 11
129.4877598369
 21
35.3154606162
  0
LINE
  5
38C
100
AcDbEntity
  8
0
100
AcDbLine
 62
7
  6
CONTINUOUS
 10
129.5140339372
 20
35.3313118154
 11
129.5096227889
 21
35.3287508407
  0
LINE
  5
38D
100
AcDbEntity
  8
6_SURFACES-PATINS-SPEC
100
AcDbLine
 62
7
  6
CONTINUOUS
 10
110.4747487693
 20
13.7150717796
 11
110.510014067
 21
13.7352754863
  0
LINE
  5
38E
100
AcDbEntity
  8
0
100
AcDbLine
 62
7
  6
CONTINUOUS
 10
125.6166001863
 20
14.3946442867
 11
125.7487193721
 21
14.4696956982
  0
LINE
  5
38F
100
AcDbEntity
  8
0
100
AcDbLine
 62
7
  6
CONTINUOUS
 10
129.5184369497
 20
35.3338085887
 11
129.5140339372
 21
35.3313118154
  0
LINE
  5
390
100
AcDbEntity
  8
0
100
AcDbLine
 62
7
  6
CONTINUOUS
 10
129.5228308131
 20
35.3362419477
 11
129.5184369497
 21
35.3338085887
  0
LINE
  5
391
100
AcDbEntity
  8
0
100
AcDbLine
 62
7
  6
CONTINUOUS
 10
129.5272145376
 20
35.3386126863
 11
129.5228308131
 21
35.3362419477
  0
LINE
  5
392
100
AcDbEntity
  8
0
100
AcDbLine
 62
7
  6
CONTINUOUS
 10
117.2324020228
 20
13.7601096586
 11
117.24140695
 21
13.7649694902
  0
LINE
  5
393
100
AcDbEntity
  8
0
100
AcDbLine
 62
7
  6
CONTINUOUS
 10
129.5315871559
 20
35.3409216057
 11
129.5272145376
 21
35.3386126863
  0
LINE
  5
394
100
AcDbEntity
  8
6_SURFACES-PATINS-SPEC
100
AcDbLine
 62
7
  6
CONTINUOUS
 10
111.9283281478
 20
12.6373166549
 11
112.0014536965
 21
12.6758453516
  0
LINE
  5
395
100
AcDbEntity
  8
6_SURFACES-PATINS-SPEC
100
AcDbLine
 62
7
  6
CONTINUOUS
 10
120.6173217378
 20
12.6373166576
 11
120.6904472855
 21
12.6758453543
  0
LINE
  5
396
100
AcDbEntity
  8
0
100
AcDbLine
 62
7
  6
CONTINUOUS
 10
129.5359477239
 20
35.3431695129
 11
129.5315871559
 21
35.3409216057
  0
LINE
  5
397
100
AcDbEntity
  8
0
100
AcDbLine
 62
7
  6
CONTINUOUS
 10
129.5402953198
 20
35.3453572209
 11
129.5359477239
 21
35.3431695129
  0
LINE
  5
398
100
AcDbEntity
  8
0
100
AcDbLine
 62
7
  6
CONTINUOUS
 10
129.5446290444
 20
35.3474855476
 11
129.5402953198
 21
35.3453572209
  0
LINE
  5
399
100
AcDbEntity
  8
0
100
AcDbLine
 62
7
  6
CONTINUOUS
 10
125.4889287473
 20
14.3319660352
 11
125.6166001863
 21
14.3946442867
  0
LINE
  5
39A
100
AcDbEntity
  8
0
100
AcDbLine
 62
7
  6
CONTINUOUS
 10
129.5489480205
 20
35.349555316
 11
129.5446290444
 21
35.3474855476
  0
LINE
  5
39B
100
AcDbEntity
  8
0
100
AcDbLine
 62
7
  6
CONTINUOUS
 10
129.5532513927
 20
35.351567353
 11
129.5489480205
 21
35.349555316
  0
LINE
  5
39C
100
AcDbEntity
  8
0
100
AcDbLine
 62
7
  6
CONTINUOUS
 10
129.57613054
 20
35.3616418193
 11
129.5302047184
 21
35.3404521678
  0
LINE
  5
39D
100
AcDbEntity
  8
0
100
AcDbLine
 62
7
  6
CONTINUOUS
 10
129.5575383274
 20
35.3535224894
 11
129.5532513927
 21
35.351567353
  0
LINE
  5
39E
100
AcDbEntity
  8
0
100
AcDbLine
 62
7
  6
CONTINUOUS
 10
129.5618080125
 20
35.3554215593
 11
129.5575383274
 21
35.3535224894
  0
LINE
  5
39F
100
AcDbEntity
  8
0
100
AcDbLine
 62
7
  6
CONTINUOUS
 10
117.24140695
 20
13.7649694902
 11
117.2503151679
 21
13.7688925884
  0
LINE
  5
3A0
100
AcDbEntity
  8
6_SURFACES-PATINS-SPEC
100
AcDbLine
 62
7
  6
CONTINUOUS
 10
110.510014067
 20
13.7352754863
 11
110.5472587053
 21
13.7515440704
  0
LINE
  5
3A1
100
AcDbEntity
  8
0
100
AcDbLine
 62
7
  6
CONTINUOUS
 10
129.5660596567
 20
35.3572653997
 11
129.5618080125
 21
35.3554215593
  0
LINE
  5
3A2
100
AcDbEntity
  8
0
100
AcDbLine
 62
7
  6
CONTINUOUS
 10
125.3675306812
 20
14.2805989496
 11
125.4889287473
 21
14.3319660352
  0
LINE
  5
3A3
100
AcDbEntity
  8
0
100
AcDbLine
 62
7
  6
CONTINUOUS
 10
129.5702924902
 20
35.3590548499
 11
129.5660596567
 21
35.3572653997
  0
LINE
  5
3A4
100
AcDbEntity
  8
6_SURFACES-PATINS-SPEC
100
AcDbLine
 62
7
  6
CONTINUOUS
 10
111.8521177793
 20
12.6053730319
 11
111.9283281478
 21
12.6373166549
  0
LINE
  5
3A5
100
AcDbEntity
  8
6_SURFACES-PATINS-SPEC
100
AcDbLine
 62
7
  6
CONTINUOUS
 10
120.5411113699
 20
12.6053730343
 11
120.6173217378
 21
12.6373166576
  0
LINE
  5
3A6
100
AcDbEntity
  8
0
100
AcDbLine
 62
7
  6
CONTINUOUS
 10
129.4498824074
 20
33.9982481008
 11
129.4506746397
 21
33.9985782987
  0
LWPOLYLINE
  5
3A7
100
AcDbEntity
  8
6_SURFACES-PATINS-SPEC
100
AcDbPolyline
 62
7
  6
CONTINUOUS
 90
22
 70
0
 10
119.9149612728
 20
13.8091521142
 10
119.9176795701
 20
13.8102824051
 10
119.9204816723
 20
13.8112058734
 10
119.9290751233
 20
13.8135112913
 10
119.9407675765
 20
13.8160604088
 10
119.9555165603
 20
13.8188383058
 10
119.973258781
 20
13.8218296761
 10
119.9939327058
 20
13.8250221822
 10
120.018901794
 20
13.8286083974
 10
120.0439004482
 20
13.8319853663
 10
120.1049866831
 20
13.8396576171
 10
120.1766444402
 20
13.8479517447
 10
120.2584620621
 20
13.8567843957
 10
120.3499818417
 20
13.86607347
 10
120.4505428548
 20
13.8757026977
 10
120.5592489191
 20
13.8855558231
 10
120.677208778
 20
13.8956800233
 10
120.7952132444
 20
13.9052729206
 10
120.919895782
 20
13.9148797402
 10
121.0446162628
 20
13.9239806791
 10
121.1669263413
 20
13.9324372317
 10
121.2892666878
 20
13.9404412326
  0
LINE
  5
3A8
100
AcDbEntity
  8
0
100
AcDbLine
 62
7
  6
CONTINUOUS
 10
129.5745057633
 20
35.3607907512
 11
129.5702924902
 21
35.3590548499
  0
LINE
  5
3A9
100
AcDbEntity
  8
0
100
AcDbLine
 62
7
  6
CONTINUOUS
 10
129.578698747
 20
35.3624739467
 11
129.5745057633
 21
35.3607907512
  0
LINE
  5
3AA
100
AcDbEntity
  8
0
100
AcDbLine
 62
7
  6
CONTINUOUS
 10
129.5828707325
 20
35.3641052804
 11
129.578698747
 21
35.3624739467
  0
LINE
  5
3AB
100
AcDbEntity
  8
0
100
AcDbLine
 62
7
  6
CONTINUOUS
 10
129.5870210306
 20
35.3656855973
 11
129.5828707325
 21
35.3641052804
  0
LINE
  5
3AC
100
AcDbEntity
  8
0
100
AcDbLine
 62
7
  6
CONTINUOUS
 10
129.5911489721
 20
35.3672157425
 11
129.5870210306
 21
35.3656855973
  0
LINE
  5
3AD
100
AcDbEntity
  8
0
100
AcDbLine
 62
7
  6
CONTINUOUS
 10
129.4506746397
 20
33.9985782987
 11
129.4497647809
 21
33.9982462145
  0
LINE
  5
3AE
100
AcDbEntity
  8
0
100
AcDbLine
 62
7
  6
CONTINUOUS
 10
125.2538175277
 20
14.2392731435
 11
125.3675306812
 21
14.2805989496
  0
LINE
  5
3AF
100
AcDbEntity
  8
0
100
AcDbLine
 62
7
  6
CONTINUOUS
 10
129.595253843
 20
35.3686965389
 11
129.5911489721
 21
35.3672157425
  0
LINE
  5
3B0
100
AcDbEntity
  8
0
100
AcDbLine
 62
7
  6
CONTINUOUS
 10
117.2503151679
 20
13.7688925884
 11
117.2587457881
 21
13.7718733494
  0
LINE
  5
3B1
100
AcDbEntity
  8
0
100
AcDbLine
 62
7
  6
CONTINUOUS
 10
129.5993345987
 20
35.3701286901
 11
129.595253843
 21
35.3686965389
  0
LINE
  5
3B2
100
AcDbEntity
  8
6_SURFACES-PATINS-SPEC
100
AcDbLine
 62
7
  6
CONTINUOUS
 10
107.9174714386
 20
13.9028484511
 11
107.9177373222
 21
13.9029416967
  0
LINE
  5
3B3
100
AcDbEntity
  8
0
100
AcDbLine
 62
7
  6
CONTINUOUS
 10
129.6247992953
 20
35.3783244227
 11
129.57613054
 21
35.3616418193
  0
LINE
  5
3B4
100
AcDbEntity
  8
0
100
AcDbLine
 62
7
  6
CONTINUOUS
 10
129.4497647809
 20
33.9982462145
 11
129.4437226429
 21
33.9961803084
  0
LINE
  5
3B5
100
AcDbEntity
  8
0
100
AcDbLine
 62
7
  6
CONTINUOUS
 10
129.6033900894
 20
35.3715128731
 11
129.5993345987
 21
35.3701286901
  0
LINE
  5
3B6
100
AcDbEntity
  8
0
100
AcDbLine
 62
7
  6
CONTINUOUS
 10
129.6074191779
 20
35.3728497819
 11
129.6033900894
 21
35.3715128731
  0
LINE
  5
3B7
100
AcDbEntity
  8
0
100
AcDbLine
 62
7
  6
CONTINUOUS
 10
129.61142074
 20
35.374140127
 11
129.6074191779
 21
35.3728497819
  0
LINE
  5
3B8
100
AcDbEntity
  8
6_SURFACES-PATINS-SPEC
100
AcDbLine
 62
7
  6
CONTINUOUS
 10
111.7733986336
 20
12.5802675837
 11
111.8521177793
 21
12.6053730319
  0
LINE
  5
3B9
100
AcDbEntity
  8
6_SURFACES-PATINS-SPEC
100
AcDbLine
 62
7
  6
CONTINUOUS
 10
120.4623922244
 20
12.5802675854
 11
120.5411113699
 21
12.6053730343
  0
LINE
  5
3BA
100
AcDbEntity
  8
6_SURFACES-PATINS-SPEC
100
AcDbLine
 62
7
  6
CONTINUOUS
 10
110.5472587053
 20
13.7515440704
 11
110.5860452007
 21
13.7636864412
  0
LINE
  5
3BB
100
AcDbEntity
  8
0
100
AcDbLine
 62
7
  6
CONTINUOUS
 10
125.1485277844
 20
14.2065502333
 11
125.2538175277
 21
14.2392731435
  0
LINE
  5
3BC
100
AcDbEntity
  8
0
100
AcDbLine
 62
7
  6
CONTINUOUS
 10
129.4437226429
 20
33.9961803084
 11
129.4324540995
 21
33.9927079558
  0
LINE
  5
3BD
100
AcDbEntity
  8
0
100
AcDbLine
 62
7
  6
CONTINUOUS
 10
129.6970163513
 20
35.3932726995
 11
129.6938998818
 21
35.3928486634
  0
LINE
  5
3BE
100
AcDbEntity
  8
0
100
AcDbLine
 62
7
  6
CONTINUOUS
 10
129.7000879357
 20
35.3936711153
 11
129.6970163513
 21
35.3932726995
  0
LINE
  5
3BF
100
AcDbEntity
  8
0
100
AcDbLine
 62
7
  6
CONTINUOUS
 10
129.7269262937
 20
35.3963685154
 11
129.675360447
 21
35.3899953229
  0
LINE
  5
3C0
100
AcDbEntity
  8
0
100
AcDbLine
 62
7
  6
CONTINUOUS
 10
129.7031134887
 20
35.3940446677
 11
129.7000879357
 21
35.3936711153
  0
LINE
  5
3C1
100
AcDbEntity
  8
0
100
AcDbLine
 62
7
  6
CONTINUOUS
 10
129.1113714057
 20
33.9416884284
 11
129.0512659844
 21
33.934436416
  0
LINE
  5
3C2
100
AcDbEntity
  8
0
100
AcDbLine
 62
7
  6
CONTINUOUS
 10
129.0901809091
 20
33.9317669298
 11
129.0255990703
 21
33.9240953043
  0
LINE
  5
3C3
100
AcDbEntity
  8
0
100
AcDbLine
 62
7
  6
CONTINUOUS
 10
129.7060918737
 20
35.3943941241
 11
129.7031134887
 21
35.3940446677
  0
LINE
  5
3C4
100
AcDbEntity
  8
0
100
AcDbLine
 62
7
  6
CONTINUOUS
 10
129.7090219854
 20
35.3947202632
 11
129.7060918737
 21
35.3943941241
  0
LINE
  5
3C5
100
AcDbEntity
  8
0
100
AcDbLine
 62
7
  6
CONTINUOUS
 10
129.0512659844
 20
33.934436416
 11
128.9861449448
 21
33.92730413
  0
LINE
  5
3C6
100
AcDbEntity
  8
0
100
AcDbLine
 62
7
  6
CONTINUOUS
 10
129.0255990703
 20
33.9240953043
 11
128.9557684559
 21
33.9165600943
  0
LINE
  5
3C7
100
AcDbEntity
  8
0
100
AcDbLine
 62
7
  6
CONTINUOUS
 10
129.7119031957
 20
35.3950239197
 11
129.7090219854
 21
35.3947202632
  0
LINE
  5
3C8
100
AcDbEntity
  8
0
100
AcDbLine
 62
7
  6
CONTINUOUS
 10
129.714735338
 20
35.3953059681
 11
129.7119031957
 21
35.3950239197
  0
LINE
  5
3C9
100
AcDbEntity
  8
0
100
AcDbLine
 62
7
  6
CONTINUOUS
 10
128.9861449448
 20
33.92730413
 11
128.9158838242
 21
33.9203452294
  0
LINE
  5
3CA
100
AcDbEntity
  8
0
100
AcDbLine
 62
7
  6
CONTINUOUS
 10
128.9557684559
 20
33.9165600943
 11
128.8805717099
 21
33.9092138542
  0
LINE
  5
3CB
100
AcDbEntity
  8
0
100
AcDbLine
 62
7
  6
CONTINUOUS
 10
129.7175182764
 20
35.3955672699
 11
129.714735338
 21
35.3953059681
  0
LINE
  5
3CC
100
AcDbEntity
  8
0
100
AcDbLine
 62
7
  6
CONTINUOUS
 10
128.9158838242
 20
33.9203452294
 11
128.8403582412
 21
33.9136156304
  0
LINE
  5
3CD
100
AcDbEntity
  8
0
100
AcDbLine
 62
7
  6
CONTINUOUS
 10
129.7202518868
 20
35.3958086717
 11
129.7175182764
 21
35.3955672699
  0
LINE
  5
3CE
100
AcDbEntity
  8
0
100
AcDbLine
 62
7
  6
CONTINUOUS
 10
128.8805717099
 20
33.9092138542
 11
128.7998733193
 21
33.9021102819
  0
LINE
  5
3CF
100
AcDbEntity
  8
0
100
AcDbLine
 62
7
  6
CONTINUOUS
 10
129.7229360558
 20
35.3960310049
 11
129.7202518868
 21
35.3958086717
  0
LINE
  5
3D0
100
AcDbEntity
  8
0
100
AcDbLine
 62
7
  6
CONTINUOUS
 10
128.8403582412
 20
33.9136156304
 11
128.7594508315
 21
33.9071745924
  0
LWPOLYLINE
  5
3D1
100
AcDbEntity
  8
0
100
AcDbPolyline
 62
7
  6
CONTINUOUS
 90
27
 70
0
 10
133.0776107305
 20
33.2215981712
 10
133.0910714293
 20
33.2226660247
 10
133.1045284338
 20
33.2237800572
 10
133.1163943987
 20
33.2248080001
 10
133.1282555743
 20
33.2258880691
 10
133.1384373935
 20
33.2268664195
 10
133.1486136483
 20
33.2279056179
 10
133.1570373865
 20
33.2288251212
 10
133.1654515744
 20
33.2298169498
 10
133.1698539353
 20
33.2303735711
 10
133.1742522319
 20
33.2309666635
 10
133.1786464021
 20
33.2316072651
 10
133.1818109405
 20
33.2321068881
 10
133.184965868
 20
33.2326532929
 10
133.1881037516
 20
33.233262823
 10
133.1897590038
 20
33.2336222449
 10
133.1914092433
 20
33.2340360852
 10
133.1925986772
 20
33.2343849375
 10
133.1937580059
 20
33.2347710303
 10
133.1941131089
 20
33.2349018542
 10
133.1944626724
 20
33.2350510283
 10
133.1948069841
 20
33.2352340144
 10
133.1951463318
 20
33.2354662742
 10
133.195311381
 20
33.2356061593
 10
133.1954525345
 20
33.2357620613
 10
133.1955470785
 20
33.235933631
 10
133.1955722995
 20
33.2361205191
  0
LINE
  5
3D2
100
AcDbEntity
  8
0
100
AcDbLine
 62
7
  6
CONTINUOUS
 10
128.7998733193
 20
33.9021102819
 11
128.7135354687
 21
33.8953067907
  0
LINE
  5
3D3
100
AcDbEntity
  8
0
100
AcDbLine
 62
7
  6
CONTINUOUS
 10
129.7255706808
 20
35.396235086
 11
129.7229360558
 21
35.3960310049
  0
LINE
  5
3D4
100
AcDbEntity
  8
0
100
AcDbLine
 62
7
  6
CONTINUOUS
 10
129.7281556687
 20
35.396421716
 11
129.7255706808
 21
35.396235086
  0
LINE
  5
3D5
100
AcDbEntity
  8
0
100
AcDbLine
 62
7
  6
CONTINUOUS
 10
128.7594508315
 20
33.9071745924
 11
128.6730579934
 21
33.9010854829
  0
LINE
  5
3D6
100
AcDbEntity
  8
0
100
AcDbLine
 62
7
  6
CONTINUOUS
 10
128.7135354687
 20
33.8953067907
 11
128.6214256169
 21
33.8888657189
  0
LINE
  5
3D7
100
AcDbEntity
  8
0
100
AcDbLine
 62
7
  6
CONTINUOUS
 10
129.730690935
 20
35.3965916803
 11
129.7281556687
 21
35.396421716
  0
LINE
  5
3D8
100
AcDbEntity
  8
0
100
AcDbLine
 62
7
  6
CONTINUOUS
 10
129.7331763223
 20
35.3967457444
 11
129.730690935
 21
35.3965916803
  0
LINE
  5
3D9
100
AcDbEntity
  8
0
100
AcDbLine
 62
7
  6
CONTINUOUS
 10
128.6730579934
 20
33.9010854829
 11
128.5810899731
 21
33.8954159297
  0
LINE
  5
3DA
100
AcDbEntity
  8
0
100
AcDbLine
 62
7
  6
CONTINUOUS
 10
128.6214256169
 20
33.8888657189
 11
128.5234245763
 21
33.8828553191
  0
LINE
  5
3DB
100
AcDbEntity
  8
0
100
AcDbLine
 62
7
  6
CONTINUOUS
 10
129.7356109337
 20
35.3968846189
 11
129.7331763223
 21
35.3967457444
  0
LINE
  5
3DC
100
AcDbEntity
  8
0
100
AcDbLine
 62
7
  6
CONTINUOUS
 10
128.5810899731
 20
33.8954159297
 11
128.483479028
 21
33.8902385182
  0
LINE
  5
3DD
100
AcDbEntity
  8
0
100
AcDbLine
 62
7
  6
CONTINUOUS
 10
128.5234245763
 20
33.8828553191
 11
128.4194279293
 21
33.8773502108
  0
LINE
  5
3DE
100
AcDbEntity
  8
0
100
AcDbLine
 62
7
  6
CONTINUOUS
 10
129.7379934756
 20
35.3970089947
 11
129.7356109337
 21
35.3968846189
  0
LINE
  5
3DF
100
AcDbEntity
  8
0
100
AcDbLine
 62
7
  6
CONTINUOUS
 10
129.7403226622
 20
35.3971195697
 11
129.7379934756
 21
35.3970089947
  0
LWPOLYLINE
  5
3E0
100
AcDbEntity
  8
0
100
AcDbPolyline
 62
7
  6
CONTINUOUS
 90
9
 70
0
 10
132.700620609
 20
33.2001654774
 10
132.7489688111
 20
33.202325706
 10
132.7973105274
 20
33.2046283446
 10
132.8456451767
 20
33.2070795134
 10
132.8939721778
 20
33.2096853324
 10
132.9345663837
 20
33.2120037278
 10
132.9751516772
 20
33.2144701089
 10
133.015724954
 20
33.2171189863
 10
133.0562831101
 20
33.2199848707
  0
LINE
  5
3E1
100
AcDbEntity
  8
0
100
AcDbLine
 62
7
  6
CONTINUOUS
 10
128.4194279293
 20
33.8773502108
 11
128.3093624546
 21
33.8724326016
  0
LINE
  5
3E2
100
AcDbEntity
  8
0
100
AcDbLine
 62
7
  6
CONTINUOUS
 10
128.483479028
 20
33.8902385182
 11
128.3801952609
 21
33.8856315315
  0
LINE
  5
3E3
100
AcDbEntity
  8
0
100
AcDbLine
 62
7
  6
CONTINUOUS
 10
129.7425972119
 20
35.3972170474
 11
129.7403226622
 21
35.3971195697
  0
LINE
  5
3E4
100
AcDbEntity
  8
0
100
AcDbLine
 62
7
  6
CONTINUOUS
 10
129.7448163666
 20
35.3973021541
 11
129.7425972119
 21
35.3972170474
  0
LINE
  5
3E5
100
AcDbEntity
  8
0
100
AcDbLine
 62
7
  6
CONTINUOUS
 10
128.3093624546
 20
33.8724326016
 11
128.1931993577
 21
33.8681928856
  0
LINE
  5
3E6
100
AcDbEntity
  8
0
100
AcDbLine
 62
7
  6
CONTINUOUS
 10
128.3801952609
 20
33.8856315315
 11
128.2712558134
 21
33.8816789059
  0
LINE
  5
3E7
100
AcDbEntity
  8
0
100
AcDbLine
 62
7
  6
CONTINUOUS
 10
129.7623966391
 20
35.3976281245
 11
129.7269262937
 21
35.3963685154
  0
LWPOLYLINE
  5
3E8
100
AcDbEntity
  8
DEFAULT_2
100
AcDbPolyline
 62
8
  6
CONTINUOUS
 90
57
 70
0
 10
127.922418625
 20
26.3622197021
 10
127.9353483277
 20
26.3626354
 10
127.9482382141
 20
26.363383596
 10
127.96109405
 20
26.364464722
 10
127.973921601
 20
26.3658792098
 10
127.9867227947
 20
26.3676269096
 10
127.9994842063
 20
26.369705345
 10
128.0121885727
 20
26.3721114576
 10
128.0248186312
 20
26.3748421892
 10
128.0373600374
 20
26.3778950114
 10
128.049810123
 20
26.381269515
 10
128.0621691381
 20
26.3849658205
 10
128.0744373332
 20
26.3889840486
 10
128.0866121815
 20
26.39332322
 10
128.0986800482
 20
26.3979779576
 10
128.1106245214
 20
26.4029417843
 10
128.1224291894
 20
26.4082082232
 10
128.1340803194
 20
26.4137717921
 10
128.1455748958
 20
26.4196309874
 10
128.156912582
 20
26.4257853005
 10
128.1680930414
 20
26.4322342225
 10
128.1791139649
 20
26.4389760887
 10
128.1899651533
 20
26.4460046102
 10
128.2006344349
 20
26.4533123421
 10
128.211109638
 20
26.4608918396
 10
128.2213798363
 20
26.4687361086
 10
128.2314390859
 20
26.4768399582
 10
128.2412826882
 20
26.4851986482
 10
128.2509059447
 20
26.4938074386
 10
128.2603040844
 20
26.5026616678
 10
128.2694720463
 20
26.5117569888
 10
128.2784046969
 20
26.5210891334
 10
128.2870969028
 20
26.5306538331
 10
128.2955429744
 20
26.5404456162
 10
128.3037349984
 20
26.550454197
 10
128.3116645053
 20
26.5606680867
 10
128.3193230256
 20
26.571075796
 10
128.3267034098
 20
26.5816677021
 10
128.3338037881
 20
26.5924416464
 10
128.3406236105
 20
26.6033973367
 10
128.3471623271
 20
26.6145344804
 10
128.3534181681
 20
26.6258501992
 10
128.359384485
 20
26.6373312709
 10
128.3650534093
 20
26.6489618876
 10
128.3704170728
 20
26.660726241
 10
128.3754689402
 20
26.6726111964
 10
128.3802078085
 20
26.6846143118
 10
128.3846338078
 20
26.6967358185
 10
128.3887470682
 20
26.7089759478
 10
128.3925469433
 20
26.7213320667
 10
128.3960296801
 20
26.7337900848
 10
128.3991907491
 20
26.7463330474
 10
128.4020256209
 20
26.7589439999
 10
128.4045306737
 20
26.7716097656
 10
128.4067059176
 20
26.7843322803
 10
128.4085522703
 20
26.7971172578
 10
128.4100706498
 20
26.809970412
  0
LINE
  5
3E9
100
AcDbEntity
  8
0
100
AcDbLine
 62
7
  6
CONTINUOUS
 10
129.7490817055
 20
35.3974380249
 11
129.7448163666
 21
35.3973021541
  0
LINE
  5
3EA
100
AcDbEntity
  8
0
100
AcDbLine
 62
7
  6
CONTINUOUS
 10
128.1931993577
 20
33.8681928856
 11
128.0709695407
 21
33.8647299768
  0
LINE
  5
3EB
100
AcDbEntity
  8
0
100
AcDbLine
 62
7
  6
CONTINUOUS
 10
128.2712558134
 20
33.8816789059
 11
128.1567370847
 21
33.878470022
  0
LINE
  5
3EC
100
AcDbEntity
  8
0
100
AcDbLine
 62
7
  6
CONTINUOUS
 10
129.7530950302
 20
35.397532604
 11
129.7490817055
 21
35.3974380249
  0
LINE
  5
3ED
100
AcDbEntity
  8
0
100
AcDbLine
 62
7
  6
CONTINUOUS
 10
128.0709695407
 20
33.8647299768
 11
127.9427836055
 21
33.8621513605
  0
LINE
  5
3EE
100
AcDbEntity
  8
0
100
AcDbLine
 62
7
  6
CONTINUOUS
 10
128.1567370847
 20
33.878470022
 11
128.0367896414
 21
33.8760991843
  0
LINE
  5
3EF
100
AcDbEntity
  8
DEFAULT_2
100
AcDbLine
 62
8
  6
CONTINUOUS
 10
127.6762205885
 20
26.3574735314
 11
127.9224186261
 21
26.3622196467
  0
LWPOLYLINE
  5
3F0
100
AcDbEntity
  8
0
100
AcDbPolyline
 62
7
  6
CONTINUOUS
 90
49
 70
0
 10
115.3126752102
 20
29.2434679263
 10
115.3510675793
 20
29.2440836642
 10
115.3894474834
 20
29.2459285523
 10
115.4277685448
 20
29.2489991022
 10
115.4659843862
 20
29.2532918254
 10
115.50404863
 20
29.2588032335
 10
115.5419148988
 20
29.265529838
 10
115.5795050159
 20
29.2734593629
 10
115.6168150532
 20
29.2825880081
 10
115.653808847
 20
29.2929053494
 10
115.6904502338
 20
29.3044009626
 10
115.7267030498
 20
29.3170644236
 10
115.7625311315
 20
29.3308853082
 10
115.7978397478
 20
29.3458261644
 10
115.8326527291
 20
29.361892971
 10
115.866933804
 20
29.3790684979
 10
115.9006467011
 20
29.3973355147
 10
115.9337551489
 20
29.4166767913
 10
115.9662228761
 20
29.4370750972
 10
115.9979453977
 20
29.4584639933
 10
116.0289618847
 20
29.4808643265
 10
116.0592403316
 20
29.5042522861
 10
116.0887487328
 20
29.5286040614
 10
116.1174550825
 20
29.5538958414
 10
116.1453273752
 20
29.5801038157
 10
116.1722708363
 20
29.607137317
 10
116.1983251823
 20
29.6350293373
 10
116.2234632231
 20
29.6637502756
 10
116.2476577683
 20
29.6932705312
 10
116.2708816279
 20
29.7235605032
 10
116.2931076114
 20
29.7545905906
 10
116.3142633246
 20
29.786258477
 10
116.3343777129
 20
29.8185983811
 10
116.3534299396
 20
29.8515749795
 10
116.3713991679
 20
29.8851529484
 10
116.388264561
 20
29.9192969644
 10
116.4040052822
 20
29.9539717039
 10
116.4185773117
 20
29.989079931
 10
116.4319945043
 20
30.0246453051
 10
116.4442435441
 20
30.0606312978
 10
116.4553111153
 20
30.0970013808
 10
116.465183902
 20
30.1337190258
 10
116.4738485882
 20
30.1707477045
 10
116.481286494
 20
30.2080121637
 10
116.487500205
 20
30.2455026042
 10
116.4924845422
 20
30.2831710412
 10
116.4962343266
 20
30.3209694903
 10
116.4987443792
 20
30.3588499668
 10
116.500009521
 20
30.3967644861
  0
LWPOLYLINE
  5
3F1
100
AcDbEntity
  8
DEFAULT_2
100
AcDbPolyline
 62
8
  6
CONTINUOUS
 90
57
 70
0
 10
115.3126752102
 20
27.7450430639
 10
115.2939365014
 20
27.7447464085
 10
115.2752117146
 20
27.7438622484
 10
115.2565227969
 20
27.7423898048
 10
115.2377136485
 20
27.7403067226
 10
115.2189811701
 20
27.7376279565
 10
115.2003431081
 20
27.7343581683
 10
115.1813923251
 20
27.7304074181
 10
115.1625767665
 20
27.7258537922
 10
115.1439142744
 20
27.7207080615
 10
115.1247085697
 20
27.7147480239
 10
115.1057031344
 20
27.7081768937
 10
115.0869138164
 20
27.701010875
 10
115.067373884
 20
27.692838194
 10
115.0481046615
 20
27.6840454559
 10
115.0291195223
 20
27.6746545816
 10
115.0092109389
 20
27.6640115113
 10
114.9896504235
 20
27.6527408738
 10
114.9704481196
 20
27.6408697083
 10
114.9501939997
 20
27.6274541169
 10
114.9303728781
 20
27.6134060362
 10
114.9109911479
 20
27.5987571542
 10
114.8904848907
 20
27.5822359221
 10
114.8705043212
 20
27.5650820285
 10
114.8510513489
 20
27.5473314957
 10
114.8304752251
 20
27.527370211
 10
114.8105238299
 20
27.5067839085
 10
114.7911943528
 20
27.4856119789
 10
114.7708343933
 20
27.4619178477
 10
114.7512021766
 20
27.4376167835
 10
114.7322902306
 20
27.4127505308
 10
114.7125274852
 20
27.3851078394
 10
114.693595146
 20
27.3568893882
 10
114.6754802506
 20
27.3281387455
 10
114.656797941
 20
27.2965004164
 10
114.6390413898
 20
27.2643330442
 10
114.6221957702
 20
27.2316788751
 10
114.6093259264
 20
27.2051489056
 10
114.5970270629
 20
27.178349535
 10
114.5852930351
 20
27.1512976693
 10
114.5741176984
 20
27.1240102146
 10
114.5629198742
 20
27.0949658666
 10
114.5523323466
 20
27.0656936026
 10
114.542349625
 20
27.0362092185
 10
114.532966219
 20
27.0065285102
 10
114.5238500331
 20
26.9755123075
 10
114.5153705839
 20
26.9443161406
 10
114.5075241195
 20
26.9129547598
 10
114.500306888
 20
26.8814429154
 10
114.493587171
 20
26.8491456354
 10
114.4875177152
 20
26.8167198795
 10
114.4820974268
 20
26.7841784991
 10
114.477325212
 20
26.7515343457
 10
114.4731907174
 20
26.7187170434
 10
114.469708034
 20
26.6858246364
 10
114.4668786883
 20
26.6528724014
 10
114.4647042063
 20
26.6198756147
  0
LINE
  5
3F2
100
AcDbEntity
  8
0
100
AcDbLine
 62
7
  6
CONTINUOUS
 10
129.7568096104
 20
35.3975914197
 11
129.7530950302
 21
35.397532604
  0
LINE
  5
3F3
100
AcDbEntity
  8
0
100
AcDbLine
 62
7
  6
CONTINUOUS
 10
127.9427836055
 20
33.8621513605
 11
127.8088431755
 21
33.8605725212
  0
LINE
  5
3F4
100
AcDbEntity
  8
0
100
AcDbLine
 62
7
  6
CONTINUOUS
 10
128.0367896414
 20
33.8760991843
 11
127.9116434148
 21
33.8746645495
  0
LINE
  5
3F5
100
AcDbEntity
  8
0
100
AcDbLine
 62
7
  6
CONTINUOUS
 10
129.7628767307
 20
35.3976281243
 11
129.7561024767
 21
35.3975815708
  0
LINE
  5
3F6
100
AcDbEntity
  8
0
100
AcDbLine
 62
7
  6
CONTINUOUS
 10
127.8088431755
 20
33.8605725212
 11
127.6862784976
 21
33.8601075308
  0
LINE
  5
3F7
100
AcDbEntity
  8
0
100
AcDbLine
 62
7
  6
CONTINUOUS
 10
127.9116434148
 20
33.8746645495
 11
127.799704567
 21
33.8742564412
  0
LINE
  5
3F8
100
AcDbEntity
  8
0
100
AcDbLine
 62
7
  6
CONTINUOUS
 10
129.7625511245
 20
35.3976280262
 11
129.7606568412
 21
35.3976232369
  0
LINE
  5
3F9
100
AcDbEntity
  8
0
100
AcDbLine
 62
7
  6
CONTINUOUS
 10
129.7627209193
 20
35.3976281051
 11
129.7625915743
 21
35.3976280503
  0
LINE
  5
3FA
100
AcDbEntity
  8
DEFAULT_2
100
AcDbLine
 62
8
  6
CONTINUOUS
 10
126.7614752411
 20
18.8976281245
 11
126.4482085488
 21
18.8976281245
  0
LINE
  5
3FB
100
AcDbEntity
  8
DEFAULT_2
100
AcDbLine
 62
8
  6
CONTINUOUS
 10
104.1771418716
 20
18.8976281245
 11
103.8638751794
 21
18.8976281245
  0
LINE
  5
3FC
100
AcDbEntity
  8
0
100
AcDbLine
 62
7
  6
CONTINUOUS
 10
97.3126752102
 20
31.8976281245
 11
133.3126752102
 21
31.8976281245
  0
LINE
  5
3FD
100
AcDbEntity
  8
0
100
AcDbLine
 62
7
  6
CONTINUOUS
 10
132.700620609
 20
33.2001654774
 11
97.9247298115
 21
33.2001654774
  0
LINE
  5
3FE
100
AcDbEntity
  8
0
100
AcDbLine
 62
7
  6
CONTINUOUS
 10
102.9390719228
 20
33.8561584276
 11
127.6862784976
 21
33.8561584276
  0
LINE
  5
3FF
100
AcDbEntity
  8
0
100
AcDbLine
 62
7
  6
CONTINUOUS
 10
127.6862784976
 20
33.860107531
 11
102.9390719228
 21
33.860107531
  0
LINE
  5
400
100
AcDbEntity
  8
0
100
AcDbLine
 62
7
  6
CONTINUOUS
 10
102.8256458534
 20
33.8742564429
 11
127.799704567
 21
33.8742564429
  0
LINE
  5
401
100
AcDbEntity
  8
0
100
AcDbLine
 62
7
  6
CONTINUOUS
 10
129.762851449
 20
35.3976281265
 11
129.7627901724
 21
35.3976281207
  0
LINE
  5
402
100
AcDbEntity
  8
0
100
AcDbLine
 62
7
  6
CONTINUOUS
 10
129.7628567657
 20
35.3976281266
 11
129.762851449
 21
35.3976281265
  0
LINE
  5
403
100
AcDbEntity
  8
0
100
AcDbLine
 62
7
  6
CONTINUOUS
 10
132.7773820944
 20
35.3976281245
 11
129.7628927656
 21
35.3976281245
  0
LINE
  5
404
100
AcDbEntity
  8
0
100
AcDbLine
 62
7
  6
CONTINUOUS
 10
100.8642384493
 20
35.3976250426
 11
97.8479683261
 21
35.3976281245
  0
LINE
  5
405
100
AcDbEntity
  8
0
100
AcDbLine
 62
7
  6
CONTINUOUS
 10
102.9390719228
 20
33.8601075308
 11
102.8275264124
 21
33.8604925953
  0
LINE
  5
406
100
AcDbEntity
  8
0
100
AcDbLine
 62
7
  6
CONTINUOUS
 10
102.8256458534
 20
33.8742564412
 11
102.7145936058
 21
33.8746580946
  0
LINE
  5
407
100
AcDbEntity
  8
0
100
AcDbLine
 62
7
  6
CONTINUOUS
 10
100.8668756311
 20
35.3976088249
 11
100.8642384493
 21
35.3976250426
  0
LINE
  5
408
100
AcDbEntity
  8
0
100
AcDbLine
 62
7
  6
CONTINUOUS
 10
102.8275264124
 20
33.8604925953
 11
102.7037463821
 21
33.8618265587
  0
LINE
  5
409
100
AcDbEntity
  8
0
100
AcDbLine
 62
7
  6
CONTINUOUS
 10
102.7145936058
 20
33.8746580946
 11
102.590265662
 21
33.8760725901
  0
LINE
  5
40A
100
AcDbEntity
  8
0
100
AcDbLine
 62
7
  6
CONTINUOUS
 10
100.8710573315
 20
35.3975545899
 11
100.8668756311
 21
35.3976088249
  0
LWPOLYLINE
  5
40B
100
AcDbEntity
  8
DEFAULT_2
100
AcDbPolyline
 62
8
  6
CONTINUOUS
 90
57
 70
0
 10
115.3126752102
 20
27.7450430639
 10
115.331413919
 20
27.7447464085
 10
115.3501387058
 20
27.7438622484
 10
115.3688276235
 20
27.7423898048
 10
115.3876367719
 20
27.7403067226
 10
115.4063692503
 20
27.7376279565
 10
115.4250073124
 20
27.7343581683
 10
115.4439580954
 20
27.7304074181
 10
115.462773654
 20
27.7258537922
 10
115.481436146
 20
27.7207080615
 10
115.5006418508
 20
27.7147480239
 10
115.5196472861
 20
27.7081768937
 10
115.5384366041
 20
27.701010875
 10
115.5579765364
 20
27.692838194
 10
115.5772457589
 20
27.6840454559
 10
115.5962308981
 20
27.6746545816
 10
115.6161394815
 20
27.6640115113
 10
115.635699997
 20
27.6527408738
 10
115.6549023009
 20
27.6408697083
 10
115.6751564208
 20
27.6274541169
 10
115.6949775424
 20
27.6134060362
 10
115.7143592726
 20
27.5987571542
 10
115.7348655298
 20
27.5822359221
 10
115.7548460993
 20
27.5650820285
 10
115.7742990716
 20
27.5473314957
 10
115.7948751954
 20
27.527370211
 10
115.8148265906
 20
27.5067839085
 10
115.8341560676
 20
27.4856119789
 10
115.8545160272
 20
27.4619178477
 10
115.8741482438
 20
27.4376167835
 10
115.8930601898
 20
27.4127505308
 10
115.9128229352
 20
27.3851078394
 10
115.9317552744
 20
27.3568893882
 10
115.9498701698
 20
27.3281387455
 10
115.9685524794
 20
27.2965004164
 10
115.9863090306
 20
27.2643330442
 10
116.0031546502
 20
27.2316788751
 10
116.016024494
 20
27.2051489056
 10
116.0283233575
 20
27.178349535
 10
116.0400573853
 20
27.1512976693
 10
116.051232722
 20
27.1240102146
 10
116.0624305462
 20
27.0949658666
 10
116.0730180738
 20
27.0656936026
 10
116.0830007954
 20
27.0362092185
 10
116.0923842014
 20
27.0065285102
 10
116.1015003873
 20
26.9755123075
 10
116.1099798366
 20
26.9443161406
 10
116.117826301
 20
26.9129547598
 10
116.1250435325
 20
26.8814429154
 10
116.1317632495
 20
26.8491456354
 10
116.1378327052
 20
26.8167198795
 10
116.1432529936
 20
26.7841784991
 10
116.1480252084
 20
26.7515343457
 10
116.1521597031
 20
26.7187170434
 10
116.1556423864
 20
26.6858246364
 10
116.1584717321
 20
26.6528724014
 10
116.1606462142
 20
26.6198756147
  0
LWPOLYLINE
  5
40C
100
AcDbEntity
  8
0
100
AcDbPolyline
 62
7
  6
CONTINUOUS
 90
49
 70
0
 10
115.3126752102
 20
29.2239136182
 10
115.2738723343
 20
29.2245426554
 10
115.2350823289
 20
29.2264273397
 10
115.1963530765
 20
29.2295640303
 10
115.1577324599
 20
29.2339490864
 10
115.1192683614
 20
29.2395788669
 10
115.0810086637
 20
29.2464497312
 10
115.0430340367
 20
29.2545488744
 10
115.005348545
 20
29.2638723274
 10
114.9679895007
 20
29.2744092128
 10
114.9309942156
 20
29.286148653
 10
114.8944000017
 20
29.2990797708
 10
114.858244171
 20
29.3131916886
 10
114.8226242384
 20
29.3284454025
 10
114.7875157575
 20
29.344847094
 10
114.752956099
 20
29.3623787878
 10
114.7189826335
 20
29.3810225084
 10
114.6856327319
 20
29.4007602805
 10
114.6529437648
 20
29.4215741289
 10
114.6210228062
 20
29.4433950651
 10
114.5898299256
 20
29.4662445657
 10
114.5593980013
 20
29.4900977998
 10
114.5297599117
 20
29.5149299365
 10
114.5009485349
 20
29.5407161449
 10
114.4729967493
 20
29.5674315942
 10
114.4460009435
 20
29.5949825755
 10
114.4199210924
 20
29.6234027593
 10
114.3947849911
 20
29.6526613059
 10
114.3706204349
 20
29.6827273755
 10
114.3474552192
 20
29.7135701285
 10
114.3253171392
 20
29.7451587252
 10
114.3042789431
 20
29.7773881493
 10
114.2843120375
 20
29.8102926347
 10
114.2654375037
 20
29.8438354396
 10
114.2476764234
 20
29.877979822
 10
114.2310498783
 20
29.9126890398
 10
114.2155789498
 20
29.9479263511
 10
114.2013069648
 20
29.9835929962
 10
114.1882208488
 20
30.0197113792
 10
114.1763338127
 20
30.0562435736
 10
114.1656590673
 20
30.0931516526
 10
114.1562098236
 20
30.1303976898
 10
114.1479992924
 20
30.1679437586
 10
114.141045112
 20
30.205714758
 10
114.1353450216
 20
30.2436977423
 10
114.1309035113
 20
30.2818430781
 10
114.1277250708
 20
30.3201011318
 10
114.1258141901
 20
30.3584222697
 10
114.125175359
 20
30.3967568584
  0
LWPOLYLINE
  5
40D
100
AcDbEntity
  8
0
100
AcDbPolyline
 62
7
  6
CONTINUOUS
 90
49
 70
0
 10
115.3126752102
 20
31.5696734271
 10
115.3514791648
 20
31.5690443543
 10
115.3902702476
 20
31.5671595637
 10
115.4290005721
 20
31.5640226969
 10
115.4676222521
 20
31.5596373956
 10
115.5060874009
 20
31.5540073015
 10
115.5443481323
 20
31.5471360561
 10
115.5823239094
 20
31.5390364337
 10
115.6200105251
 20
31.5297124269
 10
115.6573706638
 20
31.519174914
 10
115.69436701
 20
31.5074347733
 10
115.7309622482
 20
31.4945028831
 10
115.7671190629
 20
31.4803901218
 10
115.8027401488
 20
31.4651354001
 10
115.8378497296
 20
31.4487326196
 10
115.8724104307
 20
31.4311997587
 10
115.9063848776
 20
31.4125547957
 10
115.9397356958
 20
31.3928157087
 10
115.9724255108
 20
31.3720004761
 10
116.0043474331
 20
31.350177958
 10
116.0355411926
 20
31.3273268004
 10
116.065973907
 20
31.3034718377
 10
116.0956126938
 20
31.2786379045
 10
116.1244246706
 20
31.2528498354
 10
116.152376955
 20
31.226132465
 10
116.1793732538
 20
31.198579405
 10
116.2054534835
 20
31.1701570848
 10
116.2305898459
 20
31.1408963497
 10
116.2547545427
 20
31.1108280447
 10
116.2779197759
 20
31.0799830154
 10
116.3000577471
 20
31.0483921067
 10
116.3210957072
 20
31.016160345
 10
116.3410622474
 20
30.9832534988
 10
116.3599362856
 20
30.949708317
 10
116.3776967392
 20
30.9155615484
 10
116.394322526
 20
30.8808499419
 10
116.4097925635
 20
30.8456102462
 10
116.4240634744
 20
30.8099413689
 10
116.4371483945
 20
30.7738207733
 10
116.4490341151
 20
30.7372863908
 10
116.4597074274
 20
30.7003761525
 10
116.4691551228
 20
30.6631279899
 10
116.4773639926
 20
30.6255798341
 10
116.4843163573
 20
30.5878070446
 10
116.4900145217
 20
30.5498223235
 10
116.4944539801
 20
30.5116753109
 10
116.4976302268
 20
30.4734156473
 10
116.4995387559
 20
30.4350929731
 10
116.5001750616
 20
30.3967569284
  0
LINE
  5
40E
100
AcDbEntity
  8
0
100
AcDbLine
 62
7
  6
CONTINUOUS
 10
102.7037463821
 20
33.8618265587
 11
102.5848017299
 21
33.8640219248
  0
LINE
  5
40F
100
AcDbEntity
  8
DEFAULT_2
100
AcDbLine
 62
8
  6
CONTINUOUS
 10
102.7029317943
 20
26.3622196467
 11
102.949129832
 21
26.3574735314
  0
LINE
  5
410
100
AcDbEntity
  8
0
100
AcDbLine
 62
7
  6
CONTINUOUS
 10
100.8733178494
 20
35.3975107035
 11
100.8710573315
 21
35.3975545899
  0
LINE
  5
411
100
AcDbEntity
  8
0
100
AcDbLine
 62
7
  6
CONTINUOUS
 10
102.590265662
 20
33.8760725901
 11
102.4710619519
 21
33.8784116418
  0
LINE
  5
412
100
AcDbEntity
  8
0
100
AcDbLine
 62
7
  6
CONTINUOUS
 10
100.8756674118
 20
35.3974542489
 11
100.8733178494
 21
35.3975107035
  0
LINE
  5
413
100
AcDbEntity
  8
0
100
AcDbLine
 62
7
  6
CONTINUOUS
 10
102.5848017299
 20
33.8640219248
 11
102.4708627234
 21
33.8669876657
  0
LINE
  5
414
100
AcDbEntity
  8
0
100
AcDbLine
 62
7
  6
CONTINUOUS
 10
102.4710619519
 20
33.8784116418
 11
102.3572084673
 21
33.8815790586
  0
LINE
  5
415
100
AcDbEntity
  8
0
100
AcDbLine
 62
7
  6
CONTINUOUS
 10
100.8781049891
 20
35.3973839982
 11
100.8756674118
 21
35.3974542489
  0
LINE
  5
416
100
AcDbEntity
  8
DEFAULT_2
100
AcDbLine
 62
8
  6
CONTINUOUS
 10
118.3099568293
 20
15.8338705414
 11
117.7334715062
 21
15.8515244895
  0
LWPOLYLINE
  5
417
100
AcDbEntity
  8
DEFAULT_2
100
AcDbPolyline
 62
8
  6
CONTINUOUS
 90
33
 70
0
 10
119.4841469662
 20
15.8338704919
 10
119.4548762243
 20
15.8347755075
 10
119.4256226832
 20
15.8362055902
 10
119.3963979705
 20
15.8381655269
 10
119.3672137136
 20
15.8406601043
 10
119.3381965488
 20
15.8436807548
 10
119.3092413503
 20
15.8472396578
 10
119.2803584126
 20
15.8513399008
 10
119.2515580303
 20
15.855984571
 10
119.2228658846
 20
15.8611734967
 10
119.1942778764
 20
15.8669102828
 10
119.1658053921
 20
15.8731958559
 10
119.1374598178
 20
15.8800311425
 10
119.1091575339
 20
15.8874425164
 10
119.0810057721
 20
15.8954066789
 10
119.0530158231
 20
15.9039220548
 10
119.0251989773
 20
15.912987069
 10
118.9973595553
 20
15.922674343
 10
118.9697190058
 20
15.9329155041
 10
118.9422890248
 20
15.9437081052
 10
118.9150813083
 20
15.9550496995
 10
118.8878021602
 20
15.9670757095
 10
118.8607738851
 20
15.9796556413
 10
118.8340080453
 20
15.9927843714
 10
118.8075162028
 20
16.0064567761
 10
118.7809044251
 20
16.0208924182
 10
118.7545967006
 20
16.0358754174
 10
118.728602576
 20
16.0513977056
 10
118.7029315977
 20
16.067451215
 10
118.6770854119
 20
16.0843671067
 10
118.6515956457
 20
16.1018149369
 10
118.6264724607
 20
16.1197821607
 10
118.6017260189
 20
16.1382562332
  0
LWPOLYLINE
  5
418
100
AcDbEntity
  8
DEFAULT_2
100
AcDbPolyline
 62
8
  6
CONTINUOUS
 90
57
 70
0
 10
102.9491298187
 20
26.3574728451
 10
102.9621387917
 20
26.3570545849
 10
102.9751084382
 20
26.3563020545
 10
102.9880446165
 20
26.3552147845
 10
103.0009531846
 20
26.3537923055
 10
103.0138361008
 20
26.3520347394
 10
103.0266797229
 20
26.3499445734
 10
103.0394665089
 20
26.347524886
 10
103.0521789166
 20
26.3447787557
 10
103.0648023492
 20
26.3417087355
 10
103.077333991
 20
26.3383152759
 10
103.0897739715
 20
26.3345983019
 10
103.1021224201
 20
26.3305577384
 10
103.1143766758
 20
26.3261946203
 10
103.1265229154
 20
26.3215144214
 10
103.1385445249
 20
26.3165237254
 10
103.1504248905
 20
26.3112291159
 10
103.1621500968
 20
26.3056361824
 10
103.1737170214
 20
26.2997465376
 10
103.1851252403
 20
26.2935608002
 10
103.1963743297
 20
26.2870795885
 10
103.2074618892
 20
26.2803046847
 10
103.2183776122
 20
26.2732425239
 10
103.2291092159
 20
26.2659007051
 10
103.2396444172
 20
26.258286827
 10
103.2499721926
 20
26.2504080357
 10
103.2600865555
 20
26.2422696666
 10
103.2699827791
 20
26.2338766024
 10
103.2796561361
 20
26.2252337258
 10
103.2891018319
 20
26.2163458411
 10
103.2983148012
 20
26.2072174383
 10
103.307289911
 20
26.1978529288
 10
103.3160220284
 20
26.1882567242
 10
103.3245054695
 20
26.178434439
 10
103.3327323464
 20
26.1683964989
 10
103.3406942203
 20
26.1581545328
 10
103.3483826523
 20
26.1477201696
 10
103.3557905349
 20
26.1371031603
 10
103.3629160853
 20
26.1263057459
 10
103.369758852
 20
26.1153282896
 10
103.3763183835
 20
26.1041711544
 10
103.3825930072
 20
26.0928372873
 10
103.3885761665
 20
26.0813399699
 10
103.3942600838
 20
26.0696950676
 10
103.3996369815
 20
26.0579184457
 10
103.4047004194
 20
26.0460232866
 10
103.4094493059
 20
26.0340120408
 10
103.413883887
 20
26.0218844762
 10
103.4180044084
 20
26.0096403605
 10
103.4218103354
 20
25.9972823324
 10
103.4252980105
 20
25.9848245153
 10
103.4284629954
 20
25.9722839035
 10
103.4313008519
 20
25.9596774916
 10
103.4338080537
 20
25.9470184897
 10
103.4359847221
 20
25.9343049701
 10
103.4378318898
 20
25.9215312212
 10
103.43935059
 20
25.9086915311
  0
LINE
  5
419
100
AcDbEntity
  8
0
100
AcDbLine
 62
7
  6
CONTINUOUS
 10
102.4708627234
 20
33.8669876657
 11
102.3620318702
 21
33.8706384405
  0
LINE
  5
41A
100
AcDbEntity
  8
0
100
AcDbLine
 62
7
  6
CONTINUOUS
 10
100.880628098
 20
35.3972987477
 11
100.8781049891
 21
35.3973839982
  0
LINE
  5
41B
100
AcDbEntity
  8
0
100
AcDbLine
 62
7
  6
CONTINUOUS
 10
102.3572084673
 20
33.8815790586
 11
102.2488539115
 21
33.8854823922
  0
LINE
  5
41C
100
AcDbEntity
  8
0
100
AcDbLine
 62
7
  6
CONTINUOUS
 10
100.8996237289
 20
35.3962817582
 11
100.8629537817
 21
35.3976281245
  0
LINE
  5
41D
100
AcDbEntity
  8
0
100
AcDbLine
 62
7
  6
CONTINUOUS
 10
100.8832337358
 20
35.3971973184
 11
100.880628098
 21
35.3972987477
  0
LINE
  5
41E
100
AcDbEntity
  8
0
100
AcDbLine
 62
7
  6
CONTINUOUS
 10
102.3620318702
 20
33.8706384405
 11
102.258352151
 21
33.8748949814
  0
LINE
  5
41F
100
AcDbEntity
  8
0
100
AcDbLine
 62
7
  6
CONTINUOUS
 10
100.8859193489
 20
35.3970785287
 11
100.8832337358
 21
35.3971973184
  0
LINE
  5
420
100
AcDbEntity
  8
0
100
AcDbLine
 62
7
  6
CONTINUOUS
 10
102.2488539115
 20
33.8854823922
 11
102.1460746437
 21
33.8900339746
  0
LWPOLYLINE
  5
421
100
AcDbEntity
  8
0
100
AcDbPolyline
 62
7
  6
CONTINUOUS
 90
9
 70
0
 10
97.9247298115
 20
33.2001654774
 10
97.8763816094
 20
33.202325706
 10
97.828039893
 20
33.2046283446
 10
97.7797052438
 20
33.2070795134
 10
97.7313782427
 20
33.2096853324
 10
97.6907840367
 20
33.2120037278
 10
97.6501987433
 20
33.2144701089
 10
97.6096254665
 20
33.2171189863
 10
97.5690673103
 20
33.2199848707
  0
LINE
  5
422
100
AcDbEntity
  8
0
100
AcDbLine
 62
7
  6
CONTINUOUS
 10
102.258352151
 20
33.8748949814
 11
102.159817675
 21
33.87968425
  0
LINE
  5
423
100
AcDbEntity
  8
0
100
AcDbLine
 62
7
  6
CONTINUOUS
 10
100.8886833152
 20
35.3969411608
 11
100.8859193489
 21
35.3970785287
  0
LINE
  5
424
100
AcDbEntity
  8
0
100
AcDbLine
 62
7
  6
CONTINUOUS
 10
102.1460746437
 20
33.8900339746
 11
102.0488888949
 21
33.8951514419
  0
LINE
  5
425
100
AcDbEntity
  8
0
100
AcDbLine
 62
7
  6
CONTINUOUS
 10
113.3389821495
 20
13.7771298886
 11
113.3390575988
 21
13.7771257638
  0
LINE
  5
426
100
AcDbEntity
  8
0
100
AcDbLine
 62
7
  6
CONTINUOUS
 10
100.8915232137
 20
35.3967840387
 11
100.8886833152
 21
35.3969411608
  0
LINE
  5
427
100
AcDbEntity
  8
0
100
AcDbLine
 62
7
  6
CONTINUOUS
 10
102.159817675
 20
33.87968425
 11
102.066386631
 21
33.8849392203
  0
LINE
  5
428
100
AcDbEntity
  8
0
100
AcDbLine
 62
7
  6
CONTINUOUS
 10
105.986449185
 20
14.1173235885
 11
106.0424419073
 21
14.1141221298
  0
LINE
  5
429
100
AcDbEntity
  8
0
100
AcDbLine
 62
7
  6
CONTINUOUS
 10
113.3390575988
 20
13.7771257638
 11
113.3393724715
 21
13.7771067236
  0
LINE
  5
42A
100
AcDbEntity
  8
0
100
AcDbLine
 62
7
  6
CONTINUOUS
 10
102.0488888949
 20
33.8951514419
 11
101.9572688717
 21
33.9007579284
  0
LINE
  5
42B
100
AcDbEntity
  8
0
100
AcDbLine
 62
7
  6
CONTINUOUS
 10
100.8944366094
 20
35.3966060031
 11
100.8915232137
 21
35.3967840387
  0
LWPOLYLINE
  5
42C
100
AcDbEntity
  8
6_SURFACES-PATINS-SPEC
100
AcDbPolyline
 62
7
  6
CONTINUOUS
 90
28
 70
0
 10
109.3380344432
 20
13.9716022862
 10
109.1932586331
 20
13.9804937617
 10
109.0484453759
 20
13.9887553234
 10
108.9227663533
 20
13.9954037866
 10
108.8075422693
 20
14.0010512792
 10
108.7008468304
 20
14.0058717102
 10
108.6007050828
 20
14.0100090801
 10
108.5054370133
 20
14.0135630119
 10
108.4141987356
 20
14.0165715705
 10
108.3255329952
 20
14.019060283
 10
108.2379734936
 20
14.0209997791
 10
108.1518293909
 20
14.0222551478
 10
108.1100881339
 20
14.0225551969
 10
108.0699071173
 20
14.0225892696
 10
108.0321248613
 20
14.022319422
 10
107.9977625403
 20
14.0217152206
 10
107.9677545637
 20
14.0207623684
 10
107.9427177438
 20
14.0194646118
 10
107.9321711406
 20
14.0186887302
 10
107.9229774084
 20
14.0178298027
 10
107.915157551
 20
14.0168895452
 10
107.908731039
 20
14.0158697897
 10
107.9037091531
 20
14.0147730506
 10
107.9000989567
 20
14.0136021908
 10
107.8988247597
 20
14.0129897846
 10
107.8979038057
 20
14.0123596616
 10
107.8973741985
 20
14.0117636734
 10
107.8971182631
 20
14.0110469215
  0
LWPOLYLINE
  5
42D
100
AcDbEntity
  8
DEFAULT_2
100
AcDbPolyline
 62
8
  6
CONTINUOUS
 90
25
 70
0
 10
107.8523898339
 20
14.2407373532
 10
107.9810142311
 20
14.2327751662
 10
108.1063264041
 20
14.2250188639
 10
108.2584768441
 20
14.2156025037
 10
108.4057852202
 20
14.2064869705
 10
108.5483973338
 20
14.197663112
 10
108.6864589865
 20
14.1891217761
 10
108.8201188989
 20
14.1808536326
 10
108.9495374693
 20
14.1728486376
 10
109.0748780155
 20
14.1650965693
 10
109.1963038547
 20
14.1575872058
 10
109.3139719622
 20
14.1503107219
 10
109.4280139418
 20
14.1432588793
 10
109.538555055
 20
14.1364238363
 10
109.6457205633
 20
14.1297977516
 10
109.7496356961
 20
14.1233727866
 10
109.8504255544
 20
14.1171411155
 10
109.948215207
 20
14.1110949159
 10
110.0431297228
 20
14.105226365
 10
110.1654066025
 20
14.0976656653
 10
110.2829736857
 20
14.0903956126
 10
110.3960101853
 20
14.0834049408
 10
110.5046893825
 20
14.0766827551
 10
110.6091608281
 20
14.0702196462
 10
110.7095681409
 20
14.0640065766
  0
LWPOLYLINE
  5
42E
100
AcDbEntity
  8
DEFAULT_2
100
AcDbPolyline
 62
8
  6
CONTINUOUS
 90
21
 70
0
 10
110.7095681409
 20
14.0640065766
 10
110.8987222835
 20
14.0522971319
 10
110.987697831
 20
14.0467864321
 10
111.0730858165
 20
14.0414959059
 10
111.1549872164
 20
14.0364192999
 10
111.2335008624
 20
14.0315505083
 10
111.3087337906
 20
14.0268829224
 10
111.3808258539
 20
14.0224079206
 10
111.4499251098
 20
14.0181163784
 10
111.5161838398
 20
14.01399891
 10
111.5797712232
 20
14.0100450859
 10
111.6408606636
 20
14.0062442154
 10
111.7281717797
 20
14.0008074876
 10
111.8107255885
 20
13.9956618255
 10
111.8890003992
 20
13.9907778724
 10
111.9634961318
 20
13.9861249489
 10
112.0346858257
 20
13.9816740519
 10
112.1029133902
 20
13.9774042062
 10
112.1684897292
 20
13.9732964963
 10
112.2317228573
 20
13.9693322173
 10
112.2929046303
 20
13.9654937128
  0
LWPOLYLINE
  5
42F
100
AcDbEntity
  8
DEFAULT_2
100
AcDbPolyline
 62
8
  6
CONTINUOUS
 90
8
 70
0
 10
106.6930889178
 20
14.3125399226
 10
106.850904172
 20
14.3027615182
 10
107.0050872487
 20
14.2932093284
 10
107.1555981459
 20
14.2838857687
 10
107.3023968616
 20
14.2747932546
 10
107.4454433938
 20
14.2659342015
 10
107.5847244056
 20
14.2573093728
 10
107.8523898339
 20
14.2407373532
  0
LWPOLYLINE
  5
430
100
AcDbEntity
  8
DEFAULT_2
100
AcDbPolyline
 62
8
  6
CONTINUOUS
 90
11
 70
0
 10
112.5757780516
 20
13.9477325257
 10
112.6819190582
 20
13.9410837842
 10
112.7862683509
 20
13.9345807404
 10
112.8902295282
 20
13.9281641307
 10
112.995374294
 20
13.9217803165
 10
113.0491026359
 20
13.918577379
 10
113.1039919998
 20
13.9153594199
 10
113.1603521511
 20
13.9121232534
 10
113.2186069135
 20
13.9088655666
 10
113.2791084139
 20
13.9055897782
 10
113.3418079332
 20
13.9023263626
  0
LWPOLYLINE
  5
431
100
AcDbEntity
  8
DEFAULT_2
100
AcDbPolyline
 62
8
  6
CONTINUOUS
 90
3
 70
0
 10
112.2929046303
 20
13.9654937128
 10
112.4100198372
 20
13.9581403141
 10
112.5757780516
 20
13.9477325257
  0
LINE
  5
432
100
AcDbEntity
  8
0
100
AcDbLine
 62
7
  6
CONTINUOUS
 10
102.066386631
 20
33.8849392203
 11
101.9779894294
 21
33.8905986268
  0
LWPOLYLINE
  5
433
100
AcDbEntity
  8
6_SURFACES-PATINS-SPEC
100
AcDbPolyline
 62
7
  6
CONTINUOUS
 90
19
 70
0
 10
109.3360837331
 20
13.9404412333
 10
109.4507804262
 20
13.9329504358
 10
109.5654506393
 20
13.9250623944
 10
109.682760254
 20
13.9165724199
 10
109.8000369208
 20
13.9076392784
 10
109.9122807767
 20
13.8986472804
 10
110.0244863586
 20
13.889190212
 10
110.1259108161
 20
13.8802018537
 10
110.2272926958
 20
13.8707442096
 10
110.3136164663
 20
13.8622619803
 10
110.3998904288
 20
13.8532909805
 10
110.473310396
 20
13.8451710796
 10
110.5376999219
 20
13.83754826
 10
110.5926355254
 20
13.8304956566
 10
110.6376789692
 20
13.8240809545
 10
110.6551079614
 20
13.8213456206
 10
110.6724950348
 20
13.8183611503
 10
110.6859566289
 20
13.8157818688
 10
110.6967195925
 20
13.8134047651
  0
LINE
  5
434
100
AcDbEntity
  8
0
100
AcDbLine
 62
7
  6
CONTINUOUS
 10
100.8974211801
 20
35.3964059065
 11
100.8944366094
 21
35.3966060031
  0
LINE
  5
435
100
AcDbEntity
  8
0
100
AcDbLine
 62
7
  6
CONTINUOUS
 10
113.3393724715
 20
13.7771067236
 11
113.3399552639
 21
13.7770669834
  0
LINE
  5
436
100
AcDbEntity
  8
0
100
AcDbLine
 62
7
  6
CONTINUOUS
 10
101.9572688717
 20
33.9007579284
 11
101.8711495225
 21
33.906782133
  0
LINE
  5
437
100
AcDbEntity
  8
0
100
AcDbLine
 62
7
  6
CONTINUOUS
 10
101.9779894294
 20
33.8905986268
 11
101.8945402667
 21
33.8966062755
  0
LINE
  5
438
100
AcDbEntity
  8
0
100
AcDbLine
 62
7
  6
CONTINUOUS
 10
100.9004759831
 20
35.3961825158
 11
100.8974211801
 21
35.3964059065
  0
LINE
  5
439
100
AcDbEntity
  8
0
100
AcDbLine
 62
7
  6
CONTINUOUS
 10
113.3399552639
 20
13.7770669834
 11
113.3408801987
 21
13.7769949146
  0
LINE
  5
43A
100
AcDbEntity
  8
0
100
AcDbLine
 62
7
  6
CONTINUOUS
 10
101.8711495225
 20
33.906782133
 11
101.7904442333
 21
33.9131575819
  0
LWPOLYLINE
  5
43B
100
AcDbEntity
  8
0
100
AcDbPolyline
 62
7
  6
CONTINUOUS
 90
27
 70
0
 10
97.54773969
 20
33.2215981712
 10
97.5342789912
 20
33.2226660247
 10
97.5208219866
 20
33.2237800572
 10
97.5089560217
 20
33.2248080001
 10
97.4970948461
 20
33.2258880691
 10
97.486913027
 20
33.2268664195
 10
97.4767367722
 20
33.2279056179
 10
97.4683130339
 20
33.2288251212
 10
97.4598988461
 20
33.2298169498
 10
97.4554964852
 20
33.2303735711
 10
97.4510981886
 20
33.2309666635
 10
97.4467040184
 20
33.2316072651
 10
97.44353948
 20
33.2321068881
 10
97.4403845525
 20
33.2326532929
 10
97.4372466688
 20
33.233262823
 10
97.4355914167
 20
33.2336222449
 10
97.4339411772
 20
33.2340360852
 10
97.4327517432
 20
33.2343849375
 10
97.4315924146
 20
33.2347710303
 10
97.4312373116
 20
33.2349018542
 10
97.4308877481
 20
33.2350510283
 10
97.4305434364
 20
33.2352340144
 10
97.4302040887
 20
33.2354662742
 10
97.4300390395
 20
33.2356061593
 10
97.429897886
 20
33.2357620613
 10
97.429803342
 20
33.235933631
 10
97.429778121
 20
33.2361205191
  0
LINE
  5
43C
100
AcDbEntity
  8
0
100
AcDbLine
 62
7
  6
CONTINUOUS
 10
100.9036008935
 20
35.3959345185
 11
100.9004759831
 21
35.3961825158
  0
LINE
  5
43D
100
AcDbEntity
  8
0
100
AcDbLine
 62
7
  6
CONTINUOUS
 10
101.8945402667
 20
33.8966062755
 11
101.8159496935
 21
33.9029098981
  0
LINE
  5
43E
100
AcDbEntity
  8
0
100
AcDbLine
 62
7
  6
CONTINUOUS
 10
105.9119860207
 20
14.1235483415
 11
105.986449185
 21
14.1173235885
  0
LINE
  5
43F
100
AcDbEntity
  8
0
100
AcDbLine
 62
7
  6
CONTINUOUS
 10
100.9067957806
 20
35.3956605696
 11
100.9036008935
 21
35.3959345185
  0
LINE
  5
440
100
AcDbEntity
  8
0
100
AcDbLine
 62
7
  6
CONTINUOUS
 10
101.7904442333
 20
33.9131575819
 11
101.7150543485
 21
33.9198218146
  0
LINE
  5
441
100
AcDbEntity
  8
0
100
AcDbLine
 62
7
  6
CONTINUOUS
 10
101.8159496935
 20
33.9029098981
 11
101.7421198736
 21
33.9094611261
  0
LINE
  5
442
100
AcDbEntity
  8
6_SURFACES-PATINS-SPEC
100
AcDbLine
 62
7
  6
CONTINUOUS
 10
119.9597933754
 20
13.7750436904
 11
120.0001992857
 21
13.7714505229
  0
LINE
  5
443
100
AcDbEntity
  8
0
100
AcDbLine
 62
7
  6
CONTINUOUS
 10
113.3408801987
 20
13.7769949146
 11
113.3422492267
 21
13.7768712262
  0
LINE
  5
444
100
AcDbEntity
  8
0
100
AcDbLine
 62
7
  6
CONTINUOUS
 10
100.9100604942
 20
35.3953592931
 11
100.9067957806
 21
35.3956605696
  0
LINE
  5
445
100
AcDbEntity
  8
0
100
AcDbLine
 62
7
  6
CONTINUOUS
 10
101.7421198736
 20
33.9094611261
 11
101.6729489214
 21
33.9162148936
  0
LINE
  5
446
100
AcDbEntity
  8
0
100
AcDbLine
 62
7
  6
CONTINUOUS
 10
101.7150543485
 20
33.9198218146
 11
101.644867265
 21
33.9267163552
  0
LINE
  5
447
100
AcDbEntity
  8
0
100
AcDbLine
 62
7
  6
CONTINUOUS
 10
100.913394863
 20
35.3950292821
 11
100.9100604942
 21
35.3953592931
  0
LWPOLYLINE
  5
448
100
AcDbEntity
  8
DEFAULT_2
100
AcDbPolyline
 62
8
  6
CONTINUOUS
 90
21
 70
0
 10
121.8681914504
 20
15.8189953882
 10
121.8606437064
 20
15.8197599088
 10
121.8511491288
 20
15.8205177966
 10
121.8264324923
 20
15.8220078521
 10
121.7942675778
 20
15.823453911
 10
121.7548804219
 20
15.8248443297
 10
121.7052614457
 20
15.8262568979
 10
121.6556356613
 20
15.8274144161
 10
121.5938031231
 20
15.828625216
 10
121.5319671485
 20
15.8296386825
 10
121.4621141221
 20
15.8305977222
 10
121.3876543789
 20
15.8314448677
 10
121.22735056
 20
15.8327784047
 10
121.1427384387
 20
15.8332529412
 10
121.056039693
 20
15.8335945976
 10
121.0121244701
 20
15.8337149138
 10
120.9679475519
 20
15.8338011916
 10
120.9457880364
 20
15.8338314809
 10
120.9235955922
 20
15.8338531584
 10
120.901381051
 20
15.8338661899
 10
120.8791552446
 20
15.8338705412
  0
LINE
  5
449
100
AcDbEntity
  8
0
100
AcDbLine
 62
7
  6
CONTINUOUS
 10
100.9167986931
 20
35.3946690987
 11
100.913394863
 21
35.3950292821
  0
LINE
  5
44A
100
AcDbEntity
  8
0
100
AcDbLine
 62
7
  6
CONTINUOUS
 10
113.3422492267
 20
13.7768712262
 11
113.3441849551
 21
13.7766652644
  0
LINE
  5
44B
100
AcDbEntity
  8
0
100
AcDbLine
 62
7
  6
CONTINUOUS
 10
101.6729489214
 20
33.9162148936
 11
101.6083356048
 21
33.923128672
  0
LINE
  5
44C
100
AcDbEntity
  8
0
100
AcDbLine
 62
7
  6
CONTINUOUS
 10
101.644867265
 20
33.9267163552
 11
101.5797627201
 21
33.9337860143
  0
LINE
  5
44D
100
AcDbEntity
  8
0
100
AcDbLine
 62
7
  6
CONTINUOUS
 10
100.9202717579
 20
35.3942772753
 11
100.9167986931
 21
35.3946690987
  0
LINE
  5
44E
100
AcDbEntity
  8
0
100
AcDbLine
 62
7
  6
CONTINUOUS
 10
105.8338158997
 20
14.1325273007
 11
105.9119860207
 21
14.1235483415
  0
LINE
  5
44F
100
AcDbEntity
  8
0
100
AcDbLine
 62
7
  6
CONTINUOUS
 10
101.6083356048
 20
33.923128672
 11
101.548186495
 21
33.9301612182
  0
LINE
  5
450
100
AcDbEntity
  8
0
100
AcDbLine
 62
7
  6
CONTINUOUS
 10
101.5797627201
 20
33.9337860143
 11
101.5196194713
 21
33.9409778786
  0
LINE
  5
451
100
AcDbEntity
  8
0
100
AcDbLine
 62
7
  6
CONTINUOUS
 10
100.9238132126
 20
35.3938523878
 11
100.9202717579
 21
35.3942772753
  0
LINE
  5
452
100
AcDbEntity
  8
0
100
AcDbLine
 62
7
  6
CONTINUOUS
 10
100.9510393691
 20
35.3898086858
 11
100.8996237289
 21
35.3962817582
  0
LINE
  5
453
100
AcDbEntity
  8
0
100
AcDbLine
 62
7
  6
CONTINUOUS
 10
113.3441849551
 20
13.7766652644
 11
113.3468489978
 21
13.7763261116
  0
LINE
  5
454
100
AcDbEntity
  8
0
100
AcDbLine
 62
7
  6
CONTINUOUS
 10
100.9274212349
 20
35.3933931243
 11
100.9238132126
 21
35.3938523878
  0
LINE
  5
455
100
AcDbEntity
  8
0
100
AcDbLine
 62
7
  6
CONTINUOUS
 10
101.548186495
 20
33.9301612182
 11
101.4924701966
 21
33.9372646562
  0
LINE
  5
456
100
AcDbEntity
  8
0
100
AcDbLine
 62
7
  6
CONTINUOUS
 10
101.5196194713
 20
33.9409778786
 11
101.474477734
 21
33.9469061235
  0
LINE
  5
457
100
AcDbEntity
  8
6_SURFACES-PATINS-SPEC
100
AcDbLine
 62
7
  6
CONTINUOUS
 10
110.2435724
 20
12.5622037091
 11
110.3254378229
 21
12.5512969308
  0
LINE
  5
458
100
AcDbEntity
  8
6_SURFACES-PATINS-SPEC
100
AcDbLine
 62
7
  6
CONTINUOUS
 10
118.9325659897
 20
12.5622037082
 11
119.0144314107
 21
12.5512969305
  0
LINE
  5
459
100
AcDbEntity
  8
0
100
AcDbLine
 62
7
  6
CONTINUOUS
 10
100.9310938967
 20
35.3928982013
 11
100.9274212349
 21
35.3933931243
  0
LINE
  5
45A
100
AcDbEntity
  8
0
100
AcDbLine
 62
7
  6
CONTINUOUS
 10
101.4924701966
 20
33.9372646562
 11
101.4412047196
 21
33.9443823901
  0
LINE
  5
45B
100
AcDbEntity
  8
0
100
AcDbLine
 62
7
  6
CONTINUOUS
 10
100.9348292502
 20
35.3923663571
 11
100.9310938967
 21
35.3928982013
  0
LWPOLYLINE
  5
45C
100
AcDbEntity
  8
DEFAULT_2
100
AcDbPolyline
 62
8
  6
CONTINUOUS
 90
22
 70
0
 10
128.6698592159
 20
29.2510342082
 10
128.457503697
 20
29.2821063206
 10
128.2538291066
 20
29.3127035616
 10
128.0590948725
 20
29.3426845217
 10
127.8735483991
 20
29.3719107155
 10
127.6974225399
 20
29.4002475773
 10
127.530937668
 20
29.4275645066
 10
127.3742994427
 20
29.4537363593
 10
127.2276985905
 20
29.4786435367
 10
127.0913053481
 20
29.5021737587
 10
126.9652783865
 20
29.5242210523
 10
126.8497603094
 20
29.5446870395
 10
126.7448742678
 20
29.5634816026
 10
126.6507274242
 20
29.5805233239
 10
126.5674180731
 20
29.5957378756
 10
126.495035239
 20
29.6090587239
 10
126.4336616239
 20
29.6204266628
 10
126.3833636353
 20
29.6297919743
 10
126.3441842645
 20
29.6371157329
 10
126.3161366811
 20
29.6423715156
 10
126.2991575028
 20
29.6455539332
 10
126.2938278743
 20
29.6465435807
  0
LINE
  5
45D
100
AcDbEntity
  8
0
100
AcDbLine
 62
7
  6
CONTINUOUS
 10
105.7515560633
 20
14.1447195742
 11
105.8338158997
 21
14.1325273007
  0
LINE
  5
45E
100
AcDbEntity
  8
0
100
AcDbLine
 62
7
  6
CONTINUOUS
 10
100.938625328
 20
35.3917963541
 11
100.9348292502
 21
35.3923663571
  0
LINE
  5
45F
100
AcDbEntity
  8
0
100
AcDbLine
 62
7
  6
CONTINUOUS
 10
101.4412047196
 20
33.9443823901
 11
101.3944022807
 21
33.9514538538
  0
LINE
  5
460
100
AcDbEntity
  8
0
100
AcDbLine
 62
7
  6
CONTINUOUS
 10
113.3468489978
 20
13.7763261116
 11
113.3504352534
 21
13.775771262
  0
LINE
  5
461
100
AcDbEntity
  8
0
100
AcDbLine
 62
7
  6
CONTINUOUS
 10
100.9424801439
 20
35.3911869809
 11
100.938625328
 21
35.3917963541
  0
LINE
  5
462
100
AcDbEntity
  8
DEFAULT_2
100
AcDbLine
 62
8
  6
CONTINUOUS
 10
104.4170290464
 20
29.64779789
 11
105.4664478732
 21
29.4815862709
  0
LINE
  5
463
100
AcDbEntity
  8
0
100
AcDbLine
 62
7
  6
CONTINUOUS
 10
101.3944022807
 20
33.9514538538
 11
101.3520695517
 21
33.9584133807
  0
LINE
  5
464
100
AcDbEntity
  8
0
100
AcDbLine
 62
7
  6
CONTINUOUS
 10
100.946391902
 20
35.3905370191
 11
100.9424801439
 21
35.3911869809
  0
LINE
  5
465
100
AcDbEntity
  8
0
100
AcDbLine
 62
7
  6
CONTINUOUS
 10
100.950359856
 20
35.3898450835
 11
100.946391902
 21
35.3905370191
  0
LINE
  5
466
100
AcDbEntity
  8
0
100
AcDbLine
 62
7
  6
CONTINUOUS
 10
101.3520695517
 20
33.9584133807
 11
101.3142106713
 21
33.9651882927
  0
LINE
  5
467
100
AcDbEntity
  8
0
100
AcDbLine
 62
7
  6
CONTINUOUS
 10
100.9543835733
 20
35.3891097166
 11
100.950359856
 21
35.3898450835
  0
LINE
  5
468
100
AcDbEntity
  8
0
100
AcDbLine
 62
7
  6
CONTINUOUS
 10
105.6647805906
 20
14.1606855985
 11
105.7515560633
 21
14.1447195742
  0
LINE
  5
469
100
AcDbEntity
  8
0
100
AcDbLine
 62
7
  6
CONTINUOUS
 10
113.3504352534
 20
13.775771262
 11
113.3550784459
 21
13.7748874109
  0
LINE
  5
46A
100
AcDbEntity
  8
0
100
AcDbLine
 62
7
  6
CONTINUOUS
 10
100.9584625927
 20
35.3883294417
 11
100.9543835733
 21
35.3891097166
  0
LINE
  5
46B
100
AcDbEntity
  8
DEFAULT_2
100
AcDbLine
 62
8
  6
CONTINUOUS
 10
125.7002578116
 20
28.405968366
 11
125.7064390998
 21
28.4047754667
  0
LWPOLYLINE
  5
46C
100
AcDbEntity
  8
DEFAULT_2
100
AcDbPolyline
 62
8
  6
CONTINUOUS
 90
15
 70
0
 10
123.6851041781
 20
15.5519135011
 10
123.5923069029
 20
15.5698529212
 10
123.499368525
 20
15.5870557635
 10
123.4063104895
 20
15.6036025293
 10
123.2712081746
 20
15.6265766788
 10
123.1359300727
 20
15.6484860486
 10
123.006981982
 20
15.6684843389
 10
122.8779196812
 20
15.6877327464
 10
122.7576722883
 20
15.7050492869
 10
122.6373496954
 20
15.7218346144
 10
122.526721125
 20
15.7368298708
 10
122.4160419758
 20
15.7514471379
 10
122.2125611141
 20
15.7774126382
 10
122.0302486984
 20
15.7997685819
 10
121.8681894351
 20
15.8189955688
  0
LWPOLYLINE
  5
46D
100
AcDbEntity
  8
DEFAULT_2
100
AcDbPolyline
 62
8
  6
CONTINUOUS
 90
23
 70
0
 10
125.7064390998
 20
28.4047754667
 10
125.747025867
 20
28.3968834413
 10
125.7827751679
 20
28.3899452423
 10
125.8286771518
 20
28.3810660607
 10
125.8847128808
 20
28.370274849
 10
125.9508741107
 20
28.3576040552
 10
126.0270995171
 20
28.3431017674
 10
126.1133136183
 20
28.3268239813
 10
126.2094208139
 20
28.3088355041
 10
126.3153465739
 20
28.2892020651
 10
126.4310139879
 20
28.2679945862
 10
126.5563306057
 20
28.2452914922
 10
126.6911574262
 20
28.2211838816
 10
126.8354239038
 20
28.1957546197
 10
126.9889661171
 20
28.1691070034
 10
127.1516008055
 20
28.1413506744
 10
127.3232286848
 20
28.1125839339
 10
127.5036610107
 20
28.0829231338
 10
127.6926960865
 20
28.0524886145
 10
127.8901331535
 20
28.0214022194
 10
128.0957536797
 20
27.9897897241
 10
128.3093482
 20
27.9577762016
 10
128.5306804659
 20
27.9254911563
  0
LINE
  5
46E
100
AcDbEntity
  8
0
100
AcDbLine
 62
7
  6
CONTINUOUS
 10
101.3142106713
 20
33.9651882927
 11
101.2808308364
 21
33.97169626
  0
LINE
  5
46F
100
AcDbEntity
  8
6_SURFACES-PATINS-SPEC
100
AcDbLine
 62
7
  6
CONTINUOUS
 10
120.0001992857
 20
13.7714505229
 11
120.0399806613
 21
13.7635138974
  0
LINE
  5
470
100
AcDbEntity
  8
0
100
AcDbLine
 62
7
  6
CONTINUOUS
 10
100.9625964238
 20
35.3875027629
 11
100.9584625927
 21
35.3883294417
  0
LINE
  5
471
100
AcDbEntity
  8
DEFAULT_2
100
AcDbLine
 62
8
  6
CONTINUOUS
 10
123.7857078014
 20
15.5314837978
 11
123.6851041781
 21
15.5519135011
  0
LINE
  5
472
100
AcDbEntity
  8
0
100
AcDbLine
 62
7
  6
CONTINUOUS
 10
100.9667845456
 20
35.386628166
 11
100.9625964238
 21
35.3875027629
  0
LINE
  5
473
100
AcDbEntity
  8
0
100
AcDbLine
 62
7
  6
CONTINUOUS
 10
101.2808308364
 20
33.97169626
 11
101.2519441082
 21
33.9778408481
  0
LINE
  5
474
100
AcDbEntity
  8
0
100
AcDbLine
 62
7
  6
CONTINUOUS
 10
100.9710264057
 20
35.3857041186
 11
100.9667845456
 21
35.386628166
  0
LINE
  5
475
100
AcDbEntity
  8
0
100
AcDbLine
 62
7
  6
CONTINUOUS
 10
105.5729076127
 20
14.1811409605
 11
105.6647805906
 21
14.1606855985
  0
LINE
  5
476
100
AcDbEntity
  8
6_SURFACES-PATINS-SPEC
100
AcDbLine
 62
7
  6
CONTINUOUS
 10
110.1629581666
 20
12.5802675934
 11
110.2435724
 21
12.5622037091
  0
LINE
  5
477
100
AcDbEntity
  8
6_SURFACES-PATINS-SPEC
100
AcDbLine
 62
7
  6
CONTINUOUS
 10
118.8519517572
 20
12.5802675917
 11
118.9325659897
 21
12.5622037082
  0
LINE
  5
478
100
AcDbEntity
  8
0
100
AcDbLine
 62
7
  6
CONTINUOUS
 10
100.9753214193
 20
35.3847290708
 11
100.9710264057
 21
35.3857041186
  0
LINE
  5
479
100
AcDbEntity
  8
0
100
AcDbLine
 62
7
  6
CONTINUOUS
 10
101.2519441082
 20
33.9778408481
 11
101.2275875517
 21
33.9835038155
  0
LINE
  5
47A
100
AcDbEntity
  8
0
100
AcDbLine
 62
7
  6
CONTINUOUS
 10
101.0014423575
 20
35.3780684448
 11
100.9510393691
 21
35.3898086858
  0
LINE
  5
47B
100
AcDbEntity
  8
0
100
AcDbLine
 62
7
  6
CONTINUOUS
 10
113.3550784459
 20
13.7748874109
 11
113.3609145268
 21
13.7735096818
  0
LINE
  5
47C
100
AcDbEntity
  8
0
100
AcDbLine
 62
7
  6
CONTINUOUS
 10
100.9796689681
 20
35.3837014559
 11
100.9753214193
 21
35.3847290708
  0
LWPOLYLINE
  5
47D
100
AcDbEntity
  8
6_SURFACES-PATINS-SPEC
100
AcDbPolyline
 62
7
  6
CONTINUOUS
 90
20
 70
0
 10
110.6967195925
 20
13.8134047651
 10
110.6977281946
 20
13.8131583927
 10
110.6987353503
 20
13.8129066379
 10
110.6997409294
 20
13.8126488225
 10
110.7007448016
 20
13.8123842683
 10
110.7017468368
 20
13.812112297
 10
110.7027469047
 20
13.8118322304
 10
110.7037448751
 20
13.8115433901
 10
110.7047406177
 20
13.811245098
 10
110.7052331677
 20
13.8110934729
 10
110.705724829
 20
13.8109387529
 10
110.706215292
 20
13.810780331
 10
110.7067042474
 20
13.8106176003
 10
110.7071913854
 20
13.8104499537
 10
110.7076763966
 20
13.8102767842
 10
110.7081589713
 20
13.8100974849
 10
110.7086388001
 20
13.8099114487
 10
110.7091155734
 20
13.8097180687
 10
110.7095889817
 20
13.8095167379
 10
110.7100587153
 20
13.8093068492
  0
LINE
  5
47E
100
AcDbEntity
  8
0
100
AcDbLine
 62
7
  6
CONTINUOUS
 10
100.9840683995
 20
35.3826196903
 11
100.9796689681
 21
35.3837014559
  0
LINE
  5
47F
100
AcDbEntity
  8
0
100
AcDbLine
 62
7
  6
CONTINUOUS
 10
101.2275875517
 20
33.9835038155
 11
101.2077950888
 21
33.9885449022
  0
LINE
  5
480
100
AcDbEntity
  8
0
100
AcDbLine
 62
7
  6
CONTINUOUS
 10
100.9885190256
 20
35.381482175
 11
100.9840683995
 21
35.3826196903
  0
LINE
  5
481
100
AcDbEntity
  8
0
100
AcDbLine
 62
7
  6
CONTINUOUS
 10
105.4750011244
 20
14.2070724312
 11
105.5729076127
 21
14.1811409605
  0
LINE
  5
482
100
AcDbEntity
  8
0
100
AcDbLine
 62
7
  6
CONTINUOUS
 10
100.9930200454
 20
35.3802873161
 11
100.9885190256
 21
35.381482175
  0
LINE
  5
483
100
AcDbEntity
  8
0
100
AcDbLine
 62
7
  6
CONTINUOUS
 10
100.9975700257
 20
35.3790336754
 11
100.9930200454
 21
35.3802873161
  0
LINE
  5
484
100
AcDbEntity
  8
0
100
AcDbLine
 62
7
  6
CONTINUOUS
 10
101.2077950888
 20
33.9885449022
 11
101.192588119
 21
33.992798497
  0
LINE
  5
485
100
AcDbEntity
  8
0
100
AcDbLine
 62
7
  6
CONTINUOUS
 10
101.0021672223
 20
35.3777199078
 11
100.9975700257
 21
35.3790336754
  0
LINE
  5
486
100
AcDbEntity
  8
0
100
AcDbLine
 62
7
  6
CONTINUOUS
 10
113.3609145268
 20
13.7735096818
 11
113.3680540989
 21
13.7714090315
  0
LINE
  5
487
100
AcDbEntity
  8
0
100
AcDbLine
 62
7
  6
CONTINUOUS
 10
101.0068098619
 20
35.3763446927
 11
101.0021672223
 21
35.3777199078
  0
LINE
  5
488
100
AcDbEntity
  8
0
100
AcDbLine
 62
7
  6
CONTINUOUS
 10
101.0114961433
 20
35.3749067351
 11
101.0068098619
 21
35.3763446927
  0
LINE
  5
489
100
AcDbEntity
  8
0
100
AcDbLine
 62
7
  6
CONTINUOUS
 10
101.192588119
 20
33.992798497
 11
101.1819594757
 21
33.9960723386
  0
LINE
  5
48A
100
AcDbEntity
  8
0
100
AcDbLine
 62
7
  6
CONTINUOUS
 10
105.3696363729
 20
14.2399106057
 11
105.4750011244
 21
14.2070724312
  0
LINE
  5
48B
100
AcDbEntity
  8
6_SURFACES-PATINS-SPEC
100
AcDbLine
 62
7
  6
CONTINUOUS
 10
120.0399806613
 20
13.7635138974
 11
120.078672
 21
13.7513266857
  0
LINE
  5
48C
100
AcDbEntity
  8
0
100
AcDbLine
 62
7
  6
CONTINUOUS
 10
101.0162242379
 20
35.3734047675
 11
101.0114961433
 21
35.3749067351
  0
LINE
  5
48D
100
AcDbEntity
  8
6_SURFACES-PATINS-SPEC
100
AcDbLine
 62
7
  6
CONTINUOUS
 10
110.0842390214
 20
12.605373045
 11
110.1629581666
 21
12.5802675934
  0
LINE
  5
48E
100
AcDbEntity
  8
6_SURFACES-PATINS-SPEC
100
AcDbLine
 62
7
  6
CONTINUOUS
 10
118.7732326119
 20
12.6053730427
 11
118.8519517572
 21
12.5802675917
  0
LINE
  5
48F
100
AcDbEntity
  8
0
100
AcDbLine
 62
7
  6
CONTINUOUS
 10
101.0209922902
 20
35.3718375512
 11
101.0162242379
 21
35.3734047675
  0
LINE
  5
490
100
AcDbEntity
  8
0
100
AcDbLine
 62
7
  6
CONTINUOUS
 10
101.1819594757
 20
33.9960723386
 11
101.1759193317
 21
33.9981253758
  0
LINE
  5
491
100
AcDbEntity
  8
0
100
AcDbLine
 62
7
  6
CONTINUOUS
 10
101.0257984182
 20
35.3702038779
 11
101.0209922902
 21
35.3718375512
  0
LINE
  5
492
100
AcDbEntity
  8
0
100
AcDbLine
 62
7
  6
CONTINUOUS
 10
101.0499490553
 20
35.3613484808
 11
101.0014423575
 21
35.3780684448
  0
LINE
  5
493
100
AcDbEntity
  8
0
100
AcDbLine
 62
7
  6
CONTINUOUS
 10
101.0306407134
 20
35.3685025717
 11
101.0257984182
 21
35.3702038779
  0
LINE
  5
494
100
AcDbEntity
  8
0
100
AcDbLine
 62
7
  6
CONTINUOUS
 10
101.0355172422
 20
35.3667324899
 11
101.0306407134
 21
35.3685025717
  0
LINE
  5
495
100
AcDbEntity
  8
0
100
AcDbLine
 62
7
  6
CONTINUOUS
 10
105.255863041
 20
14.2813663331
 11
105.3696363729
 21
14.2399106057
  0
LINE
  5
496
100
AcDbEntity
  8
0
100
AcDbLine
 62
7
  6
CONTINUOUS
 10
101.1759193317
 20
33.9981253758
 11
101.1749347574
 21
33.9984859599
  0
LINE
  5
497
100
AcDbEntity
  8
0
100
AcDbLine
 62
7
  6
CONTINUOUS
 10
113.3680540989
 20
13.7714090315
 11
113.3763439695
 21
13.7683676922
  0
LINE
  5
498
100
AcDbEntity
  8
0
100
AcDbLine
 62
7
  6
CONTINUOUS
 10
101.0404262414
 20
35.3648924506
 11
101.0355172422
 21
35.3667324899
  0
LINE
  5
499
100
AcDbEntity
  8
0
100
AcDbLine
 62
7
  6
CONTINUOUS
 10
101.0453665002
 20
35.3629810722
 11
101.0404262414
 21
35.3648924506
  0
LINE
  5
49A
100
AcDbEntity
  8
0
100
AcDbLine
 62
7
  6
CONTINUOUS
 10
101.0503368778
 20
35.3609969345
 11
101.0453665002
 21
35.3629810722
  0
LINE
  5
49B
100
AcDbEntity
  8
0
100
AcDbLine
 62
7
  6
CONTINUOUS
 10
101.0553361937
 20
35.3589386186
 11
101.0503368778
 21
35.3609969345
  0
LINE
  5
49C
100
AcDbEntity
  8
6_SURFACES-PATINS-SPEC
100
AcDbLine
 62
7
  6
CONTINUOUS
 10
110.0080286567
 20
12.6373166698
 11
110.0842390214
 21
12.605373045
  0
LINE
  5
49D
100
AcDbEntity
  8
6_SURFACES-PATINS-SPEC
100
AcDbLine
 62
7
  6
CONTINUOUS
 10
118.6970222466
 20
12.6373166672
 11
118.7732326119
 21
12.6053730427
  0
LINE
  5
49E
100
AcDbEntity
  8
0
100
AcDbLine
 62
7
  6
CONTINUOUS
 10
105.1344288656
 20
14.3328744478
 11
105.255863041
 21
14.2813663331
  0
LINE
  5
49F
100
AcDbEntity
  8
0
100
AcDbLine
 62
7
  6
CONTINUOUS
 10
101.0603632277
 20
35.3568047077
 11
101.0553361937
 21
35.3589386186
  0
LINE
  5
4A0
100
AcDbEntity
  8
0
100
AcDbLine
 62
7
  6
CONTINUOUS
 10
101.0654167185
 20
35.3545937881
 11
101.0603632277
 21
35.3568047077
  0
LINE
  5
4A1
100
AcDbEntity
  8
6_SURFACES-PATINS-SPEC
100
AcDbLine
 62
7
  6
CONTINUOUS
 10
120.078672
 20
13.7513266857
 11
120.1158205542
 21
13.7350314959
  0
LINE
  5
4A2
100
AcDbEntity
  8
0
100
AcDbLine
 62
7
  6
CONTINUOUS
 10
101.0704953635
 20
35.3523044502
 11
101.0654167185
 21
35.3545937881
  0
LINE
  5
4A3
100
AcDbEntity
  8
0
100
AcDbLine
 62
7
  6
CONTINUOUS
 10
113.3763439695
 20
13.7683676922
 11
113.3853336186
 21
13.7642805806
  0
LINE
  5
4A4
100
AcDbEntity
  8
0
100
AcDbLine
 62
7
  6
CONTINUOUS
 10
101.095713516
 20
35.3401540143
 11
101.0499490553
 21
35.3613484808
  0
LINE
  5
4A5
100
AcDbEntity
  8
0
100
AcDbLine
 62
7
  6
CONTINUOUS
 10
101.0755978183
 20
35.3499352895
 11
101.0704953635
 21
35.3523044502
  0
LWPOLYLINE
  5
4A6
100
AcDbEntity
  8
6_SURFACES-PATINS-SPEC
100
AcDbPolyline
 62
7
  6
CONTINUOUS
 90
49
 70
0
 10
110.7100587153
 20
13.8093068492
 10
110.7102344576
 20
13.8092252207
 10
110.7104097283
 20
13.8091415535
 10
110.7105842319
 20
13.809055881
 10
110.7107576729
 20
13.8089682363
 10
110.7109297557
 20
13.8088786526
 10
110.7111001847
 20
13.8087871631
 10
110.7112686644
 20
13.808693801
 10
110.7114348993
 20
13.8085985995
 10
110.7115182024
 20
13.8085496296
 10
110.7116008818
 20
13.8085000031
 10
110.7116829664
 20
13.8084495276
 10
110.7117644847
 20
13.8083980105
 10
110.7118454656
 20
13.8083452592
 10
110.7119259378
 20
13.8082910811
 10
110.7120059301
 20
13.8082352835
 10
110.7120854712
 20
13.808177674
 10
110.7121645899
 20
13.80811806
 10
110.7122433148
 20
13.8080562488
 10
110.7123216748
 20
13.8079920478
 10
110.7123996986
 20
13.8079252645
 10
110.712440421
 20
13.8078891984
 10
110.7124809531
 20
13.8078523858
 10
110.7125211887
 20
13.8078148413
 10
110.712561022
 20
13.8077765796
 10
110.7126003468
 20
13.8077376153
 10
110.7126390572
 20
13.8076979631
 10
110.7126770471
 20
13.8076576376
 10
110.7127142106
 20
13.8076166536
 10
110.7127504415
 20
13.8075750256
 10
110.7127856339
 20
13.8075327684
 10
110.7128196818
 20
13.8074898965
 10
110.712852479
 20
13.8074464247
 10
110.7128839197
 20
13.8074023677
 10
110.7129138978
 20
13.80735774
 10
110.7129423072
 20
13.8073125563
 10
110.712969042
 20
13.8072668314
 10
110.7129939962
 20
13.8072205798
 10
110.7130170636
 20
13.8071738162
 10
110.7130381383
 20
13.8071265553
 10
110.7130571143
 20
13.8070788117
 10
110.7130738855
 20
13.8070306001
 10
110.7130883459
 20
13.8069819352
 10
110.7131003896
 20
13.8069328316
 10
110.7131099104
 20
13.806883304
 10
110.7131168024
 20
13.806833367
 10
110.7131209595
 20
13.8067830354
 10
110.7131222758
 20
13.8067323237
 10
110.7131206451
 20
13.8066812466
  0
LINE
  5
4A7
100
AcDbEntity
  8
0
100
AcDbLine
 62
7
  6
CONTINUOUS
 10
101.0807226958
 20
35.3474849074
 11
101.0755978183
 21
35.3499352895
  0
LINE
  5
4A8
100
AcDbEntity
  8
0
100
AcDbLine
 62
7
  6
CONTINUOUS
 10
105.0067443959
 20
14.3957037643
 11
105.1344288656
 21
14.3328744478
  0
LINE
  5
4A9
100
AcDbEntity
  8
0
100
AcDbLine
 62
7
  6
CONTINUOUS
 10
101.0858685656
 20
35.3449519128
 11
101.0807226958
 21
35.3474849074
  0
LINE
  5
4AA
100
AcDbEntity
  8
0
100
AcDbLine
 62
7
  6
CONTINUOUS
 10
101.0910339539
 20
35.342334923
 11
101.0858685656
 21
35.3449519128
  0
LINE
  5
4AB
100
AcDbEntity
  8
0
100
AcDbLine
 62
7
  6
CONTINUOUS
 10
101.0962173424
 20
35.3396325644
 11
101.0910339539
 21
35.342334923
  0
LINE
  5
4AC
100
AcDbEntity
  8
6_SURFACES-PATINS-SPEC
100
AcDbLine
 62
7
  6
CONTINUOUS
 10
109.9349031136
 20
12.6758453668
 11
110.0080286567
 21
12.6373166698
  0
LINE
  5
4AD
100
AcDbEntity
  8
6_SURFACES-PATINS-SPEC
100
AcDbLine
 62
7
  6
CONTINUOUS
 10
118.6238967024
 20
12.6758453642
 11
118.6970222466
 21
12.6373166672
  0
LINE
  5
4AE
100
AcDbEntity
  8
0
100
AcDbLine
 62
7
  6
CONTINUOUS
 10
101.1014171681
 20
35.3368434744
 11
101.0962173424
 21
35.3396325644
  0
LINE
  5
4AF
100
AcDbEntity
  8
0
100
AcDbLine
 62
7
  6
CONTINUOUS
 10
101.1066318226
 20
35.3339663021
 11
101.1014171681
 21
35.3368434744
  0
LINE
  5
4B0
100
AcDbEntity
  8
0
100
AcDbLine
 62
7
  6
CONTINUOUS
 10
113.3853336186
 20
13.7642805806
 11
113.3945578859
 21
13.7591373734
  0
LINE
  5
4B1
100
AcDbEntity
  8
0
100
AcDbLine
 62
7
  6
CONTINUOUS
 10
101.1118596518
 20
35.3309997097
 11
101.1066318226
 21
35.3339663021
  0
LINE
  5
4B2
100
AcDbEntity
  8
0
100
AcDbLine
 62
7
  6
CONTINUOUS
 10
104.8746334512
 20
14.4709154975
 11
105.0067443959
 21
14.3957037643
  0
LINE
  5
4B3
100
AcDbEntity
  8
6_SURFACES-PATINS-SPEC
100
AcDbLine
 62
7
  6
CONTINUOUS
 10
120.1158205542
 20
13.7350314959
 11
120.1509916281
 21
13.7148190037
  0
LINE
  5
4B4
100
AcDbEntity
  8
0
100
AcDbLine
 62
7
  6
CONTINUOUS
 10
101.1170989553
 20
35.3279423738
 11
101.1118596518
 21
35.3309997097
  0
LINE
  5
4B5
100
AcDbEntity
  8
0
100
AcDbLine
 62
7
  6
CONTINUOUS
 10
101.1380025371
 20
35.3151895953
 11
101.095713516
 21
35.3401540143
  0
LINE
  5
4B6
100
AcDbEntity
  8
0
100
AcDbLine
 62
7
  6
CONTINUOUS
 10
101.1223479847
 20
35.3247929873
 11
101.1170989553
 21
35.3279423738
  0
LINE
  5
4B7
100
AcDbEntity
  8
0
100
AcDbLine
 62
7
  6
CONTINUOUS
 10
101.1276047989
 20
35.3215503515
 11
101.1223479847
 21
35.3247929873
  0
LINE
  5
4B8
100
AcDbEntity
  8
0
100
AcDbLine
 62
7
  6
CONTINUOUS
 10
101.1328671404
 20
35.3182134688
 11
101.1276047989
 21
35.3215503515
  0
LINE
  5
4B9
100
AcDbEntity
  8
6_SURFACES-PATINS-SPEC
100
AcDbLine
 62
7
  6
CONTINUOUS
 10
109.8654675108
 20
12.7206783834
 11
109.9349031136
 21
12.6758453668
  0
LINE
  5
4BA
100
AcDbEntity
  8
6_SURFACES-PATINS-SPEC
100
AcDbLine
 62
7
  6
CONTINUOUS
 10
118.5544610987
 20
12.7206783809
 11
118.6238967024
 21
12.6758453642
  0
LINE
  5
4BB
100
AcDbEntity
  8
0
100
AcDbLine
 62
7
  6
CONTINUOUS
 10
101.1381326874
 20
35.3147814027
 11
101.1328671404
 21
35.3182134688
  0
LINE
  5
4BC
100
AcDbEntity
  8
0
100
AcDbLine
 62
7
  6
CONTINUOUS
 10
104.7404694398
 20
14.5591174084
 11
104.8746334512
 21
14.4709154975
  0
LINE
  5
4BD
100
AcDbEntity
  8
0
100
AcDbLine
 62
7
  6
CONTINUOUS
 10
101.1433990856
 20
35.3112532603
 11
101.1381326874
 21
35.3147814027
  0
LINE
  5
4BE
100
AcDbEntity
  8
0
100
AcDbLine
 62
7
  6
CONTINUOUS
 10
113.3945578859
 20
13.7591373734
 11
113.4037016575
 21
13.7529461512
  0
LWPOLYLINE
  5
4BF
100
AcDbEntity
  8
DEFAULT_2
100
AcDbPolyline
 62
8
  6
CONTINUOUS
 90
33
 70
0
 10
116.065669163
 20
28.0274751702
 10
116.0437060928
 20
28.0423513403
 10
116.0214292316
 20
28.0567682736
 10
115.9988497281
 20
28.0707174927
 10
115.9759787309
 20
28.0841905202
 10
115.9528273888
 20
28.0971788788
 10
115.9294068506
 20
28.109674091
 10
115.9063533388
 20
28.121359997
 10
115.8830655852
 20
28.132567297
 10
115.8595540199
 20
28.1432930073
 10
115.8358290727
 20
28.1535341442
 10
115.8119011737
 20
28.1632877241
 10
115.787780753
 20
28.1725507634
 10
115.7647062438
 20
28.1808909373
 10
115.7414765806
 20
28.1887859713
 10
115.7181008234
 20
28.1962357972
 10
115.6945880328
 20
28.2032403466
 10
115.670947269
 20
28.2097995509
 10
115.6474199494
 20
28.215856107
 10
115.6237848067
 20
28.2214774125
 10
115.6000506213
 20
28.2266649811
 10
115.5762261739
 20
28.2314203264
 10
115.552320245
 20
28.2357449622
 10
115.5284995359
 20
28.2396163568
 10
115.5046144731
 20
28.2430669124
 10
115.4806724492
 20
28.2460993517
 10
115.456680857
 20
28.2487163976
 10
115.4326470893
 20
28.2509207729
 10
115.4086900424
 20
28.2527079401
 10
115.3847064324
 20
28.2540922328
 10
115.360704158
 20
28.2550769404
 10
115.3366911177
 20
28.2556653525
 10
115.3126752102
 20
28.2558607587
  0
LINE
  5
4C0
100
AcDbEntity
  8
0
100
AcDbLine
 62
7
  6
CONTINUOUS
 10
101.1486639491
 20
35.307628194
 11
101.1433990856
 21
35.3112532603
  0
LINE
  5
4C1
100
AcDbEntity
  8
0
100
AcDbLine
 62
7
  6
CONTINUOUS
 10
101.1539248611
 20
35.3039054026
 11
101.1486639491
 21
35.307628194
  0
LINE
  5
4C2
100
AcDbEntity
  8
0
100
AcDbLine
 62
7
  6
CONTINUOUS
 10
101.1591793747
 20
35.300084133
 11
101.1539248611
 21
35.3039054026
  0
LINE
  5
4C3
100
AcDbEntity
  8
0
100
AcDbLine
 62
7
  6
CONTINUOUS
 10
101.1760899508
 20
35.2874473225
 11
101.1380025371
 21
35.3151895953
  0
LINE
  5
4C4
100
AcDbEntity
  8
6_SURFACES-PATINS-SPEC
100
AcDbLine
 62
7
  6
CONTINUOUS
 10
120.1509916281
 20
13.7148190037
 11
120.1837736611
 21
13.6909257242
  0
LINE
  5
4C5
100
AcDbEntity
  8
0
100
AcDbLine
 62
7
  6
CONTINUOUS
 10
101.164425014
 20
35.2961636815
 11
101.1591793747
 21
35.300084133
  0
LINE
  5
4C6
100
AcDbEntity
  8
0
100
AcDbLine
 62
7
  6
CONTINUOUS
 10
104.6071624349
 20
14.6601950191
 11
104.7404694398
 21
14.5591174084
  0
LINE
  5
4C7
100
AcDbEntity
  8
0
100
AcDbLine
 62
7
  6
CONTINUOUS
 10
101.1696592747
 20
35.2921433952
 11
101.164425014
 21
35.2961636815
  0
LWPOLYLINE
  5
4C8
100
AcDbEntity
  8
DEFAULT_2
100
AcDbPolyline
 62
8
  6
CONTINUOUS
 90
30
 70
0
 10
118.6017301004
 20
16.1382566178
 10
118.580059935
 20
16.1550944837
 10
118.5586921252
 20
16.1723251909
 10
118.5376322792
 20
16.1899398214
 10
118.5168860053
 20
16.2079294574
 10
118.4964589118
 20
16.226285181
 10
118.476356607
 20
16.2449980742
 10
118.4565846992
 20
16.2640592193
 10
118.4362536559
 20
16.2843688939
 10
118.4162929446
 20
16.3050400327
 10
118.3967049544
 20
16.326062512
 10
118.3774920749
 20
16.3474262084
 10
118.3586566952
 20
16.3691209985
 10
118.3402012047
 20
16.3911367587
 10
118.3221279928
 20
16.4134633655
 10
118.3060156413
 20
16.4340417573
 10
118.2902213605
 20
16.4548621945
 10
118.2747446941
 20
16.4759177066
 10
118.259585186
 20
16.4972013231
 10
118.2443336195
 20
16.5193081325
 10
118.2294157847
 20
16.5416425755
 10
118.2148308314
 20
16.5641986674
 10
118.2005779099
 20
16.5869704237
 10
118.1840124035
 20
16.614402081
 10
118.1679176046
 20
16.6421184331
 10
118.152293149
 20
16.670105927
 10
118.1371386727
 20
16.69835101
 10
118.1224538115
 20
16.7268401291
 10
118.1082382012
 20
16.7555597313
 10
118.0944914779
 20
16.7844962637
  0
LINE
  5
4C9
100
AcDbEntity
  8
6_SURFACES-PATINS-SPEC
100
AcDbLine
 62
7
  6
CONTINUOUS
 10
109.8602607317
 20
12.7247359559
 11
109.8654675108
 21
12.7206783834
  0
LINE
  5
4CA
100
AcDbEntity
  8
6_SURFACES-PATINS-SPEC
100
AcDbLine
 62
7
  6
CONTINUOUS
 10
118.4892748208
 20
12.7714771642
 11
118.5544610987
 21
12.7206783809
  0
LINE
  5
4CB
100
AcDbEntity
  8
0
100
AcDbLine
 62
7
  6
CONTINUOUS
 10
101.1748796255
 20
35.2880226729
 11
101.1696592747
 21
35.2921433952
  0
LWPOLYLINE
  5
4CC
100
AcDbEntity
  8
DEFAULT_2
100
AcDbPolyline
 62
8
  6
CONTINUOUS
 90
33
 70
0
 10
117.2766388143
 20
16.0287255227
 10
117.2895435618
 20
16.0185050739
 10
117.302634707
 20
16.0085118146
 10
117.3159088962
 20
15.9987545423
 10
117.3293627756
 20
15.9892420541
 10
117.3429929913
 20
15.9799831474
 10
117.3567961897
 20
15.9709866196
 10
117.370769017
 20
15.9622612679
 10
117.3849081193
 20
15.9538158896
 10
117.3986588646
 20
15.9459662908
 10
117.4125580312
 20
15.9383895169
 10
117.4266033747
 20
15.9310913444
 10
117.4407926504
 20
15.9240775499
 10
117.4548277099
 20
15.9174890058
 10
117.46899379
 20
15.9111848678
 10
117.4832859778
 20
15.9051711717
 10
117.4976993605
 20
15.8994539532
 10
117.5120008581
 20
15.8941212468
 10
117.5264094846
 20
15.8890856541
 10
117.5409196944
 20
15.8843511606
 10
117.5555259417
 20
15.8799217517
 10
117.5700679234
 20
15.8758427871
 10
117.5846921389
 20
15.872068969
 10
117.5993922183
 20
15.868602823
 10
117.6141617917
 20
15.8654468748
 10
117.6289187762
 20
15.8626170581
 10
117.6437319625
 20
15.8600975976
 10
117.6585950699
 20
15.8578893041
 10
117.6735018176
 20
15.8559929885
 10
117.6884534476
 20
15.8544084337
 10
117.7034347134
 20
15.8531360827
 10
117.7184378527
 20
15.8521750257
 10
117.7334551029
 20
15.851524353
  0
LINE
  5
4CD
100
AcDbEntity
  8
0
100
AcDbLine
 62
7
  6
CONTINUOUS
 10
101.1800835087
 20
35.2838009673
 11
101.1748796255
 21
35.2880226729
  0
LINE
  5
4CE
100
AcDbEntity
  8
0
100
AcDbLine
 62
7
  6
CONTINUOUS
 10
113.4037016575
 20
13.7529461512
 11
113.4125008178
 21
13.7457588574
  0
LINE
  5
4CF
100
AcDbEntity
  8
0
100
AcDbLine
 62
7
  6
CONTINUOUS
 10
101.1852683416
 20
35.2794777852
 11
101.1800835087
 21
35.2838009673
  0
LINE
  5
4D0
100
AcDbEntity
  8
0
100
AcDbLine
 62
7
  6
CONTINUOUS
 10
101.1904315177
 20
35.2750526898
 11
101.1852683416
 21
35.2794777852
  0
LINE
  5
4D1
100
AcDbEntity
  8
0
100
AcDbLine
 62
7
  6
CONTINUOUS
 10
104.4775850838
 20
14.7734551078
 11
104.6071624349
 21
14.6601950191
  0
LINE
  5
4D2
100
AcDbEntity
  8
0
100
AcDbLine
 62
7
  6
CONTINUOUS
 10
101.209213955
 20
35.2583520386
 11
101.1760899508
 21
35.2874473225
  0
LINE
  5
4D3
100
AcDbEntity
  8
0
100
AcDbLine
 62
7
  6
CONTINUOUS
 10
101.1955704076
 20
35.2705253011
 11
101.1904315177
 21
35.2750526898
  0
LINE
  5
4D4
100
AcDbEntity
  8
0
100
AcDbLine
 62
7
  6
CONTINUOUS
 10
101.2006823735
 20
35.2658952855
 11
101.1955704076
 21
35.2705253011
  0
LINE
  5
4D5
100
AcDbEntity
  8
6_SURFACES-PATINS-SPEC
100
AcDbLine
 62
7
  6
CONTINUOUS
 10
120.1837736611
 20
13.6909257242
 11
120.2137830286
 21
13.6636312622
  0
LINE
  5
4D6
100
AcDbEntity
  8
0
100
AcDbLine
 62
7
  6
CONTINUOUS
 10
101.2057649383
 20
35.2611621967
 11
101.2006823735
 21
35.2658952855
  0
LINE
  5
4D7
100
AcDbEntity
  8
6_SURFACES-PATINS-SPEC
100
AcDbLine
 62
7
  6
CONTINUOUS
 10
118.4288203094
 20
12.8277893034
 11
118.4892748208
 21
12.7714771642
  0
LINE
  5
4D8
100
AcDbEntity
  8
0
100
AcDbLine
 62
7
  6
CONTINUOUS
 10
113.4125008178
 20
13.7457588574
 11
113.4174902531
 21
13.7410365384
  0
LINE
  5
4D9
100
AcDbEntity
  8
0
100
AcDbLine
 62
7
  6
CONTINUOUS
 10
101.2108157289
 20
35.2563255089
 11
101.2057649383
 21
35.2611621967
  0
LINE
  5
4DA
100
AcDbEntity
  8
0
100
AcDbLine
 62
7
  6
CONTINUOUS
 10
101.2158323394
 20
35.2513847368
 11
101.2108157289
 21
35.2563255089
  0
LINE
  5
4DB
100
AcDbEntity
  8
0
100
AcDbLine
 62
7
  6
CONTINUOUS
 10
113.4174885538
 20
13.7410380856
 11
113.7760635579
 21
13.3824630816
  0
LINE
  5
4DC
100
AcDbEntity
  8
DEFAULT_2
100
AcDbLine
 62
8
  6
CONTINUOUS
 10
113.5058785396
 20
13.8294247951
 11
113.8644519055
 21
13.4708514292
  0
LINE
  5
4DD
100
AcDbEntity
  8
0
100
AcDbLine
 62
7
  6
CONTINUOUS
 10
104.3542676937
 20
14.8977822401
 11
104.4775850838
 21
14.7734551078
  0
LINE
  5
4DE
100
AcDbEntity
  8
0
100
AcDbLine
 62
7
  6
CONTINUOUS
 10
101.2208123283
 20
35.2463394402
 11
101.2158323394
 21
35.2513847368
  0
LINE
  5
4DF
100
AcDbEntity
  8
0
100
AcDbLine
 62
7
  6
CONTINUOUS
 10
101.2369255846
 20
35.2295440168
 11
101.209213955
 21
35.2583520386
  0
LINE
  5
4E0
100
AcDbEntity
  8
0
100
AcDbLine
 62
7
  6
CONTINUOUS
 10
101.230652502
 20
35.2359337451
 11
101.2257532195
 21
35.2411892251
  0
LINE
  5
4E1
100
AcDbEntity
  8
0
100
AcDbLine
 62
7
  6
CONTINUOUS
 10
101.2355076315
 20
35.2305727033
 11
101.230652502
 21
35.2359337451
  0
LINE
  5
4E2
100
AcDbEntity
  8
6_SURFACES-PATINS-SPEC
100
AcDbLine
 62
7
  6
CONTINUOUS
 10
118.3735689907
 20
12.8891631705
 11
118.4288203094
 21
12.8277893034
  0
LINE
  5
4E3
100
AcDbEntity
  8
6_SURFACES-PATINS-SPEC
100
AcDbLine
 62
7
  6
CONTINUOUS
 10
120.2137830286
 20
13.6636312622
 11
120.2406685502
 21
13.6332550383
  0
LINE
  5
4E4
100
AcDbEntity
  8
0
100
AcDbLine
 62
7
  6
CONTINUOUS
 10
101.2403160302
 20
35.225105853
 11
101.2355076315
 21
35.2305727033
  0
LINE
  5
4E5
100
AcDbEntity
  8
0
100
AcDbLine
 62
7
  6
CONTINUOUS
 10
101.243155252
 20
35.2223916318
 11
101.2369255846
 21
35.2295440168
  0
LINE
  5
4E6
100
AcDbEntity
  8
0
100
AcDbLine
 62
7
  6
CONTINUOUS
 10
104.2388944589
 20
15.0322557763
 11
104.3542676937
 21
14.8977822401
  0
LINE
  5
4E7
100
AcDbEntity
  8
0
100
AcDbLine
 62
7
  6
CONTINUOUS
 10
101.245075088
 20
35.2195329998
 11
101.2403160302
 21
35.225105853
  0
LINE
  5
4E8
100
AcDbEntity
  8
0
100
AcDbLine
 62
7
  6
CONTINUOUS
 10
101.2514339394
 20
35.2124441828
 11
101.2431393459
 21
35.2224093679
  0
LINE
  5
4E9
100
AcDbEntity
  8
0
100
AcDbLine
 62
7
  6
CONTINUOUS
 10
101.249782163
 20
35.2138540027
 11
101.245075088
 21
35.2195329998
  0
LINE
  5
4EA
100
AcDbEntity
  8
0
100
AcDbLine
 62
7
  6
CONTINUOUS
 10
101.2544345826
 20
35.2080687758
 11
101.249782163
 21
35.2138540027
  0
LWPOLYLINE
  5
4EB
100
AcDbEntity
  8
DEFAULT_2
100
AcDbPolyline
 62
8
  6
CONTINUOUS
 90
21
 70
0
 10
116.3614725574
 20
27.7461716016
 10
116.3483400902
 20
27.7626905144
 10
116.3349735171
 20
27.7790236445
 10
116.3213733523
 20
27.7951646591
 10
116.3075401101
 20
27.8111072256
 10
116.293474305
 20
27.8268450114
 10
116.2796552257
 20
27.8418594472
 10
116.26562017
 20
27.8566714879
 10
116.2513700486
 20
27.8712760584
 10
116.2369057724
 20
27.8856680836
 10
116.2222282522
 20
27.8998424883
 10
116.2072768027
 20
27.9138512263
 10
116.1921132173
 20
27.9276304784
 10
116.1767394457
 20
27.9411752926
 10
116.1611574381
 20
27.954480717
 10
116.1453691443
 20
27.9675417994
 10
116.129801591
 20
27.9800186314
 10
116.1140439631
 20
27.9922545663
 10
116.0980998769
 20
28.0042450133
 10
116.0819729483
 20
28.0159853814
 10
116.0656667937
 20
28.0274710798
  0
LINE
  5
4EC
100
AcDbEntity
  8
0
100
AcDbLine
 62
7
  6
CONTINUOUS
 10
101.2590296438
 20
35.2021772893
 11
101.2544345826
 21
35.2080687758
  0
LINE
  5
4ED
100
AcDbEntity
  8
0
100
AcDbLine
 62
7
  6
CONTINUOUS
 10
101.2635646145
 20
35.1961795716
 11
101.2590296438
 21
35.2021772893
  0
LINE
  5
4EE
100
AcDbEntity
  8
0
100
AcDbLine
 62
7
  6
CONTINUOUS
 10
101.273466756
 20
35.1831309097
 11
101.2514339394
 21
35.2124441828
  0
LINE
  5
4EF
100
AcDbEntity
  8
6_SURFACES-PATINS-SPEC
100
AcDbLine
 62
7
  6
CONTINUOUS
 10
118.323985214
 20
12.9551529574
 11
118.3735689907
 21
12.8891631705
  0
LWPOLYLINE
  5
4F0
100
AcDbEntity
  8
DEFAULT_2
100
AcDbPolyline
 62
8
  6
CONTINUOUS
 90
33
 70
0
 10
104.7351952843
 20
16.4557080292
 10
104.7098679668
 20
16.4895515773
 10
104.6852149893
 20
16.5238974163
 10
104.6612406502
 20
16.5587250481
 10
104.6379492482
 20
16.5940139742
 10
104.614202922
 20
16.6315900421
 10
104.59121803
 20
16.6696345915
 10
104.5689964093
 20
16.708128895
 10
104.5475398971
 20
16.747054225
 10
104.525854885
 20
16.7883271832
 10
104.505002087
 20
16.8300277954
 10
104.4849698405
 20
16.8721300596
 10
104.4657464832
 20
16.9146079738
 10
104.4464910968
 20
16.9594172798
 10
104.428097204
 20
17.0045864131
 10
104.4105539422
 20
17.0500926025
 10
104.3938504485
 20
17.0959130771
 10
104.3773108356
 20
17.1440101698
 10
104.3616471913
 20
17.1923998205
 10
104.3468339143
 20
17.2410575184
 10
104.3328454031
 20
17.2899587523
 10
104.3191632444
 20
17.3409825206
 10
104.3063214005
 20
17.3922235172
 10
104.2942980679
 20
17.4436626917
 10
104.2830714426
 20
17.4952809938
 10
104.2722832309
 20
17.5487917763
 10
104.2622949152
 20
17.6024575325
 10
104.2530788717
 20
17.6562622896
 10
104.2446074763
 20
17.7101900748
 10
104.236660715
 20
17.7656432549
 10
104.2294480662
 20
17.8211959449
 10
104.2229485356
 20
17.8768349134
 10
104.2171411295
 20
17.9325469292
  0
LINE
  5
4F1
100
AcDbEntity
  8
0
100
AcDbLine
 62
7
  6
CONTINUOUS
 10
104.1328123613
 20
15.1758822176
 11
104.2388944589
 21
15.0322557763
  0
LINE
  5
4F2
100
AcDbEntity
  8
0
100
AcDbLine
 62
7
  6
CONTINUOUS
 10
101.2680367343
 20
35.1900757099
 11
101.2635646145
 21
35.1961795716
  0
LINE
  5
4F3
100
AcDbEntity
  8
0
100
AcDbLine
 62
7
  6
CONTINUOUS
 10
101.2724432155
 20
35.1838658526
 11
101.2680367343
 21
35.1900757099
  0
LINE
  5
4F4
100
AcDbEntity
  8
6_SURFACES-PATINS-SPEC
100
AcDbLine
 62
7
  6
CONTINUOUS
 10
120.2406685502
 20
13.6332550383
 11
120.2641156198
 21
13.600152533
  0
LINE
  5
4F5
100
AcDbEntity
  8
0
100
AcDbLine
 62
7
  6
CONTINUOUS
 10
101.2767812441
 20
35.1775502101
 11
101.2724432155
 21
35.1838658526
  0
LINE
  5
4F6
100
AcDbEntity
  8
0
100
AcDbLine
 62
7
  6
CONTINUOUS
 10
101.2810479809
 20
35.1711290563
 11
101.2767812441
 21
35.1775502101
  0
LINE
  5
4F7
100
AcDbEntity
  8
0
100
AcDbLine
 62
7
  6
CONTINUOUS
 10
101.291040636
 20
35.1560498357
 11
101.273466756
 21
35.1831309097
  0
LINE
  5
4F8
100
AcDbEntity
  8
0
100
AcDbLine
 62
7
  6
CONTINUOUS
 10
101.2852405627
 20
35.1646027303
 11
101.2810479809
 21
35.1711290563
  0
LINE
  5
4F9
100
AcDbEntity
  8
0
100
AcDbLine
 62
7
  6
CONTINUOUS
 10
104.0371675211
 20
15.3274941497
 11
104.1328123613
 21
15.1758822176
  0
LINE
  5
4FA
100
AcDbEntity
  8
6_SURFACES-PATINS-SPEC
100
AcDbLine
 62
7
  6
CONTINUOUS
 10
118.2804237367
 20
13.0252028732
 11
118.323985214
 21
12.9551529574
  0
LINE
  5
4FB
100
AcDbEntity
  8
0
100
AcDbLine
 62
7
  6
CONTINUOUS
 10
101.2893561032
 20
35.1579716375
 11
101.2852405627
 21
35.1646027303
  0
LINE
  5
4FC
100
AcDbEntity
  8
6_SURFACES-PATINS-SPEC
100
AcDbLine
 62
7
  6
CONTINUOUS
 10
107.908199123
 20
13.9183012781
 11
107.9176085598
 21
13.9028663993
  0
LINE
  5
4FD
100
AcDbEntity
  8
0
100
AcDbLine
 62
7
  6
CONTINUOUS
 10
101.2933916948
 20
35.1512362513
 11
101.2893561032
 21
35.1579716375
  0
LINE
  5
4FE
100
AcDbEntity
  8
0
100
AcDbLine
 62
7
  6
CONTINUOUS
 10
101.2973444092
 20
35.1443971144
 11
101.2933916948
 21
35.1512362513
  0
LINE
  5
4FF
100
AcDbEntity
  8
0
100
AcDbLine
 62
7
  6
CONTINUOUS
 10
101.3052397557
 20
35.1309336183
 11
101.291040636
 21
35.1560498357
  0
LINE
  5
500
100
AcDbEntity
  8
0
100
AcDbLine
 62
7
  6
CONTINUOUS
 10
101.3012112994
 20
35.1374548398
 11
101.2973444092
 21
35.1443971144
  0
LINE
  5
501
100
AcDbEntity
  8
6_SURFACES-PATINS-SPEC
100
AcDbLine
 62
7
  6
CONTINUOUS
 10
120.2641156198
 20
13.600152533
 11
120.2838498753
 21
13.5647111328
  0
LINE
  5
502
100
AcDbEntity
  8
0
100
AcDbLine
 62
7
  6
CONTINUOUS
 10
101.3049894004
 20
35.1304101131
 11
101.3012112994
 21
35.1374548398
  0
LINE
  5
503
100
AcDbEntity
  8
0
100
AcDbLine
 62
7
  6
CONTINUOUS
 10
103.9527627727
 20
15.4860381607
 11
104.0371675211
 21
15.3274941497
  0
LINE
  5
504
100
AcDbEntity
  8
0
100
AcDbLine
 62
7
  6
CONTINUOUS
 10
101.3086757315
 20
35.1232636928
 11
101.3049894004
 21
35.1304101131
  0
LINE
  5
505
100
AcDbEntity
  8
6_SURFACES-PATINS-SPEC
100
AcDbLine
 62
7
  6
CONTINUOUS
 10
118.2431628943
 20
13.0987232419
 11
118.2804237367
 21
13.0252028732
  0
LINE
  5
506
100
AcDbEntity
  8
0
100
AcDbLine
 62
7
  6
CONTINUOUS
 10
101.3122672972
 20
35.1160164123
 11
101.3086757315
 21
35.1232636928
  0
LINE
  5
507
100
AcDbEntity
  8
0
100
AcDbLine
 62
7
  6
CONTINUOUS
 10
101.3168224849
 20
35.1075347284
 11
101.3052397557
 21
35.1309336183
  0
LINE
  5
508
100
AcDbEntity
  8
0
100
AcDbLine
 62
7
  6
CONTINUOUS
 10
101.3157610887
 20
35.108669181
 11
101.3122672972
 21
35.1160164123
  0
LINE
  5
509
100
AcDbEntity
  8
6_SURFACES-PATINS-SPEC
100
AcDbLine
 62
7
  6
CONTINUOUS
 10
107.903586413
 20
13.9282755986
 11
107.908199123
 21
13.9183012781
  0
LINE
  5
50A
100
AcDbEntity
  8
0
100
AcDbLine
 62
7
  6
CONTINUOUS
 10
101.319154086
 20
35.1012229857
 11
101.3157610887
 21
35.108669181
  0
LINE
  5
50B
100
AcDbEntity
  8
0
100
AcDbLine
 62
7
  6
CONTINUOUS
 10
103.8801615935
 20
15.6505987758
 11
103.9527627727
 21
15.4860381607
  0
LINE
  5
50C
100
AcDbEntity
  8
0
100
AcDbLine
 62
7
  6
CONTINUOUS
 10
101.3224432595
 20
35.0936788917
 11
101.319154086
 21
35.1012229857
  0
LINE
  5
50D
100
AcDbEntity
  8
0
100
AcDbLine
 62
7
  6
CONTINUOUS
 10
101.3262949273
 20
35.0857321706
 11
101.3168224849
 21
35.1075347284
  0
LINE
  5
50E
100
AcDbEntity
  8
6_SURFACES-PATINS-SPEC
100
AcDbLine
 62
7
  6
CONTINUOUS
 10
107.8952640417
 20
13.9808423068
 11
107.8944149441
 21
13.982839473
  0
LINE
  5
50F
100
AcDbEntity
  8
6_SURFACES-PATINS-SPEC
100
AcDbLine
 62
7
  6
CONTINUOUS
 10
107.8868342662
 20
13.9677131248
 11
107.903586413
 21
13.9282755986
  0
LINE
  5
510
100
AcDbEntity
  8
6_SURFACES-PATINS-SPEC
100
AcDbLine
 62
7
  6
CONTINUOUS
 10
120.2838498753
 20
13.5647111328
 11
120.2992132215
 21
13.5285254288
  0
LINE
  5
511
100
AcDbEntity
  8
0
100
AcDbLine
 62
7
  6
CONTINUOUS
 10
101.3256255711
 20
35.0860380443
 11
101.3224432595
 21
35.0936788917
  0
LWPOLYLINE
  5
512
100
AcDbEntity
  8
6_SURFACES-PATINS-SPEC
100
AcDbPolyline
 62
7
  6
CONTINUOUS
 90
14
 70
0
 10
119.9103893792
 20
13.8375693796
 10
119.9111336937
 20
13.8357785041
 10
119.9118850411
 20
13.8339905615
 10
119.9126441924
 20
13.8322059058
 10
119.9134119187
 20
13.8304248907
 10
119.914188991
 20
13.8286478701
 10
119.9149761802
 20
13.8268751979
 10
119.9155316965
 20
13.8256416883
 10
119.9160933703
 20
13.8244109529
 10
119.9166620628
 20
13.8231834787
 10
119.9172386356
 20
13.8219597527
 10
119.9178239497
 20
13.8207402617
 10
119.9184188667
 20
13.8195254929
 10
119.9190242477
 20
13.8183159331
  0
LINE
  5
513
100
AcDbEntity
  8
6_SURFACES-PATINS-SPEC
100
AcDbLine
 62
7
  6
CONTINUOUS
 10
119.9132158271
 20
13.8041610979
 11
119.9122982697
 21
13.806387351
  0
LINE
  5
514
100
AcDbEntity
  8
6_SURFACES-PATINS-SPEC
100
AcDbLine
 62
7
  6
CONTINUOUS
 10
118.2163189282
 20
13.1644842401
 11
118.2431628943
 21
13.0987232419
  0
LINE
  5
515
100
AcDbEntity
  8
0
100
AcDbLine
 62
7
  6
CONTINUOUS
 10
102.3085422952
 20
25.9541765176
 11
102.3503699619
 21
25.8506283792
  0
LINE
  5
516
100
AcDbEntity
  8
0
100
AcDbLine
 62
7
  6
CONTINUOUS
 10
102.3503699619
 20
25.8506283792
 11
102.3944666372
 21
25.7414233174
  0
LINE
  5
517
100
AcDbEntity
  8
0
100
AcDbLine
 62
7
  6
CONTINUOUS
 10
101.328697977
 20
35.0783016696
 11
101.3256255711
 21
35.0860380443
  0
LINE
  5
518
100
AcDbEntity
  8
0
100
AcDbLine
 62
7
  6
CONTINUOUS
 10
102.2685625703
 20
26.0551457521
 11
102.3085422952
 21
25.9541765176
  0
LINE
  5
519
100
AcDbEntity
  8
0
100
AcDbLine
 62
7
  6
CONTINUOUS
 10
102.3944666372
 20
25.7414233174
 11
102.4416405472
 21
25.6215759345
  0
LWPOLYLINE
  5
51A
100
AcDbEntity
  8
6_SURFACES-PATINS-SPEC
100
AcDbPolyline
 62
7
  6
CONTINUOUS
 90
25
 70
0
 10
110.7150307591
 20
13.8378659173
 10
110.7146938756
 20
13.83872248
 10
110.713570126
 20
13.8396458426
 10
110.7116419997
 20
13.8406374614
 10
110.708893865
 20
13.841698302
 10
110.705314962
 20
13.8428280577
 10
110.7008953106
 20
13.8440262186
 10
110.6895151472
 20
13.8466233637
 10
110.6747897881
 20
13.8494728903
 10
110.6567870312
 20
13.8525578903
 10
110.6355796198
 20
13.8558658675
 10
110.6112200022
 20
13.8593868036
 10
110.5837575911
 20
13.8631114274
 10
110.5532627534
 20
13.8670294287
 10
110.4834840326
 20
13.8753977759
 10
110.4024781111
 20
13.8843915807
 10
110.3106252358
 20
13.8939244066
 10
110.2086954266
 20
13.9038683045
 10
110.0974905472
 20
13.9141038254
 10
109.9785956988
 20
13.9244461657
 10
109.8536485219
 20
13.9347190763
 10
109.7245151386
 20
13.9447529726
 10
109.5937144853
 20
13.9543568271
 10
109.4658911037
 20
13.9632270479
 10
109.3380344433
 20
13.9716022878
  0
LWPOLYLINE
  5
51B
100
AcDbEntity
  8
6_SURFACES-PATINS-SPEC
100
AcDbPolyline
 62
7
  6
CONTINUOUS
 90
8
 70
0
 10
107.8618724337
 20
14.0305023226
 10
107.8654174948
 20
14.0214238374
 10
107.8689769411
 20
14.0123509491
 10
107.8725036438
 20
14.0034054987
 10
107.8760486579
 20
13.9944672603
 10
107.8796160532
 20
13.9855379648
 10
107.8832098994
 20
13.9766193427
 10
107.8868342662
 20
13.9677131248
  0
LINE
  5
51C
100
AcDbEntity
  8
0
100
AcDbLine
 62
7
  6
CONTINUOUS
 10
101.3338724204
 20
35.0659008699
 11
101.3262949273
 21
35.0857321706
  0
LINE
  5
51D
100
AcDbEntity
  8
0
100
AcDbLine
 62
7
  6
CONTINUOUS
 10
102.2302825807
 20
26.1559424555
 11
102.2685625703
 21
26.0551457521
  0
LINE
  5
51E
100
AcDbEntity
  8
0
100
AcDbLine
 62
7
  6
CONTINUOUS
 10
101.3316574286
 20
35.0704710762
 11
101.328697977
 21
35.0783016696
  0
LINE
  5
51F
100
AcDbEntity
  8
6_SURFACES-PATINS-SPEC
100
AcDbLine
 62
7
  6
CONTINUOUS
 10
122.7073080328
 20
13.9039964481
 11
122.7077339639
 21
13.9028690057
  0
LWPOLYLINE
  5
520
100
AcDbEntity
  8
6_SURFACES-PATINS-SPEC
100
AcDbPolyline
 62
7
  6
CONTINUOUS
 90
49
 70
0
 10
118.2224220107
 20
13.1644842401
 10
118.2307995902
 20
13.1421979097
 10
118.2397447405
 20
13.1201221376
 10
118.2492494319
 20
13.0982730226
 10
118.2593056347
 20
13.0766666637
 10
118.2699053193
 20
13.0553191599
 10
118.281040456
 20
13.03424661
 10
118.2926922053
 20
13.013483637
 10
118.3048635395
 20
12.9930241765
 10
118.3175475934
 20
12.9728812252
 10
118.3307375023
 20
12.9530677796
 10
118.3444264012
 20
12.9335968362
 10
118.3586074251
 20
12.9144813915
 10
118.3732578711
 20
12.8957530042
 10
118.3883816625
 20
12.8774034679
 10
118.403967871
 20
12.8594438873
 10
118.4200055683
 20
12.841885367
 10
118.4364838262
 20
12.8247390118
 10
118.4533917162
 20
12.8080159263
 10
118.4706998681
 20
12.7917440913
 10
118.4884149085
 20
12.7759166689
 10
118.5065259023
 20
12.7605446102
 10
118.5250219142
 20
12.7456388663
 10
118.5438920088
 20
12.7312103884
 10
118.5631252512
 20
12.7172701275
 10
118.5826904
 20
12.7038416521
 10
118.6025933428
 20
12.6909185165
 10
118.6228203681
 20
12.6785078941
 10
118.6433577644
 20
12.6666169584
 10
118.6641918202
 20
12.6552528829
 10
118.685308824
 20
12.6444228411
 10
118.7066766118
 20
12.634142562
 10
118.7282991182
 20
12.6244096916
 10
118.7501622855
 20
12.6152313561
 10
118.7722520558
 20
12.6066146818
 10
118.7945543711
 20
12.5985667948
 10
118.8170551738
 20
12.5910948214
 10
118.8397260422
 20
12.5842092599
 10
118.8625664645
 20
12.5779085716
 10
118.8855617961
 20
12.5721953197
 10
118.9086973924
 20
12.5670720676
 10
118.9319586087
 20
12.5625413786
 10
118.9553308004
 20
12.5586058162
 10
118.9787918916
 20
12.5552688024
 10
119.0023310909
 20
12.5525315399
 10
119.0259302319
 20
12.5503964377
 10
119.0495711479
 20
12.5488659052
 10
119.0732356723
 20
12.5479423516
 10
119.0969056386
 20
12.547628186
  0
LINE
  5
521
100
AcDbEntity
  8
0
100
AcDbLine
 62
7
  6
CONTINUOUS
 10
102.4416405472
 20
25.6215759345
 11
102.492003859
 21
25.4844476613
  0
LINE
  5
522
100
AcDbEntity
  8
6_SURFACES-PATINS-SPEC
100
AcDbLine
 62
7
  6
CONTINUOUS
 10
117.9812795276
 20
13.8096350586
 11
118.2163189284
 21
13.1644842401
  0
LINE
  5
523
100
AcDbEntity
  8
6_SURFACES-PATINS-SPEC
100
AcDbLine
 62
7
  6
CONTINUOUS
 10
108.2246230638
 20
13.7334602027
 11
108.4317133782
 21
13.1644842401
  0
LINE
  5
524
100
AcDbEntity
  8
6_SURFACES-PATINS-SPEC
100
AcDbLine
 62
7
  6
CONTINUOUS
 10
120.2875898115
 20
13.5604604854
 11
120.4317133782
 21
13.1644842401
  0
LINE
  5
525
100
AcDbEntity
  8
6_SURFACES-PATINS-SPEC
100
AcDbLine
 62
7
  6
CONTINUOUS
 10
118.2224220131
 20
13.1644842401
 11
117.989111225
 21
13.8100013941
  0
LINE
  5
526
100
AcDbEntity
  8
0
100
AcDbLine
 62
7
  6
CONTINUOUS
 10
101.3345008752
 20
35.062547656
 11
101.3316574286
 21
35.0704710762
  0
LWPOLYLINE
  5
527
100
AcDbEntity
  8
6_SURFACES-PATINS-SPEC
100
AcDbPolyline
 62
7
  6
CONTINUOUS
 90
28
 70
0
 10
122.7282319193
 20
14.0110464338
 10
122.7279761609
 20
14.0117631239
 10
122.7274468462
 20
14.012359142
 10
122.7265262649
 20
14.0129893046
 10
122.7252523805
 20
14.01360179
 10
122.7216427178
 20
14.0147728532
 10
122.7166212885
 20
14.0158696635
 10
122.7101946182
 20
14.0168892174
 10
122.7023751403
 20
14.0178292124
 10
122.6931820733
 20
14.0186881518
 10
122.6826364036
 20
14.0194645441
 10
122.6575980919
 20
14.0207630142
 10
122.6275919224
 20
14.021714501
 10
122.5932288055
 20
14.0223186715
 10
122.5554457776
 20
14.0225892486
 10
122.5152742546
 20
14.0225556479
 10
122.4735229019
 20
14.0222550951
 10
122.3873824592
 20
14.0210006406
 10
122.2998201915
 20
14.0190596983
 10
122.2111535991
 20
14.0165716864
 10
122.1199168967
 20
14.0135631548
 10
122.0246493076
 20
14.0100092107
 10
121.9245061445
 20
14.0058721054
 10
121.8178108861
 20
14.0010514312
 10
121.7025860861
 20
13.9954036565
 10
121.5769063979
 20
13.9887554254
 10
121.4320924524
 20
13.9804940101
 10
121.2873159774
 20
13.9716022858
  0
LINE
  5
528
100
AcDbEntity
  8
0
100
AcDbLine
 62
7
  6
CONTINUOUS
 10
103.8198352079
 20
15.8202242476
 11
103.8801615935
 21
15.6505987758
  0
LINE
  5
529
100
AcDbEntity
  8
0
100
AcDbLine
 62
7
  6
CONTINUOUS
 10
102.1938866794
 20
26.2587773192
 11
102.2302825807
 21
26.1559424555
  0
LINE
  5
52A
100
AcDbEntity
  8
0
100
AcDbLine
 62
7
  6
CONTINUOUS
 10
102.4919958862
 20
25.4844707135
 11
102.5413893128
 21
25.3439148355
  0
LINE
  5
52B
100
AcDbEntity
  8
0
100
AcDbLine
 62
7
  6
CONTINUOUS
 10
102.4920038633
 20
25.4844476627
 11
102.4919958862
 21
25.4844707135
  0
LINE
  5
52C
100
AcDbEntity
  8
0
100
AcDbLine
 62
7
  6
CONTINUOUS
 10
101.3372252652
 20
35.0545328855
 11
101.3345008752
 21
35.062547656
  0
LINE
  5
52D
100
AcDbEntity
  8
0
100
AcDbLine
 62
7
  6
CONTINUOUS
 10
101.3397386953
 20
35.0485230443
 11
101.3338724204
 21
35.0659008699
  0
LINE
  5
52E
100
AcDbEntity
  8
6_SURFACES-PATINS-SPEC
100
AcDbLine
 62
7
  6
CONTINUOUS
 10
119.8958043866
 20
13.898414667
 11
119.9111313561
 21
13.8522069793
  0
LINE
  5
52F
100
AcDbEntity
  8
0
100
AcDbLine
 62
7
  6
CONTINUOUS
 10
101.339827549
 20
35.0464283269
 11
101.3372252652
 21
35.0545328855
  0
LINE
  5
530
100
AcDbEntity
  8
0
100
AcDbLine
 62
7
  6
CONTINUOUS
 10
102.1608542505
 20
26.3632905562
 11
102.1938866794
 21
26.2587773192
  0
LINE
  5
531
100
AcDbEntity
  8
0
100
AcDbLine
 62
7
  6
CONTINUOUS
 10
102.5413892592
 20
25.3439149859
 11
102.5463406054
 21
25.3276071697
  0
LINE
  5
532
100
AcDbEntity
  8
0
100
AcDbLine
 62
7
  6
CONTINUOUS
 10
101.3423046803
 20
35.0382356288
 11
101.339827549
 21
35.0464283269
  0
LINE
  5
533
100
AcDbEntity
  8
0
100
AcDbLine
 62
7
  6
CONTINUOUS
 10
101.3442015288
 20
35.0336708406
 11
101.3397386953
 21
35.0485230443
  0
LWPOLYLINE
  5
534
100
AcDbEntity
  8
6_SURFACES-PATINS-SPEC
100
AcDbPolyline
 62
7
  6
CONTINUOUS
 90
9
 70
0
 10
119.9209287869
 20
13.8494673404
 10
119.919436022
 20
13.8545581452
 10
119.9179147513
 20
13.859640541
 10
119.915914311
 20
13.8662021456
 10
119.9138810965
 20
13.8727537165
 10
119.9118191857
 20
13.879296397
 10
119.9097326568
 20
13.8858313303
 10
119.9076255877
 20
13.8923596599
 10
119.9055020565
 20
13.8988825288
  0
LINE
  5
535
100
AcDbEntity
  8
0
100
AcDbLine
 62
7
  6
CONTINUOUS
 10
101.3446536186
 20
35.0299565278
 11
101.3423046803
 21
35.0382356288
  0
LINE
  5
536
100
AcDbEntity
  8
6_SURFACES-PATINS-SPEC
100
AcDbLine
 62
7
  6
CONTINUOUS
 10
107.918042371
 20
13.9039974693
 11
107.9053922589
 21
13.9497006943
  0
LINE
  5
537
100
AcDbEntity
  8
0
100
AcDbLine
 62
7
  6
CONTINUOUS
 10
103.7721637636
 20
15.9939352409
 11
103.8198352079
 21
15.8202242476
  0
LINE
  5
538
100
AcDbEntity
  8
0
100
AcDbLine
 62
7
  6
CONTINUOUS
 10
101.3476102175
 20
35.0210369787
 11
101.3442015288
 21
35.0336708406
  0
LINE
  5
539
100
AcDbEntity
  8
0
100
AcDbLine
 62
7
  6
CONTINUOUS
 10
101.3468713315
 20
35.0215928491
 11
101.3446536186
 21
35.0299565278
  0
LINE
  5
53A
100
AcDbEntity
  8
0
100
AcDbLine
 62
7
  6
CONTINUOUS
 10
102.1329126533
 20
26.4694669536
 11
102.1608542505
 21
26.3632905562
  0
LINE
  5
53B
100
AcDbEntity
  8
0
100
AcDbLine
 62
7
  6
CONTINUOUS
 10
101.3489547966
 20
35.0131465073
 11
101.3468713315
 21
35.0215928491
  0
LINE
  5
53C
100
AcDbEntity
  8
0
100
AcDbLine
 62
7
  6
CONTINUOUS
 10
101.3502428912
 20
35.0102609871
 11
101.3476102175
 21
35.0210369787
  0
LINE
  5
53D
100
AcDbEntity
  8
6_SURFACES-PATINS-SPEC
100
AcDbLine
 62
7
  6
CONTINUOUS
 10
119.9103195042
 20
13.8378662762
 11
119.9103893776
 21
13.8375694054
  0
LINE
  5
53E
100
AcDbEntity
  8
6_SURFACES-PATINS-SPEC
100
AcDbLine
 62
7
  6
CONTINUOUS
 10
119.9122982839
 20
13.806387377
 11
119.9122297395
 21
13.8066815824
  0
LINE
  5
53F
100
AcDbEntity
  8
0
100
AcDbLine
 62
7
  6
CONTINUOUS
 10
101.3509010041
 20
35.0046195078
 11
101.3489547966
 21
35.0131465073
  0
LINE
  5
540
100
AcDbEntity
  8
0
100
AcDbLine
 62
7
  6
CONTINUOUS
 10
101.352301159
 20
35.001029247
 11
101.3502428912
 21
35.0102609871
  0
LWPOLYLINE
  5
541
100
AcDbEntity
  8
DEFAULT_2
100
AcDbPolyline
 62
8
  6
CONTINUOUS
 90
58
 70
0
 10
104.5411079743
 20
16.1693370899
 10
104.5519703631
 20
16.1177676622
 10
104.5640228558
 20
16.0664731674
 10
104.5772730919
 20
16.0154323467
 10
104.5917245448
 20
15.9646382979
 10
104.6073640223
 20
15.9141415445
 10
104.6241741659
 20
15.8640069666
 10
104.6421383024
 20
15.814292618
 10
104.6612425005
 20
15.7650292478
 10
104.6814735143
 20
15.7162407792
 10
104.7028207275
 20
15.6679467489
 10
104.725284043
 20
15.6201491498
 10
104.7488659935
 20
15.5728455885
 10
104.7735668193
 20
15.5260389941
 10
104.799377592
 20
15.4797535852
 10
104.8262870911
 20
15.4340189029
 10
104.8542819124
 20
15.3888662956
 10
104.8833399172
 20
15.3443343412
 10
104.9134367835
 20
15.300463425
 10
104.9445480196
 20
15.257292019
 10
104.9766484563
 20
15.2148509432
 10
105.0097127551
 20
15.1731691044
 10
105.0437217301
 20
15.1322688724
 10
105.0786808067
 20
15.0921464698
 10
105.1146015631
 20
15.0527915819
 10
105.1514891351
 20
15.0142014437
 10
105.1893228878
 20
14.9764034883
 10
105.2280757442
 20
14.939432698
 10
105.2677199386
 20
14.9033230937
 10
105.3082249519
 20
14.8681048499
 10
105.3495595767
 20
14.8338071792
 10
105.391691892
 20
14.8004583606
 10
105.4345871232
 20
14.7680829372
 10
105.4782097819
 20
14.7367045186
 10
105.5225334607
 20
14.7063412021
 10
105.5675680758
 20
14.676989037
 10
105.6133326243
 20
14.6486385606
 10
105.6598356502
 20
14.6212870981
 10
105.7070438854
 20
14.5949591248
 10
105.7549136087
 20
14.5696859039
 10
105.8034016899
 20
14.5454966922
 10
105.852467363
 20
14.5224127215
 10
105.9020704529
 20
14.5004532173
 10
105.9521719687
 20
14.4796359151
 10
106.0027376564
 20
14.4599725889
 10
106.053734446
 20
14.4414735226
 10
106.1051369905
 20
14.4241470129
 10
106.1569508345
 20
14.4079934078
 10
106.2091892456
 20
14.3930110681
 10
106.2618553358
 20
14.3792015479
 10
106.3149115948
 20
14.3665791736
 10
106.3683103566
 20
14.3551614649
 10
106.422001604
 20
14.3449643381
 10
106.4759259146
 20
14.3359972963
 10
106.5300215147
 20
14.328268239
 10
106.5842403567
 20
14.3217832863
 10
106.638589297
 20
14.3165414401
 10
106.6930889178
 20
14.3125399226
  0
LINE
  5
542
100
AcDbEntity
  8
0
100
AcDbLine
 62
7
  6
CONTINUOUS
 10
101.3527069592
 20
34.9960139471
 11
101.3509010041
 21
35.0046195078
  0
LINE
  5
543
100
AcDbEntity
  8
0
100
AcDbLine
 62
7
  6
CONTINUOUS
 10
101.3539299296
 20
34.9930817255
 11
101.352301159
 21
35.001029247
  0
LINE
  5
544
100
AcDbEntity
  8
0
100
AcDbLine
 62
7
  6
CONTINUOUS
 10
102.5463406054
 20
25.3276071697
 11
102.5505454393
 21
25.3062316623
  0
LINE
  5
545
100
AcDbEntity
  8
0
100
AcDbLine
 62
7
  6
CONTINUOUS
 10
103.7374383764
 20
16.1707293286
 11
103.7721637636
 21
15.9939352409
  0
LINE
  5
546
100
AcDbEntity
  8
0
100
AcDbLine
 62
7
  6
CONTINUOUS
 10
101.3543696842
 20
34.9873320138
 11
101.3527069592
 21
34.9960139471
  0
LWPOLYLINE
  5
547
100
AcDbEntity
  8
DEFAULT_2
100
AcDbPolyline
 62
8
  6
CONTINUOUS
 90
10
 70
0
 10
104.0111016787
 20
18.8976281245
 10
104.0702988108
 20
18.5869741565
 10
104.1294205968
 20
18.2782102091
 10
104.1884634885
 20
17.9713459139
 10
104.2474252201
 20
17.6663842754
 10
104.3063086556
 20
17.3633017904
 10
104.365117941
 20
17.0620683287
 10
104.4238559491
 20
16.7626602901
 10
104.4825204586
 20
16.465080194
 10
104.5411079743
 20
16.1693370899
  0
LINE
  5
548
100
AcDbEntity
  8
0
100
AcDbLine
 62
7
  6
CONTINUOUS
 10
102.1109140369
 20
26.5851092502
 11
102.1329126533
 21
26.4694669536
  0
LINE
  5
549
100
AcDbEntity
  8
0
100
AcDbLine
 62
7
  6
CONTINUOUS
 10
101.3552374978
 20
34.9861861129
 11
101.3539299296
 21
34.9930817255
  0
LWPOLYLINE
  5
54A
100
AcDbEntity
  8
DEFAULT_2
100
AcDbPolyline
 62
8
  6
CONTINUOUS
 90
77
 70
0
 10
125.0980737266
 20
29.0669566266
 10
125.1037718389
 20
29.0349100765
 10
125.1106729044
 20
29.0031103253
 10
125.1187641018
 20
28.9716114931
 10
125.1280326099
 20
28.9404677002
 10
125.1384642826
 20
28.9097326094
 10
125.1500396752
 20
28.8794580544
 10
125.1627380178
 20
28.8496954116
 10
125.1765385409
 20
28.8204960575
 10
125.191419246
 20
28.7919106679
 10
125.2073532197
 20
28.7639871156
 10
125.2243123198
 20
28.7367725731
 10
125.2422684041
 20
28.7103142127
 10
125.2611922292
 20
28.6846582941
 10
125.2810501467
 20
28.6598474274
 10
125.301807407
 20
28.6359233097
 10
125.3234292605
 20
28.6129276385
 10
125.3458800144
 20
28.5909010084
 10
125.3691202034
 20
28.5698796027
 10
125.3931094191
 20
28.5498985022
 10
125.4178072531
 20
28.5309927875
 10
125.4431725374
 20
28.5131962773
 10
125.4691610663
 20
28.4965377418
 10
125.4957278744
 20
28.4810446894
 10
125.5228279967
 20
28.4667446284
 10
125.5504159126
 20
28.4536636798
 10
125.5784438819
 20
28.4418224161
 10
125.6068636091
 20
28.4312400223
 10
125.6356267987
 20
28.4219356837
 10
125.6646848199
 20
28.4139271112
 10
125.6939876998
 20
28.4072261178
 10
125.7234851301
 20
28.4018430427
 10
125.7531268024
 20
28.3977882246
 10
125.7828623017
 20
28.3950704809
 10
125.8126407859
 20
28.3936925437
 10
125.8424113061
 20
28.3936556235
 10
125.8721229135
 20
28.3949609307
 10
125.9017247841
 20
28.397608149
 10
125.9311665932
 20
28.4015908544
 10
125.9603981413
 20
28.4069010962
 10
125.9893692287
 20
28.4135309233
 10
126.0180300086
 20
28.4214708943
 10
126.0463320468
 20
28.4307056046
 10
126.0742272623
 20
28.4412181587
 10
126.1016675737
 20
28.4529916614
 10
126.1286054717
 20
28.4660078034
 10
126.1549957333
 20
28.4802426197
 10
126.1807937074
 20
28.4956707312
 10
126.2059547429
 20
28.512266759
 10
126.2304349632
 20
28.5300040255
 10
126.2541935905
 20
28.548850659
 10
126.2771906217
 20
28.5687734892
 10
126.2993860537
 20
28.5897393458
 10
126.3207408398
 20
28.6117139106
 10
126.3412197595
 20
28.6346582745
 10
126.3607885489
 20
28.6585323805
 10
126.3794129439
 20
28.6832961718
 10
126.3970597929
 20
28.7089086256
 10
126.4137003934
 20
28.735324857
 10
126.4293071553
 20
28.7624990155
 10
126.4438524882
 20
28.7903852503
 10
126.4573100399
 20
28.8189369537
 10
126.4696584089
 20
28.848104488
 10
126.4808774315
 20
28.8778374587
 10
126.4909469442
 20
28.908085471
 10
126.4998481124
 20
28.9387976025
 10
126.5075674192
 20
28.9699208208
 10
126.5140926768
 20
29.001401566
 10
126.5194116975
 20
29.033186278
 10
126.5235136785
 20
29.0652211103
 10
126.526393358
 20
29.0974510694
 10
126.5280468588
 20
29.1298208754
 10
126.528470304
 20
29.1622752481
 10
126.5276612181
 20
29.1947588819
 10
126.52562273
 20
29.227216369
 10
126.5223593701
 20
29.2595922762
 10
126.5178756687
 20
29.2918311701
  0
LINE
  5
54B
100
AcDbEntity
  8
0
100
AcDbLine
 62
7
  6
CONTINUOUS
 10
101.3563037599
 20
34.9801441111
 11
101.3552374978
 21
34.9861861129
  0
LINE
  5
54C
100
AcDbEntity
  8
0
100
AcDbLine
 62
7
  6
CONTINUOUS
 10
101.3558862214
 20
34.9785759894
 11
101.3543696842
 21
34.9873320138
  0
LINE
  5
54D
100
AcDbEntity
  8
0
100
AcDbLine
 62
7
  6
CONTINUOUS
 10
101.3571857166
 20
34.9748015081
 11
101.3563037599
 21
34.9801441111
  0
LINE
  5
54E
100
AcDbEntity
  8
DEFAULT_2
100
AcDbLine
 62
8
  6
CONTINUOUS
 10
125.0550542501
 20
29.3385709202
 11
125.0980737266
 21
29.0669566266
  0
LINE
  5
54F
100
AcDbEntity
  8
DEFAULT_2
100
AcDbLine
 62
8
  6
CONTINUOUS
 10
126.5178756687
 20
29.2918311701
 11
126.4944104997
 21
29.4399844212
  0
LINE
  5
550
100
AcDbEntity
  8
0
100
AcDbLine
 62
7
  6
CONTINUOUS
 10
101.3579248746
 20
34.9700364486
 11
101.3571857166
 21
34.9748015081
  0
LINE
  5
551
100
AcDbEntity
  8
0
100
AcDbLine
 62
7
  6
CONTINUOUS
 10
101.3572536352
 20
34.9697482488
 11
101.3558862214
 21
34.9785759894
  0
LWPOLYLINE
  5
552
100
AcDbEntity
  8
DEFAULT_2
100
AcDbPolyline
 62
8
  6
CONTINUOUS
 90
33
 70
0
 10
116.7778133279
 20
26.6496088997
 10
116.7715015754
 20
26.6926894997
 10
116.7646606249
 20
26.7356932118
 10
116.757274267
 20
26.7786086669
 10
116.7493262924
 20
26.8214244958
 10
116.7408004917
 20
26.8641293294
 10
116.7323350642
 20
26.9037497093
 10
116.723340148
 20
26.9432526481
 10
116.7138004218
 20
26.9826266174
 10
116.7037005643
 20
27.0218600887
 10
116.6930252542
 20
27.0609415336
 10
116.6825470328
 20
27.097207846
 10
116.6715424166
 20
27.1333184707
 10
116.6599978919
 20
27.1692597105
 10
116.647899945
 20
27.205017868
 10
116.6352350623
 20
27.2405792461
 10
116.6228818822
 20
27.2736035518
 10
116.6100109275
 20
27.3064298216
 10
116.5966107928
 20
27.339043634
 10
116.582670073
 20
27.3714305676
 10
116.5681773627
 20
27.4035762009
 10
116.5533846371
 20
27.4349202833
 10
116.5380379318
 20
27.4659989467
 10
116.5221274913
 20
27.4967937918
 10
116.5056435602
 20
27.5272864195
 10
116.488576383
 20
27.5574584305
 10
116.4709162041
 20
27.5872914256
 10
116.4539877652
 20
27.614658721
 10
116.4365374359
 20
27.6416977062
 10
116.4185625093
 20
27.6683879293
 10
116.4000602782
 20
27.6947089387
 10
116.3810280356
 20
27.7206402826
 10
116.3614630743
 20
27.7461615093
  0
LINE
  5
553
100
AcDbEntity
  8
0
100
AcDbLine
 62
7
  6
CONTINUOUS
 10
101.3585519218
 20
34.9657518645
 11
101.3579248746
 21
34.9700364486
  0
LINE
  5
554
100
AcDbEntity
  8
6_SURFACES-PATINS-SPEC
100
AcDbLine
 62
7
  6
CONTINUOUS
 10
107.8971182627
 20
14.0110469157
 11
107.8971977268
 21
14.0105010324
  0
LINE
  5
555
100
AcDbEntity
  8
6_SURFACES-PATINS-SPEC
100
AcDbLine
 62
7
  6
CONTINUOUS
 10
107.8952777707
 20
13.979324244
 11
107.8951982584
 21
13.9798720128
  0
LINE
  5
556
100
AcDbEntity
  8
0
100
AcDbLine
 62
7
  6
CONTINUOUS
 10
102.5505464655
 20
25.3062244024
 11
102.5947813062
 21
24.9950075538
  0
LINE
  5
557
100
AcDbEntity
  8
0
100
AcDbLine
 62
7
  6
CONTINUOUS
 10
102.5947813062
 20
24.9950075538
 11
102.6619750698
 21
24.5216477149
  0
LINE
  5
558
100
AcDbEntity
  8
0
100
AcDbLine
 62
7
  6
CONTINUOUS
 10
102.6619750698
 20
24.5216477149
 11
102.708597907
 21
24.1927456132
  0
LINE
  5
559
100
AcDbEntity
  8
0
100
AcDbLine
 62
7
  6
CONTINUOUS
 10
102.7086289221
 20
24.1925259378
 11
102.7533200614
 21
23.8749243696
  0
LINE
  5
55A
100
AcDbEntity
  8
DEFAULT_2
100
AcDbLine
 62
8
  6
CONTINUOUS
 10
117.9068442823
 20
18.6070494659
 11
116.7778294265
 21
26.6496077434
  0
LINE
  5
55B
100
AcDbEntity
  8
0
100
AcDbLine
 62
7
  6
CONTINUOUS
 10
103.72487231
 20
16.2610017707
 11
103.7374383764
 21
16.1707293286
  0
LINE
  5
55C
100
AcDbEntity
  8
0
100
AcDbLine
 62
7
  6
CONTINUOUS
 10
102.7533200614
 20
23.8749243696
 11
102.8090894821
 21
23.4729003703
  0
LINE
  5
55D
100
AcDbEntity
  8
0
100
AcDbLine
 62
7
  6
CONTINUOUS
 10
102.8090894821
 20
23.4729003703
 11
102.8686907341
 21
23.0368052191
  0
LINE
  5
55E
100
AcDbEntity
  8
0
100
AcDbLine
 62
7
  6
CONTINUOUS
 10
101.3584690149
 20
34.9608512612
 11
101.3572536352
 21
34.9697482488
  0
LINE
  5
55F
100
AcDbEntity
  8
0
100
AcDbLine
 62
7
  6
CONTINUOUS
 10
101.359556288
 20
34.9583266312
 11
101.3585519218
 21
34.9657518645
  0
LINE
  5
560
100
AcDbEntity
  8
0
100
AcDbLine
 62
7
  6
CONTINUOUS
 10
102.8686907341
 20
23.0368052191
 11
102.9323494529
 21
22.5642542472
  0
LWPOLYLINE
  5
561
100
AcDbEntity
  8
DEFAULT_2
100
AcDbPolyline
 62
8
  6
CONTINUOUS
 90
37
 70
0
 10
112.7152206427
 20
18.2848756461
 10
112.7212429465
 20
18.2401382636
 10
112.7266606397
 20
18.1953215968
 10
112.7314665062
 20
18.1504346647
 10
112.7355957752
 20
18.1061531228
 10
112.7391171097
 20
18.0618196541
 10
112.7420233979
 20
18.017441775
 10
112.7442795075
 20
17.9736549878
 10
112.7459234212
 20
17.9298408238
 10
112.746947644
 20
17.8860077644
 10
112.7473434952
 20
17.8427276537
 10
112.7471203979
 20
17.7994463594
 10
112.7462705798
 20
17.7561728459
 10
112.744806755
 20
17.7134103839
 10
112.7427148306
 20
17.6706740446
 10
112.7399867838
 20
17.6279735861
 10
112.7366511385
 20
17.5857416623
 10
112.7326757996
 20
17.5435651551
 10
112.7280525082
 20
17.5014547429
 10
112.7228200611
 20
17.459774175
 10
112.7169339584
 20
17.4181808818
 10
112.7103857749
 20
17.3766866494
 10
112.7032191916
 20
17.3355887826
 10
112.6953828319
 20
17.2946133536
 10
112.6868682006
 20
17.2537734785
 10
112.6777187448
 20
17.213303623
 10
112.667881509
 20
17.1729953974
 10
112.6573480239
 20
17.1328633763
 10
112.6461571323
 20
17.0930849401
 10
112.6342591853
 20
17.0535123049
 10
112.6216461115
 20
17.0141620454
 10
112.6083468432
 20
16.975156244
 10
112.5943202528
 20
16.9364056985
 10
112.5795583147
 20
16.8979280038
 10
112.56407571
 20
16.8597950124
 10
112.5478465549
 20
16.8219749199
 10
112.5308655902
 20
16.7844909935
  0
LINE
  5
562
100
AcDbEntity
  8
0
100
AcDbLine
 62
7
  6
CONTINUOUS
 10
102.9323494529
 20
22.5642542472
 11
103.0003041172
 21
22.0527177238
  0
LINE
  5
563
100
AcDbEntity
  8
0
100
AcDbLine
 62
7
  6
CONTINUOUS
 10
103.0003041172
 20
22.0527177238
 11
103.0728165638
 21
21.499440372
  0
LINE
  5
564
100
AcDbEntity
  8
0
100
AcDbLine
 62
7
  6
CONTINUOUS
 10
103.0728165638
 20
21.499440372
 11
103.150138544
 21
20.9016971675
  0
LINE
  5
565
100
AcDbEntity
  8
0
100
AcDbLine
 62
7
  6
CONTINUOUS
 10
103.150138544
 20
20.9016971675
 11
103.2324974037
 21
20.2569183171
  0
LINE
  5
566
100
AcDbEntity
  8
0
100
AcDbLine
 62
7
  6
CONTINUOUS
 10
103.2324974037
 20
20.2569183171
 11
103.3201096402
 21
19.5626005714
  0
LINE
  5
567
100
AcDbEntity
  8
0
100
AcDbLine
 62
7
  6
CONTINUOUS
 10
101.3599646252
 20
34.955070815
 11
101.359556288
 21
34.9583266312
  0
LINE
  5
568
100
AcDbEntity
  8
0
100
AcDbLine
 62
7
  6
CONTINUOUS
 10
103.3201096402
 20
19.5626005714
 11
103.4131698957
 21
18.8164100031
  0
LINE
  5
569
100
AcDbEntity
  8
0
100
AcDbLine
 62
7
  6
CONTINUOUS
 10
103.4131698957
 20
18.8164100031
 11
103.5118475699
 21
18.016226545
  0
LINE
  5
56A
100
AcDbEntity
  8
0
100
AcDbLine
 62
7
  6
CONTINUOUS
 10
101.4753669722
 20
33.9396392795
 11
101.4674059194
 21
34.004696907
  0
LINE
  5
56B
100
AcDbEntity
  8
0
100
AcDbLine
 62
7
  6
CONTINUOUS
 10
103.5118475699
 20
18.016226545
 11
103.61633206
 21
17.1597881098
  0
LINE
  5
56C
100
AcDbEntity
  8
0
100
AcDbLine
 62
7
  6
CONTINUOUS
 10
102.1080784741
 20
26.6084972002
 11
102.1109140369
 21
26.5851092502
  0
LINE
  5
56D
100
AcDbEntity
  8
0
100
AcDbLine
 62
7
  6
CONTINUOUS
 10
103.61633206
 20
17.1597881098
 11
103.724865086
 21
16.2610610166
  0
LINE
  5
56E
100
AcDbEntity
  8
0
100
AcDbLine
 62
7
  6
CONTINUOUS
 10
101.3603255203
 20
34.9520586415
 11
101.3599646252
 21
34.955070815
  0
LINE
  5
56F
100
AcDbEntity
  8
0
100
AcDbLine
 62
7
  6
CONTINUOUS
 10
101.4674059194
 20
34.004696907
 11
101.4469185367
 21
34.1774643305
  0
LWPOLYLINE
  5
570
100
AcDbEntity
  8
0
100
AcDbPolyline
 62
7
  6
CONTINUOUS
 90
27
 70
0
 10
102.1052923532
 20
26.6304779969
 10
102.1071702191
 20
26.6146124158
 10
102.1094704562
 20
26.5988020631
 10
102.1125008072
 20
26.5814194598
 10
102.1159502996
 20
26.5641138482
 10
102.1200940002
 20
26.5452148501
 10
102.1245690374
 20
26.5263923268
 10
102.1298013806
 20
26.5059138015
 10
102.1353491416
 20
26.4855179966
 10
102.1442760735
 20
26.4547229388
 10
102.1537331471
 20
26.4240845015
 10
102.1636298624
 20
26.3935840175
 10
102.1757463083
 20
26.357795709
 10
102.1882775665
 20
26.3221518428
 10
102.201153628
 20
26.2866312195
 10
102.2166499867
 20
26.244989028
 10
102.2324577107
 20
26.2034638269
 10
102.2485081203
 20
26.1620314789
 10
102.2774257308
 20
26.0885922681
 10
102.3066332462
 20
26.0152689212
 10
102.3421157929
 20
25.9262796836
 10
102.3772572978
 20
25.8371504589
 10
102.3954592746
 20
25.7901875496
 10
102.4133833027
 20
25.7431172753
 10
102.430952424
 20
25.6959156991
 10
102.4480896802
 20
25.6485588844
 10
102.4647181132
 20
25.6010228947
  0
LINE
  5
571
100
AcDbEntity
  8
0
100
AcDbLine
 62
7
  6
CONTINUOUS
 10
101.3595294776
 20
34.9518875902
 11
101.3584690149
 21
34.9608512612
  0
LWPOLYLINE
  5
572
100
AcDbEntity
  8
DEFAULT_2
100
AcDbPolyline
 62
8
  6
CONTINUOUS
 90
57
 70
0
 10
102.2152797707
 20
26.809970412
 10
102.2167981501
 20
26.7971172578
 10
102.2186445028
 20
26.7843322803
 10
102.2208197467
 20
26.7716097657
 10
102.2233247996
 20
26.758944
 10
102.2261596713
 20
26.7463330476
 10
102.2293207403
 20
26.7337900851
 10
102.2328034771
 20
26.721332067
 10
102.2366033522
 20
26.7089759482
 10
102.2407166126
 20
26.6967358189
 10
102.2451426118
 20
26.6846143122
 10
102.2498814801
 20
26.6726111968
 10
102.2549333474
 20
26.6607262414
 10
102.2602970109
 20
26.6489618879
 10
102.2659659353
 20
26.6373312713
 10
102.2719322521
 20
26.6258501996
 10
102.2781880931
 20
26.6145344808
 10
102.2847268096
 20
26.6033973372
 10
102.291546632
 20
26.592441647
 10
102.2986470102
 20
26.5816677027
 10
102.3060273945
 20
26.5710757966
 10
102.3136859148
 20
26.5606680871
 10
102.3216154218
 20
26.5504541974
 10
102.3298074459
 20
26.5404456163
 10
102.3382535176
 20
26.5306538331
 10
102.3469457236
 20
26.5210891332
 10
102.3558783744
 20
26.5117569885
 10
102.3650463364
 20
26.5026616674
 10
102.3744444761
 20
26.4938074382
 10
102.3840677326
 20
26.4851986479
 10
102.3939113348
 20
26.4768399579
 10
102.4039705843
 20
26.4687361085
 10
102.4142407825
 20
26.4608918396
 10
102.4247159854
 20
26.4533123422
 10
102.4353852668
 20
26.4460046104
 10
102.4462364551
 20
26.438976089
 10
102.4572573785
 20
26.4322342229
 10
102.4684378378
 20
26.4257853009
 10
102.479775524
 20
26.4196309878
 10
102.4912701005
 20
26.4137717924
 10
102.5029212306
 20
26.4082082234
 10
102.5147258986
 20
26.4029417845
 10
102.5266703719
 20
26.3979779577
 10
102.5387382386
 20
26.3933232202
 10
102.5509130868
 20
26.3889840487
 10
102.5631812819
 20
26.3849658206
 10
102.575540297
 20
26.3812695151
 10
102.5879903825
 20
26.3778950115
 10
102.6005317888
 20
26.3748421893
 10
102.6131618473
 20
26.3721114576
 10
102.6258662138
 20
26.369705345
 10
102.6386276255
 20
26.3676269096
 10
102.6514288193
 20
26.3658792098
 10
102.6642563703
 20
26.364464722
 10
102.6771122062
 20
26.363383596
 10
102.6900020927
 20
26.3626354
 10
102.7029317954
 20
26.3622197021
  0
LINE
  5
573
100
AcDbEntity
  8
0
100
AcDbLine
 62
7
  6
CONTINUOUS
 10
101.4469185367
 20
34.1774643305
 11
101.4263979492
 21
34.3552819784
  0
LINE
  5
574
100
AcDbEntity
  8
0
100
AcDbLine
 62
7
  6
CONTINUOUS
 10
101.3606473691
 20
34.9492535238
 11
101.3603255203
 21
34.9520586415
  0
LINE
  5
575
100
AcDbEntity
  8
0
100
AcDbLine
 62
7
  6
CONTINUOUS
 10
101.4263979492
 20
34.3552819784
 11
101.4048257707
 21
34.5466299329
  0
LINE
  5
576
100
AcDbEntity
  8
0
100
AcDbLine
 62
7
  6
CONTINUOUS
 10
101.4048257707
 20
34.5466299329
 11
101.3816345154
 21
34.7564551395
  0
LINE
  5
577
100
AcDbEntity
  8
0
100
AcDbLine
 62
7
  6
CONTINUOUS
 10
101.3609208442
 20
34.9467728749
 11
101.3606473691
 21
34.9492535238
  0
ARC
  5
578
100
AcDbEntity
  8
0
100
AcDbCircle
 62
7
  6
CONTINUOUS
 10
111.3448940765
 20
-8.7573162745
 40
24.8319987894
100
AcDbArc
 50
98.1755516257
 51
98.4987485174
  0
ARC
  5
579
100
AcDbEntity
  8
6_SURFACES-PATINS-SPEC
100
AcDbCircle
 62
7
  6
CONTINUOUS
 10
105.9450465718
 20
13.329745712
 40
2.0674433256
100
AcDbArc
 50
18.7592183359
 51
19.2247151766
  0
ARC
  5
57A
100
AcDbEntity
  8
6_SURFACES-PATINS-SPEC
100
AcDbCircle
 62
7
  6
CONTINUOUS
 10
109.7889306297
 20
14.7839523938
 40
2.0569385212
100
AcDbArc
 50
202.3753120269
 51
202.5665081313
  0
ARC
  5
57B
100
AcDbEntity
  8
6_SURFACES-PATINS-SPEC
100
AcDbCircle
 62
7
  6
CONTINUOUS
 10
106.1904324184
 20
13.3806930466
 40
1.8068915179
100
AcDbArc
 50
18.3553619476
 51
19.3479686449
  0
ARC
  5
57C
100
AcDbEntity
  8
6_SURFACES-PATINS-SPEC
100
AcDbCircle
 62
7
  6
CONTINUOUS
 10
109.4489389354
 20
14.6422789374
 40
1.6886104486
100
AcDbArc
 50
202.5545486248
 51
202.9869812621
  0
ARC
  5
57D
100
AcDbEntity
  8
6_SURFACES-PATINS-SPEC
100
AcDbCircle
 62
7
  6
CONTINUOUS
 10
109.3126752102
 20
13.4851281245
 40
0.9375
100
AcDbArc
 50
200.0
 51
340.0
  0
ARC
  5
57E
100
AcDbEntity
  8
6_SURFACES-PATINS-SPEC
100
AcDbCircle
 62
7
  6
CONTINUOUS
 10
111.3588029977
 20
13.6598196088
 40
0.6813084898
100
AcDbArc
 50
163.8147508709
 51
164.3735482414
  0
ARC
  5
57F
100
AcDbEntity
  8
6_SURFACES-PATINS-SPEC
100
AcDbCircle
 62
7
  6
CONTINUOUS
 10
110.7567800147
 20
13.6144676864
 40
0.3753245776
100
AcDbArc
 50
128.5157856637
 51
135.9864606776
  0
ARC
  5
580
100
AcDbEntity
  8
6_SURFACES-PATINS-SPEC
100
AcDbCircle
 62
7
  6
CONTINUOUS
 10
107.8514712179
 20
13.6622727622
 40
0.3750150461
100
AcDbArc
 50
73.0242895232
 51
76.9937613682
  0
ARC
  5
581
100
AcDbEntity
  8
6_SURFACES-PATINS-SPEC
100
AcDbCircle
 62
7
  6
CONTINUOUS
 10
107.9002489357
 20
13.528244145
 40
0.375000001
100
AcDbArc
 50
19.9999999316
 51
87.3676828173
  0
ARC
  5
582
100
AcDbEntity
  8
0
100
AcDbCircle
 62
7
  6
CONTINUOUS
 10
114.0412286008
 20
13.6476281245
 40
0.375
100
AcDbArc
 50
225.0
 51
270.0
  0
ARC
  5
583
100
AcDbEntity
  8
DEFAULT_2
100
AcDbCircle
 62
8
  6
CONTINUOUS
 10
113.3290988253
 20
13.6526454791
 40
0.2500040902
100
AcDbArc
 50
44.9999354648
 51
87.0860791751
  0
ARC
  5
584
100
AcDbEntity
  8
DEFAULT_2
100
AcDbCircle
 62
8
  6
CONTINUOUS
 10
114.0412286008
 20
13.6476281245
 40
0.25
100
AcDbArc
 50
225.0
 51
270.0
  0
ARC
  5
585
100
AcDbEntity
  8
0
100
AcDbCircle
 62
7
  6
CONTINUOUS
 10
113.6069761797
 20
30.5957357632
 40
15.3868795836
100
AcDbArc
 50
340.6162203403
 51
341.0581384186
  0
ARC
  5
586
100
AcDbEntity
  8
0
100
AcDbCircle
 62
7
  6
CONTINUOUS
 10
114.5888504481
 20
30.2507917077
 40
14.3461763472
100
AcDbArc
 50
340.0195922924
 51
340.6142761652
  0
ARC
  5
587
100
AcDbEntity
  8
0
100
AcDbCircle
 62
7
  6
CONTINUOUS
 10
115.2338284069
 20
30.0176278438
 40
13.6603481681
100
AcDbArc
 50
339.8527528372
 51
340.0143134445
  0
ARC
  5
588
100
AcDbEntity
  8
0
100
AcDbCircle
 62
7
  6
CONTINUOUS
 10
114.9436599583
 20
29.8530258454
 40
13.1831960307
100
AcDbArc
 50
200.1460685685
 51
200.7591809062
  0
ARC
  5
589
100
AcDbEntity
  8
0
100
AcDbCircle
 62
7
  6
CONTINUOUS
 10
97.955495168
 20
38.4702912628
 40
5.2645079257
100
AcDbArc
 50
265.5577822968
 51
265.7905627547
  0
ARC
  5
58A
100
AcDbEntity
  8
6_SURFACES-PATINS-SPEC
100
AcDbCircle
 62
7
  6
CONTINUOUS
 10
110.5436756321
 20
15.0937791378
 40
2.8728013526
100
AcDbArc
 50
201.7356989465
 51
202.3591506128
  0
ARC
  5
58B
100
AcDbEntity
  8
0
100
AcDbCircle
 62
7
  6
CONTINUOUS
 10
103.0414656535
 20
25.6745355915
 40
0.5814135921
100
AcDbArc
 50
187.263797182
 51
199.0808089095
  0
ARC
  5
58C
100
AcDbEntity
  8
DEFAULT_2
100
AcDbCircle
 62
8
  6
CONTINUOUS
 10
100.8624748461
 20
34.8976281245
 40
0.4999999994
100
AcDbArc
 50
5.9999851342
 51
89.9999999895
  0
ARC
  5
58D
100
AcDbEntity
  8
DEFAULT_2
100
AcDbCircle
 62
8
  6
CONTINUOUS
 10
104.3779204359
 20
29.4008758067
 40
0.2500000005
100
AcDbArc
 50
81.0000012506
 51
171.0000002581
  0
ARC
  5
58E
100
AcDbEntity
  8
0
100
AcDbCircle
 62
7
  6
CONTINUOUS
 10
97.8479683261
 20
35.1476281245
 40
0.25
100
AcDbArc
 50
90.0
 51
175.0
  0
ARC
  5
58F
100
AcDbEntity
  8
DEFAULT_2
100
AcDbCircle
 62
8
  6
CONTINUOUS
 10
105.4468935672
 20
29.3581252291
 40
0.125
100
AcDbArc
 50
350.9999992775
 51
81.0000009005
  0
ARC
  5
590
100
AcDbEntity
  8
0
100
AcDbCircle
 62
7
  6
CONTINUOUS
 10
119.280456344
 20
-8.7573162744
 40
24.8319987893
100
AcDbArc
 50
81.5012514826
 51
81.8244483743
  0
ARC
  5
591
100
AcDbEntity
  8
6_SURFACES-PATINS-SPEC
100
AcDbCircle
 62
7
  6
CONTINUOUS
 10
120.8173653216
 20
14.7918361572
 40
2.0775595023
100
AcDbArc
 50
337.4261867456
 51
337.6163976896
  0
ARC
  5
592
100
AcDbEntity
  8
6_SURFACES-PATINS-SPEC
100
AcDbCircle
 62
7
  6
CONTINUOUS
 10
117.944078814
 20
13.2166851852
 40
2.0671680275
100
AcDbArc
 50
17.5773318201
 51
17.904777486
  0
ARC
  5
593
100
AcDbEntity
  8
6_SURFACES-PATINS-SPEC
100
AcDbCircle
 62
7
  6
CONTINUOUS
 10
124.6254907077
 20
13.3155530397
 40
2.0082832955
100
AcDbArc
 50
160.699859424
 51
161.5709691914
  0
ARC
  5
594
100
AcDbEntity
  8
6_SURFACES-PATINS-SPEC
100
AcDbCircle
 62
7
  6
CONTINUOUS
 10
124.573592808
 20
13.3664757461
 40
1.9545889041
100
AcDbArc
 50
160.7619353643
 51
161.2567481461
  0
ARC
  5
595
100
AcDbEntity
  8
6_SURFACES-PATINS-SPEC
100
AcDbCircle
 62
7
  6
CONTINUOUS
 10
121.1470964077
 20
14.6546508821
 40
1.7204287465
100
AcDbArc
 50
336.9427055982
 51
337.4295156748
  0
ARC
  5
596
100
AcDbEntity
  8
6_SURFACES-PATINS-SPEC
100
AcDbCircle
 62
7
  6
CONTINUOUS
 10
121.3126752102
 20
13.4851281245
 40
0.9375
100
AcDbArc
 50
200.0
 51
340.0
  0
ARC
  5
597
100
AcDbEntity
  8
6_SURFACES-PATINS-SPEC
100
AcDbCircle
 62
7
  6
CONTINUOUS
 10
119.2967347042
 20
13.6684153279
 40
0.6499215984
100
AcDbArc
 50
15.6137902319
 51
16.1751841285
  0
ARC
  5
598
100
AcDbEntity
  8
6_SURFACES-PATINS-SPEC
100
AcDbCircle
 62
7
  6
CONTINUOUS
 10
119.8685704111
 20
13.6144676919
 40
0.3753245699
100
AcDbArc
 50
44.0136071905
 51
51.4842144539
  0
ARC
  5
599
100
AcDbEntity
  8
6_SURFACES-PATINS-SPEC
100
AcDbCircle
 62
7
  6
CONTINUOUS
 10
122.7738792073
 20
13.6622727449
 40
0.375015064
100
AcDbArc
 50
103.0062387417
 51
106.9758515974
  0
ARC
  5
59A
100
AcDbEntity
  8
6_SURFACES-PATINS-SPEC
100
AcDbCircle
 62
7
  6
CONTINUOUS
 10
122.7251014847
 20
13.528244145
 40
0.375000001
100
AcDbArc
 50
92.6323253322
 51
160.0000000684
  0
ARC
  5
59B
100
AcDbEntity
  8
0
100
AcDbCircle
 62
7
  6
CONTINUOUS
 10
116.5841218196
 20
13.6476281245
 40
0.375
100
AcDbArc
 50
270.0
 51
315.0
  0
ARC
  5
59C
100
AcDbEntity
  8
6_SURFACES-PATINS-SPEC
100
AcDbCircle
 62
7
  6
CONTINUOUS
 10
120.2925706171
 20
12.5709575567
 40
0.2722788193
100
AcDbArc
 50
89.6219287828
 51
89.9999875213
  0
ARC
  5
59D
100
AcDbEntity
  8
DEFAULT_2
100
AcDbCircle
 62
8
  6
CONTINUOUS
 10
117.2962515951
 20
13.6526454791
 40
0.2500040902
100
AcDbArc
 50
92.9139208249
 51
135.0000645352
  0
ARC
  5
59E
100
AcDbEntity
  8
DEFAULT_2
100
AcDbCircle
 62
8
  6
CONTINUOUS
 10
116.5841218196
 20
13.6476281245
 40
0.25
100
AcDbArc
 50
270.0
 51
315.0
  0
ARC
  5
59F
100
AcDbEntity
  8
0
100
AcDbCircle
 62
7
  6
CONTINUOUS
 10
117.0183742408
 20
30.5957357632
 40
15.3868795836
100
AcDbArc
 50
198.9418615814
 51
199.3837796597
  0
ARC
  5
5A0
100
AcDbEntity
  8
0
100
AcDbCircle
 62
7
  6
CONTINUOUS
 10
116.0364999721
 20
30.2507917076
 40
14.3461763469
100
AcDbArc
 50
199.3857238348
 51
199.9804077077
  0
ARC
  5
5A1
100
AcDbEntity
  8
0
100
AcDbCircle
 62
7
  6
CONTINUOUS
 10
115.3915219817
 20
30.0176278322
 40
13.6603481342
100
AcDbArc
 50
199.9856865553
 51
200.147247172
  0
ARC
  5
5A2
100
AcDbEntity
  8
0
100
AcDbCircle
 62
7
  6
CONTINUOUS
 10
115.681690454
 20
29.8530258484
 40
13.1831960393
100
AcDbArc
 50
339.240819094
 51
339.8539314405
  0
ARC
  5
5A3
100
AcDbEntity
  8
0
100
AcDbCircle
 62
7
  6
CONTINUOUS
 10
132.6698552527
 20
38.4702912592
 40
5.2645079221
100
AcDbArc
 50
274.2094372451
 51
274.4422177033
  0
ARC
  5
5A4
100
AcDbEntity
  8
6_SURFACES-PATINS-SPEC
100
AcDbCircle
 62
7
  6
CONTINUOUS
 10
119.7392509756
 20
15.2324851804
 40
3.2422465555
100
AcDbArc
 50
337.6712470323
 51
338.2283048908
  0
ARC
  5
5A5
100
AcDbEntity
  8
0
100
AcDbCircle
 62
7
  6
CONTINUOUS
 10
127.186166789
 20
25.6645067563
 40
0.953317271
100
AcDbArc
 50
338.0836051528
 51
340.3489428433
  0
ARC
  5
5A6
100
AcDbEntity
  8
0
100
AcDbCircle
 62
7
  6
CONTINUOUS
 10
127.5838847669
 20
25.6745355915
 40
0.5814135921
100
AcDbArc
 50
340.9191910905
 51
352.736202818
  0
ARC
  5
5A7
100
AcDbEntity
  8
DEFAULT_2
100
AcDbCircle
 62
8
  6
CONTINUOUS
 10
129.7628755744
 20
34.8976281245
 40
0.4999999994
100
AcDbArc
 50
90.0000000105
 51
174.0000148658
  0
ARC
  5
5A8
100
AcDbEntity
  8
DEFAULT_2
100
AcDbCircle
 62
8
  6
CONTINUOUS
 10
126.2474884183
 20
29.4008758067
 40
0.2500000005
100
AcDbArc
 50
8.9999997418
 51
98.9999987495
  0
ARC
  5
5A9
100
AcDbEntity
  8
0
100
AcDbCircle
 62
7
  6
CONTINUOUS
 10
132.7773820944
 20
35.1476281245
 40
0.25
100
AcDbArc
 50
5.0
 51
90.0
  0
ARC
  5
5AA
100
AcDbEntity
  8
DEFAULT_2
100
AcDbCircle
 62
8
  6
CONTINUOUS
 10
125.1785152871
 20
29.3581252291
 40
0.125
100
AcDbArc
 50
98.9999991009
 51
189.0000007222
  0
ENDSEC
  0
SECTION
  2
OBJECTS
  0
DICTIONARY
  5
5AB
100
AcDbDictionary
  3
ACAD_GROUP
350
5AC
  3
ACAD_MLINESTYLE
350
5AD
  0
DICTIONARY
  5
5AC
102
{ACAD_REACTORS
330
5AB
102
}
100
AcDbDictionary
  0
DICTIONARY
  5
5AD
102
{ACAD_REACTORS
330
5AB
102
}
100
AcDbDictionary
  3
STANDARD
350
5AE
  0
MLINESTYLE
  5
5AE
102
{ACAD_REACTORS
330
5AD
102
}
100
AcDbMlineStyle
  2
STANDARD
 70
0
  3

 62
256
 51
90.0
 52
90.0
 71
2
 49
0.5
 62
256
  6
BYLAYER
 49
-0.5
 62
256
  6
BYLAYER
  0
ENDSEC
  0
EOF
