  0
SECTION
  2
HEADER
  9
$ACADVER
  1
AC1014
  9
$DWGCODEPAGE
  3
ANSI_1252
  9
$EXTMAX
 10
22.0
 20
17.0
 30
0.0
  9
$EXTMIN
 10
0.0
 20
0.0
 30
0.0
  9
$LIMMIN
 10
0.0
 20
0.0
  9
$LIMMAX
 10
22.0
 20
17.0
  9
$VIEWCTR
 10
11.0
 20
8.5
  9
$VIEWSIZE
 40
17.0
  9
$CLAYER
  8
0
  9
$LTSCALE
 40
1.21
  9
$CELTYPE
  6
BYLAYER
  9
$DIMSCALE
 40
1.0
  9
$DIMASZ
 40
0.1875
  9
$DIMEXO
 40
0.1375
  9
$DIMDLI
 40
0.836
  9
$DIMEXE
 40
0.396
  9
$DIMCEN
 40
0.198
  9
$DIMLFAC
 40
1.0
  9
$DIMBLK
  1
_ARROW_FILLED
  9
$DIMTXT
 40
0.125
  9
$DIMTOL
 70
1
  9
$DIMLIM
 70
0
  9
$DIMTFAC
 40
1.0
  9
$DIMTP
 40
0.00001
  9
$DIMTM
 40
0.00001
  9
$PDMODE
 70
3
  9
$PDSIZE
 40
0.03125
  9
$HANDSEED
  5
411
  9
$TILEMODE
 70
1
  9
$MEASUREMENT
 70
0
  0
ENDSEC
  0
SECTION
  2
CLASSES
  0
ENDSEC
  0
SECTION
  2
TABLES
  0
TABLE
  2
VPORT
  5
8
100
AcDbSymbolTable
 70
2
  0
VPORT
  5
1F4
100
AcDbSymbolTableRecord
100
AcDbViewportTableRecord
  2
*ACTIVE
 70
0
 10
0.0
 20
0.0
 11
1.0
 21
1.0
 12
11.0
 22
8.5
 13
0.0
 23
0.0
 14
1.0
 24
1.0
 15
0.0
 25
0.0
 16
0.0
 26
0.0
 36
1.0
 17
0.0
 27
0.0
 37
0.0
 40
17.0
 41
1.2941176471
 42
50.0
 43
0.0
 44
0.0
 50
0.0
 51
0.0
 71
0
 72
100
 73
1
 74
1
 75
0
 76
0
 77
0
 78
0
  0
ENDTAB
  0
TABLE
  2
LTYPE
  5
5
100
AcDbSymbolTable
 70
6
  0
LTYPE
  5
14
100
AcDbSymbolTableRecord
100
AcDbLinetypeTableRecord
  2
BYBLOCK
 70
0
  3

 72
65
 73
0
 40
0.0
  0
LTYPE
  5
15
100
AcDbSymbolTableRecord
100
AcDbLinetypeTableRecord
  2
BYLAYER
 70
0
  3

 72
65
 73
0
 40
0.0
  0
LTYPE
  5
16
100
AcDbSymbolTableRecord
100
AcDbLinetypeTableRecord
  2
CONTINUOUS
 70
64
  3
Solid line
 72
65
 73
0
 40
0.0
  0
LTYPE
  5
1F5
100
AcDbSymbolTableRecord
100
AcDbLinetypeTableRecord
  2
CENTER
 70
64
  3
____ _ ____ _ ____ _ ____ _ ____ _ ____ _ ____
 72
65
 73
4
 40
0.6
 49
0.375
 74
0
 49
-0.075
 74
0
 49
0.075
 74
0
 49
-0.075
 74
0
  0
LTYPE
  5
1F6
100
AcDbSymbolTableRecord
100
AcDbLinetypeTableRecord
  2
HIDDEN
 70
64
  3
- - - - - - - - - - - - - - - - - - - -
 72
65
 73
2
 40
0.2
 49
0.1
 74
0
 49
-0.1
 74
0
  0
LTYPE
  5
1F7
100
AcDbSymbolTableRecord
100
AcDbLinetypeTableRecord
  2
PHANTOM
 70
64
  3
_____ _ _ _____ _ _ _____ _ _ _____
 72
65
 73
6
 40
0.8
 49
0.45
 74
0
 49
-0.05
 74
0
 49
0.1
 74
0
 49
-0.05
 74
0
 49
0.1
 74
0
 49
-0.05
 74
0
  0
LTYPE
  5
1F8
100
AcDbSymbolTableRecord
100
AcDbLinetypeTableRecord
  2
DOT
 70
64
  3
. . . . . . . . . . . . . . . . . . . .
 72
65
 73
2
 40
0.2
 49
0.1
 74
0
 49
-0.1
 74
0
  0
LTYPE
  5
1F9
100
AcDbSymbolTableRecord
100
AcDbLinetypeTableRecord
  2
DASHED
 70
64
  3
- - - - - - - - - - - - - - - - - - - -
 72
65
 73
2
 40
0.2
 49
0.1
 74
0
 49
-0.1
 74
0
  0
ENDTAB
  0
TABLE
  2
LAYER
  5
2
100
AcDbSymbolTable
 70
36
  0
LAYER
  5
10
100
AcDbSymbolTableRecord
100
AcDbLayerTableRecord
  2
0
 70
0
 62
7
  6
CONTINUOUS
  0
LAYER
  5
1FA
100
AcDbSymbolTableRecord
100
AcDbLayerTableRecord
  2
DEFAULT_1
 70
0
 62
7
  6
CENTER
  0
LAYER
  5
1FB
100
AcDbSymbolTableRecord
100
AcDbLayerTableRecord
  2
DEFAULT_2
 70
0
 62
8
  6
HIDDEN
  0
LAYER
  5
1FC
100
AcDbSymbolTableRecord
100
AcDbLayerTableRecord
  2
DEFAULT_3
 70
0
 62
7
  6
PHANTOM
  0
LAYER
  5
1FD
100
AcDbSymbolTableRecord
100
AcDbLayerTableRecord
  2
1_CURVES
 70
0
 62
7
  6
CONTINUOUS
  0
LAYER
  5
1FE
100
AcDbSymbolTableRecord
100
AcDbLayerTableRecord
  2
1_CURVES_CONDUIT
 70
0
 62
7
  6
CONTINUOUS
  0
LAYER
  5
1FF
100
AcDbSymbolTableRecord
100
AcDbLayerTableRecord
  2
1_CURVES_DRW
 70
0
 62
7
  6
CONTINUOUS
  0
LAYER
  5
200
100
AcDbSymbolTableRecord
100
AcDbLayerTableRecord
  2
1_CURVES_JETS
 70
0
 62
7
  6
CONTINUOUS
  0
LAYER
  5
201
100
AcDbSymbolTableRecord
100
AcDbLayerTableRecord
  2
1_CURVES_PATINS
 70
0
 62
7
  6
CONTINUOUS
  0
LAYER
  5
202
100
AcDbSymbolTableRecord
100
AcDbLayerTableRecord
  2
1_CURVES_RESURFACAGE
 70
0
 62
7
  6
CONTINUOUS
  0
LAYER
  5
203
100
AcDbSymbolTableRecord
100
AcDbLayerTableRecord
  2
1_CURVES_SPEC
 70
0
 62
7
  6
CONTINUOUS
  0
LAYER
  5
204
100
AcDbSymbolTableRecord
100
AcDbLayerTableRecord
  2
2_PLANES
 70
0
 62
7
  6
CONTINUOUS
  0
LAYER
  5
205
100
AcDbSymbolTableRecord
100
AcDbLayerTableRecord
  2
2_PLANES_JETS
 70
0
 62
7
  6
CONTINUOUS
  0
LAYER
  5
206
100
AcDbSymbolTableRecord
100
AcDbLayerTableRecord
  2
3_POINTS
 70
0
 62
7
  6
CONTINUOUS
  0
LAYER
  5
207
100
AcDbSymbolTableRecord
100
AcDbLayerTableRecord
  2
3_POINTS-JETS
 70
0
 62
7
  6
CONTINUOUS
  0
LAYER
  5
208
100
AcDbSymbolTableRecord
100
AcDbLayerTableRecord
  2
4_CSYS
 70
0
 62
7
  6
CONTINUOUS
  0
LAYER
  5
209
100
AcDbSymbolTableRecord
100
AcDbLayerTableRecord
  2
5_AXIS
 70
0
 62
7
  6
CONTINUOUS
  0
LAYER
  5
20A
100
AcDbSymbolTableRecord
100
AcDbLayerTableRecord
  2
5_AXIS_JETS
 70
0
 62
7
  6
CONTINUOUS
  0
LAYER
  5
20B
100
AcDbSymbolTableRecord
100
AcDbLayerTableRecord
  2
6_AIRE_CONDUIT
 70
0
 62
7
  6
CONTINUOUS
  0
LAYER
  5
20C
100
AcDbSymbolTableRecord
100
AcDbLayerTableRecord
  2
6_SURFACE-OFFSET-FIBRE-ACRYLIQU
 70
0
 62
7
  6
CONTINUOUS
  0
LAYER
  5
20D
100
AcDbSymbolTableRecord
100
AcDbLayerTableRecord
  2
6_SURFACES
 70
0
 62
7
  6
CONTINUOUS
  0
LAYER
  5
20E
100
AcDbSymbolTableRecord
100
AcDbLayerTableRecord
  2
6_SURFACES-PATINS-SPEC
 70
0
 62
7
  6
CONTINUOUS
  0
LAYER
  5
20F
100
AcDbSymbolTableRecord
100
AcDbLayerTableRecord
  2
6_SURFACES_AIRE
 70
0
 62
7
  6
CONTINUOUS
  0
LAYER
  5
210
100
AcDbSymbolTableRecord
100
AcDbLayerTableRecord
  2
6_SURFACES_OFFSET_FIBRE
 70
0
 62
7
  6
CONTINUOUS
  0
LAYER
  5
211
100
AcDbSymbolTableRecord
100
AcDbLayerTableRecord
  2
6_SURFACES_OFFSET_FIBRE_ACRYLIQ
 70
0
 62
7
  6
CONTINUOUS
  0
LAYER
  5
212
100
AcDbSymbolTableRecord
100
AcDbLayerTableRecord
  2
6_SURFACES_POUR_CONDUIT
 70
0
 62
7
  6
CONTINUOUS
  0
LAYER
  5
213
100
AcDbSymbolTableRecord
100
AcDbLayerTableRecord
  2
6_SURFACES_POUR_HFL
 70
0
 62
7
  6
CONTINUOUS
  0
LAYER
  5
214
100
AcDbSymbolTableRecord
100
AcDbLayerTableRecord
  2
6_SURFACES_TOOLING
 70
0
 62
7
  6
CONTINUOUS
  0
LAYER
  5
215
100
AcDbSymbolTableRecord
100
AcDbLayerTableRecord
  2
7_NOTES
 70
0
 62
7
  6
CONTINUOUS
  0
LAYER
  5
216
100
AcDbSymbolTableRecord
100
AcDbLayerTableRecord
  2
8_COSMETIC
 70
0
 62
7
  6
CONTINUOUS
  0
LAYER
  5
217
100
AcDbSymbolTableRecord
100
AcDbLayerTableRecord
  2
8_TOL_GEOM
 70
0
 62
7
  6
CONTINUOUS
  0
LAYER
  5
218
100
AcDbSymbolTableRecord
100
AcDbLayerTableRecord
  2
9_IMPORT
 70
0
 62
7
  6
CONTINUOUS
  0
LAYER
  5
219
100
AcDbSymbolTableRecord
100
AcDbLayerTableRecord
  2
DEGAGEMENT_SERIGRAPHIE
 70
0
 62
7
  6
CONTINUOUS
  0
LAYER
  5
21A
100
AcDbSymbolTableRecord
100
AcDbLayerTableRecord
  2
NONE
 70
0
 62
7
  6
CONTINUOUS
  0
LAYER
  5
21B
100
AcDbSymbolTableRecord
100
AcDbLayerTableRecord
  2
XSEC_DATUMS
 70
0
 62
7
  6
CONTINUOUS
  0
ENDTAB
  0
TABLE
  2
STYLE
  5
3
100
AcDbSymbolTable
 70
1
  0
STYLE
  5
11
100
AcDbSymbolTableRecord
100
AcDbTextStyleTableRecord
  2
STANDARD
 70
0
 40
0.0
 41
0.8
 50
0.0
 71
0
 42
0.2
  3
txt
  4

  0
STYLE
  5
21C
100
AcDbSymbolTableRecord
100
AcDbTextStyleTableRecord
  2
TEXTSTYLE_1
 70
0
 40
0.0
 41
0.8
 50
0.0
 71
0
 42
0.2
  3
gdt
  4

  0
ENDTAB
  0
TABLE
  2
VIEW
  5
6
100
AcDbSymbolTable
 70
0
  0
ENDTAB
  0
TABLE
  2
UCS
  5
7
100
AcDbSymbolTable
 70
0
  0
ENDTAB
  0
TABLE
  2
APPID
  5
9
100
AcDbSymbolTable
 70
1
  0
APPID
  5
21D
100
AcDbSymbolTableRecord
100
AcDbRegAppTableRecord
  2
ACAD
 70
0
  0
ENDTAB
  0
TABLE
  2
BLOCK_RECORD
  5
1
100
AcDbSymbolTable
 70
0
  0
BLOCK_RECORD
  5
1F
100
AcDbSymbolTableRecord
100
AcDbBlockTableRecord
  2
*MODEL_SPACE
  0
BLOCK_RECORD
  5
1B
100
AcDbSymbolTableRecord
100
AcDbBlockTableRecord
  2
*PAPER_SPACE
  0
ENDTAB
  0
TABLE
  2
DIMSTYLE
  5
A
100
AcDbSymbolTable
 70
1
  0
DIMSTYLE
105
21E
100
AcDbSymbolTableRecord
100
AcDbDimStyleTableRecord
  2
STANDARD
 70
0
  3

  4

  5
_ARROW_FILLED
  6
_ARROW_FILLED
  7
_ARROW_FILLED
 40
1.0
 41
0.1875
 42
0.0625
 43
0.38
 44
0.18
 45
0.0
 46
0.0
 47
0.00001
 48
0.00001
140
0.125
141
0.09
142
0.0
143
25.4
144
1.0
145
0.0
146
1.0
147
0.09
 71
1.0
 72
0.0
 73
1
 74
1
 75
0
 76
0
 77
0
 78
4
170
0
171
2
172
0
173
0
174
0
175
0
176
0
177
0
178
0
270
2
271
5
272
5
273
2
274
2
275
0
280
0
281
0
282
0
283
1
284
4
285
0
286
0
287
3
288
0
340
11
  0
ENDTAB
  0
ENDSEC
  0
SECTION
  2
BLOCKS
  0
BLOCK
  5
20
100
AcDbEntity
  8
0
100
AcDbBlockBegin
  2
*MODEL_SPACE
 70
0
 10
0.0
 20
0.0
 30
0.0
  3
*MODEL_SPACE
  1

  0
ENDBLK
  5
21
100
AcDbEntity
  8
0
100
AcDbBlockEnd
  0
BLOCK
  5
1C
100
AcDbEntity
  8
0
100
AcDbBlockBegin
  2
*PAPER_SPACE
 70
0
 10
0.0
 20
0.0
 30
0.0
  3
*PAPER_SPACE
  1

  0
ENDBLK
  5
1D
100
AcDbEntity
  8
0
100
AcDbBlockEnd
  0
ENDSEC
  0
SECTION
  2
ENTITIES
  0
LINE
  5
21F
100
AcDbEntity
  8
6_SURFACES-PATINS-SPEC
100
AcDbLine
 62
7
  6
CONTINUOUS
 10
66.3223032569
 20
15.9422022032
 11
66.4031462823
 21
15.9603962347
  0
LINE
  5
220
100
AcDbEntity
  8
0
100
AcDbLine
 62
7
  6
CONTINUOUS
 10
10.0
 20
35.277479842
 11
10.1137111069
 21
36.577203742
  0
LINE
  5
221
100
AcDbEntity
  8
6_SURFACES-PATINS-SPEC
100
AcDbLine
 62
7
  6
CONTINUOUS
 10
31.7414293902
 20
15.9603962349
 11
31.8202578132
 21
15.9856250521
  0
LINE
  5
222
100
AcDbEntity
  8
6_SURFACES-PATINS-SPEC
100
AcDbLine
 62
7
  6
CONTINUOUS
 10
32.1476518445
 20
16.2234464215
 11
32.1478271257
 21
16.2235082507
  0
LINE
  5
223
100
AcDbEntity
  8
6_SURFACES-PATINS-SPEC
100
AcDbLine
 62
7
  6
CONTINUOUS
 10
32.1478271257
 20
16.2235082507
 11
32.1486811118
 21
16.2237919176
  0
LINE
  5
224
100
AcDbEntity
  8
6_SURFACES-PATINS-SPEC
100
AcDbLine
 62
7
  6
CONTINUOUS
 10
66.2400584969
 20
15.9311918812
 11
66.3223032569
 21
15.9422022032
  0
LINE
  5
225
100
AcDbEntity
  8
6_SURFACES-PATINS-SPEC
100
AcDbLine
 62
7
  6
CONTINUOUS
 10
31.8202578132
 20
15.9856250521
 11
31.8545414847
 21
15.9990609716
  0
LWPOLYLINE
  5
226
100
AcDbEntity
  8
6_SURFACES-PATINS-SPEC
100
AcDbPolyline
 62
7
  6
CONTINUOUS
 90
28
 70
0
 10
31.8505520155
 20
15.9974581301
 10
31.8496816209
 20
15.9971228975
 10
31.8488091528
 20
15.9967921637
 10
31.8479344895
 20
15.9964666775
 10
31.847057509
 20
15.996147188
 10
31.8461780895
 20
15.9958344442
 10
31.8452961091
 20
15.9955291949
 10
31.8444114459
 20
15.9952321892
 10
31.8435239781
 20
15.9949441761
 10
31.8426335837
 20
15.9946659044
 10
31.841740141
 20
15.9943981232
 10
31.8408435281
 20
15.9941415815
 10
31.8399436231
 20
15.9938970282
 10
31.8393657493
 20
15.9937472146
 10
31.8387863499
 20
15.993603402
 10
31.8382052984
 20
15.9934663715
 10
31.8376224682
 20
15.9933369045
 10
31.8370377326
 20
15.9932157822
 10
31.8364509653
 20
15.9931037858
 10
31.8358620395
 20
15.9930016967
 10
31.8354597969
 20
15.9929383541
 10
31.8350566132
 20
15.9928807905
 10
31.8346526062
 20
15.9928298299
 10
31.8342478941
 20
15.9927862967
 10
31.8338425947
 20
15.9927510149
 10
31.833436826
 20
15.9927248088
 10
31.8330307062
 20
15.9927085027
 10
31.8326243531
 20
15.9927029206
  0
LINE
  5
227
100
AcDbEntity
  8
6_SURFACES-PATINS-SPEC
100
AcDbLine
 62
7
  6
CONTINUOUS
 10
32.1453213655
 20
16.222561429
 11
32.1476518445
 21
16.2234464215
  0
LINE
  5
228
100
AcDbEntity
  8
6_SURFACES-PATINS-SPEC
100
AcDbLine
 62
7
  6
CONTINUOUS
 10
31.8545307585
 20
15.9990565453
 11
31.8602172922
 21
16.0014890456
  0
LINE
  5
229
100
AcDbEntity
  8
6_SURFACES-PATINS-SPEC
100
AcDbLine
 62
7
  6
CONTINUOUS
 10
32.1418170446
 20
16.2210934629
 11
32.1453213655
 21
16.222561429
  0
LINE
  5
22A
100
AcDbEntity
  8
6_SURFACES-PATINS-SPEC
100
AcDbLine
 62
7
  6
CONTINUOUS
 10
32.1317071939
 20
16.2163595869
 11
32.137251633
 21
16.2190279414
  0
LINE
  5
22B
100
AcDbEntity
  8
6_SURFACES-PATINS-SPEC
100
AcDbLine
 62
7
  6
CONTINUOUS
 10
31.8602172922
 20
16.0014890456
 11
31.874074747
 21
16.0079425712
  0
LINE
  5
22C
100
AcDbEntity
  8
6_SURFACES-PATINS-SPEC
100
AcDbLine
 62
7
  6
CONTINUOUS
 10
32.137251633
 20
16.2190279414
 11
32.1418170446
 21
16.2210934629
  0
LINE
  5
22D
100
AcDbEntity
  8
6_SURFACES-PATINS-SPEC
100
AcDbLine
 62
7
  6
CONTINUOUS
 10
32.1486811118
 20
16.2237919176
 11
32.1482622449
 21
16.2236859898
  0
LINE
  5
22E
100
AcDbEntity
  8
0
100
AcDbLine
 62
7
  6
CONTINUOUS
 10
53.7794680478
 20
18.9028248424
 11
53.8094736493
 21
18.9089332748
  0
LINE
  5
22F
100
AcDbEntity
  8
6_SURFACES-PATINS-SPEC
100
AcDbLine
 62
7
  6
CONTINUOUS
 10
60.1312820834
 20
16.0321540485
 11
60.132871785
 21
16.0323198703
  0
LINE
  5
230
100
AcDbEntity
  8
6_SURFACES-PATINS-SPEC
100
AcDbLine
 62
7
  6
CONTINUOUS
 10
32.1178291052
 20
16.2091668074
 11
32.1252254837
 21
16.2130771658
  0
LINE
  5
231
100
AcDbEntity
  8
6_SURFACES-PATINS-SPEC
100
AcDbLine
 62
7
  6
CONTINUOUS
 10
31.874074747
 20
16.0079425712
 11
31.890172127
 21
16.0161437459
  0
LINE
  5
232
100
AcDbEntity
  8
6_SURFACES-PATINS-SPEC
100
AcDbLine
 62
7
  6
CONTINUOUS
 10
32.1252254837
 20
16.2130771658
 11
32.1317071939
 21
16.2163595869
  0
LINE
  5
233
100
AcDbEntity
  8
6_SURFACES-PATINS-SPEC
100
AcDbLine
 62
7
  6
CONTINUOUS
 10
31.6605863646
 20
15.9422022033
 11
31.7414293902
 21
15.9603962349
  0
LINE
  5
234
100
AcDbEntity
  8
6_SURFACES-PATINS-SPEC
100
AcDbLine
 62
7
  6
CONTINUOUS
 10
32.1003439097
 20
16.1994049301
 11
32.1095318076
 21
16.2046140334
  0
LINE
  5
235
100
AcDbEntity
  8
6_SURFACES-PATINS-SPEC
100
AcDbLine
 62
7
  6
CONTINUOUS
 10
32.1095318076
 20
16.2046140334
 11
32.1178291052
 21
16.2091668074
  0
LINE
  5
236
100
AcDbEntity
  8
6_SURFACES-PATINS-SPEC
100
AcDbLine
 62
7
  6
CONTINUOUS
 10
31.890172127
 20
16.0161437459
 11
31.9086580955
 21
16.0262435412
  0
LINE
  5
237
100
AcDbEntity
  8
0
100
AcDbLine
 62
7
  6
CONTINUOUS
 10
53.7504232188
 20
18.8931015754
 11
53.7794680478
 21
18.9028248424
  0
LINE
  5
238
100
AcDbEntity
  8
6_SURFACES-PATINS-SPEC
100
AcDbLine
 62
7
  6
CONTINUOUS
 10
32.1482622449
 20
16.2236859898
 11
32.1462700322
 21
16.2232925742
  0
LINE
  5
239
100
AcDbEntity
  8
6_SURFACES-PATINS-SPEC
100
AcDbLine
 62
7
  6
CONTINUOUS
 10
32.0676889557
 20
16.1798119369
 11
32.0793843408
 21
16.1869973829
  0
LINE
  5
23A
100
AcDbEntity
  8
6_SURFACES-PATINS-SPEC
100
AcDbLine
 62
7
  6
CONTINUOUS
 10
31.9292680235
 20
16.0381598065
 11
31.9514773811
 21
16.0516231688
  0
LINE
  5
23B
100
AcDbEntity
  8
6_SURFACES-PATINS-SPEC
100
AcDbLine
 62
7
  6
CONTINUOUS
 10
32.0793843408
 20
16.1869973829
 11
32.0902835339
 21
16.1935317389
  0
LINE
  5
23C
100
AcDbEntity
  8
6_SURFACES-PATINS-SPEC
100
AcDbLine
 62
7
  6
CONTINUOUS
 10
32.0902835339
 20
16.1935317389
 11
32.1003439097
 21
16.1994049301
  0
LINE
  5
23D
100
AcDbEntity
  8
6_SURFACES-PATINS-SPEC
100
AcDbLine
 62
7
  6
CONTINUOUS
 10
31.9086580955
 20
16.0262435412
 11
31.9292680235
 21
16.0381598065
  0
LINE
  5
23E
100
AcDbEntity
  8
6_SURFACES-PATINS-SPEC
100
AcDbLine
 62
7
  6
CONTINUOUS
 10
31.5783416044
 20
15.9311918813
 11
31.6605863646
 21
15.9422022033
  0
LINE
  5
23F
100
AcDbEntity
  8
6_SURFACES-PATINS-SPEC
100
AcDbLine
 62
7
  6
CONTINUOUS
 10
32.0147571182
 20
16.1454351029
 11
32.0285882543
 21
16.1546859832
  0
LINE
  5
240
100
AcDbEntity
  8
6_SURFACES-PATINS-SPEC
100
AcDbLine
 62
7
  6
CONTINUOUS
 10
32.0285882543
 20
16.1546859832
 11
32.0421583875
 21
16.1635839977
  0
LINE
  5
241
100
AcDbEntity
  8
6_SURFACES-PATINS-SPEC
100
AcDbLine
 62
7
  6
CONTINUOUS
 10
31.9746260285
 20
16.0662410434
 11
31.9983269819
 21
16.0817666326
  0
LINE
  5
242
100
AcDbEntity
  8
6_SURFACES-PATINS-SPEC
100
AcDbLine
 62
7
  6
CONTINUOUS
 10
32.0421583875
 20
16.1635839977
 11
32.055251747
 21
16.1719940695
  0
LINE
  5
243
100
AcDbEntity
  8
6_SURFACES-PATINS-SPEC
100
AcDbLine
 62
7
  6
CONTINUOUS
 10
31.9514773811
 20
16.0516231688
 11
31.9746260285
 21
16.0662410434
  0
LINE
  5
244
100
AcDbEntity
  8
6_SURFACES-PATINS-SPEC
100
AcDbLine
 62
7
  6
CONTINUOUS
 10
32.055251747
 20
16.1719940695
 11
32.0676889557
 21
16.1798119369
  0
LINE
  5
245
100
AcDbEntity
  8
6_SURFACES-PATINS-SPEC
100
AcDbLine
 62
7
  6
CONTINUOUS
 10
32.1462700322
 20
16.2232925742
 11
32.1427296066
 21
16.2228775242
  0
LINE
  5
246
100
AcDbEntity
  8
6_SURFACES-PATINS-SPEC
100
AcDbLine
 62
7
  6
CONTINUOUS
 10
66.1570406482
 20
15.9274799117
 11
66.2400584969
 21
15.9311918812
  0
LINE
  5
247
100
AcDbEntity
  8
6_SURFACES-PATINS-SPEC
100
AcDbLine
 62
7
  6
CONTINUOUS
 10
32.0462990412
 20
16.1148369406
 11
32.0699197235
 21
16.1319499111
  0
LINE
  5
248
100
AcDbEntity
  8
6_SURFACES-PATINS-SPEC
100
AcDbLine
 62
7
  6
CONTINUOUS
 10
31.9612771184
 20
16.1079659317
 11
31.973944081
 21
16.1170912351
  0
LINE
  5
249
100
AcDbEntity
  8
6_SURFACES-PATINS-SPEC
100
AcDbLine
 62
7
  6
CONTINUOUS
 10
31.973944081
 20
16.1170912351
 11
31.9872135352
 21
16.1264796765
  0
LINE
  5
24A
100
AcDbEntity
  8
6_SURFACES-PATINS-SPEC
100
AcDbLine
 62
7
  6
CONTINUOUS
 10
32.0223130044
 20
16.0980279012
 11
32.0462990412
 21
16.1148369406
  0
LINE
  5
24B
100
AcDbEntity
  8
6_SURFACES-PATINS-SPEC
100
AcDbLine
 62
7
  6
CONTINUOUS
 10
31.9872135352
 20
16.1264796765
 11
32.0008902325
 21
16.1359805626
  0
LINE
  5
24C
100
AcDbEntity
  8
6_SURFACES-PATINS-SPEC
100
AcDbLine
 62
7
  6
CONTINUOUS
 10
32.0008902325
 20
16.1359805626
 11
32.0147571182
 21
16.1454351029
  0
LINE
  5
24D
100
AcDbEntity
  8
6_SURFACES-PATINS-SPEC
100
AcDbLine
 62
7
  6
CONTINUOUS
 10
31.9983269819
 20
16.0817666326
 11
32.0223130044
 21
16.0980279012
  0
LINE
  5
24E
100
AcDbEntity
  8
0
100
AcDbLine
 62
7
  6
CONTINUOUS
 10
52.9611155444
 20
17.4986906339
 11
47.9770059008
 21
17.1591394302
  0
LINE
  5
24F
100
AcDbEntity
  8
6_SURFACES-PATINS-SPEC
100
AcDbLine
 62
7
  6
CONTINUOUS
 10
32.0924348082
 20
16.1488405173
 11
32.1130747865
 21
16.164917606
  0
LINE
  5
250
100
AcDbEntity
  8
6_SURFACES-PATINS-SPEC
100
AcDbLine
 62
7
  6
CONTINUOUS
 10
31.9177349998
 20
16.075201399
 11
31.9275310358
 21
16.0827876589
  0
LINE
  5
251
100
AcDbEntity
  8
6_SURFACES-PATINS-SPEC
100
AcDbLine
 62
7
  6
CONTINUOUS
 10
31.9275310358
 20
16.0827876589
 11
31.9380567444
 21
16.0907887064
  0
LINE
  5
252
100
AcDbEntity
  8
6_SURFACES-PATINS-SPEC
100
AcDbLine
 62
7
  6
CONTINUOUS
 10
32.0699197235
 20
16.1319499111
 11
32.0924348082
 21
16.1488405173
  0
LINE
  5
253
100
AcDbEntity
  8
6_SURFACES-PATINS-SPEC
100
AcDbLine
 62
7
  6
CONTINUOUS
 10
31.9380567444
 20
16.0907887064
 11
31.9493083992
 21
16.0991885332
  0
LINE
  5
254
100
AcDbEntity
  8
6_SURFACES-PATINS-SPEC
100
AcDbLine
 62
7
  6
CONTINUOUS
 10
31.9493083992
 20
16.0991885332
 11
31.9612771184
 21
16.1079659317
  0
LINE
  5
255
100
AcDbEntity
  8
0
100
AcDbLine
 62
7
  6
CONTINUOUS
 10
53.8094736493
 20
18.9089332748
 11
53.8399100243
 21
18.9113374823
  0
LINE
  5
256
100
AcDbEntity
  8
DEFAULT_3
100
AcDbLine
 62
7
  6
PHANTOM
 10
52.9526193618
 20
17.6234015591
 11
47.9685097503
 21
17.2838503576
  0
LINE
  5
257
100
AcDbEntity
  8
6_SURFACES-PATINS-SPEC
100
AcDbLine
 62
7
  6
CONTINUOUS
 10
31.4953237553
 20
15.9274799117
 11
31.5783416044
 21
15.9311918813
  0
LINE
  5
258
100
AcDbEntity
  8
6_SURFACES-PATINS-SPEC
100
AcDbLine
 62
7
  6
CONTINUOUS
 10
32.1427296066
 20
16.2228775242
 11
32.139147102
 21
16.2227447254
  0
LWPOLYLINE
  5
259
100
AcDbEntity
  8
0
100
AcDbPolyline
 62
7
  6
CONTINUOUS
 90
28
 70
0
 10
19.1423731175
 20
27.6931537344
 10
19.1423906187
 20
27.6934855744
 10
19.1426517522
 20
27.6937939744
 10
19.1430135583
 20
27.694060021
 10
19.1435625753
 20
27.6943805349
 10
19.1440759797
 20
27.6946220775
 10
19.1456372333
 20
27.6952569931
 10
19.147699418
 20
27.6959648259
 10
19.1502624309
 20
27.6967453244
 10
19.1533258482
 20
27.6975981921
 10
19.1568892443
 20
27.698523132
 10
19.1655138404
 20
27.7005879009
 10
19.1761313167
 20
27.7029367796
 10
19.1887322846
 20
27.7055661932
 10
19.2032999193
 20
27.7084714067
 10
19.2198122818
 20
27.7116468838
 10
19.2382417691
 20
27.7150862022
 10
19.2807121096
 20
27.7227262278
 10
19.3303729657
 20
27.7313227029
 10
19.3867964647
 20
27.7407940755
 10
19.4494717379
 20
27.75104764
 10
19.5178155459
 20
27.7619816707
 10
19.5911856807
 20
27.773487891
 10
19.6688962123
 20
27.7854541073
 10
19.7502329572
 20
27.7977667473
 10
19.8344691093
 20
27.8103132892
 10
19.9215917899
 20
27.823088275
 10
20.0087419984
 20
27.8356739826
  0
LINE
  5
25A
100
AcDbEntity
  8
6_SURFACES-PATINS-SPEC
100
AcDbLine
 62
7
  6
CONTINUOUS
 10
31.8858277473
 20
16.0492121432
 11
31.8927099819
 21
16.0550317534
  0
LINE
  5
25B
100
AcDbEntity
  8
6_SURFACES-PATINS-SPEC
100
AcDbLine
 62
7
  6
CONTINUOUS
 10
31.8927099819
 20
16.0550317534
 11
31.9003267897
 21
16.0613144691
  0
LINE
  5
25C
100
AcDbEntity
  8
6_SURFACES-PATINS-SPEC
100
AcDbLine
 62
7
  6
CONTINUOUS
 10
32.1130747865
 20
16.164917606
 11
32.1312709975
 21
16.1796926228
  0
LINE
  5
25D
100
AcDbEntity
  8
6_SURFACES-PATINS-SPEC
100
AcDbLine
 62
7
  6
CONTINUOUS
 10
31.9003267897
 20
16.0613144691
 11
31.9086677635
 21
16.068040686
  0
LINE
  5
25E
100
AcDbEntity
  8
6_SURFACES-PATINS-SPEC
100
AcDbLine
 62
7
  6
CONTINUOUS
 10
31.9086677635
 20
16.068040686
 11
31.9177349998
 21
16.075201399
  0
LWPOLYLINE
  5
25F
100
AcDbEntity
  8
6_SURFACES-PATINS-SPEC
100
AcDbPolyline
 62
7
  6
CONTINUOUS
 90
64
 70
0
 10
59.8148738783
 20
16.2438229334
 10
59.8145943741
 20
16.2438200227
 10
59.8143149168
 20
16.2438108586
 10
59.81403576
 20
16.2437943623
 10
59.8137571574
 20
16.2437694552
 10
59.8134793627
 20
16.2437350587
 10
59.8132026296
 20
16.243690094
 10
59.8129272118
 20
16.2436334824
 10
59.812653363
 20
16.2435641454
 10
59.812489832
 20
16.2435158994
 10
59.8123276602
 20
16.2434622696
 10
59.8121675489
 20
16.2434028531
 10
59.8120101997
 20
16.243337247
 10
59.811856314
 20
16.2432650484
 10
59.8117065932
 20
16.2431858544
 10
59.8115617389
 20
16.2430992622
 10
59.8114224524
 20
16.2430048689
 10
59.8112894353
 20
16.2429022716
 10
59.811163389
 20
16.2427910675
 10
59.8110465817
 20
16.242672832
 10
59.8109374915
 20
16.2425466224
 10
59.8108363809
 20
16.2424132189
 10
59.8107435125
 20
16.2422734015
 10
59.810659149
 20
16.24212795
 10
59.8105835529
 20
16.2419776446
 10
59.8105169868
 20
16.2418232651
 10
59.8104597134
 20
16.2416655916
 10
59.8104119951
 20
16.2415054041
 10
59.8103711972
 20
16.2413297657
 10
59.8103411908
 20
16.2411524239
 10
59.8103212374
 20
16.2409737121
 10
59.8103105984
 20
16.2407939633
 10
59.8103085352
 20
16.2406135108
 10
59.8103143093
 20
16.2404326877
 10
59.810327182
 20
16.2402518272
 10
59.8103464149
 20
16.2400712625
 10
59.8103712692
 20
16.2398913267
 10
59.8104010065
 20
16.2397123531
 10
59.8104602738
 20
16.2394148552
 10
59.810530351
 20
16.2391208148
 10
59.8106103818
 20
16.2388300431
 10
59.8106995096
 20
16.2385423515
 10
59.8107968778
 20
16.2382575509
 10
59.81090163
 20
16.2379754528
 10
59.8110129096
 20
16.2376958682
 10
59.8111298601
 20
16.2374186083
 10
59.8113136562
 20
16.2370083029
 10
59.8115073536
 20
16.2366025339
 10
59.8117101042
 20
16.2362010683
 10
59.8119210599
 20
16.2358036735
 10
59.8121393727
 20
16.2354101167
 10
59.8123641944
 20
16.235020165
 10
59.8125946771
 20
16.2346335858
 10
59.8129396162
 20
16.2340752454
 10
59.813293995
 20
16.2335231378
 10
59.8136570106
 20
16.232976814
 10
59.8140278601
 20
16.2324358251
 10
59.8144057406
 20
16.2318997222
 10
59.8147898492
 20
16.2313680562
 10
59.8153542952
 20
16.2306071326
 10
59.8159290856
 20
16.2298539784
 10
59.8165132449
 20
16.2291080424
 10
59.8171057976
 20
16.2283687727
 10
59.8177057683
 20
16.227635618
  0
LINE
  5
260
100
AcDbEntity
  8
6_SURFACES-PATINS-SPEC
100
AcDbLine
 62
7
  6
CONTINUOUS
 10
25.84297279
 20
15.9274799094
 11
31.4953103171
 21
15.9274799094
  0
LINE
  5
261
100
AcDbEntity
  8
6_SURFACES-PATINS-SPEC
100
AcDbLine
 62
7
  6
CONTINUOUS
 10
60.5046896828
 20
15.9274799094
 11
66.15702721
 21
15.9274799094
  0
LINE
  5
262
100
AcDbEntity
  8
6_SURFACES-PATINS-SPEC
100
AcDbLine
 62
7
  6
CONTINUOUS
 10
32.1467592987
 20
16.192875047
 11
32.1597235664
 21
16.2045341161
  0
LINE
  5
263
100
AcDbEntity
  8
6_SURFACES-PATINS-SPEC
100
AcDbLine
 62
7
  6
CONTINUOUS
 10
31.8743665958
 20
16.0391013263
 11
31.879705624
 21
16.0438900102
  0
LINE
  5
264
100
AcDbEntity
  8
6_SURFACES-PATINS-SPEC
100
AcDbLine
 62
7
  6
CONTINUOUS
 10
31.879705624
 20
16.0438900102
 11
31.8858277473
 21
16.0492121432
  0
LINE
  5
265
100
AcDbEntity
  8
6_SURFACES-PATINS-SPEC
100
AcDbLine
 62
7
  6
CONTINUOUS
 10
32.1312709975
 20
16.1796926228
 11
32.1467592987
 21
16.192875047
  0
LINE
  5
266
100
AcDbEntity
  8
6_SURFACES-PATINS-SPEC
100
AcDbLine
 62
7
  6
CONTINUOUS
 10
59.6391454305
 20
16.5443359576
 11
59.6241308725
 21
16.5443359576
  0
LINE
  5
267
100
AcDbEntity
  8
6_SURFACES-PATINS-SPEC
100
AcDbLine
 62
7
  6
CONTINUOUS
 10
32.3608545694
 20
16.5443359576
 11
32.3758691274
 21
16.5443359576
  0
LINE
  5
268
100
AcDbEntity
  8
0
100
AcDbLine
 62
7
  6
CONTINUOUS
 10
44.7285533906
 20
16.652479842
 11
47.2714459415
 21
16.652479842
  0
LINE
  5
269
100
AcDbEntity
  8
DEFAULT_3
100
AcDbLine
 62
7
  6
PHANTOM
 10
47.2714466094
 20
16.777479842
 11
44.7285533906
 21
16.777479842
  0
LWPOLYLINE
  5
26A
100
AcDbEntity
  8
6_SURFACES-PATINS-SPEC
100
AcDbPolyline
 62
7
  6
CONTINUOUS
 90
64
 70
0
 10
32.1851261216
 20
16.2438229334
 10
32.1854056258
 20
16.2438200227
 10
32.1856850831
 20
16.2438108586
 10
32.1859642399
 20
16.2437943623
 10
32.1862428425
 20
16.2437694552
 10
32.1865206372
 20
16.2437350587
 10
32.1867973703
 20
16.243690094
 10
32.1870727881
 20
16.2436334824
 10
32.1873466369
 20
16.2435641454
 10
32.1875101679
 20
16.2435158994
 10
32.1876723397
 20
16.2434622696
 10
32.187832451
 20
16.2434028531
 10
32.1879898002
 20
16.243337247
 10
32.1881436859
 20
16.2432650484
 10
32.1882934067
 20
16.2431858544
 10
32.188438261
 20
16.2430992622
 10
32.1885775475
 20
16.2430048689
 10
32.1887105646
 20
16.2429022716
 10
32.1888366109
 20
16.2427910675
 10
32.1889534182
 20
16.242672832
 10
32.1890625084
 20
16.2425466224
 10
32.189163619
 20
16.2424132189
 10
32.1892564874
 20
16.2422734015
 10
32.1893408509
 20
16.24212795
 10
32.189416447
 20
16.2419776446
 10
32.1894830131
 20
16.2418232651
 10
32.1895402866
 20
16.2416655916
 10
32.1895880048
 20
16.2415054041
 10
32.1896288027
 20
16.2413297657
 10
32.1896588091
 20
16.2411524239
 10
32.1896787625
 20
16.2409737121
 10
32.1896894015
 20
16.2407939633
 10
32.1896914647
 20
16.2406135108
 10
32.1896856906
 20
16.2404326877
 10
32.1896728179
 20
16.2402518272
 10
32.1896535851
 20
16.2400712625
 10
32.1896287307
 20
16.2398913267
 10
32.1895989934
 20
16.2397123531
 10
32.1895397262
 20
16.2394148552
 10
32.1894696489
 20
16.2391208148
 10
32.1893896181
 20
16.2388300431
 10
32.1893004904
 20
16.2385423515
 10
32.1892031221
 20
16.2382575509
 10
32.1890983699
 20
16.2379754528
 10
32.1889870903
 20
16.2376958682
 10
32.1888701398
 20
16.2374186083
 10
32.1886863437
 20
16.2370083029
 10
32.1884926463
 20
16.2366025339
 10
32.1882898957
 20
16.2362010683
 10
32.18807894
 20
16.2358036735
 10
32.1878606272
 20
16.2354101167
 10
32.1876358055
 20
16.235020165
 10
32.1874053228
 20
16.2346335858
 10
32.1870603837
 20
16.2340752454
 10
32.1867060049
 20
16.2335231378
 10
32.1863429893
 20
16.232976814
 10
32.1859721399
 20
16.2324358251
 10
32.1855942594
 20
16.2318997222
 10
32.1852101508
 20
16.2313680562
 10
32.1846457047
 20
16.2306071326
 10
32.1840709143
 20
16.2298539784
 10
32.183486755
 20
16.2291080424
 10
32.1828942023
 20
16.2283687727
 10
32.1822942316
 20
16.227635618
  0
LINE
  5
26B
100
AcDbEntity
  8
6_SURFACES-PATINS-SPEC
100
AcDbLine
 62
7
  6
CONTINUOUS
 10
25.7599415031
 20
15.9311918812
 11
25.8429593518
 21
15.9274799117
  0
LINE
  5
26C
100
AcDbEntity
  8
6_SURFACES-PATINS-SPEC
100
AcDbLine
 62
7
  6
CONTINUOUS
 10
31.8661257002
 20
16.0312935337
 11
31.8698327684
 21
16.0348865994
  0
LINE
  5
26D
100
AcDbEntity
  8
6_SURFACES-PATINS-SPEC
100
AcDbLine
 62
7
  6
CONTINUOUS
 10
32.1597235664
 20
16.2045341161
 11
32.1705182703
 21
16.2149202869
  0
LINE
  5
26E
100
AcDbEntity
  8
6_SURFACES-PATINS-SPEC
100
AcDbLine
 62
7
  6
CONTINUOUS
 10
31.8698327684
 20
16.0348865994
 11
31.8743665958
 21
16.0391013263
  0
LINE
  5
26F
100
AcDbEntity
  8
0
100
AcDbLine
 62
7
  6
CONTINUOUS
 10
53.7227843838
 20
18.8798794784
 11
53.7504232188
 21
18.8931015754
  0
LINE
  5
270
100
AcDbEntity
  8
6_SURFACES-PATINS-SPEC
100
AcDbLine
 62
7
  6
CONTINUOUS
 10
67.8388749616
 20
18.7898996254
 11
67.855022435
 21
18.7903348586
  0
LINE
  5
271
100
AcDbEntity
  8
6_SURFACES-PATINS-SPEC
100
AcDbLine
 62
7
  6
CONTINUOUS
 10
58.8682707992
 20
18.6210931545
 11
58.8959707632
 21
18.6217270583
  0
LINE
  5
272
100
AcDbEntity
  8
0
100
AcDbLine
 62
7
  6
CONTINUOUS
 10
47.9770059008
 20
17.1591394302
 11
46.0
 21
17.1585010574
  0
LINE
  5
273
100
AcDbEntity
  8
0
100
AcDbLine
 62
7
  6
CONTINUOUS
 10
44.0229940992
 20
17.1591394302
 11
46.0
 21
17.1585010574
  0
LINE
  5
274
100
AcDbEntity
  8
6_SURFACES-PATINS-SPEC
100
AcDbLine
 62
7
  6
CONTINUOUS
 10
32.1758131641
 20
16.2203633475
 11
32.1757995458
 21
16.220348954
  0
LINE
  5
275
100
AcDbEntity
  8
6_SURFACES-PATINS-SPEC
100
AcDbLine
 62
7
  6
CONTINUOUS
 10
32.1705182703
 20
16.2149202869
 11
32.1758106043
 21
16.2203606716
  0
LINE
  5
276
100
AcDbEntity
  8
6_SURFACES-PATINS-SPEC
100
AcDbLine
 62
7
  6
CONTINUOUS
 10
31.8632680566
 20
16.0283830441
 11
31.8661257002
 21
16.0312935337
  0
LWPOLYLINE
  5
277
100
AcDbEntity
  8
6_SURFACES-PATINS-SPEC
100
AcDbPolyline
 62
7
  6
CONTINUOUS
 90
27
 70
0
 10
32.1724801986
 20
16.2169162357
 10
32.166912185
 20
16.2114209839
 10
32.1612205452
 20
16.2060526882
 10
32.1543734931
 20
16.1998293085
 10
32.1474281781
 20
16.1937161876
 10
32.1361655622
 20
16.1841222937
 10
32.1247422254
 20
16.1747186264
 10
32.1131891313
 20
16.1654737429
 10
32.099580481
 20
16.1548518503
 10
32.0858497558
 20
16.1443894529
 10
32.0720093736
 20
16.1340726898
 10
32.0569818361
 20
16.1231026817
 10
32.0418461506
 20
16.1122821791
 10
32.0266071278
 20
16.1016076111
 10
32.0111730101
 20
16.0910120852
 10
31.9956371359
 20
16.0805664174
 10
31.9799975009
 20
16.0702763304
 10
31.9651993325
 20
16.060752816
 10
31.9503004311
 20
16.05138812
 10
31.935293512
 20
16.0421985406
 10
31.9221375162
 20
16.0343592793
 10
31.9088782495
 20
16.0266951737
 10
31.8954997738
 20
16.0192363965
 10
31.8875376673
 20
16.0149456475
 10
31.8795165224
 20
16.0107675542
 10
31.8714244046
 20
16.0067326916
 10
31.863249379
 20
16.0028716348
  0
LINE
  5
278
100
AcDbEntity
  8
6_SURFACES-PATINS-SPEC
100
AcDbLine
 62
7
  6
CONTINUOUS
 10
66.4031462823
 20
15.9603962347
 11
66.4819747053
 21
15.9856250519
  0
LINE
  5
279
100
AcDbEntity
  8
6_SURFACES-PATINS-SPEC
100
AcDbLine
 62
7
  6
CONTINUOUS
 10
68.1814299309
 20
19.0366503697
 11
68.1985074538
 21
19.0370023718
  0
LINE
  5
27A
100
AcDbEntity
  8
6_SURFACES-PATINS-SPEC
100
AcDbLine
 62
7
  6
CONTINUOUS
 10
68.1808846078
 20
19.0678956131
 11
68.1977649616
 21
19.068243553
  0
LINE
  5
27B
100
AcDbEntity
  8
6_SURFACES-PATINS-SPEC
100
AcDbLine
 62
7
  6
CONTINUOUS
 10
66.5258752942
 20
19.0077527926
 11
68.1814301119
 21
19.0366512092
  0
LINE
  5
27C
100
AcDbEntity
  8
6_SURFACES-PATINS-SPEC
100
AcDbLine
 62
7
  6
CONTINUOUS
 10
58.5093494487
 20
18.8678237997
 11
58.5430692326
 21
18.8684123944
  0
LINE
  5
27D
100
AcDbEntity
  8
6_SURFACES-PATINS-SPEC
100
AcDbLine
 62
7
  6
CONTINUOUS
 10
58.5430692085
 20
18.8684123943
 11
66.5258752942
 21
19.0077527887
  0
LINE
  5
27E
100
AcDbEntity
  8
6_SURFACES-PATINS-SPEC
100
AcDbLine
 62
7
  6
CONTINUOUS
 10
66.5253299067
 20
19.0389980335
 11
68.1808845924
 21
19.0678964976
  0
LINE
  5
27F
100
AcDbEntity
  8
6_SURFACES-PATINS-SPEC
100
AcDbLine
 62
7
  6
CONTINUOUS
 10
58.5087795501
 20
18.8990686119
 11
58.5425238316
 21
18.8996576351
  0
LINE
  5
280
100
AcDbEntity
  8
6_SURFACES-PATINS-SPEC
100
AcDbLine
 62
7
  6
CONTINUOUS
 10
58.5425238316
 20
18.8996576354
 11
66.5253299067
 21
19.0389980292
  0
LINE
  5
281
100
AcDbEntity
  8
0
100
AcDbLine
 62
7
  6
CONTINUOUS
 10
69.1473989174
 20
19.1785306948
 11
53.8397816414
 21
18.9113352413
  0
LINE
  5
282
100
AcDbEntity
  8
DEFAULT_3
100
AcDbLine
 62
7
  6
PHANTOM
 10
69.1452173666
 20
19.3035116567
 11
53.8376000906
 21
19.0363162032
  0
LINE
  5
283
100
AcDbEntity
  8
6_SURFACES-PATINS-SPEC
100
AcDbLine
 62
7
  6
CONTINUOUS
 10
60.4216583955
 20
15.9311918813
 11
60.5046762446
 21
15.9274799117
  0
LINE
  5
284
100
AcDbEntity
  8
6_SURFACES-PATINS-SPEC
100
AcDbLine
 62
7
  6
CONTINUOUS
 10
25.6776967431
 20
15.9422022032
 11
25.7599415031
 21
15.9311918812
  0
LINE
  5
285
100
AcDbEntity
  8
0
100
AcDbLine
 62
7
  6
CONTINUOUS
 10
38.4587435268
 20
18.0677728618
 11
38.3718455875
 21
19.0610208529
  0
LINE
  5
286
100
AcDbEntity
  8
DEFAULT_3
100
AcDbLine
 62
7
  6
PHANTOM
 10
38.5832678569
 20
18.0786674124
 11
38.5561041916
 21
18.3891495264
  0
LINE
  5
287
100
AcDbEntity
  8
0
100
AcDbLine
 62
7
  6
CONTINUOUS
 10
82.0
 20
35.277479842
 11
81.886288893
 21
36.577203742
  0
LWPOLYLINE
  5
288
100
AcDbEntity
  8
0
100
AcDbPolyline
 62
7
  6
CONTINUOUS
 90
22
 70
0
 10
21.2908823808
 20
21.5602559175
 10
21.2895648782
 20
21.5769754839
 10
21.2879855289
 20
21.593675932
 10
21.2861499234
 20
21.6103540666
 10
21.2840636523
 20
21.6270066925
 10
21.2817323061
 20
21.6436306144
 10
21.2791614753
 20
21.6602226373
 10
21.2763567504
 20
21.6767795658
 10
21.273323722
 20
21.6932982049
 10
21.2700679806
 20
21.7097753594
 10
21.2665951167
 20
21.7262078339
 10
21.2629107209
 20
21.7425924334
 10
21.2586130853
 20
21.7605844215
 10
21.2540707694
 20
21.7785129161
 10
21.2492890493
 20
21.7963764091
 10
21.2442732007
 20
21.8141733922
 10
21.2390284998
 20
21.8319023572
 10
21.2335602223
 20
21.8495617959
 10
21.2278736443
 20
21.8671502001
 10
21.2219740416
 20
21.8846660616
 10
21.2158666902
 20
21.9021078721
 10
21.2095568661
 20
21.9194741234
  0
LWPOLYLINE
  5
289
100
AcDbEntity
  8
0
100
AcDbPolyline
 62
7
  6
CONTINUOUS
 90
28
 70
0
 10
72.8576268825
 20
27.6931537344
 10
72.8576093812
 20
27.6934855744
 10
72.8573482478
 20
27.6937939744
 10
72.8569864417
 20
27.694060021
 10
72.8564374247
 20
27.6943805349
 10
72.8559240203
 20
27.6946220775
 10
72.8543627666
 20
27.6952569931
 10
72.852300582
 20
27.6959648259
 10
72.849737569
 20
27.6967453244
 10
72.8466741517
 20
27.6975981921
 10
72.8431107556
 20
27.698523132
 10
72.8344861596
 20
27.7005879009
 10
72.8238686832
 20
27.7029367796
 10
72.8112677154
 20
27.7055661932
 10
72.7967000806
 20
27.7084714067
 10
72.7801877181
 20
27.7116468838
 10
72.7617582308
 20
27.7150862022
 10
72.7192878903
 20
27.7227262278
 10
72.6696270343
 20
27.7313227029
 10
72.6132035352
 20
27.7407940755
 10
72.5505282621
 20
27.75104764
 10
72.4821844541
 20
27.7619816707
 10
72.4088143193
 20
27.773487891
 10
72.3311037876
 20
27.7854541073
 10
72.2497670428
 20
27.7977667473
 10
72.1655308907
 20
27.8103132892
 10
72.0784082101
 20
27.823088275
 10
71.9912580016
 20
27.8356739826
  0
LWPOLYLINE
  5
28A
100
AcDbEntity
  8
0
100
AcDbPolyline
 62
7
  6
CONTINUOUS
 90
49
 70
0
 10
44.8125724957
 20
33.7921125517
 10
44.8136267584
 20
33.7537944339
 10
44.8159348179
 20
33.7155032718
 10
44.8194919932
 20
33.6772872958
 10
44.8242936032
 20
33.6391947362
 10
44.830334967
 20
33.6012738233
 10
44.8376114035
 20
33.5635727877
 10
44.8461208076
 20
33.5261220058
 10
44.8558489865
 20
33.4889765381
 10
44.8667832693
 20
33.4521733615
 10
44.8789109849
 20
33.4157494529
 10
44.8922194622
 20
33.3797417892
 10
44.9066960302
 20
33.3441873474
 10
44.922339227
 20
33.3090962138
 10
44.939119489
 20
33.2745321578
 10
44.9570166861
 20
33.2405313049
 10
44.9760106881
 20
33.2071297804
 10
44.9960813651
 20
33.17436371
 10
45.017208587
 20
33.142269219
 10
45.0393936188
 20
33.1108507599
 10
45.0625904303
 20
33.0801721112
 10
45.0867723302
 20
33.0502639743
 10
45.1119126277
 20
33.0211570509
 10
45.1379846317
 20
32.9928820424
 10
45.1649616512
 20
32.9654696505
 10
45.1928462587
 20
32.9389218732
 10
45.2215791842
 20
32.9132943697
 10
45.2511285504
 20
32.8886121927
 10
45.2814624798
 20
32.8649003948
 10
45.3125490948
 20
32.8421840287
 10
45.3443565181
 20
32.8204881471
 10
45.376884213
 20
32.7998169976
 10
45.4100655714
 20
32.7802118108
 10
45.4438639772
 20
32.7616909656
 10
45.4782428148
 20
32.7442728411
 10
45.5131654682
 20
32.7279758163
 10
45.5485953216
 20
32.7128182701
 10
45.5845227137
 20
32.6988073651
 10
45.6208845422
 20
32.6859672807
 10
45.6576439562
 20
32.6743092499
 10
45.6947641047
 20
32.6638445055
 10
45.7322081368
 20
32.6545842802
 10
45.7699392016
 20
32.6465398068
 10
45.807933904
 20
32.6397185955
 10
45.8461314699
 20
32.6341291294
 10
45.8844843808
 20
32.6297751879
 10
45.9229451184
 20
32.6266605504
 10
45.9614661642
 20
32.6247889963
 10
46.0
 20
32.6241643051
  0
LINE
  5
28B
100
AcDbEntity
  8
6_SURFACES-PATINS-SPEC
100
AcDbLine
 62
7
  6
CONTINUOUS
 10
68.1985074538
 20
19.0370023719
 11
68.1977649616
 21
19.068243553
  0
LINE
  5
28C
100
AcDbEntity
  8
6_SURFACES-PATINS-SPEC
100
AcDbLine
 62
7
  6
CONTINUOUS
 10
58.5087795479
 20
18.8990687364
 11
58.5093249464
 21
18.8678234873
  0
LINE
  5
28D
100
AcDbEntity
  8
6_SURFACES-PATINS-SPEC
100
AcDbLine
 62
7
  6
CONTINUOUS
 10
58.5430692326
 20
18.8684123944
 11
58.5425238316
 21
18.8996576354
  0
LINE
  5
28E
100
AcDbEntity
  8
6_SURFACES-PATINS-SPEC
100
AcDbLine
 62
7
  6
CONTINUOUS
 10
60.8676132526
 20
18.9089874574
 11
60.8670678651
 21
18.9402326979
  0
LINE
  5
28F
100
AcDbEntity
  8
6_SURFACES-PATINS-SPEC
100
AcDbLine
 62
7
  6
CONTINUOUS
 10
66.5258752942
 20
19.0077527887
 11
66.5253299067
 21
19.0389980292
  0
LINE
  5
290
100
AcDbEntity
  8
6_SURFACES-PATINS-SPEC
100
AcDbLine
 62
7
  6
CONTINUOUS
 10
68.1814301119
 20
19.0366512092
 11
68.1808846078
 21
19.0678956131
  0
LINE
  5
291
100
AcDbEntity
  8
1_CURVES_SPEC
100
AcDbLine
 62
8
  6
HIDDEN
 10
46.0
 20
34.9730877487
 11
46.0
 21
33.0303564412
  0
LINE
  5
292
100
AcDbEntity
  8
0
100
AcDbLine
 62
7
  6
CONTINUOUS
 10
46.0
 20
32.6110982472
 11
46.0
 21
17.1221230258
  0
LINE
  5
293
100
AcDbEntity
  8
DEFAULT_1
100
AcDbLine
 62
7
  6
CENTER
 10
46.0
 20
12.0902414411
 11
46.0
 21
17.1221230258
  0
LINE
  5
294
100
AcDbEntity
  8
DEFAULT_1
100
AcDbLine
 62
7
  6
CENTER
 10
46.0
 20
32.6110982472
 11
46.0
 21
33.0303564412
  0
LINE
  5
295
100
AcDbEntity
  8
0
100
AcDbLine
 62
7
  6
CONTINUOUS
 10
46.0
 20
33.0303564412
 11
46.0
 21
35.277479842
  0
LINE
  5
296
100
AcDbEntity
  8
DEFAULT_1
100
AcDbLine
 62
7
  6
CENTER
 10
46.0
 20
35.277479842
 11
46.0
 21
39.8441548817
  0
LWPOLYLINE
  5
297
100
AcDbEntity
  8
0
100
AcDbPolyline
 62
7
  6
CONTINUOUS
 90
49
 70
0
 10
44.8125
 20
33.7920928821
 10
44.8131373817
 20
33.830690706
 10
44.8150466801
 20
33.8692752261
 10
44.8182236262
 20
33.9077971289
 10
44.8226639511
 20
33.946207101
 10
44.8283633858
 20
33.9844558288
 10
44.8353176612
 20
34.022493999
 10
44.8435247472
 20
34.0602896636
 10
44.85297084
 20
34.0977873526
 10
44.8636433473
 20
34.1349491748
 10
44.8755296768
 20
34.1717372392
 10
44.8886172363
 20
34.2081136545
 10
44.9028934336
 20
34.2440405299
 10
44.9183565803
 20
34.2795068484
 10
44.934977283
 20
34.314447934
 10
44.9527352649
 20
34.3488267256
 10
44.9716102492
 20
34.382606162
 10
44.9915819594
 20
34.4157491821
 10
45.0126301186
 20
34.4482187249
 10
45.0347557913
 20
34.4800098338
 10
45.0579126662
 20
34.51105746
 10
45.0820736748
 20
34.5413300705
 10
45.1072117488
 20
34.5707961328
 10
45.1332998198
 20
34.5994241139
 10
45.1603108195
 20
34.6271824811
 10
45.1882471994
 20
34.6540689915
 10
45.2170489222
 20
34.6800266736
 10
45.2466835478
 20
34.7050297795
 10
45.2771186361
 20
34.7290525615
 10
45.3083217471
 20
34.7520692719
 10
45.3402604407
 20
34.7740541629
 10
45.372934092
 20
34.7950028035
 10
45.4062749386
 20
34.8148728868
 10
45.4402456421
 20
34.8336455153
 10
45.4748088638
 20
34.8513017914
 10
45.5099272652
 20
34.8678228175
 10
45.5455635078
 20
34.883189696
 10
45.5817077214
 20
34.8973950517
 10
45.618295547
 20
34.9104140335
 10
45.6552893666
 20
34.9222350884
 10
45.692651562
 20
34.9328466634
 10
45.7303445152
 20
34.9422372055
 10
45.7683306082
 20
34.9503951619
 10
45.8065859604
 20
34.9573128083
 10
45.8450485085
 20
34.9629814191
 10
45.8836697196
 20
34.9673971064
 10
45.9224010605
 20
34.9705559824
 10
45.9611939983
 20
34.9724541591
 10
46.0
 20
34.9730877487
  0
LWPOLYLINE
  5
298
100
AcDbEntity
  8
0
100
AcDbPolyline
 62
7
  6
CONTINUOUS
 90
49
 70
0
 10
47.1875
 20
33.7920929322
 10
47.1868626206
 20
33.7534951887
 10
47.1849533283
 20
33.7149107491
 10
47.1817763923
 20
33.6763889264
 10
47.1773360821
 20
33.6379790339
 10
47.1716366669
 20
33.5997303847
 10
47.1646824161
 20
33.5616922919
 10
47.1564753467
 20
33.5238966465
 10
47.1470292723
 20
33.4863989759
 10
47.1363567848
 20
33.4492371712
 10
47.1244704765
 20
33.4124491235
 10
47.1113829395
 20
33.3760727237
 10
47.0971067659
 20
33.3401458628
 10
47.0816436208
 20
33.3046795069
 10
47.0650229175
 20
33.2697383842
 10
47.0472649327
 20
33.2353595562
 10
47.028389943
 20
33.2015800841
 10
47.0084182253
 20
33.1684370292
 10
46.9873700561
 20
33.1359674527
 10
46.9652443723
 20
33.1041763132
 10
46.9420874844
 20
33.0731286578
 10
46.9179264607
 20
33.0428560191
 10
46.8927883697
 20
33.0133899302
 10
46.8667002799
 20
32.9847619237
 10
46.8396892599
 20
32.9570035326
 10
46.8117528647
 20
32.930117006
 10
46.7829511257
 20
32.904159309
 10
46.7533164829
 20
32.8791561893
 10
46.7228813764
 20
32.8551333948
 10
46.6916782463
 20
32.8321166732
 10
46.6597395327
 20
32.8101317723
 10
46.6270658721
 20
32.7891831304
 10
46.593725016
 20
32.7693130465
 10
46.5597543028
 20
32.750540418
 10
46.5251910711
 20
32.7328841427
 10
46.4900726597
 20
32.716363118
 10
46.454436407
 20
32.7009962415
 10
46.4182921952
 20
32.6867908929
 10
46.3817043716
 20
32.673771918
 10
46.3447105545
 20
32.6619508697
 10
46.3073483617
 20
32.651339301
 10
46.2696554115
 20
32.6419487647
 10
46.2316693218
 20
32.6337908137
 10
46.1934139807
 20
32.6268731735
 10
46.154951444
 20
32.6212045677
 10
46.1163302447
 20
32.6167888843
 10
46.0775989156
 20
32.6136300112
 10
46.0388059897
 20
32.6117318362
 10
46.0
 20
32.6110982472
  0
LINE
  5
299
100
AcDbEntity
  8
6_SURFACES-PATINS-SPEC
100
AcDbLine
 62
7
  6
CONTINUOUS
 10
23.8185700691
 20
19.0366503698
 11
23.819115408
 21
19.0678964976
  0
LINE
  5
29A
100
AcDbEntity
  8
6_SURFACES-PATINS-SPEC
100
AcDbLine
 62
7
  6
CONTINUOUS
 10
25.4741247057
 20
19.0077527887
 11
25.4746700932
 21
19.0389980292
  0
LINE
  5
29B
100
AcDbEntity
  8
6_SURFACES-PATINS-SPEC
100
AcDbLine
 62
7
  6
CONTINUOUS
 10
31.1323867474
 20
18.9089874574
 11
31.1329321349
 21
18.9402326979
  0
LINE
  5
29C
100
AcDbEntity
  8
6_SURFACES-PATINS-SPEC
100
AcDbLine
 62
7
  6
CONTINUOUS
 10
33.4569307661
 20
18.8684123948
 11
33.4574761677
 21
18.8996576351
  0
LINE
  5
29D
100
AcDbEntity
  8
6_SURFACES-PATINS-SPEC
100
AcDbLine
 62
7
  6
CONTINUOUS
 10
33.4906750544
 20
18.8678234873
 11
33.4912204289
 21
18.8990687368
  0
LINE
  5
29E
100
AcDbEntity
  8
6_SURFACES-PATINS-SPEC
100
AcDbLine
 62
7
  6
CONTINUOUS
 10
23.8022350383
 20
19.068243553
 11
23.8014925462
 21
19.0370023719
  0
LWPOLYLINE
  5
29F
100
AcDbEntity
  8
0
100
AcDbPolyline
 62
7
  6
CONTINUOUS
 90
22
 70
0
 10
70.7091176191
 20
21.5602559175
 10
70.7104351217
 20
21.5769754839
 10
70.7120144711
 20
21.593675932
 10
70.7138500765
 20
21.6103540666
 10
70.7159363476
 20
21.6270066925
 10
70.7182676939
 20
21.6436306144
 10
70.7208385247
 20
21.6602226373
 10
70.7236432495
 20
21.6767795658
 10
70.7266762779
 20
21.6932982049
 10
70.7299320193
 20
21.7097753594
 10
70.7334048832
 20
21.7262078339
 10
70.7370892791
 20
21.7425924334
 10
70.7413869146
 20
21.7605844215
 10
70.7459292305
 20
21.7785129161
 10
70.7507109506
 20
21.7963764091
 10
70.7557267992
 20
21.8141733922
 10
70.7609715001
 20
21.8319023572
 10
70.7664397776
 20
21.8495617959
 10
70.7721263557
 20
21.8671502001
 10
70.7780259584
 20
21.8846660616
 10
70.7841333098
 20
21.9021078721
 10
70.7904431339
 20
21.9194741234
  0
LINE
  5
2A0
100
AcDbEntity
  8
DEFAULT_3
100
AcDbLine
 62
7
  6
PHANTOM
 10
53.4705717312
 20
18.6940567211
 11
53.4167321431
 21
18.0786674124
  0
LINE
  5
2A1
100
AcDbEntity
  8
0
100
AcDbLine
 62
7
  6
CONTINUOUS
 10
53.5412564731
 20
18.0677728618
 11
53.6281544124
 21
19.0610208529
  0
LWPOLYLINE
  5
2A2
100
AcDbEntity
  8
0
100
AcDbPolyline
 62
7
  6
CONTINUOUS
 90
13
 70
0
 10
70.7206830875
 20
21.6574311227
 10
70.719389071
 20
21.6493688838
 10
70.7181507265
 20
21.6412978107
 10
70.7169692555
 20
21.6332177081
 10
70.7158474685
 20
21.6251402459
 10
70.7147849194
 20
21.6170541393
 10
70.7137829396
 20
21.6089599418
 10
70.7128428607
 20
21.600858207
 10
70.7119660143
 20
21.5927494885
 10
70.7111537318
 20
21.5846343399
 10
70.7104073449
 20
21.5765133148
 10
70.7097281851
 20
21.5683869668
 10
70.709117584
 20
21.5602558495
  0
LWPOLYLINE
  5
2A3
100
AcDbEntity
  8
6_SURFACES-PATINS-SPEC
100
AcDbPolyline
 62
7
  6
CONTINUOUS
 90
33
 70
0
 10
60.1347010959
 20
16.0339526126
 10
60.1347124754
 20
16.0340081504
 10
60.1347224911
 20
16.0340639691
 10
60.1347311888
 20
16.0341200317
 10
60.134738614
 20
16.0341763011
 10
60.1347448127
 20
16.0342327402
 10
60.1347498305
 20
16.034289312
 10
60.1347537132
 20
16.0343459795
 10
60.1347565064
 20
16.0344027055
 10
60.1347585076
 20
16.0344724242
 10
60.1347589795
 20
16.0345421603
 10
60.1347579682
 20
16.0346118986
 10
60.1347555192
 20
16.0346816239
 10
60.1347516786
 20
16.0347513212
 10
60.1347464919
 20
16.0348209752
 10
60.1347400051
 20
16.034890571
 10
60.134732264
 20
16.0349600932
 10
60.1347233143
 20
16.0350295269
 10
60.1347132018
 20
16.0350988569
 10
60.1347019723
 20
16.0351680679
 10
60.1346896717
 20
16.035237145
 10
60.1346763457
 20
16.0353060729
 10
60.13466204
 20
16.0353748366
 10
60.1346468006
 20
16.0354434209
 10
60.1346306733
 20
16.0355118107
 10
60.1346137037
 20
16.0355799908
 10
60.1345959377
 20
16.0356479461
 10
60.1345774211
 20
16.0357156615
 10
60.1345581997
 20
16.0357831218
 10
60.1345383193
 20
16.0358503119
 10
60.1345178257
 20
16.0359172167
 10
60.1344967647
 20
16.035983821
 10
60.134475182
 20
16.0360501098
  0
LINE
  5
2A4
100
AcDbEntity
  8
0
100
AcDbLine
 62
7
  6
CONTINUOUS
 10
70.5698204306
 20
20.8875083665
 11
70.6163592937
 21
21.0338526949
  0
LWPOLYLINE
  5
2A5
100
AcDbEntity
  8
0
100
AcDbPolyline
 62
7
  6
CONTINUOUS
 90
8
 70
0
 10
74.7295216916
 20
30.6566753298
 10
74.7422921249
 20
30.696424205
 10
74.7551719545
 20
30.7360832724
 10
74.768174724
 20
30.7756470559
 10
74.7813139772
 20
30.8151100794
 10
74.7946032579
 20
30.8544668667
 10
74.8080561097
 20
30.8937119417
 10
74.8216860763
 20
30.9328398282
  0
LWPOLYLINE
  5
2A6
100
AcDbEntity
  8
0
100
AcDbPolyline
 62
7
  6
CONTINUOUS
 90
10
 70
0
 10
74.507739766
 20
29.94688182
 10
74.5332194116
 20
30.0261091007
 10
74.5582520538
 20
30.1053421575
 10
74.5829395645
 20
30.1845398004
 10
74.6073838156
 20
30.2636608395
 10
74.631686679
 20
30.3426640848
 10
74.6559500264
 20
30.4215083464
 10
74.6802757297
 20
30.5001524344
 10
74.7047656609
 20
30.5785551589
 10
74.7295216916
 20
30.6566753298
  0
LINE
  5
2A7
100
AcDbEntity
  8
0
100
AcDbLine
 62
7
  6
CONTINUOUS
 10
74.7294171351
 20
30.6567083474
 11
74.7474595322
 21
30.7127256038
  0
LINE
  5
2A8
100
AcDbEntity
  8
DEFAULT_3
100
AcDbLine
 62
7
  6
PHANTOM
 10
74.3888577015
 20
29.9855089443
 11
71.4792276413
 21
21.0305884086
  0
LINE
  5
2A9
100
AcDbEntity
  8
0
100
AcDbLine
 62
7
  6
CONTINUOUS
 10
71.5981097058
 20
20.9919612843
 11
74.507739766
 21
29.94688182
  0
LINE
  5
2AA
100
AcDbEntity
  8
0
100
AcDbLine
 62
7
  6
CONTINUOUS
 10
74.7474595322
 20
30.7127256038
 11
74.7758302558
 21
30.7991584518
  0
LINE
  5
2AB
100
AcDbEntity
  8
0
100
AcDbLine
 62
7
  6
CONTINUOUS
 10
74.7758302558
 20
30.7991584518
 11
74.803089974
 21
30.8798972095
  0
LINE
  5
2AC
100
AcDbEntity
  8
0
100
AcDbLine
 62
7
  6
CONTINUOUS
 10
74.803089974
 20
30.8798972095
 11
74.8302769837
 21
30.9577259738
  0
LINE
  5
2AD
100
AcDbEntity
  8
0
100
AcDbLine
 62
7
  6
CONTINUOUS
 10
74.8304537144
 20
30.9576635083
 11
74.8318843599
 21
30.9616880249
  0
LINE
  5
2AE
100
AcDbEntity
  8
6_SURFACES-PATINS-SPEC
100
AcDbLine
 62
7
  6
CONTINUOUS
 10
67.0225714623
 20
16.5443359576
 11
67.8258338168
 21
18.7896897621
  0
LINE
  5
2AF
100
AcDbEntity
  8
0
100
AcDbLine
 62
7
  6
CONTINUOUS
 10
74.8302769837
 20
30.9577259738
 11
74.842914809
 21
30.9929136438
  0
LINE
  5
2B0
100
AcDbEntity
  8
6_SURFACES-PATINS-SPEC
100
AcDbLine
 62
7
  6
CONTINUOUS
 10
32.8633269679
 20
17.8833164364
 11
33.1317291939
 21
18.6210931607
  0
LINE
  5
2B1
100
AcDbEntity
  8
6_SURFACES-PATINS-SPEC
100
AcDbLine
 62
7
  6
CONTINUOUS
 10
32.6060356597
 20
17.1762710017
 11
32.8633269679
 21
17.8833164364
  0
LINE
  5
2B2
100
AcDbEntity
  8
6_SURFACES-PATINS-SPEC
100
AcDbLine
 62
7
  6
CONTINUOUS
 10
67.283679036
 20
17.2200705017
 11
67.8550224328
 21
18.7903348454
  0
LINE
  5
2B3
100
AcDbEntity
  8
6_SURFACES-PATINS-SPEC
100
AcDbLine
 62
7
  6
CONTINUOUS
 10
67.0375860203
 20
16.5443359576
 11
67.283679036
 21
17.2200705017
  0
LINE
  5
2B4
100
AcDbEntity
  8
6_SURFACES-PATINS-SPEC
100
AcDbLine
 62
7
  6
CONTINUOUS
 10
32.3758691275
 20
16.5443359576
 11
32.6060356597
 21
17.1762710017
  0
LINE
  5
2B5
100
AcDbEntity
  8
0
100
AcDbLine
 62
7
  6
CONTINUOUS
 10
74.842914809
 20
30.9929136438
 11
74.8550824288
 21
31.0261618963
  0
LWPOLYLINE
  5
2B6
100
AcDbEntity
  8
DEFAULT_3
100
AcDbPolyline
 62
7
  6
PHANTOM
 90
17
 70
0
 10
74.7551112718
 20
31.1160444159
 10
74.7293998908
 20
31.0464712603
 10
74.704420603
 20
30.976609564
 10
74.680097118
 20
30.9064901481
 10
74.6563531453
 20
30.8361438341
 10
74.6331123944
 20
30.7656014431
 10
74.6102985749
 20
30.6948937964
 10
74.5878353963
 20
30.6240517152
 10
74.5656465681
 20
30.553106021
 10
74.5436557999
 20
30.4820875348
 10
74.5217868011
 20
30.4110270779
 10
74.4999632814
 20
30.3399554717
 10
74.4781089502
 20
30.2689035374
 10
74.4561475171
 20
30.1979020962
 10
74.4340026916
 20
30.1269819695
 10
74.4115981832
 20
30.0561739784
 10
74.3888577015
 20
29.9855089443
  0
LINE
  5
2B7
100
AcDbEntity
  8
0
100
AcDbLine
 62
7
  6
CONTINUOUS
 10
74.8551016208
 20
31.0262138456
 11
74.8667415237
 21
31.0574353185
  0
LINE
  5
2B8
100
AcDbEntity
  8
0
100
AcDbLine
 62
7
  6
CONTINUOUS
 10
74.8550824288
 20
31.0261618963
 11
74.8667197853
 21
31.0573775405
  0
LWPOLYLINE
  5
2B9
100
AcDbEntity
  8
6_SURFACES-PATINS-SPEC
100
AcDbPolyline
 62
7
  6
CONTINUOUS
 90
49
 70
0
 10
67.8388748258
 20
18.7898996753
 10
67.8421645879
 20
18.7986927223
 10
67.8456739793
 20
18.8074047564
 10
67.8494003782
 20
18.8160293773
 10
67.8533411631
 20
18.8245601845
 10
67.8574937123
 20
18.8329907778
 10
67.8618554043
 20
18.8413147566
 10
67.8664176323
 20
18.8495156421
 10
67.8711829087
 20
18.8575990456
 10
67.8761482846
 20
18.8655602133
 10
67.8813108114
 20
18.8733943912
 10
67.8866675401
 20
18.8810968255
 10
67.8922155221
 20
18.8886627622
 10
67.8979437448
 20
18.8960774729
 10
67.9038559802
 20
18.9033466957
 10
67.9099484482
 20
18.9104658104
 10
67.9162173685
 20
18.9174301968
 10
67.9226589609
 20
18.9242352349
 10
67.9292694454
 20
18.9308763044
 10
67.9360350781
 20
18.9373397199
 10
67.9429609253
 20
18.9436311078
 10
67.9500425638
 20
18.9497465453
 10
67.9572755703
 20
18.9556821093
 10
67.9646555219
 20
18.9614338768
 10
67.9721779953
 20
18.9669979248
 10
67.9798280989
 20
18.9723633612
 10
67.987610954
 20
18.977534433
 10
67.9955215837
 20
18.9825079043
 10
68.0035550113
 20
18.9872805387
 10
68.01170626
 20
18.9918491001
 10
68.0199703531
 20
18.9962103524
 10
68.0283327357
 20
19.0003566429
 10
68.0367972053
 20
19.0042904512
 10
68.0453582239
 20
19.0080093666
 10
68.0540102535
 20
19.0115109787
 10
68.0627477562
 20
19.0147928767
 10
68.071565194
 20
19.0178526502
 10
68.0804494577
 20
19.0206857232
 10
68.0894025023
 20
19.0232931096
 10
68.0984188376
 20
19.0256732768
 10
68.1074929736
 20
19.0278246924
 10
68.1166194202
 20
19.0297458239
 10
68.1257926873
 20
19.0314351388
 10
68.1350034715
 20
19.0328907455
 10
68.1442484988
 20
19.0341125864
 10
68.1535207139
 20
19.0351000655
 10
68.1628130612
 20
19.0358525865
 10
68.1721184854
 20
19.0363695533
 10
68.1814299309
 20
19.0366503697
  0
LINE
  5
2BA
100
AcDbEntity
  8
0
100
AcDbLine
 62
7
  6
CONTINUOUS
 10
74.8667415237
 20
31.0574353185
 11
74.8777482165
 21
31.0864357467
  0
LINE
  5
2BB
100
AcDbEntity
  8
0
100
AcDbLine
 62
7
  6
CONTINUOUS
 10
74.8667197853
 20
31.0573775405
 11
74.877728266
 21
31.0863836395
  0
LINE
  5
2BC
100
AcDbEntity
  8
0
100
AcDbLine
 62
7
  6
CONTINUOUS
 10
70.5136881981
 20
20.7418337951
 11
70.5698204306
 21
20.8875083665
  0
LINE
  5
2BD
100
AcDbEntity
  8
0
100
AcDbLine
 62
7
  6
CONTINUOUS
 10
74.877728266
 20
31.0863836395
 11
74.8880318084
 21
31.1130726674
  0
LINE
  5
2BE
100
AcDbEntity
  8
0
100
AcDbLine
 62
7
  6
CONTINUOUS
 10
74.8880318084
 20
31.1130726674
 11
74.8975425124
 21
31.1373093374
  0
LINE
  5
2BF
100
AcDbEntity
  8
0
100
AcDbLine
 62
7
  6
CONTINUOUS
 10
74.8975425124
 20
31.1373093374
 11
74.9061536255
 21
31.1589128616
  0
LINE
  5
2C0
100
AcDbEntity
  8
0
100
AcDbLine
 62
7
  6
CONTINUOUS
 10
74.9061536255
 20
31.1589128616
 11
74.9137603165
 21
31.1777107765
  0
LINE
  5
2C1
100
AcDbEntity
  8
6_SURFACES-PATINS-SPEC
100
AcDbLine
 62
7
  6
CONTINUOUS
 10
32.349363162
 20
16.4793211559
 11
32.3758691274
 21
16.5443359576
  0
LINE
  5
2C2
100
AcDbEntity
  8
6_SURFACES-PATINS-SPEC
100
AcDbLine
 62
7
  6
CONTINUOUS
 10
67.0110800548
 20
16.4793211558
 11
67.0375860203
 21
16.5443359576
  0
LINE
  5
2C3
100
AcDbEntity
  8
0
100
AcDbLine
 62
7
  6
CONTINUOUS
 10
74.9137603165
 20
31.1777107765
 11
74.9295165551
 21
31.2159014182
  0
LINE
  5
2C4
100
AcDbEntity
  8
0
100
AcDbLine
 62
7
  6
CONTINUOUS
 10
74.9295165551
 20
31.2159014182
 11
74.9490478923
 21
31.2625310781
  0
LINE
  5
2C5
100
AcDbEntity
  8
0
100
AcDbLine
 62
7
  6
CONTINUOUS
 10
74.9490478923
 20
31.2625310781
 11
74.967550411
 21
31.3060932716
  0
LINE
  5
2C6
100
AcDbEntity
  8
0
100
AcDbLine
 62
7
  6
CONTINUOUS
 10
74.967550411
 20
31.3060932716
 11
74.988224313
 21
31.3541297224
  0
LINE
  5
2C7
100
AcDbEntity
  8
0
100
AcDbLine
 62
7
  6
CONTINUOUS
 10
74.988224313
 20
31.3541297224
 11
75.0017033228
 21
31.3851898534
  0
LINE
  5
2C8
100
AcDbEntity
  8
0
100
AcDbLine
 62
7
  6
CONTINUOUS
 10
75.0017033228
 20
31.3851898534
 11
75.0171631195
 21
31.4205344469
  0
LINE
  5
2C9
100
AcDbEntity
  8
0
100
AcDbLine
 62
7
  6
CONTINUOUS
 10
75.0171631195
 20
31.4205344469
 11
75.0313064861
 21
31.4526732586
  0
LINE
  5
2CA
100
AcDbEntity
  8
0
100
AcDbLine
 62
7
  6
CONTINUOUS
 10
75.0313064861
 20
31.4526732586
 11
75.0544937998
 21
31.5050594217
  0
LWPOLYLINE
  5
2CB
100
AcDbEntity
  8
DEFAULT_3
100
AcDbPolyline
 62
7
  6
PHANTOM
 90
19
 70
0
 10
74.8732234426
 20
31.4053223112
 10
74.8665506368
 20
31.390253542
 10
74.8598559683
 20
31.3749745938
 10
74.8531459855
 20
31.3595027671
 10
74.8464272364
 20
31.3438553627
 10
74.8397062693
 20
31.3280496813
 10
74.8329896323
 20
31.3121030235
 10
74.8262838735
 20
31.29603269
 10
74.8195955413
 20
31.2798559814
 10
74.8129311836
 20
31.2635901985
 10
74.8062973488
 20
31.2472526419
 10
74.7997005849
 20
31.2308606122
 10
74.7931474402
 20
31.2144314102
 10
74.7866444628
 20
31.1979823365
 10
74.7801982009
 20
31.1815306917
 10
74.7738152027
 20
31.1650937766
 10
74.7675020163
 20
31.1486888918
 10
74.76126519
 20
31.132333338
 10
74.7551112718
 20
31.1160444159
  0
LINE
  5
2CC
100
AcDbEntity
  8
DEFAULT_3
100
AcDbLine
 62
7
  6
PHANTOM
 10
77.3511461642
 20
36.9708278668
 11
74.9749076034
 21
31.6337086756
  0
LINE
  5
2CD
100
AcDbEntity
  8
0
100
AcDbLine
 62
7
  6
CONTINUOUS
 10
70.8311093994
 20
22.0192613588
 11
76.7340485842
 21
35.277479842
  0
LINE
  5
2CE
100
AcDbEntity
  8
0
100
AcDbLine
 62
7
  6
CONTINUOUS
 10
73.4997810642
 20
28.0131960514
 11
73.502733051
 21
28.0198268708
  0
LINE
  5
2CF
100
AcDbEntity
  8
0
100
AcDbLine
 62
7
  6
CONTINUOUS
 10
75.0764107894
 20
31.5543609261
 11
75.0806356548
 21
31.5638526215
  0
LINE
  5
2D0
100
AcDbEntity
  8
0
100
AcDbLine
 62
7
  6
CONTINUOUS
 10
70.4469065435
 20
20.5958686464
 11
70.5136881981
 21
20.7418337951
  0
LINE
  5
2D1
100
AcDbEntity
  8
6_SURFACES-PATINS-SPEC
100
AcDbLine
 62
7
  6
CONTINUOUS
 10
32.3121932383
 20
16.4057791729
 11
32.349363162
 21
16.4793211559
  0
LINE
  5
2D2
100
AcDbEntity
  8
6_SURFACES-PATINS-SPEC
100
AcDbLine
 62
7
  6
CONTINUOUS
 10
66.9739101311
 20
16.4057791728
 11
67.0110800548
 21
16.4793211558
  0
LINE
  5
2D3
100
AcDbEntity
  8
0
100
AcDbLine
 62
7
  6
CONTINUOUS
 10
70.368275763
 20
20.4493669585
 11
70.4469065435
 21
20.5958686464
  0
LINE
  5
2D4
100
AcDbEntity
  8
6_SURFACES-PATINS-SPEC
100
AcDbLine
 62
7
  6
CONTINUOUS
 10
32.268760487
 20
16.3357186498
 11
32.3121932383
 21
16.4057791729
  0
LINE
  5
2D5
100
AcDbEntity
  8
6_SURFACES-PATINS-SPEC
100
AcDbLine
 62
7
  6
CONTINUOUS
 10
66.9304773797
 20
16.3357186497
 11
66.9739101311
 21
16.4057791728
  0
LINE
  5
2D6
100
AcDbEntity
  8
0
100
AcDbLine
 62
7
  6
CONTINUOUS
 10
70.2766801198
 20
20.3026963522
 11
70.368275763
 21
20.4493669585
  0
LINE
  5
2D7
100
AcDbEntity
  8
6_SURFACES-PATINS-SPEC
100
AcDbLine
 62
7
  6
CONTINUOUS
 10
31.860889828
 20
16.0260167426
 11
31.8601635699
 21
16.0249389308
  0
LINE
  5
2D8
100
AcDbEntity
  8
0
100
AcDbLine
 62
7
  6
CONTINUOUS
 10
70.171662122
 20
20.15756357
 11
70.2766801198
 21
20.3026963522
  0
LINE
  5
2D9
100
AcDbEntity
  8
6_SURFACES-PATINS-SPEC
100
AcDbLine
 62
7
  6
CONTINUOUS
 10
31.8601635699
 20
16.0249389308
 11
31.860120122
 21
16.024879345
  0
LINE
  5
2DA
100
AcDbEntity
  8
6_SURFACES-PATINS-SPEC
100
AcDbLine
 62
7
  6
CONTINUOUS
 10
32.2193285791
 20
16.2697200009
 11
32.268760487
 21
16.3357186498
  0
LINE
  5
2DB
100
AcDbEntity
  8
6_SURFACES-PATINS-SPEC
100
AcDbLine
 62
7
  6
CONTINUOUS
 10
66.8810454718
 20
16.2697200007
 11
66.9304773797
 21
16.3357186497
  0
LINE
  5
2DC
100
AcDbEntity
  8
6_SURFACES-PATINS-SPEC
100
AcDbLine
 62
7
  6
CONTINUOUS
 10
31.860120122
 20
16.024879345
 11
31.8602458306
 21
16.0250304045
  0
LINE
  5
2DD
100
AcDbEntity
  8
0
100
AcDbLine
 62
7
  6
CONTINUOUS
 10
70.0557513885
 20
20.0189093082
 11
70.171662122
 21
20.15756357
  0
LINE
  5
2DE
100
AcDbEntity
  8
6_SURFACES-PATINS-SPEC
100
AcDbLine
 62
7
  6
CONTINUOUS
 10
31.8602458306
 20
16.0250304045
 11
31.8612986028
 21
16.0262536493
  0
LINE
  5
2DF
100
AcDbEntity
  8
6_SURFACES-PATINS-SPEC
100
AcDbLine
 62
7
  6
CONTINUOUS
 10
32.1757994605
 20
16.2203488638
 11
32.2193285791
 21
16.2697200009
  0
LINE
  5
2E0
100
AcDbEntity
  8
6_SURFACES-PATINS-SPEC
100
AcDbLine
 62
7
  6
CONTINUOUS
 10
66.8375163467
 20
16.2203488568
 11
66.8810454718
 21
16.2697200007
  0
LINE
  5
2E1
100
AcDbEntity
  8
6_SURFACES-PATINS-SPEC
100
AcDbLine
 62
7
  6
CONTINUOUS
 10
32.1822942316
 20
16.227635618
 11
32.1758131399
 21
16.2203633602
  0
LINE
  5
2E2
100
AcDbEntity
  8
6_SURFACES-PATINS-SPEC
100
AcDbLine
 62
7
  6
CONTINUOUS
 10
66.8375301388
 20
16.220363473
 11
66.8440007267
 21
16.2276230353
  0
LINE
  5
2E3
100
AcDbEntity
  8
6_SURFACES-PATINS-SPEC
100
AcDbLine
 62
7
  6
CONTINUOUS
 10
31.8612986028
 20
16.0262536493
 11
31.8632680566
 21
16.0283830441
  0
LINE
  5
2E4
100
AcDbEntity
  8
6_SURFACES-PATINS-SPEC
100
AcDbLine
 62
7
  6
CONTINUOUS
 10
66.8375162868
 20
16.2203487935
 11
66.8375300133
 21
16.2203633013
  0
LINE
  5
2E5
100
AcDbEntity
  8
0
100
AcDbLine
 62
7
  6
CONTINUOUS
 10
69.9330543018
 20
19.8912278857
 11
70.0557513885
 21
20.0189093082
  0
LINE
  5
2E6
100
AcDbEntity
  8
6_SURFACES-PATINS-SPEC
100
AcDbLine
 62
7
  6
CONTINUOUS
 10
66.8322143457
 20
16.2148994282
 11
66.8375275529
 21
16.2203607322
  0
LINE
  5
2E7
100
AcDbEntity
  8
DEFAULT_3
100
AcDbLine
 62
7
  6
PHANTOM
 10
47.8087253527
 20
17.2112051947
 11
47.4482233047
 21
16.8507031467
  0
LINE
  5
2E8
100
AcDbEntity
  8
0
100
AcDbLine
 62
7
  6
CONTINUOUS
 10
47.5366116523
 20
16.7623147991
 11
47.8971137036
 21
17.1228168504
  0
LINE
  5
2E9
100
AcDbEntity
  8
6_SURFACES-PATINS-SPEC
100
AcDbLine
 62
7
  6
CONTINUOUS
 10
66.8214184977
 20
16.2045137237
 11
66.8322143457
 21
16.2148994282
  0
LINE
  5
2EA
100
AcDbEntity
  8
0
100
AcDbLine
 62
7
  6
CONTINUOUS
 10
69.8083859204
 20
19.7777694257
 11
69.9330543018
 21
19.8912278857
  0
LINE
  5
2EB
100
AcDbEntity
  8
6_SURFACES-PATINS-SPEC
100
AcDbLine
 62
7
  6
CONTINUOUS
 10
66.8084583261
 20
16.1928594318
 11
66.8214184977
 21
16.2045137237
  0
LINE
  5
2EC
100
AcDbEntity
  8
6_SURFACES-PATINS-SPEC
100
AcDbLine
 62
7
  6
CONTINUOUS
 10
66.7929792284
 20
16.1796854263
 11
66.8084583261
 21
16.1928594318
  0
LINE
  5
2ED
100
AcDbEntity
  8
0
100
AcDbLine
 62
7
  6
CONTINUOUS
 10
53.6733266122
 20
18.8438466511
 11
53.6969557135
 21
18.8633799171
  0
LINE
  5
2EE
100
AcDbEntity
  8
6_SURFACES-PATINS-SPEC
100
AcDbLine
 62
7
  6
CONTINUOUS
 10
66.7747882751
 20
16.1649149003
 11
66.7929792284
 21
16.1796854263
  0
LINE
  5
2EF
100
AcDbEntity
  8
0
100
AcDbLine
 62
7
  6
CONTINUOUS
 10
69.6854433994
 20
19.6793489883
 11
69.8083859204
 21
19.7777694257
  0
LINE
  5
2F0
100
AcDbEntity
  8
6_SURFACES-PATINS-SPEC
100
AcDbLine
 62
7
  6
CONTINUOUS
 10
66.7541412223
 20
16.1488325103
 11
66.7747882751
 21
16.1649149003
  0
LINE
  5
2F1
100
AcDbEntity
  8
6_SURFACES-PATINS-SPEC
100
AcDbLine
 62
7
  6
CONTINUOUS
 10
66.7316074855
 20
16.1319284414
 11
66.7541412223
 21
16.1488325103
  0
LINE
  5
2F2
100
AcDbEntity
  8
6_SURFACES-PATINS-SPEC
100
AcDbLine
 62
7
  6
CONTINUOUS
 10
66.7079594195
 20
16.11479668
 11
66.7316074855
 21
16.1319284414
  0
LINE
  5
2F3
100
AcDbEntity
  8
0
100
AcDbLine
 62
7
  6
CONTINUOUS
 10
69.5660015805
 20
19.5947365029
 11
69.6854433994
 21
19.6793489883
  0
LINE
  5
2F4
100
AcDbEntity
  8
6_SURFACES-PATINS-SPEC
100
AcDbLine
 62
7
  6
CONTINUOUS
 10
66.6839530518
 20
16.0979749329
 11
66.7079594195
 21
16.11479668
  0
LINE
  5
2F5
100
AcDbEntity
  8
6_SURFACES-PATINS-SPEC
100
AcDbLine
 62
7
  6
CONTINUOUS
 10
66.6599624605
 20
16.081712371
 11
66.6839530518
 21
16.0979749329
  0
LINE
  5
2F6
100
AcDbEntity
  8
6_SURFACES-PATINS-SPEC
100
AcDbLine
 62
7
  6
CONTINUOUS
 10
66.6362712737
 20
16.0661949475
 11
66.6599624605
 21
16.081712371
  0
LINE
  5
2F7
100
AcDbEntity
  8
0
100
AcDbLine
 62
7
  6
CONTINUOUS
 10
53.6969557135
 20
18.8633799171
 11
53.7227843838
 21
18.8798794784
  0
LINE
  5
2F8
100
AcDbEntity
  8
6_SURFACES-PATINS-SPEC
100
AcDbLine
 62
7
  6
CONTINUOUS
 10
66.6131438143
 20
16.0515919307
 11
66.6362712737
 21
16.0661949475
  0
LINE
  5
2F9
100
AcDbEntity
  8
0
100
AcDbLine
 62
7
  6
CONTINUOUS
 10
69.4514418214
 20
19.5226222829
 11
69.5660015805
 21
19.5947365029
  0
LINE
  5
2FA
100
AcDbEntity
  8
6_SURFACES-PATINS-SPEC
100
AcDbLine
 62
7
  6
CONTINUOUS
 10
66.5909525007
 20
16.038140598
 11
66.6131438143
 21
16.0515919307
  0
LINE
  5
2FB
100
AcDbEntity
  8
6_SURFACES-PATINS-SPEC
100
AcDbLine
 62
7
  6
CONTINUOUS
 10
66.5703516647
 20
16.0262304173
 11
66.5909525007
 21
16.038140598
  0
LINE
  5
2FC
100
AcDbEntity
  8
0
100
AcDbLine
 62
7
  6
CONTINUOUS
 10
69.369171401
 20
19.4758306313
 11
69.4514418214
 21
19.5226222829
  0
LINE
  5
2FD
100
AcDbEntity
  8
6_SURFACES-PATINS-SPEC
100
AcDbLine
 62
7
  6
CONTINUOUS
 10
66.5518683575
 20
16.0161328272
 11
66.5703516647
 21
16.0262304173
  0
LINE
  5
2FE
100
AcDbEntity
  8
6_SURFACES-PATINS-SPEC
100
AcDbLine
 62
7
  6
CONTINUOUS
 10
66.5357703348
 20
16.0079321667
 11
66.5518683575
 21
16.0161328272
  0
LWPOLYLINE
  5
2FF
100
AcDbEntity
  8
6_SURFACES-PATINS-SPEC
100
AcDbPolyline
 62
7
  6
CONTINUOUS
 90
27
 70
0
 10
66.5250500397
 20
16.0029100046
 10
66.5332263169
 20
16.0067741899
 10
66.5413198344
 20
16.0108117628
 10
66.5493424889
 20
16.0149922655
 10
66.5573061772
 20
16.0192852397
 10
66.570681625
 20
16.0267443147
 10
66.5839380342
 20
16.0344083992
 10
66.5970912977
 20
16.0422473987
 10
66.6120916016
 20
16.0514342467
 10
66.6269840244
 20
16.0607959604
 10
66.641775826
 20
16.0703162967
 10
66.6574067039
 20
16.0806014548
 10
66.6729339405
 20
16.0910420061
 10
66.6883595322
 20
16.1016322423
 10
66.7035895151
 20
16.1123009189
 10
66.7187162764
 20
16.1231153613
 10
66.7337350096
 20
16.1340791405
 10
66.7475677338
 20
16.1443902686
 10
66.761290921
 20
16.1548468712
 10
66.774892172
 20
16.165462787
 10
66.7864404439
 20
16.1747034971
 10
66.797859118
 20
16.184102805
 10
66.8091172982
 20
16.193692087
 10
66.8160612472
 20
16.1998032764
 10
66.8229070791
 20
16.2060245743
 10
66.8285989854
 20
16.2113920222
 10
66.8341674876
 20
16.2168862314
  0
LINE
  5
300
100
AcDbEntity
  8
6_SURFACES-PATINS-SPEC
100
AcDbLine
 62
7
  6
CONTINUOUS
 10
66.5219145152
 20
16.0014803877
 11
66.5357703348
 21
16.0079321667
  0
LINE
  5
301
100
AcDbEntity
  8
6_SURFACES-PATINS-SPEC
100
AcDbLine
 62
7
  6
CONTINUOUS
 10
66.5162478739
 20
15.9990566381
 11
66.5219145152
 21
16.0014803877
  0
LINE
  5
302
100
AcDbEntity
  8
6_SURFACES-PATINS-SPEC
100
AcDbLine
 62
7
  6
CONTINUOUS
 10
66.4819747053
 20
15.9856250519
 11
66.5162583781
 21
15.9990609718
  0
LWPOLYLINE
  5
303
100
AcDbEntity
  8
0
100
AcDbPolyline
 62
7
  6
CONTINUOUS
 90
17
 70
0
 10
19.1590560567
 20
27.6560389493
 10
20.7563311069
 20
27.8918733663
 10
22.355840894
 20
28.112460818
 10
23.9573968044
 20
28.3179272425
 10
25.5608102251
 20
28.508398578
 10
27.1837629089
 20
28.6858648623
 10
28.8082790829
 20
28.8482238845
 10
30.4342160082
 20
28.9955701456
 10
32.0614309461
 20
29.1279981466
 10
33.7022167586
 20
29.2464367664
 10
35.3440205695
 20
29.3498817379
 10
36.9867077052
 20
29.4383903444
 10
38.6301434921
 20
29.5120198693
 10
40.2812430573
 20
29.5710419915
 10
41.9328032255
 20
29.6151367605
 10
43.5846653432
 20
29.6443260547
 10
45.2366707571
 20
29.6586317523
  0
LWPOLYLINE
  5
304
100
AcDbEntity
  8
0
100
AcDbPolyline
 62
7
  6
CONTINUOUS
 90
13
 70
0
 10
20.0087419984
 20
27.8356739826
 10
21.5005881847
 20
28.0429238952
 10
22.9941940628
 20
28.2373058514
 10
24.4894153149
 20
28.4189113358
 10
25.9884834539
 20
28.5880870899
 10
27.4889164549
 20
28.7446169092
 10
28.9906034634
 20
28.8885800353
 10
30.4949017338
 20
29.0201751016
 10
32.0002408554
 20
29.1393208206
 10
33.5065162941
 20
29.2460796795
 10
35.0144731344
 20
29.3405609673
 10
36.5231426935
 20
29.4227478945
 10
38.0324049661
 20
29.4926844115
  0
LWPOLYLINE
  5
305
100
AcDbEntity
  8
0
100
AcDbPolyline
 62
7
  6
CONTINUOUS
 90
49
 70
0
 10
46.0
 20
32.6241643051
 10
46.038533837
 20
32.6247889964
 10
46.0770548842
 20
32.6266605505
 10
46.115515623
 20
32.6297751882
 10
46.1538685352
 20
32.6341291299
 10
46.1920661023
 20
32.6397185964
 10
46.230060806
 20
32.6465398081
 10
46.2677918716
 20
32.654584282
 10
46.3052359046
 20
32.6638445078
 10
46.342356054
 20
32.6743092529
 10
46.3791154688
 20
32.6859672843
 10
46.415477298
 20
32.6988073694
 10
46.4514046909
 20
32.7128182753
 10
46.4868345446
 20
32.727975822
 10
46.5217571982
 20
32.7442728476
 10
46.556136036
 20
32.7616909729
 10
46.5899344421
 20
32.7802118188
 10
46.6231158006
 20
32.7998170064
 10
46.6556434957
 20
32.8204881566
 10
46.6874509193
 20
32.8421840392
 10
46.7185375347
 20
32.8649004063
 10
46.7488714644
 20
32.8886122052
 10
46.7784208309
 20
32.9132943832
 10
46.8071537568
 20
32.9389218878
 10
46.8350383645
 20
32.9654696662
 10
46.8620153835
 20
32.9928820586
 10
46.888087387
 20
33.0211570675
 10
46.9132276841
 20
33.0502639913
 10
46.9374095836
 20
33.0801721286
 10
46.9606063945
 20
33.1108507777
 10
46.9827914257
 20
33.1422692371
 10
47.0039186471
 20
33.1743637286
 10
47.0239893235
 20
33.2071297996
 10
47.042983325
 20
33.2405313246
 10
47.0608805214
 20
33.2745321781
 10
47.0776607827
 20
33.3090962346
 10
47.0933039789
 20
33.3441873687
 10
47.1077805464
 20
33.3797418113
 10
47.1210890232
 20
33.4157494758
 10
47.1332167381
 20
33.4521733853
 10
47.1441510202
 20
33.4889765627
 10
47.1538791984
 20
33.5261220312
 10
47.1623886014
 20
33.5635728138
 10
47.169665037
 20
33.6012738505
 10
47.1757063996
 20
33.6391947644
 10
47.1805080085
 20
33.677287325
 10
47.1840651828
 20
33.7155033021
 10
47.1863732417
 20
33.7537944651
 10
47.1874275042
 20
33.7921125839
  0
LINE
  5
306
100
AcDbEntity
  8
0
100
AcDbLine
 62
7
  6
CONTINUOUS
 10
10.0
 20
35.277479842
 11
82.0
 21
35.277479842
  0
LINE
  5
307
100
AcDbEntity
  8
0
100
AcDbLine
 62
7
  6
CONTINUOUS
 10
41.0
 20
38.777479842
 11
51.0
 21
38.777479842
  0
LWPOLYLINE
  5
308
100
AcDbEntity
  8
0
100
AcDbPolyline
 62
7
  6
CONTINUOUS
 90
49
 70
0
 10
46.0
 20
32.6110982472
 10
45.9611940119
 20
32.6117318361
 10
45.9224010876
 20
32.613630011
 10
45.8836697602
 20
32.6167888839
 10
45.8450485624
 20
32.621204567
 10
45.8065860274
 20
32.6268731723
 10
45.7683306878
 20
32.633790812
 10
45.7303445994
 20
32.6419487624
 10
45.6926516504
 20
32.651339298
 10
45.6552894589
 20
32.6619508659
 10
45.6182956429
 20
32.6737719132
 10
45.5817078205
 20
32.6867908871
 10
45.5455636097
 20
32.7009962347
 10
45.5099273576
 20
32.7163631102
 10
45.4748089467
 20
32.7328841338
 10
45.4402457155
 20
32.7505404081
 10
45.4062750028
 20
32.7693130354
 10
45.372934147
 20
32.7891831182
 10
45.3402604867
 20
32.8101317589
 10
45.3083217737
 20
32.8321166584
 10
45.2771186442
 20
32.8551333787
 10
45.2466835382
 20
32.8791561718
 10
45.2170488958
 20
32.90415929
 10
45.1882471571
 20
32.9301169855
 10
45.1603107622
 20
32.9570035105
 10
45.1332997418
 20
32.9847619007
 10
45.1072116516
 20
33.0133899063
 10
45.0820735601
 20
33.0428559943
 10
45.0579125358
 20
33.0731286321
 10
45.0347556472
 20
33.1041762866
 10
45.0126299628
 20
33.1359674252
 10
44.991581793
 20
33.1684370006
 10
44.9716100745
 20
33.2015800544
 10
44.952735084
 20
33.2353595254
 10
44.9349770983
 20
33.2697383524
 10
44.9183563942
 20
33.3046794739
 10
44.9028932482
 20
33.3401458288
 10
44.8886170739
 20
33.3760726883
 10
44.8755295361
 20
33.4124490867
 10
44.8636432269
 20
33.4492371331
 10
44.8529707384
 20
33.4863989365
 10
44.8435246626
 20
33.5238966058
 10
44.8353175918
 20
33.56169225
 10
44.8283633393
 20
33.5997303413
 10
44.8226639223
 20
33.6379789891
 10
44.8182236103
 20
33.6763888802
 10
44.8150466729
 20
33.7149107015
 10
44.8131373796
 20
33.7534951399
 10
44.8125
 20
33.7920928821
  0
LWPOLYLINE
  5
309
100
AcDbEntity
  8
0
100
AcDbPolyline
 62
7
  6
CONTINUOUS
 90
49
 70
0
 10
46.0
 20
34.9730877487
 10
46.038806001
 20
34.9724541592
 10
46.077598938
 20
34.9705559825
 10
46.1163302782
 20
34.9673971066
 10
46.1549514885
 20
34.9629814194
 10
46.1934140358
 20
34.9573128087
 10
46.2316693874
 20
34.9503951626
 10
46.2696554799
 20
34.9422372065
 10
46.3073484326
 20
34.9328466646
 10
46.3447106276
 20
34.92223509
 10
46.3817044468
 20
34.9104140355
 10
46.418292272
 20
34.8973950541
 10
46.4544364853
 20
34.8831896988
 10
46.490072728
 20
34.8678228205
 10
46.5251911295
 20
34.8513017947
 10
46.5597543514
 20
34.8336455189
 10
46.5937250549
 20
34.8148728906
 10
46.6270659017
 20
34.7950028075
 10
46.6597395532
 20
34.7740541672
 10
46.6916782467
 20
34.7520692765
 10
46.7228813575
 20
34.7290525665
 10
46.7533164457
 20
34.7050297849
 10
46.7829510712
 20
34.6800266793
 10
46.811752794
 20
34.6540689977
 10
46.8396891739
 20
34.6271824877
 10
46.8667001741
 20
34.5994241202
 10
46.8927882457
 20
34.5707961388
 10
46.9179263202
 20
34.5413300763
 10
46.9420873294
 20
34.5110574653
 10
46.9652442048
 20
34.4800098389
 10
46.987369878
 20
34.4482187296
 10
47.0084180375
 20
34.4157491868
 10
47.028389748
 20
34.3826061666
 10
47.0472647326
 20
34.3488267302
 10
47.0650227147
 20
34.3144479386
 10
47.0816434176
 20
34.2795068529
 10
47.0971065645
 20
34.2440405343
 10
47.1113827613
 20
34.2081136605
 10
47.1244703204
 20
34.1717372467
 10
47.1363566496
 20
34.1349491839
 10
47.1470291567
 20
34.0977873633
 10
47.1564752496
 20
34.060289676
 10
47.1646823361
 20
34.0224940129
 10
47.1716366116
 20
33.9844558487
 10
47.1773360467
 20
33.9462071269
 10
47.1817763723
 20
33.9077971609
 10
47.1849533192
 20
33.8692752642
 10
47.1868626182
 20
33.8306907501
 10
47.1875
 20
33.7920929322
  0
LINE
  5
30A
100
AcDbEntity
  8
6_SURFACES-PATINS-SPEC
100
AcDbLine
 62
7
  6
CONTINUOUS
 10
23.818569888
 20
19.0366512092
 11
33.4906750524
 21
18.8678233718
  0
LINE
  5
30B
100
AcDbEntity
  8
6_SURFACES-PATINS-SPEC
100
AcDbLine
 62
7
  6
CONTINUOUS
 10
23.819115408
 20
19.0678964976
 11
33.4912204268
 21
18.8990686123
  0
LINE
  5
30C
100
AcDbEntity
  8
0
100
AcDbLine
 62
7
  6
CONTINUOUS
 10
22.8526010825
 20
19.1785306948
 11
38.1602183585
 21
18.9113352413
  0
LINE
  5
30D
100
AcDbEntity
  8
DEFAULT_3
100
AcDbLine
 62
7
  6
PHANTOM
 10
38.1623999093
 20
19.0363162032
 11
22.8547826333
 21
19.3035116567
  0
LINE
  5
30E
100
AcDbEntity
  8
6_SURFACES-PATINS-SPEC
100
AcDbLine
 62
7
  6
CONTINUOUS
 10
23.8014925462
 20
19.0370023718
 11
23.8185700691
 21
19.0366503698
  0
LINE
  5
30F
100
AcDbEntity
  8
6_SURFACES-PATINS-SPEC
100
AcDbLine
 62
7
  6
CONTINUOUS
 10
23.8022350383
 20
19.0682435529
 11
23.8191153926
 21
19.0678956131
  0
LINE
  5
310
100
AcDbEntity
  8
6_SURFACES-PATINS-SPEC
100
AcDbLine
 62
7
  6
CONTINUOUS
 10
33.1040292368
 20
18.6217270583
 11
33.131729207
 21
18.6210931877
  0
LINE
  5
311
100
AcDbEntity
  8
6_SURFACES-PATINS-SPEC
100
AcDbLine
 62
7
  6
CONTINUOUS
 10
24.1449775672
 20
18.7903348452
 11
24.1611250383
 21
18.7898996254
  0
LINE
  5
312
100
AcDbEntity
  8
0
100
AcDbLine
 62
7
  6
CONTINUOUS
 10
39.0388844555
 20
17.4986906339
 11
44.0229940992
 21
17.1591394302
  0
LINE
  5
313
100
AcDbEntity
  8
DEFAULT_3
100
AcDbLine
 62
7
  6
PHANTOM
 10
44.0314902496
 20
17.2838503576
 11
39.047380606
 21
17.6234015613
  0
LINE
  5
314
100
AcDbEntity
  8
6_SURFACES-PATINS-SPEC
100
AcDbLine
 62
7
  6
CONTINUOUS
 10
60.3394136353
 20
15.9422022033
 11
60.4216583955
 21
15.9311918813
  0
LWPOLYLINE
  5
315
100
AcDbEntity
  8
0
100
AcDbPolyline
 62
7
  6
CONTINUOUS
 90
13
 70
0
 10
71.9912580016
 20
27.8356739826
 10
70.4994118152
 20
28.0429238952
 10
69.0058059371
 20
28.2373058514
 10
67.5105846851
 20
28.4189113358
 10
66.0115165461
 20
28.5880870899
 10
64.5110835451
 20
28.7446169092
 10
63.0093965366
 20
28.8885800353
 10
61.5050982661
 20
29.0201751016
 10
59.9997591446
 20
29.1393208206
 10
58.4934837058
 20
29.2460796795
 10
56.9855268655
 20
29.3405609673
 10
55.4768573064
 20
29.4227478945
 10
53.9675950338
 20
29.4926844115
  0
LWPOLYLINE
  5
316
100
AcDbEntity
  8
0
100
AcDbPolyline
 62
7
  6
CONTINUOUS
 90
17
 70
0
 10
72.8409439432
 20
27.6560389493
 10
71.243668893
 20
27.8918733663
 10
69.644159106
 20
28.112460818
 10
68.0426031955
 20
28.3179272425
 10
66.4391897749
 20
28.508398578
 10
64.816237091
 20
28.6858648623
 10
63.1917209171
 20
28.8482238845
 10
61.5657839918
 20
28.9955701456
 10
59.9385690539
 20
29.1279981466
 10
58.2977832413
 20
29.2464367664
 10
56.6559794304
 20
29.3498817379
 10
55.0132922947
 20
29.4383903444
 10
53.3698565078
 20
29.5120198693
 10
51.7187569427
 20
29.5710419915
 10
50.0671967745
 20
29.6151367605
 10
48.4153346567
 20
29.6443260547
 10
46.7633292428
 20
29.6586317523
  0
LINE
  5
317
100
AcDbEntity
  8
6_SURFACES-PATINS-SPEC
100
AcDbLine
 62
7
  6
CONTINUOUS
 10
59.8536450948
 20
16.223306559
 11
59.851720839
 21
16.2236900485
  0
LINE
  5
318
100
AcDbEntity
  8
6_SURFACES-PATINS-SPEC
100
AcDbLine
 62
7
  6
CONTINUOUS
 10
25.5968537176
 20
15.9603962347
 11
25.6776967431
 21
15.9422022032
  0
LINE
  5
319
100
AcDbEntity
  8
6_SURFACES-PATINS-SPEC
100
AcDbLine
 62
7
  6
CONTINUOUS
 10
60.2585706098
 20
15.9603962349
 11
60.3394136353
 21
15.9422022033
  0
LINE
  5
31A
100
AcDbEntity
  8
6_SURFACES-PATINS-SPEC
100
AcDbLine
 62
7
  6
CONTINUOUS
 10
59.851720839
 20
16.2236900485
 11
59.8512939963
 21
16.2237993925
  0
LINE
  5
31B
100
AcDbEntity
  8
6_SURFACES-PATINS-SPEC
100
AcDbLine
 62
7
  6
CONTINUOUS
 10
25.5180252946
 20
15.9856250519
 11
25.5968537176
 21
15.9603962347
  0
LINE
  5
31C
100
AcDbEntity
  8
6_SURFACES-PATINS-SPEC
100
AcDbLine
 62
7
  6
CONTINUOUS
 10
60.1797421868
 20
15.9856250521
 11
60.2585706098
 21
15.9603962349
  0
LINE
  5
31D
100
AcDbEntity
  8
6_SURFACES-PATINS-SPEC
100
AcDbLine
 62
7
  6
CONTINUOUS
 10
59.8512939963
 20
16.2237993925
 11
59.8522080762
 21
16.223495907
  0
LINE
  5
31E
100
AcDbEntity
  8
6_SURFACES-PATINS-SPEC
100
AcDbLine
 62
7
  6
CONTINUOUS
 10
59.8522080762
 20
16.223495907
 11
59.8542371572
 21
16.2227362261
  0
LWPOLYLINE
  5
31F
100
AcDbEntity
  8
6_SURFACES-PATINS-SPEC
100
AcDbPolyline
 62
7
  6
CONTINUOUS
 90
28
 70
0
 10
60.1494479844
 20
15.9974581301
 10
60.150318379
 20
15.9971228975
 10
60.1511908471
 20
15.9967921637
 10
60.1520655104
 20
15.9964666775
 10
60.1529424909
 20
15.996147188
 10
60.1538219105
 20
15.9958344442
 10
60.1547038909
 20
15.9955291949
 10
60.1555885541
 20
15.9952321892
 10
60.1564760219
 20
15.9949441761
 10
60.1573664162
 20
15.9946659044
 10
60.1582598589
 20
15.9943981232
 10
60.1591564718
 20
15.9941415815
 10
60.1600563769
 20
15.9938970282
 10
60.1606342507
 20
15.9937472146
 10
60.16121365
 20
15.993603402
 10
60.1617947016
 20
15.9934663715
 10
60.1623775318
 20
15.9933369045
 10
60.1629622673
 20
15.9932157822
 10
60.1635490347
 20
15.9931037858
 10
60.1641379605
 20
15.9930016967
 10
60.1645402031
 20
15.9929383541
 10
60.1649433868
 20
15.9928807905
 10
60.1653473938
 20
15.9928298299
 10
60.1657521059
 20
15.9927862967
 10
60.1661574053
 20
15.9927510149
 10
60.1665631739
 20
15.9927248088
 10
60.1669692938
 20
15.9927085027
 10
60.1673756468
 20
15.9927029206
  0
LINE
  5
320
100
AcDbEntity
  8
6_SURFACES-PATINS-SPEC
100
AcDbLine
 62
7
  6
CONTINUOUS
 10
25.4837416218
 20
15.9990609718
 11
25.5180252946
 21
15.9856250519
  0
LINE
  5
321
100
AcDbEntity
  8
6_SURFACES-PATINS-SPEC
100
AcDbLine
 62
7
  6
CONTINUOUS
 10
60.1454585152
 20
15.9990609716
 11
60.1797421868
 21
15.9856250521
  0
LINE
  5
322
100
AcDbEntity
  8
6_SURFACES-PATINS-SPEC
100
AcDbLine
 62
7
  6
CONTINUOUS
 10
59.8542371572
 20
16.2227362261
 11
59.857251096
 21
16.2214958206
  0
LINE
  5
323
100
AcDbEntity
  8
6_SURFACES-PATINS-SPEC
100
AcDbLine
 62
7
  6
CONTINUOUS
 10
25.4837812809
 20
15.9990445311
 11
25.4837440978
 21
15.999059945
  0
LINE
  5
324
100
AcDbEntity
  8
6_SURFACES-PATINS-SPEC
100
AcDbLine
 62
7
  6
CONTINUOUS
 10
60.1454616141
 20
15.9990596865
 11
60.1454986175
 21
15.999044347
  0
LINE
  5
325
100
AcDbEntity
  8
6_SURFACES-PATINS-SPEC
100
AcDbLine
 62
7
  6
CONTINUOUS
 10
25.4837415924
 20
15.9990609903
 11
25.4750193366
 21
16.0028782247
  0
LINE
  5
326
100
AcDbEntity
  8
6_SURFACES-PATINS-SPEC
100
AcDbLine
 62
7
  6
CONTINUOUS
 10
60.1367404121
 20
16.0028763094
 11
60.1454584862
 21
15.9990609897
  0
LINE
  5
327
100
AcDbEntity
  8
6_SURFACES-PATINS-SPEC
100
AcDbLine
 62
7
  6
CONTINUOUS
 10
25.4715545924
 20
16.0044383197
 11
25.4837796008
 21
15.9990452494
  0
LINE
  5
328
100
AcDbEntity
  8
6_SURFACES-PATINS-SPEC
100
AcDbLine
 62
7
  6
CONTINUOUS
 10
60.1332590707
 20
16.0044440924
 11
60.145496311
 21
15.9990453245
  0
LINE
  5
329
100
AcDbEntity
  8
6_SURFACES-PATINS-SPEC
100
AcDbLine
 62
7
  6
CONTINUOUS
 10
59.857251096
 20
16.2214958206
 11
59.8611197571
 21
16.2197807697
  0
LINE
  5
32A
100
AcDbEntity
  8
6_SURFACES-PATINS-SPEC
100
AcDbLine
 62
7
  6
CONTINUOUS
 10
59.8611197571
 20
16.2197807697
 11
59.8657788011
 21
16.2175878557
  0
LINE
  5
32B
100
AcDbEntity
  8
6_SURFACES-PATINS-SPEC
100
AcDbLine
 62
7
  6
CONTINUOUS
 10
25.4548090032
 20
16.0126539611
 11
25.4715545924
 21
16.0044383197
  0
LINE
  5
32C
100
AcDbEntity
  8
6_SURFACES-PATINS-SPEC
100
AcDbLine
 62
7
  6
CONTINUOUS
 10
60.1164927546
 20
16.0126709732
 11
60.1332590707
 21
16.0044440924
  0
LINE
  5
32D
100
AcDbEntity
  8
6_SURFACES-PATINS-SPEC
100
AcDbLine
 62
7
  6
CONTINUOUS
 10
59.8657788011
 20
16.2175878557
 11
59.8711827372
 21
16.2149150788
  0
LWPOLYLINE
  5
32E
100
AcDbEntity
  8
6_SURFACES-PATINS-SPEC
100
AcDbPolyline
 62
7
  6
CONTINUOUS
 90
27
 70
0
 10
25.465704071
 20
16.0073056983
 10
25.4573040366
 20
16.0115264188
 10
25.4489749741
 20
16.0158873891
 10
25.4407080194
 20
16.0203672439
 10
25.4324943084
 20
16.0249446179
 10
25.4192310788
 20
16.0325536471
 10
25.4060732428
 20
16.0403410576
 10
25.3930088085
 20
16.0482838009
 10
25.3784591559
 20
16.0573488958
 10
25.3640067523
 20
16.0665687204
 10
25.3496465066
 20
16.0759317111
 10
25.3346942517
 20
16.0858846014
 10
25.3198366072
 20
16.0959779239
 10
25.3050725974
 20
16.1062076318
 10
25.2906202466
 20
16.1164155397
 10
25.2762623393
 20
16.1267559388
 10
25.2620034025
 20
16.1372328991
 10
25.2489129105
 20
16.1470470019
 10
25.235924569
 20
16.1569954097
 10
25.2230520453
 20
16.1670921976
 10
25.2120993599
 20
16.1758973324
 10
25.2012638591
 20
16.1848470467
 10
25.190567179
 20
16.1939660423
 10
25.1844058297
 20
16.1993743158
 10
25.1783237568
 20
16.2048706576
 10
25.1723456774
 20
16.2104771765
 10
25.1664963084
 20
16.2162159815
  0
LINE
  5
32F
100
AcDbEntity
  8
6_SURFACES-PATINS-SPEC
100
AcDbLine
 62
7
  6
CONTINUOUS
 10
59.8711827372
 20
16.2149150788
 11
59.8773021501
 21
16.2117585777
  0
LINE
  5
330
100
AcDbEntity
  8
6_SURFACES-PATINS-SPEC
100
AcDbLine
 62
7
  6
CONTINUOUS
 10
25.4358639629
 20
16.0227653101
 11
25.4548090032
 21
16.0126539611
  0
LINE
  5
331
100
AcDbEntity
  8
6_SURFACES-PATINS-SPEC
100
AcDbLine
 62
7
  6
CONTINUOUS
 10
60.0975232317
 20
16.0227971301
 11
60.1164927546
 21
16.0126709732
  0
LINE
  5
332
100
AcDbEntity
  8
6_SURFACES-PATINS-SPEC
100
AcDbLine
 62
7
  6
CONTINUOUS
 10
59.8773021501
 20
16.2117585777
 11
59.8841158124
 21
16.2081140727
  0
LINE
  5
333
100
AcDbEntity
  8
6_SURFACES-PATINS-SPEC
100
AcDbLine
 62
7
  6
CONTINUOUS
 10
59.8841158124
 20
16.2081140727
 11
59.8916083355
 21
16.2039765619
  0
LINE
  5
334
100
AcDbEntity
  8
6_SURFACES-PATINS-SPEC
100
AcDbLine
 62
7
  6
CONTINUOUS
 10
59.8916083355
 20
16.2039765619
 11
59.8997659895
 21
16.1993416775
  0
LINE
  5
335
100
AcDbEntity
  8
6_SURFACES-PATINS-SPEC
100
AcDbLine
 62
7
  6
CONTINUOUS
 10
25.4149350244
 20
16.0346751057
 11
25.4358639629
 21
16.0227653101
  0
LINE
  5
336
100
AcDbEntity
  8
6_SURFACES-PATINS-SPEC
100
AcDbLine
 62
7
  6
CONTINUOUS
 10
60.0765666148
 20
16.0347249829
 11
60.0975232317
 21
16.0227971301
  0
LINE
  5
337
100
AcDbEntity
  8
0
100
AcDbLine
 62
7
  6
CONTINUOUS
 10
22.4971364118
 20
19.5539540765
 11
22.6374936702
 21
19.4722128761
  0
LINE
  5
338
100
AcDbEntity
  8
6_SURFACES-PATINS-SPEC
100
AcDbLine
 62
7
  6
CONTINUOUS
 10
59.8997659895
 20
16.1993416775
 11
59.9085832505
 21
16.1942013152
  0
LINE
  5
339
100
AcDbEntity
  8
6_SURFACES-PATINS-SPEC
100
AcDbLine
 62
7
  6
CONTINUOUS
 10
59.9085832505
 20
16.1942013152
 11
59.918059697
 21
16.1885445089
  0
LINE
  5
33A
100
AcDbEntity
  8
6_SURFACES-PATINS-SPEC
100
AcDbLine
 62
7
  6
CONTINUOUS
 10
25.3925817496
 20
16.0480658039
 11
25.4149350244
 21
16.0346751057
  0
LINE
  5
33B
100
AcDbEntity
  8
6_SURFACES-PATINS-SPEC
100
AcDbLine
 62
7
  6
CONTINUOUS
 10
60.0541860709
 20
16.0481347724
 11
60.0765666148
 21
16.0347249829
  0
LINE
  5
33C
100
AcDbEntity
  8
6_SURFACES-PATINS-SPEC
100
AcDbLine
 62
7
  6
CONTINUOUS
 10
59.918059697
 20
16.1885445089
 11
59.9281944375
 21
16.1823603466
  0
LINE
  5
33D
100
AcDbEntity
  8
6_SURFACES-PATINS-SPEC
100
AcDbLine
 62
7
  6
CONTINUOUS
 10
59.9281944375
 20
16.1823603466
 11
59.9389825665
 21
16.1756398331
  0
LINE
  5
33E
100
AcDbEntity
  8
6_SURFACES-PATINS-SPEC
100
AcDbLine
 62
7
  6
CONTINUOUS
 10
25.3695282429
 20
16.0624808569
 11
25.3925817496
 21
16.0480658039
  0
LINE
  5
33F
100
AcDbEntity
  8
6_SURFACES-PATINS-SPEC
100
AcDbLine
 62
7
  6
CONTINUOUS
 10
60.0311137267
 20
16.0625646358
 11
60.0541860709
 21
16.0481347724
  0
LINE
  5
340
100
AcDbEntity
  8
6_SURFACES-PATINS-SPEC
100
AcDbLine
 62
7
  6
CONTINUOUS
 10
59.9389825665
 20
16.1756398331
 11
59.9504124457
 21
16.1683776968
  0
LINE
  5
341
100
AcDbEntity
  8
6_SURFACES-PATINS-SPEC
100
AcDbLine
 62
7
  6
CONTINUOUS
 10
59.9504124457
 20
16.1683776968
 11
59.9624210977
 21
16.1606013599
  0
LINE
  5
342
100
AcDbEntity
  8
6_SURFACES-PATINS-SPEC
100
AcDbLine
 62
7
  6
CONTINUOUS
 10
25.3461971712
 20
16.0776255114
 11
25.3695282429
 21
16.0624808569
  0
LINE
  5
343
100
AcDbEntity
  8
6_SURFACES-PATINS-SPEC
100
AcDbLine
 62
7
  6
CONTINUOUS
 10
60.0077865494
 20
16.0777097464
 11
60.0311137267
 21
16.0625646358
  0
LINE
  5
344
100
AcDbEntity
  8
6_SURFACES-PATINS-SPEC
100
AcDbLine
 62
7
  6
CONTINUOUS
 10
59.9624210977
 20
16.1606013599
 11
59.9748894347
 21
16.1523769774
  0
LINE
  5
345
100
AcDbEntity
  8
6_SURFACES-PATINS-SPEC
100
AcDbLine
 62
7
  6
CONTINUOUS
 10
25.3227269282
 20
16.0933920445
 11
25.3461971712
 21
16.0776255114
  0
LINE
  5
346
100
AcDbEntity
  8
6_SURFACES-PATINS-SPEC
100
AcDbLine
 62
7
  6
CONTINUOUS
 10
59.9748894347
 20
16.1523769774
 11
59.9876824999
 21
16.1437847435
  0
LINE
  5
347
100
AcDbEntity
  8
6_SURFACES-PATINS-SPEC
100
AcDbLine
 62
7
  6
CONTINUOUS
 10
59.9843361201
 20
16.0934656022
 11
60.0077865494
 21
16.0777097464
  0
LINE
  5
348
100
AcDbEntity
  8
0
100
AcDbLine
 62
7
  6
CONTINUOUS
 10
22.3426415887
 20
19.6585317233
 11
22.4971364118
 21
19.5539540765
  0
LINE
  5
349
100
AcDbEntity
  8
6_SURFACES-PATINS-SPEC
100
AcDbLine
 62
7
  6
CONTINUOUS
 10
59.9876824999
 20
16.1437847435
 11
60.0006555473
 21
16.1349155348
  0
LINE
  5
34A
100
AcDbEntity
  8
6_SURFACES-PATINS-SPEC
100
AcDbLine
 62
7
  6
CONTINUOUS
 10
25.2992396485
 20
16.1096937883
 11
25.3227269282
 21
16.0933920445
  0
LINE
  5
34B
100
AcDbEntity
  8
6_SURFACES-PATINS-SPEC
100
AcDbLine
 62
7
  6
CONTINUOUS
 10
59.9608741779
 20
16.1097518837
 11
59.9843361201
 21
16.0934656022
  0
LINE
  5
34C
100
AcDbEntity
  8
6_SURFACES-PATINS-SPEC
100
AcDbLine
 62
7
  6
CONTINUOUS
 10
60.0006555473
 20
16.1349155348
 11
60.0136574312
 21
16.1258686569
  0
LINE
  5
34D
100
AcDbEntity
  8
6_SURFACES-PATINS-SPEC
100
AcDbLine
 62
7
  6
CONTINUOUS
 10
60.0136574312
 20
16.1258686569
 11
60.0265352971
 21
16.1167488419
  0
LINE
  5
34E
100
AcDbEntity
  8
6_SURFACES-PATINS-SPEC
100
AcDbLine
 62
7
  6
CONTINUOUS
 10
25.2758921741
 20
16.1264320081
 11
25.2992396485
 21
16.1096937883
  0
LINE
  5
34F
100
AcDbEntity
  8
6_SURFACES-PATINS-SPEC
100
AcDbLine
 62
7
  6
CONTINUOUS
 10
59.9375438683
 20
16.1264795316
 11
59.9608741779
 21
16.1097518837
  0
LINE
  5
350
100
AcDbEntity
  8
6_SURFACES-PATINS-SPEC
100
AcDbLine
 62
7
  6
CONTINUOUS
 10
60.0265352971
 20
16.1167488419
 11
60.0391390834
 21
16.1076632941
  0
LINE
  5
351
100
AcDbEntity
  8
6_SURFACES-PATINS-SPEC
100
AcDbLine
 62
7
  6
CONTINUOUS
 10
60.0391390834
 20
16.1076632941
 11
60.0513392033
 21
16.0987090934
  0
LINE
  5
352
100
AcDbEntity
  8
6_SURFACES-PATINS-SPEC
100
AcDbLine
 62
7
  6
CONTINUOUS
 10
25.2532192932
 20
16.1432430799
 11
25.2758921741
 21
16.1264320081
  0
LINE
  5
353
100
AcDbEntity
  8
6_SURFACES-PATINS-SPEC
100
AcDbLine
 62
7
  6
CONTINUOUS
 10
59.9148666358
 20
16.1432955743
 11
59.9375438683
 21
16.1264795316
  0
LINE
  5
354
100
AcDbEntity
  8
6_SURFACES-PATINS-SPEC
100
AcDbLine
 62
7
  6
CONTINUOUS
 10
60.0513392033
 20
16.0987090934
 11
60.0630272755
 21
16.0899713392
  0
LINE
  5
355
100
AcDbEntity
  8
6_SURFACES-PATINS-SPEC
100
AcDbLine
 62
7
  6
CONTINUOUS
 10
60.0630272755
 20
16.0899713392
 11
60.0741037678
 21
16.0815315193
  0
LINE
  5
356
100
AcDbEntity
  8
6_SURFACES-PATINS-SPEC
100
AcDbLine
 62
7
  6
CONTINUOUS
 10
25.2319823572
 20
16.1595703031
 11
25.2532192932
 21
16.1432430799
  0
LINE
  5
357
100
AcDbEntity
  8
6_SURFACES-PATINS-SPEC
100
AcDbLine
 62
7
  6
CONTINUOUS
 10
59.8936164011
 20
16.1596352605
 11
59.9148666358
 21
16.1432955743
  0
LINE
  5
358
100
AcDbEntity
  8
6_SURFACES-PATINS-SPEC
100
AcDbLine
 62
7
  6
CONTINUOUS
 10
60.0741037678
 20
16.0815315193
 11
60.0844790274
 21
16.0734660429
  0
LINE
  5
359
100
AcDbEntity
  8
0
100
AcDbLine
 62
7
  6
CONTINUOUS
 10
22.1981261972
 20
19.7722404945
 11
22.3426415887
 21
19.6585317233
  0
LINE
  5
35A
100
AcDbEntity
  8
6_SURFACES-PATINS-SPEC
100
AcDbLine
 62
7
  6
CONTINUOUS
 10
60.0844790274
 20
16.0734660429
 11
60.0940763841
 21
16.065843712
  0
LINE
  5
35B
100
AcDbEntity
  8
6_SURFACES-PATINS-SPEC
100
AcDbLine
 62
7
  6
CONTINUOUS
 10
25.2128085304
 20
16.1749140587
 11
25.2319823572
 21
16.1595703031
  0
LINE
  5
35C
100
AcDbEntity
  8
6_SURFACES-PATINS-SPEC
100
AcDbLine
 62
7
  6
CONTINUOUS
 10
59.874433271
 20
16.1749894634
 11
59.8936164011
 21
16.1596352605
  0
LINE
  5
35D
100
AcDbEntity
  8
6_SURFACES-PATINS-SPEC
100
AcDbLine
 62
7
  6
CONTINUOUS
 10
60.0940763841
 20
16.065843712
 11
60.1028330099
 21
16.0587260197
  0
LINE
  5
35E
100
AcDbEntity
  8
6_SURFACES-PATINS-SPEC
100
AcDbLine
 62
7
  6
CONTINUOUS
 10
60.1028330099
 20
16.0587260197
 11
60.110700586
 21
16.0521668003
  0
LINE
  5
35F
100
AcDbEntity
  8
6_SURFACES-PATINS-SPEC
100
AcDbLine
 62
7
  6
CONTINUOUS
 10
25.1961071372
 20
16.1889030048
 11
25.2128085304
 21
16.1749140587
  0
LINE
  5
360
100
AcDbEntity
  8
6_SURFACES-PATINS-SPEC
100
AcDbLine
 62
7
  6
CONTINUOUS
 10
59.8577365497
 20
16.1889782063
 11
59.874433271
 21
16.1749894634
  0
LINE
  5
361
100
AcDbEntity
  8
6_SURFACES-PATINS-SPEC
100
AcDbLine
 62
7
  6
CONTINUOUS
 10
60.110700586
 20
16.0521668003
 11
60.1176579137
 21
16.0462012183
  0
LINE
  5
362
100
AcDbEntity
  8
6_SURFACES-PATINS-SPEC
100
AcDbLine
 62
7
  6
CONTINUOUS
 10
25.1819382899
 20
16.2014254923
 11
25.1961071372
 21
16.1889030048
  0
LINE
  5
363
100
AcDbEntity
  8
6_SURFACES-PATINS-SPEC
100
AcDbLine
 62
7
  6
CONTINUOUS
 10
59.8435873154
 20
16.2014873917
 11
59.8577365497
 21
16.1889782063
  0
LINE
  5
364
100
AcDbEntity
  8
6_SURFACES-PATINS-SPEC
100
AcDbLine
 62
7
  6
CONTINUOUS
 10
60.1176579137
 20
16.0462012183
 11
60.1236982653
 21
16.0408557106
  0
LINE
  5
365
100
AcDbEntity
  8
0
100
AcDbLine
 62
7
  6
CONTINUOUS
 10
22.0632444019
 20
19.8948318162
 11
22.1981261972
 21
19.7722404945
  0
LINE
  5
366
100
AcDbEntity
  8
6_SURFACES-PATINS-SPEC
100
AcDbLine
 62
7
  6
CONTINUOUS
 10
60.1236982653
 20
16.0408557106
 11
60.1288153845
 21
16.0361607349
  0
LINE
  5
367
100
AcDbEntity
  8
6_SURFACES-PATINS-SPEC
100
AcDbLine
 62
7
  6
CONTINUOUS
 10
25.1701125494
 20
16.2125912117
 11
25.1819382899
 21
16.2014254923
  0
LINE
  5
368
100
AcDbEntity
  8
6_SURFACES-PATINS-SPEC
100
AcDbLine
 62
7
  6
CONTINUOUS
 10
59.8317860021
 20
16.2126339025
 11
59.8435873154
 21
16.2014873917
  0
LINE
  5
369
100
AcDbEntity
  8
6_SURFACES-PATINS-SPEC
100
AcDbLine
 62
7
  6
CONTINUOUS
 10
60.1288153845
 20
16.0361607349
 11
60.1329994058
 21
16.0321568104
  0
LWPOLYLINE
  5
36A
100
AcDbEntity
  8
6_SURFACES-PATINS-SPEC
100
AcDbPolyline
 62
7
  6
CONTINUOUS
 90
27
 70
0
 10
59.8281727646
 20
16.2162566759
 10
59.8340106204
 20
16.2105268396
 10
59.8399770774
 20
16.2049291244
 10
59.8460474336
 20
16.1994414441
 10
59.8521969868
 20
16.1940417126
 10
59.862874639
 20
16.1849360019
 10
59.8736909686
 20
16.1759993487
 10
59.884624346
 20
16.1672070627
 10
59.8974766146
 20
16.1571231287
 10
59.9104445683
 20
16.1471873588
 10
59.9235145358
 20
16.1373856735
 10
59.9377547578
 20
16.1269192324
 10
59.9520938111
 20
16.1165891177
 10
59.9665271412
 20
16.1063912164
 10
59.9812768645
 20
16.0961677534
 10
59.996120061
 20
16.0860803907
 10
60.0110576793
 20
16.0761331277
 10
60.0254106072
 20
16.0667707129
 10
60.0398555238
 20
16.0575511306
 10
60.0543974644
 20
16.0484858315
 10
60.0674637915
 20
16.0405369957
 10
60.080623314
 20
16.0327430529
 10
60.0938879288
 20
16.0251268752
 10
60.1021109824
 20
16.0205398985
 10
60.1103871541
 20
16.0160501022
 10
60.118725239
 20
16.0116786522
 10
60.1271340321
 20
16.0074467143
  0
LINE
  5
36B
100
AcDbEntity
  8
0
100
AcDbLine
 62
7
  6
CONTINUOUS
 10
44.4633883476
 20
16.7623147991
 11
44.1028862963
 21
17.1228168504
  0
LINE
  5
36C
100
AcDbEntity
  8
DEFAULT_3
100
AcDbLine
 62
7
  6
PHANTOM
 10
44.5517766953
 20
16.8507031467
 11
44.191274644
 21
17.211205198
  0
LINE
  5
36D
100
AcDbEntity
  8
6_SURFACES-PATINS-SPEC
100
AcDbLine
 62
7
  6
CONTINUOUS
 10
60.1329994058
 20
16.0321568104
 11
60.1362328777
 21
16.0289034904
  0
LINE
  5
36E
100
AcDbEntity
  8
6_SURFACES-PATINS-SPEC
100
AcDbLine
 62
7
  6
CONTINUOUS
 10
25.1624670747
 20
16.2203664113
 11
25.1701125494
 21
16.2125912117
  0
LINE
  5
36F
100
AcDbEntity
  8
6_SURFACES-PATINS-SPEC
100
AcDbLine
 62
7
  6
CONTINUOUS
 10
59.8241837053
 20
16.2203666868
 11
59.8317860021
 21
16.2126339025
  0
LINE
  5
370
100
AcDbEntity
  8
0
100
AcDbLine
 62
7
  6
CONTINUOUS
 10
21.9387497192
 20
20.0250577696
 11
22.0632444019
 21
19.8948318162
  0
LINE
  5
371
100
AcDbEntity
  8
0
100
AcDbLine
 62
7
  6
CONTINUOUS
 10
38.325968424
 20
18.8445040402
 11
38.3471023806
 21
18.822295082
  0
LINE
  5
372
100
AcDbEntity
  8
6_SURFACES-PATINS-SPEC
100
AcDbLine
 62
7
  6
CONTINUOUS
 10
25.1624837132
 20
16.2203487935
 11
25.1624646522
 21
16.2203689402
  0
LINE
  5
373
100
AcDbEntity
  8
6_SURFACES-PATINS-SPEC
100
AcDbLine
 62
7
  6
CONTINUOUS
 10
59.8241811814
 20
16.2203693246
 11
59.8242004541
 21
16.220348954
  0
LINE
  5
374
100
AcDbEntity
  8
6_SURFACES-PATINS-SPEC
100
AcDbLine
 62
7
  6
CONTINUOUS
 10
60.1362328777
 20
16.0289034904
 11
60.1384826534
 21
16.0264978752
  0
LINE
  5
375
100
AcDbEntity
  8
6_SURFACES-PATINS-SPEC
100
AcDbLine
 62
7
  6
CONTINUOUS
 10
25.1624645268
 20
16.2203691118
 11
25.1559992732
 21
16.2276230353
  0
LINE
  5
376
100
AcDbEntity
  8
6_SURFACES-PATINS-SPEC
100
AcDbLine
 62
7
  6
CONTINUOUS
 10
59.8177057683
 20
16.227635618
 11
59.824181206
 21
16.220369337
  0
LINE
  5
377
100
AcDbEntity
  8
6_SURFACES-PATINS-SPEC
100
AcDbLine
 62
7
  6
CONTINUOUS
 10
25.1189545281
 20
16.2697200007
 11
25.1624836532
 21
16.2203488568
  0
LINE
  5
378
100
AcDbEntity
  8
6_SURFACES-PATINS-SPEC
100
AcDbLine
 62
7
  6
CONTINUOUS
 10
59.7806714208
 20
16.2697200009
 11
59.8242005395
 21
16.2203488638
  0
LINE
  5
379
100
AcDbEntity
  8
6_SURFACES-PATINS-SPEC
100
AcDbLine
 62
7
  6
CONTINUOUS
 10
60.1384826534
 20
16.0264978752
 11
60.1397048821
 21
16.0250903711
  0
LINE
  5
37A
100
AcDbEntity
  8
0
100
AcDbLine
 62
7
  6
CONTINUOUS
 10
21.8252269842
 20
20.1615700178
 11
21.9387497192
 21
20.0250577696
  0
LINE
  5
37B
100
AcDbEntity
  8
6_SURFACES-PATINS-SPEC
100
AcDbLine
 62
7
  6
CONTINUOUS
 10
60.1397837632
 20
16.0249941727
 11
60.1398876452
 21
16.0248687865
  0
LINE
  5
37C
100
AcDbEntity
  8
6_SURFACES-PATINS-SPEC
100
AcDbLine
 62
7
  6
CONTINUOUS
 10
60.1397048821
 20
16.0250903711
 11
60.1397837632
 21
16.0249941727
  0
LINE
  5
37D
100
AcDbEntity
  8
6_SURFACES-PATINS-SPEC
100
AcDbLine
 62
7
  6
CONTINUOUS
 10
25.0695226202
 20
16.3357186497
 11
25.1189545281
 21
16.2697200007
  0
LINE
  5
37E
100
AcDbEntity
  8
6_SURFACES-PATINS-SPEC
100
AcDbLine
 62
7
  6
CONTINUOUS
 10
59.731239513
 20
16.3357186498
 11
59.7806714208
 21
16.2697200009
  0
LINE
  5
37F
100
AcDbEntity
  8
0
100
AcDbLine
 62
7
  6
CONTINUOUS
 10
38.3471023806
 20
18.822295082
 11
38.3653634632
 21
18.7976802892
  0
LINE
  5
380
100
AcDbEntity
  8
0
100
AcDbLine
 62
7
  6
CONTINUOUS
 10
21.7231217649
 20
20.302991226
 11
21.8252269842
 21
20.1615700178
  0
LINE
  5
381
100
AcDbEntity
  8
6_SURFACES-PATINS-SPEC
100
AcDbLine
 62
7
  6
CONTINUOUS
 10
60.1398876452
 20
16.0248687865
 11
60.1390821398
 21
16.026060852
  0
LINE
  5
382
100
AcDbEntity
  8
0
100
AcDbLine
 62
7
  6
CONTINUOUS
 10
21.6326239904
 20
20.4478141556
 11
21.7231217649
 21
20.302991226
  0
LINE
  5
383
100
AcDbEntity
  8
6_SURFACES-PATINS-SPEC
100
AcDbLine
 62
7
  6
CONTINUOUS
 10
25.0260898688
 20
16.4057791728
 11
25.0695226202
 21
16.3357186497
  0
LINE
  5
384
100
AcDbEntity
  8
6_SURFACES-PATINS-SPEC
100
AcDbLine
 62
7
  6
CONTINUOUS
 10
59.6878067616
 20
16.4057791729
 11
59.731239513
 21
16.3357186498
  0
LINE
  5
385
100
AcDbEntity
  8
6_SURFACES-PATINS-SPEC
100
AcDbLine
 62
7
  6
CONTINUOUS
 10
60.1390821398
 20
16.026060852
 11
60.1374693767
 21
16.0288834543
  0
LINE
  5
386
100
AcDbEntity
  8
0
100
AcDbLine
 62
7
  6
CONTINUOUS
 10
38.3653634632
 20
18.7976802892
 11
38.3804813408
 21
18.7710311122
  0
LINE
  5
387
100
AcDbEntity
  8
0
100
AcDbLine
 62
7
  6
CONTINUOUS
 10
21.5536956252
 20
20.5946549197
 11
21.6326239904
 21
20.4478141556
  0
LINE
  5
388
100
AcDbEntity
  8
6_SURFACES-PATINS-SPEC
100
AcDbLine
 62
7
  6
CONTINUOUS
 10
24.9889199451
 20
16.4793211558
 11
25.0260898688
 21
16.4057791728
  0
LINE
  5
389
100
AcDbEntity
  8
6_SURFACES-PATINS-SPEC
100
AcDbLine
 62
7
  6
CONTINUOUS
 10
59.650636838
 20
16.4793211559
 11
59.6878067616
 21
16.4057791729
  0
LINE
  5
38A
100
AcDbEntity
  8
0
100
AcDbLine
 62
7
  6
CONTINUOUS
 10
21.4861487543
 20
20.7422217203
 11
21.5536956252
 21
20.5946549197
  0
LINE
  5
38B
100
AcDbEntity
  8
6_SURFACES-PATINS-SPEC
100
AcDbLine
 62
7
  6
CONTINUOUS
 10
60.1374693767
 20
16.0288834543
 11
60.1354258002
 21
16.0334103027
  0
LINE
  5
38C
100
AcDbEntity
  8
0
100
AcDbLine
 62
7
  6
CONTINUOUS
 10
21.1688906006
 20
22.0192613588
 11
15.2659514157
 21
35.277479842
  0
LINE
  5
38D
100
AcDbEntity
  8
DEFAULT_3
100
AcDbLine
 62
7
  6
PHANTOM
 10
17.1267765573
 20
31.4053223112
 11
14.6488538357
 21
36.9708278668
  0
LINE
  5
38E
100
AcDbEntity
  8
0
100
AcDbLine
 62
7
  6
CONTINUOUS
 10
16.9424428196
 20
31.5119595373
 11
16.9611763152
 21
31.4696921221
  0
LINE
  5
38F
100
AcDbEntity
  8
0
100
AcDbLine
 62
7
  6
CONTINUOUS
 10
16.9611763152
 20
31.4696921221
 11
16.9842244729
 21
31.4173719026
  0
LINE
  5
390
100
AcDbEntity
  8
0
100
AcDbLine
 62
7
  6
CONTINUOUS
 10
16.9842244729
 20
31.4173719026
 11
16.9971780595
 21
31.3877557614
  0
LINE
  5
391
100
AcDbEntity
  8
0
100
AcDbLine
 62
7
  6
CONTINUOUS
 10
16.9971780595
 20
31.3877557614
 11
17.0117816568
 21
31.3541345766
  0
LINE
  5
392
100
AcDbEntity
  8
0
100
AcDbLine
 62
7
  6
CONTINUOUS
 10
17.0117816568
 20
31.3541345766
 11
17.025603482
 21
31.3220759143
  0
LINE
  5
393
100
AcDbEntity
  8
0
100
AcDbLine
 62
7
  6
CONTINUOUS
 10
17.025603482
 20
31.3220759143
 11
17.0408978055
 21
31.2862718132
  0
LINE
  5
394
100
AcDbEntity
  8
0
100
AcDbLine
 62
7
  6
CONTINUOUS
 10
17.0408978055
 20
31.2862718132
 11
17.0568897145
 21
31.2484293531
  0
LINE
  5
395
100
AcDbEntity
  8
0
100
AcDbLine
 62
7
  6
CONTINUOUS
 10
17.0568897145
 20
31.2484293531
 11
17.0736289883
 21
31.2083240853
  0
LINE
  5
396
100
AcDbEntity
  8
0
100
AcDbLine
 62
7
  6
CONTINUOUS
 10
38.3804813408
 20
18.7710311122
 11
38.3922069916
 21
18.7427352941
  0
LINE
  5
397
100
AcDbEntity
  8
0
100
AcDbLine
 62
7
  6
CONTINUOUS
 10
17.0736289883
 20
31.2083240853
 11
17.0862376536
 21
31.1777157548
  0
LINE
  5
398
100
AcDbEntity
  8
6_SURFACES-PATINS-SPEC
100
AcDbLine
 62
7
  6
CONTINUOUS
 10
24.9624139797
 20
16.5443359576
 11
24.9889199451
 21
16.4793211558
  0
LINE
  5
399
100
AcDbEntity
  8
6_SURFACES-PATINS-SPEC
100
AcDbLine
 62
7
  6
CONTINUOUS
 10
59.6241308725
 20
16.5443359576
 11
59.650636838
 21
16.4793211559
  0
LINE
  5
39A
100
AcDbEntity
  8
0
100
AcDbLine
 62
7
  6
CONTINUOUS
 10
17.0862376536
 20
31.1777157548
 11
17.093840624
 21
31.158927176
  0
LINE
  5
39B
100
AcDbEntity
  8
0
100
AcDbLine
 62
7
  6
CONTINUOUS
 10
17.093840624
 20
31.158927176
 11
17.1024468184
 21
31.1373363074
  0
LINE
  5
39C
100
AcDbEntity
  8
0
100
AcDbLine
 62
7
  6
CONTINUOUS
 10
17.1024468184
 20
31.1373363074
 11
17.1119523616
 21
31.1131133278
  0
LINE
  5
39D
100
AcDbEntity
  8
0
100
AcDbLine
 62
7
  6
CONTINUOUS
 10
17.1119523616
 20
31.1131133278
 11
17.1222517834
 21
31.0864357467
  0
LINE
  5
39E
100
AcDbEntity
  8
0
100
AcDbLine
 62
7
  6
CONTINUOUS
 10
21.42945095
 20
20.8895866218
 11
21.4861487543
 21
20.7422217203
  0
LINE
  5
39F
100
AcDbEntity
  8
0
100
AcDbLine
 62
7
  6
CONTINUOUS
 10
17.1222517834
 20
31.0864357467
 11
17.1332584763
 21
31.0574353185
  0
LINE
  5
3A0
100
AcDbEntity
  8
0
100
AcDbLine
 62
7
  6
CONTINUOUS
 10
17.122215552
 20
31.0865303727
 11
17.1332189898
 21
31.0575402636
  0
LWPOLYLINE
  5
3A1
100
AcDbEntity
  8
DEFAULT_3
100
AcDbPolyline
 62
7
  6
PHANTOM
 90
19
 70
0
 10
17.2448887281
 20
31.1160444159
 10
17.2387348099
 20
31.132333338
 10
17.2324979836
 20
31.1486888918
 10
17.2261847972
 20
31.1650937766
 10
17.219801799
 20
31.1815306917
 10
17.2133555371
 20
31.1979823365
 10
17.2068525597
 20
31.2144314102
 10
17.200299415
 20
31.2308606122
 10
17.1937026511
 20
31.2472526419
 10
17.1870688163
 20
31.2635901985
 10
17.1804044586
 20
31.2798559814
 10
17.1737161264
 20
31.29603269
 10
17.1670103676
 20
31.3121030235
 10
17.1602937306
 20
31.3280496813
 10
17.1535727635
 20
31.3438553627
 10
17.1468540144
 20
31.3595027671
 10
17.1401440316
 20
31.3749745938
 10
17.1334493631
 20
31.390253542
 10
17.1267765573
 20
31.4053223112
  0
LWPOLYLINE
  5
3A2
100
AcDbEntity
  8
6_SURFACES-PATINS-SPEC
100
AcDbPolyline
 62
7
  6
CONTINUOUS
 90
49
 70
0
 10
24.161124593
 20
18.7898994619
 10
24.157834841
 20
18.7986925191
 10
24.1543254603
 20
18.8074045639
 10
24.1505990723
 20
18.8160291959
 10
24.1466582987
 20
18.8245600149
 10
24.1425057611
 20
18.8329906204
 10
24.138144081
 20
18.8413146121
 10
24.1335818652
 20
18.8495155109
 10
24.1288166012
 20
18.8575989283
 10
24.1238512379
 20
18.8655601106
 10
24.1186887239
 20
18.8733943037
 10
24.113332008
 20
18.8810967539
 10
24.1077840389
 20
18.8886627071
 10
24.1020558295
 20
18.8960774347
 10
24.0961436073
 20
18.903346675
 10
24.0900511525
 20
18.9104658079
 10
24.0837822452
 20
18.9174302132
 10
24.0773406657
 20
18.9242352708
 10
24.0707301941
 20
18.9308763605
 10
24.0639645742
 20
18.9373397965
 10
24.0570387396
 20
18.9436312056
 10
24.0499571135
 20
18.9497466648
 10
24.042724119
 20
18.9556822512
 10
24.0353441791
 20
18.9614340416
 10
24.0278217171
 20
18.9669981132
 10
24.0201716246
 20
18.9723635733
 10
24.0123887804
 20
18.9775346696
 10
24.0044781609
 20
18.9825081656
 10
23.9964447431
 20
18.9872808253
 10
23.9882935037
 20
18.9918494125
 10
23.9800294193
 20
18.9962106909
 10
23.971667045
 20
19.0003570078
 10
23.9632025832
 20
19.0042908428
 10
23.9546415717
 20
19.0080097853
 10
23.9459895486
 20
19.0115114247
 10
23.9372520517
 20
19.0147933504
 10
23.928434619
 20
19.0178531516
 10
23.9195503598
 20
19.0206862527
 10
23.910597319
 20
19.0232936671
 10
23.9015809868
 20
19.0256738626
 10
23.8925068532
 20
19.0278253065
 10
23.8833804083
 20
19.0297464663
 10
23.8742071422
 20
19.0314358096
 10
23.864996358
 20
19.0328914446
 10
23.85575133
 20
19.0341133138
 10
23.8464791135
 20
19.0351008211
 10
23.8371867641
 20
19.0358533702
 10
23.8278813371
 20
19.036370365
 10
23.818569888
 20
19.0366512092
  0
LINE
  5
3A3
100
AcDbEntity
  8
0
100
AcDbLine
 62
7
  6
CONTINUOUS
 10
17.1332189898
 20
31.0575402636
 11
17.1448983791
 21
31.0262138456
  0
LINE
  5
3A4
100
AcDbEntity
  8
0
100
AcDbLine
 62
7
  6
CONTINUOUS
 10
17.1448983791
 20
31.0262138456
 11
17.1570734399
 21
30.9929460543
  0
LINE
  5
3A5
100
AcDbEntity
  8
6_SURFACES-PATINS-SPEC
100
AcDbLine
 62
7
  6
CONTINUOUS
 10
24.7163209639
 20
17.2200705017
 11
24.9624139796
 21
16.5443359576
  0
LINE
  5
3A6
100
AcDbEntity
  8
6_SURFACES-PATINS-SPEC
100
AcDbLine
 62
7
  6
CONTINUOUS
 10
59.3939643403
 20
17.1762710017
 11
59.6241308725
 21
16.5443359576
  0
LINE
  5
3A7
100
AcDbEntity
  8
6_SURFACES-PATINS-SPEC
100
AcDbLine
 62
7
  6
CONTINUOUS
 10
24.1449775671
 20
18.7903348454
 11
24.7163209639
 21
17.2200705017
  0
LINE
  5
3A8
100
AcDbEntity
  8
6_SURFACES-PATINS-SPEC
100
AcDbLine
 62
7
  6
CONTINUOUS
 10
59.136673032
 20
17.8833164363
 11
59.3939643403
 21
17.1762710017
  0
LINE
  5
3A9
100
AcDbEntity
  8
6_SURFACES-PATINS-SPEC
100
AcDbLine
 62
7
  6
CONTINUOUS
 10
58.868270806
 20
18.6210931607
 11
59.136673032
 21
17.8833164363
  0
LINE
  5
3AA
100
AcDbEntity
  8
6_SURFACES-PATINS-SPEC
100
AcDbLine
 62
7
  6
CONTINUOUS
 10
60.1354258002
 20
16.0334103027
 11
60.1353505921
 21
16.0336191512
  0
LINE
  5
3AB
100
AcDbEntity
  8
0
100
AcDbLine
 62
7
  6
CONTINUOUS
 10
17.1570734399
 20
30.9929460543
 11
17.1697230163
 21
30.9577259736
  0
LINE
  5
3AC
100
AcDbEntity
  8
6_SURFACES-PATINS-SPEC
100
AcDbLine
 62
7
  6
CONTINUOUS
 10
24.9774285377
 20
16.5443359576
 11
24.1741661831
 21
18.7896897621
  0
LINE
  5
3AD
100
AcDbEntity
  8
0
100
AcDbLine
 62
7
  6
CONTINUOUS
 10
17.1695462856
 20
30.9576635082
 11
17.16811564
 21
30.9616880249
  0
LINE
  5
3AE
100
AcDbEntity
  8
0
100
AcDbLine
 62
7
  6
CONTINUOUS
 10
17.1697230163
 20
30.9577259736
 11
17.1969119086
 21
30.8798917233
  0
LINE
  5
3AF
100
AcDbEntity
  8
0
100
AcDbLine
 62
7
  6
CONTINUOUS
 10
17.1969119086
 20
30.8798917233
 11
17.2241729799
 21
30.7991487229
  0
LINE
  5
3B0
100
AcDbEntity
  8
0
100
AcDbLine
 62
7
  6
CONTINUOUS
 10
17.2241729799
 20
30.7991487229
 11
17.2525444606
 21
30.712713291
  0
LINE
  5
3B1
100
AcDbEntity
  8
0
100
AcDbLine
 62
7
  6
CONTINUOUS
 10
20.4018902941
 20
20.9919612843
 11
17.4922602339
 21
29.94688182
  0
LINE
  5
3B2
100
AcDbEntity
  8
DEFAULT_3
100
AcDbLine
 62
7
  6
PHANTOM
 10
20.5207723587
 20
21.0305884086
 11
17.6111422984
 21
29.9855089443
  0
LINE
  5
3B3
100
AcDbEntity
  8
0
100
AcDbLine
 62
7
  6
CONTINUOUS
 10
17.2525444606
 20
30.712713291
 11
17.270582299
 21
30.6567101157
  0
LWPOLYLINE
  5
3B4
100
AcDbEntity
  8
DEFAULT_3
100
AcDbPolyline
 62
7
  6
PHANTOM
 90
17
 70
0
 10
17.6111422984
 20
29.9855089443
 10
17.5884018167
 20
30.0561739784
 10
17.5659973083
 20
30.1269819695
 10
17.5438524828
 20
30.1979020962
 10
17.5218910497
 20
30.2689035374
 10
17.5000367185
 20
30.3399554717
 10
17.4782131988
 20
30.4110270779
 10
17.4563442
 20
30.4820875348
 10
17.4343534318
 20
30.553106021
 10
17.4121646036
 20
30.6240517152
 10
17.389701425
 20
30.6948937964
 10
17.3668876055
 20
30.7656014431
 10
17.3436468546
 20
30.8361438341
 10
17.3199028819
 20
30.9064901481
 10
17.2955793969
 20
30.976609564
 10
17.2706001091
 20
31.0464712603
 10
17.2448887281
 20
31.1160444159
  0
LWPOLYLINE
  5
3B5
100
AcDbEntity
  8
0
100
AcDbPolyline
 62
7
  6
CONTINUOUS
 90
10
 70
0
 10
17.4922602339
 20
29.94688182
 10
17.4667805247
 20
30.0261093005
 10
17.4417478209
 20
30.105342557
 10
17.4170602497
 20
30.1845403993
 10
17.3926159386
 20
30.263661637
 10
17.368313015
 20
30.34266508
 10
17.3440496062
 20
30.4215095379
 10
17.3197238397
 20
30.5001538206
 10
17.2952338428
 20
30.5785567378
 10
17.2704777428
 20
30.6566770992
  0
LWPOLYLINE
  5
3B6
100
AcDbEntity
  8
0
100
AcDbPolyline
 62
7
  6
CONTINUOUS
 90
8
 70
0
 10
17.2704783319
 20
30.6566752562
 10
17.2577078954
 20
30.696424142
 10
17.2448280625
 20
30.73608322
 10
17.2318252897
 20
30.7756470141
 10
17.2186860332
 20
30.8151100482
 10
17.2053967491
 20
30.8544668459
 10
17.1919438938
 20
30.8937119313
 10
17.1783139236
 20
30.9328398282
  0
LINE
  5
3B7
100
AcDbEntity
  8
0
100
AcDbLine
 62
7
  6
CONTINUOUS
 10
21.3829944587
 20
21.036119355
 11
21.42945095
 21
20.8895866218
  0
LINE
  5
3B8
100
AcDbEntity
  8
1_CURVES_SPEC
100
AcDbLine
 62
7
  6
PHANTOM
 10
17.5157790799
 20
30.2887463707
 11
17.4817464032
 21
30.3995241275
  0
LINE
  5
3B9
100
AcDbEntity
  8
0
100
AcDbLine
 62
7
  6
CONTINUOUS
 10
38.3922069916
 20
18.7427352941
 11
38.4003936339
 21
18.7132288794
  0
LWPOLYLINE
  5
3BA
100
AcDbEntity
  8
0
100
AcDbPolyline
 62
7
  6
CONTINUOUS
 90
13
 70
0
 10
21.2793169125
 20
21.6574311227
 10
21.280610929
 20
21.6493688838
 10
21.2818492734
 20
21.6412978107
 10
21.2830307444
 20
21.6332177081
 10
21.2841525314
 20
21.6251402459
 10
21.2852150805
 20
21.6170541393
 10
21.2862170603
 20
21.6089599418
 10
21.2871571392
 20
21.600858207
 10
21.2880339856
 20
21.5927494885
 10
21.2888462681
 20
21.5846343399
 10
21.289592655
 20
21.5765133148
 10
21.2902718148
 20
21.5683869668
 10
21.2908824159
 20
21.5602558495
  0
LINE
  5
3BB
100
AcDbEntity
  8
0
100
AcDbLine
 62
7
  6
CONTINUOUS
 10
38.4003936339
 20
18.7132288794
 11
38.4049151225
 21
18.683034339
  0
ARC
  5
3BC
100
AcDbEntity
  8
0
100
AcDbCircle
 62
7
  6
CONTINUOUS
 10
41.0
 20
-200.4427142558
 40
239.2201940978
100
AcDbArc
 50
90.0
 51
97.3658944952
  0
ARC
  5
3BD
100
AcDbEntity
  8
0
100
AcDbCircle
 62
7
  6
CONTINUOUS
 10
46.0142868889
 20
-159.3217506165
 40
188.9818668163
100
AcDbArc
 50
87.5879928532
 51
89.7729037251
  0
ARC
  5
3BE
100
AcDbEntity
  8
0
100
AcDbCircle
 62
7
  6
CONTINUOUS
 10
45.9857131111
 20
-159.3217506165
 40
188.9818668163
100
AcDbArc
 50
90.2270962749
 51
92.4120071468
  0
ARC
  5
3BF
100
AcDbEntity
  8
0
100
AcDbCircle
 62
7
  6
CONTINUOUS
 10
46.0004541048
 20
-156.2896637265
 40
185.9498603649
100
AcDbArc
 50
89.7649385255
 51
90.0001401368
  0
ARC
  5
3C0
100
AcDbEntity
  8
0
100
AcDbCircle
 62
7
  6
CONTINUOUS
 10
45.9995437491
 20
-156.2886160623
 40
185.9488127007
100
AcDbArc
 50
89.9998596285
 51
90.2350621377
  0
ARC
  5
3C1
100
AcDbEntity
  8
0
100
AcDbCircle
 62
7
  6
CONTINUOUS
 10
22.8984136494
 20
21.8031308946
 40
2.625
100
AcDbArc
 50
198.0
 51
269.0
  0
ARC
  5
3C2
100
AcDbEntity
  8
0
100
AcDbCircle
 62
7
  6
CONTINUOUS
 10
23.8658025289
 20
21.7426073966
 40
2.5813689839
100
AcDbArc
 50
184.0508270449
 51
269.0
  0
ARC
  5
3C3
100
AcDbEntity
  8
DEFAULT_3
100
AcDbCircle
 62
7
  6
PHANTOM
 10
22.8984136494
 20
21.8031308946
 40
2.5
100
AcDbArc
 50
198.0
 51
269.0
  0
ARC
  5
3C4
100
AcDbEntity
  8
0
100
AcDbCircle
 62
7
  6
CONTINUOUS
 10
19.6344925869
 20
21.3357685702
 40
1.6797439258
100
AcDbArc
 50
20.3342813196
 51
24.0104319837
  0
ARC
  5
3C5
100
AcDbEntity
  8
0
100
AcDbCircle
 62
7
  6
CONTINUOUS
 10
19.6980175495
 20
21.3669025886
 40
1.6091046331
100
AcDbArc
 50
18.9157607389
 51
19.3926496019
  0
ARC
  5
3C6
100
AcDbEntity
  8
0
100
AcDbCircle
 62
7
  6
CONTINUOUS
 10
19.6998974835
 20
21.3675803781
 40
1.6071063034
100
AcDbArc
 50
19.3921104866
 51
20.0810778009
  0
ARC
  5
3C7
100
AcDbEntity
  8
0
100
AcDbCircle
 62
7
  6
CONTINUOUS
 10
19.733501828
 20
21.3803674869
 40
1.5711544673
100
AcDbArc
 50
20.0638756269
 51
23.9939242371
  0
ARC
  5
3C8
100
AcDbEntity
  8
0
100
AcDbCircle
 62
7
  6
CONTINUOUS
 10
19.7652679826
 20
21.3891505703
 40
1.538273864
100
AcDbArc
 50
14.7142333123
 51
18.943866465
  0
ARC
  5
3C9
100
AcDbEntity
  8
0
100
AcDbCircle
 62
7
  6
CONTINUOUS
 10
19.83268871
 20
21.407634229
 40
1.4683695971
100
AcDbArc
 50
14.2752186475
 51
14.6848615393
  0
ARC
  5
3CA
100
AcDbEntity
  8
0
100
AcDbCircle
 62
7
  6
CONTINUOUS
 10
19.9594412076
 20
21.4384335302
 40
1.3379371546
100
AcDbArc
 50
9.9008685568
 51
14.3354428668
  0
ARC
  5
3CB
100
AcDbEntity
  8
0
100
AcDbCircle
 62
7
  6
CONTINUOUS
 10
20.0726955666
 20
21.4595327097
 40
1.2227423499
100
AcDbArc
 50
9.3141774855
 51
9.839412213
  0
ARC
  5
3CC
100
AcDbEntity
  8
6_SURFACES-PATINS-SPEC
100
AcDbCircle
 62
7
  6
CONTINUOUS
 10
23.7925816114
 20
18.6621082237
 40
0.3750000517
100
AcDbArc
 50
19.9949724518
 51
86.031771391
  0
ARC
  5
3CD
100
AcDbEntity
  8
6_SURFACES-PATINS-SPEC
100
AcDbCircle
 62
7
  6
CONTINUOUS
 10
25.6302184102
 20
16.3414254579
 40
0.3724258068
100
AcDbArc
 50
243.7852249891
 51
245.3720169522
  0
ARC
  5
3CE
100
AcDbEntity
  8
6_SURFACES-PATINS-SPEC
100
AcDbCircle
 62
7
  6
CONTINUOUS
 10
25.3370946244
 20
16.3858646513
 40
0.2405918881
100
AcDbArc
 50
223.468214766
 51
224.8400850462
  0
ARC
  5
3CF
100
AcDbEntity
  8
6_SURFACES-PATINS-SPEC
100
AcDbCircle
 62
7
  6
CONTINUOUS
 10
25.5538418368
 20
16.1677700888
 40
0.1826931682
100
AcDbArc
 50
247.4492672572
 51
248.7859221331
  0
ARC
  5
3D0
100
AcDbEntity
  8
0
100
AcDbCircle
 62
7
  6
CONTINUOUS
 10
10.0028768488
 20
28.4124604213
 40
7.6052093705
100
AcDbArc
 50
19.3538758097
 51
19.5522135741
  0
ARC
  5
3D1
100
AcDbEntity
  8
0
100
AcDbCircle
 62
7
  6
CONTINUOUS
 10
10.582064714
 20
28.6190035927
 40
6.9902959271
100
AcDbArc
 50
19.5806744129
 51
20.1609750216
  0
ARC
  5
3D2
100
AcDbEntity
  8
0
100
AcDbCircle
 62
7
  6
CONTINUOUS
 10
11.058257689
 20
28.7933255225
 40
6.4831986655
100
AcDbArc
 50
20.1652459645
 51
20.4362021159
  0
ARC
  5
3D3
100
AcDbEntity
  8
0
100
AcDbCircle
 62
7
  6
CONTINUOUS
 10
19.068025599
 20
28.2742953861
 40
0.6249189521
100
AcDbArc
 50
204.0032003346
 51
278.3758865463
  0
ARC
  5
3D4
100
AcDbEntity
  8
0
100
AcDbCircle
 62
7
  6
CONTINUOUS
 10
19.0514825258
 20
28.3114208688
 40
0.6249083842
100
AcDbArc
 50
204.0036462052
 51
278.3620641067
  0
ARC
  5
3D5
100
AcDbEntity
  8
DEFAULT_3
100
AcDbCircle
 62
7
  6
PHANTOM
 10
14.1920811069
 20
36.7674595452
 40
0.5
100
AcDbArc
 50
24.0
 51
96.4478308524
  0
ARC
  5
3D6
100
AcDbEntity
  8
0
100
AcDbCircle
 62
7
  6
CONTINUOUS
 10
10.3627597815
 20
36.5554148063
 40
0.25
100
AcDbArc
 50
97.3658944952
 51
175.0
  0
ARC
  5
3D7
100
AcDbEntity
  8
6_SURFACES-PATINS-SPEC
100
AcDbCircle
 62
7
  6
CONTINUOUS
 10
31.49463202
 20
16.8358433551
 40
0.908363699
100
AcDbArc
 50
270.0427841465
 51
291.8445222369
  0
ARC
  5
3D8
100
AcDbEntity
  8
0
100
AcDbCircle
 62
7
  6
CONTINUOUS
 10
39.0813652059
 20
18.1222452838
 40
0.625
100
AcDbArc
 50
185.000010077
 51
266.1026469873
  0
ARC
  5
3D9
100
AcDbEntity
  8
DEFAULT_3
100
AcDbCircle
 62
7
  6
PHANTOM
 10
39.0813652059
 20
18.1222452838
 40
0.5
100
AcDbArc
 50
185.000010049
 51
266.1026469793
  0
ARC
  5
3DA
100
AcDbEntity
  8
6_SURFACES-PATINS-SPEC
100
AcDbCircle
 62
7
  6
CONTINUOUS
 10
33.4841302839
 20
18.4928804983
 40
0.375000052
100
AcDbArc
 50
94.150668558
 51
160.0073001998
  0
ARC
  5
3DB
100
AcDbEntity
  8
DEFAULT_3
100
AcDbCircle
 62
7
  6
PHANTOM
 10
38.1558552569
 20
18.6613733176
 40
0.375
100
AcDbArc
 50
4.9999999644
 51
89.0000000322
  0
ARC
  5
3DC
100
AcDbEntity
  8
0
100
AcDbCircle
 62
7
  6
CONTINUOUS
 10
44.7285533906
 20
17.027479842
 40
0.375
100
AcDbArc
 50
225.0
 51
270.0
  0
ARC
  5
3DD
100
AcDbEntity
  8
0
100
AcDbCircle
 62
7
  6
CONTINUOUS
 10
47.2714466094
 20
17.027479842
 40
0.375
100
AcDbArc
 50
270.0
 51
315.0
  0
ARC
  5
3DE
100
AcDbEntity
  8
6_SURFACES-PATINS-SPEC
100
AcDbCircle
 62
7
  6
CONTINUOUS
 10
31.7348524157
 20
16.2832521465
 40
0.3083812762
100
AcDbArc
 50
294.2001780577
 51
294.6048555366
  0
ARC
  5
3DF
100
AcDbEntity
  8
6_SURFACES-PATINS-SPEC
100
AcDbCircle
 62
7
  6
CONTINUOUS
 10
31.7553026151
 20
16.2375408467
 40
0.2583040867
100
AcDbArc
 50
292.5937163196
 51
294.2190838362
  0
ARC
  5
3E0
100
AcDbEntity
  8
0
100
AcDbCircle
 62
7
  6
CONTINUOUS
 10
38.1558392388
 20
18.6613561402
 40
0.2500146093
100
AcDbArc
 50
5.0025967661
 51
88.9974032339
  0
ARC
  5
3E1
100
AcDbEntity
  8
DEFAULT_3
100
AcDbCircle
 62
7
  6
PHANTOM
 10
44.7285533906
 20
17.027479842
 40
0.25
100
AcDbArc
 50
225.0
 51
270.0
  0
ARC
  5
3E2
100
AcDbEntity
  8
DEFAULT_3
100
AcDbCircle
 62
7
  6
PHANTOM
 10
47.2714466094
 20
17.027479842
 40
0.25
100
AcDbArc
 50
270.0
 51
315.0
  0
ARC
  5
3E3
100
AcDbEntity
  8
DEFAULT_3
100
AcDbCircle
 62
7
  6
PHANTOM
 10
44.0144979578
 20
17.034428502
 40
0.2499999995
100
AcDbArc
 50
45.0000016078
 51
86.1026487998
  0
ARC
  5
3E4
100
AcDbEntity
  8
DEFAULT_3
100
AcDbCircle
 62
7
  6
PHANTOM
 10
47.9855020421
 20
17.034428502
 40
0.2499999995
100
AcDbArc
 50
93.8973512055
 51
134.999998929
  0
ARC
  5
3E5
100
AcDbEntity
  8
6_SURFACES-PATINS-SPEC
100
AcDbCircle
 62
7
  6
CONTINUOUS
 10
32.0123921029
 20
16.3750366656
 40
0.225011708
100
AcDbArc
 50
315.3542881579
 51
316.5702163584
  0
ARC
  5
3E6
100
AcDbEntity
  8
6_SURFACES-PATINS-SPEC
100
AcDbCircle
 62
7
  6
CONTINUOUS
 10
31.7814924787
 20
16.175112522
 40
0.1906050959
100
AcDbArc
 50
291.2425819435
 51
292.5317903541
  0
ARC
  5
3E7
100
AcDbEntity
  8
0
100
AcDbCircle
 62
7
  6
CONTINUOUS
 10
47.9855020421
 20
17.034428502
 40
0.1249999995
100
AcDbArc
 50
93.8973511946
 51
134.9999984016
  0
ARC
  5
3E8
100
AcDbEntity
  8
0
100
AcDbCircle
 62
7
  6
CONTINUOUS
 10
44.0144979578
 20
17.034428502
 40
0.1249999995
100
AcDbArc
 50
45.0000015984
 51
86.1026488054
  0
ARC
  5
3E9
100
AcDbEntity
  8
0
100
AcDbCircle
 62
7
  6
CONTINUOUS
 10
51.0
 20
-200.4427142558
 40
239.2201940978
100
AcDbArc
 50
82.6341055048
 51
90.0
  0
ARC
  5
3EA
100
AcDbEntity
  8
0
100
AcDbCircle
 62
7
  6
CONTINUOUS
 10
91.2687065164
 20
25.3722505418
 40
17.3628851289
100
AcDbArc
 50
162.2808248889
 51
162.5851381343
  0
ARC
  5
3EB
100
AcDbEntity
  8
0
100
AcDbCircle
 62
7
  6
CONTINUOUS
 10
87.3645801781
 20
26.6192127601
 40
13.2644565269
100
AcDbArc
 50
161.9295586171
 51
162.279001097
  0
ARC
  5
3EC
100
AcDbEntity
  8
0
100
AcDbCircle
 62
7
  6
CONTINUOUS
 10
83.7217254432
 20
27.8144427645
 40
9.4305408636
100
AcDbArc
 50
160.6905524511
 51
161.967917979
  0
ARC
  5
3ED
100
AcDbEntity
  8
0
100
AcDbCircle
 62
7
  6
CONTINUOUS
 10
81.9971231502
 20
28.4124604216
 40
7.6052093696
100
AcDbArc
 50
160.4477864246
 51
160.6461241903
  0
ARC
  5
3EE
100
AcDbEntity
  8
0
100
AcDbCircle
 62
7
  6
CONTINUOUS
 10
81.4179352856
 20
28.6190035928
 40
6.9902959268
100
AcDbArc
 50
159.8390249784
 51
160.4193255871
  0
ARC
  5
3EF
100
AcDbEntity
  8
0
100
AcDbCircle
 62
7
  6
CONTINUOUS
 10
80.9401562113
 20
28.7939108576
 40
6.4815080082
100
AcDbArc
 50
159.560540972
 51
159.8347777364
  0
ARC
  5
3F0
100
AcDbEntity
  8
0
100
AcDbCircle
 62
7
  6
CONTINUOUS
 10
69.1015863505
 20
21.8031308946
 40
2.625
100
AcDbArc
 50
271.0
 51
342.0
  0
ARC
  5
3F1
100
AcDbEntity
  8
0
100
AcDbCircle
 62
7
  6
CONTINUOUS
 10
68.134197471
 20
21.7426073966
 40
2.5813689839
100
AcDbArc
 50
271.0
 51
355.9491729551
  0
ARC
  5
3F2
100
AcDbEntity
  8
DEFAULT_3
100
AcDbCircle
 62
7
  6
PHANTOM
 10
69.1015863505
 20
21.8031308946
 40
2.5
100
AcDbArc
 50
271.0
 51
342.0
  0
ARC
  5
3F3
100
AcDbEntity
  8
0
100
AcDbCircle
 62
7
  6
CONTINUOUS
 10
72.365507413
 20
21.3357685702
 40
1.6797439258
100
AcDbArc
 50
155.9895680163
 51
159.6657186805
  0
ARC
  5
3F4
100
AcDbEntity
  8
0
100
AcDbCircle
 62
7
  6
CONTINUOUS
 10
72.3019824503
 20
21.3669025886
 40
1.6091046328
100
AcDbArc
 50
160.6073503981
 51
161.0842392612
  0
ARC
  5
3F5
100
AcDbEntity
  8
0
100
AcDbCircle
 62
7
  6
CONTINUOUS
 10
72.3001025162
 20
21.3675803782
 40
1.6071063031
100
AcDbArc
 50
159.9189221991
 51
160.6078895135
  0
ARC
  5
3F6
100
AcDbEntity
  8
0
100
AcDbCircle
 62
7
  6
CONTINUOUS
 10
72.266498172
 20
21.3803674869
 40
1.5711544673
100
AcDbArc
 50
156.0060757629
 51
159.936124373
  0
ARC
  5
3F7
100
AcDbEntity
  8
0
100
AcDbCircle
 62
7
  6
CONTINUOUS
 10
72.2347320173
 20
21.3891505703
 40
1.538273864
100
AcDbArc
 50
161.056133535
 51
165.2857666877
  0
ARC
  5
3F8
100
AcDbEntity
  8
0
100
AcDbCircle
 62
7
  6
CONTINUOUS
 10
72.1673112892
 20
21.4076342292
 40
1.4683695963
100
AcDbArc
 50
165.3151384607
 51
165.7247813527
  0
ARC
  5
3F9
100
AcDbEntity
  8
0
100
AcDbCircle
 62
7
  6
CONTINUOUS
 10
72.0405587923
 20
21.4384335302
 40
1.3379371546
100
AcDbArc
 50
165.6645571332
 51
170.0991314432
  0
ARC
  5
3FA
100
AcDbEntity
  8
0
100
AcDbCircle
 62
7
  6
CONTINUOUS
 10
71.9273044326
 20
21.4595327098
 40
1.2227423491
100
AcDbArc
 50
170.1605877868
 51
170.6858225147
  0
ARC
  5
3FB
100
AcDbEntity
  8
6_SURFACES-PATINS-SPEC
100
AcDbCircle
 62
7
  6
CONTINUOUS
 10
60.5053679799
 20
16.8358433551
 40
0.908363699
100
AcDbArc
 50
248.1554777631
 51
269.9572158535
  0
ARC
  5
3FC
100
AcDbEntity
  8
0
100
AcDbCircle
 62
7
  6
CONTINUOUS
 10
52.918634794
 20
18.1222452838
 40
0.625
100
AcDbArc
 50
273.8973530127
 51
354.999989923
  0
ARC
  5
3FD
100
AcDbEntity
  8
0
100
AcDbCircle
 62
7
  6
CONTINUOUS
 10
72.9319744009
 20
28.2742953861
 40
0.6249189521
100
AcDbArc
 50
261.6241134537
 51
335.9967996654
  0
ARC
  5
3FE
100
AcDbEntity
  8
0
100
AcDbCircle
 62
7
  6
CONTINUOUS
 10
72.9485174741
 20
28.3114208688
 40
0.6249083842
100
AcDbArc
 50
261.6379358929
 51
335.9963537944
  0
ARC
  5
3FF
100
AcDbEntity
  8
DEFAULT_3
100
AcDbCircle
 62
7
  6
PHANTOM
 10
52.918634794
 20
18.1222452838
 40
0.5
100
AcDbArc
 50
273.8973529141
 51
354.9999902471
  0
ARC
  5
400
100
AcDbEntity
  8
DEFAULT_3
100
AcDbCircle
 62
7
  6
PHANTOM
 10
77.807918893
 20
36.7674595452
 40
0.5
100
AcDbArc
 50
83.5521691476
 51
156.0
  0
ARC
  5
401
100
AcDbEntity
  8
6_SURFACES-PATINS-SPEC
100
AcDbCircle
 62
7
  6
CONTINUOUS
 10
60.3019894382
 20
16.3625885351
 40
0.3958536673
100
AcDbArc
 50
243.7864980708
 51
245.3263142177
  0
ARC
  5
402
100
AcDbEntity
  8
6_SURFACES-PATINS-SPEC
100
AcDbCircle
 62
7
  6
CONTINUOUS
 10
58.515869716
 20
18.4928804983
 40
0.375000052
100
AcDbArc
 50
19.9926998002
 51
87.5088496884
  0
ARC
  5
403
100
AcDbEntity
  8
6_SURFACES-PATINS-SPEC
100
AcDbCircle
 62
7
  6
CONTINUOUS
 10
68.2074183885
 20
18.6621082237
 40
0.3750000517
100
AcDbArc
 50
93.9682286198
 51
160.0050275482
  0
ARC
  5
404
100
AcDbEntity
  8
DEFAULT_3
100
AcDbCircle
 62
7
  6
PHANTOM
 10
53.844144743
 20
18.6613733176
 40
0.375
100
AcDbArc
 50
90.9999999644
 51
175.0000000322
  0
ARC
  5
405
100
AcDbEntity
  8
6_SURFACES-PATINS-SPEC
100
AcDbCircle
 62
7
  6
CONTINUOUS
 10
66.3963545764
 20
16.2837270945
 40
0.3089025093
100
AcDbArc
 50
294.1998409303
 51
294.6214791098
  0
ARC
  5
406
100
AcDbEntity
  8
0
100
AcDbCircle
 62
7
  6
CONTINUOUS
 10
53.8441607612
 20
18.6613561402
 40
0.2500146093
100
AcDbArc
 50
91.0025967661
 51
174.9974032339
  0
ARC
  5
407
100
AcDbEntity
  8
0
100
AcDbCircle
 62
7
  6
CONTINUOUS
 10
81.6372402185
 20
36.5554148063
 40
0.25
100
AcDbArc
 50
5.0
 51
82.6341055048
  0
ARC
  5
408
100
AcDbEntity
  8
6_SURFACES-PATINS-SPEC
100
AcDbCircle
 62
7
  6
CONTINUOUS
 10
66.422616459
 20
16.2246107323
 40
0.2442160941
100
AcDbArc
 50
292.5468589174
 51
294.265294478
  0
ARC
  5
409
100
AcDbEntity
  8
6_SURFACES-PATINS-SPEC
100
AcDbCircle
 62
7
  6
CONTINUOUS
 10
66.6673159242
 20
16.3816047189
 40
0.234460283
100
AcDbArc
 50
315.3685934962
 51
316.5458185982
  0
ARC
  5
40A
100
AcDbEntity
  8
6_SURFACES-PATINS-SPEC
100
AcDbCircle
 62
7
  6
CONTINUOUS
 10
59.9906318346
 20
16.3779257636
 40
0.229193899
100
AcDbArc
 50
223.4345988391
 51
224.8603559595
  0
ARC
  5
40B
100
AcDbEntity
  8
6_SURFACES-PATINS-SPEC
100
AcDbCircle
 62
7
  6
CONTINUOUS
 10
60.218440982
 20
16.1749460827
 40
0.190425857
100
AcDbArc
 50
247.4763295207
 51
248.7579338754
  0
ARC
  5
40C
100
AcDbEntity
  8
6_SURFACES-PATINS-SPEC
100
AcDbCircle
 62
7
  6
CONTINUOUS
 10
66.4461119483
 20
16.1678875362
 40
0.1828193798
100
AcDbArc
 50
291.2142610059
 51
292.5593148988
  0
ENDSEC
  0
SECTION
  2
OBJECTS
  0
DICTIONARY
  5
40D
100
AcDbDictionary
  3
ACAD_GROUP
350
40E
  3
ACAD_MLINESTYLE
350
40F
  0
DICTIONARY
  5
40E
102
{ACAD_REACTORS
330
40D
102
}
100
AcDbDictionary
  0
DICTIONARY
  5
40F
102
{ACAD_REACTORS
330
40D
102
}
100
AcDbDictionary
  3
STANDARD
350
410
  0
MLINESTYLE
  5
410
102
{ACAD_REACTORS
330
40F
102
}
100
AcDbMlineStyle
  2
STANDARD
 70
0
  3

 62
256
 51
90.0
 52
90.0
 71
2
 49
0.5
 62
256
  6
BYLAYER
 49
-0.5
 62
256
  6
BYLAYER
  0
ENDSEC
  0
EOF
